999
DXF file: E:\BT Custom\CADOUTPUT\_FRONT.dxf
999
Pro/ENGINEER 2018400 by Parametric Technology Corporation
  0
SECTION
  2
HEADER
  9
$ACADVER
  1
AC1018
  9
$DWGCODEPAGE
  3
ANSI_1252
  9
$EXTMAX
 10
22.0
 20
17.0
 30
0.0
  9
$EXTMIN
 10
0.0
 20
0.0
 30
0.0
  9
$LIMMIN
 10
0.0
 20
0.0
  9
$LIMMAX
 10
22.0
 20
17.0
  9
$VIEWCTR
 10
11.0
 20
8.5
  9
$VIEWSIZE
 40
17.0
  9
$CLAYER
  8
0
  9
$LTSCALE
 40
1.21
  9
$CELTYPE
  6
BYLAYER
  9
$DIMSCALE
 40
1.0
  9
$DIMASZ
 40
0.1
  9
$DIMEXO
 40
0.0625
  9
$DIMDLI
 40
0.836
  9
$DIMEXE
 40
0.125
  9
$DIMCEN
 40
0.198
  9
$DIMLFAC
 40
1.0
  9
$DIMBLK
  1
_FILLED
  9
$DIMALT
 70
1
  9
$DIMALTD
 70
2
  9
$DIMALTTD
 70
2
  9
$DIMALTF
 40
25.4
  9
$DIMTXT
 40
0.08
  9
$DIMTOL
 70
1
  9
$DIMLIM
 70
0
  9
$DIMTFAC
 40
1.0
  9
$DIMTP
 40
0.001
  9
$DIMTM
 40
0.001
  9
$DIMGAP
 40
0.09
  9
$DIMDSEP
 70
46
  9
$AUNITS
 70
0
  9
$PDMODE
 70
3
  9
$PDSIZE
 40
0.06
  9
$HANDSEED
  5
4B7
  9
$TILEMODE
 70
1
  9
$MEASUREMENT
 70
0
  9
$INSUNITS
 70
1
  0
ENDSEC
  0
SECTION
  2
CLASSES
  0
CLASS
  1
ACDBDICTIONARYWDFLT
  2
AcDbDictionaryWithDefault
  3
AutoCAD 2000
 90
0
 91
1
280
0
281
0
  0
CLASS
  1
ACDBPLACEHOLDER
  2
AcDbPlaceHolder
  3
AutoCAD 2000
 90
0
 91
1
280
0
281
0
  0
CLASS
  1
LAYOUT
  2
AcDbLayout
  3
AutoCAD 2000
 90
0
 91
0
280
0
281
0
  0
ENDSEC
  0
SECTION
  2
TABLES
  0
TABLE
  2
VPORT
  5
8
100
AcDbSymbolTable
 70
2
  0
VPORT
  5
1F4
100
AcDbSymbolTableRecord
100
AcDbViewportTableRecord
  2
*ACTIVE
 70
0
 10
0.0
 20
0.0
 11
1.0
 21
1.0
 12
11.0
 22
8.5
 13
0.0
 23
0.0
 14
1.0
 24
1.0
 15
0.0
 25
0.0
 16
0.0
 26
0.0
 36
1.0
 17
0.0
 27
0.0
 37
0.0
 40
17.0
 41
1.2941176471
 42
50.0
 43
0.0
 44
0.0
 50
0.0
 51
0.0
 71
0
 72
100
 73
1
 74
1
 75
0
 76
0
 77
0
 78
0
  0
ENDTAB
  0
TABLE
  2
LTYPE
  5
5
100
AcDbSymbolTable
 70
6
  0
LTYPE
  5
14
100
AcDbSymbolTableRecord
100
AcDbLinetypeTableRecord
  2
BYBLOCK
 70
0
  3

 72
65
 73
0
 40
0.0
  0
LTYPE
  5
15
100
AcDbSymbolTableRecord
100
AcDbLinetypeTableRecord
  2
BYLAYER
 70
0
  3

 72
65
 73
0
 40
0.0
  0
LTYPE
  5
16
100
AcDbSymbolTableRecord
100
AcDbLinetypeTableRecord
  2
CONTINUOUS
 70
64
  3
Solid line
 72
65
 73
0
 40
0.0
  0
LTYPE
  5
1F5
100
AcDbSymbolTableRecord
100
AcDbLinetypeTableRecord
  2
CENTER
 70
64
  3
____ _ ____ _ ____ _ ____ _ ____ _ ____ _ ____
 72
65
 73
4
 40
0.6
 49
0.375
 74
0
 49
-0.075
 74
0
 49
0.075
 74
0
 49
-0.075
 74
0
  0
LTYPE
  5
1F6
100
AcDbSymbolTableRecord
100
AcDbLinetypeTableRecord
  2
HIDDEN
 70
64
  3
- - - - - - - - - - - - - - - - - - - -
 72
65
 73
2
 40
0.2
 49
0.1
 74
0
 49
-0.1
 74
0
  0
LTYPE
  5
1F7
100
AcDbSymbolTableRecord
100
AcDbLinetypeTableRecord
  2
PHANTOM
 70
64
  3
_____ _ _ _____ _ _ _____ _ _ _____
 72
65
 73
6
 40
0.8
 49
0.45
 74
0
 49
-0.05
 74
0
 49
0.1
 74
0
 49
-0.05
 74
0
 49
0.1
 74
0
 49
-0.05
 74
0
  0
LTYPE
  5
1F8
100
AcDbSymbolTableRecord
100
AcDbLinetypeTableRecord
  2
DOT
 70
64
  3
. . . . . . . . . . . . . . . . . . . .
 72
65
 73
2
 40
0.2
 49
0.1
 74
0
 49
-0.1
 74
0
  0
LTYPE
  5
1F9
100
AcDbSymbolTableRecord
100
AcDbLinetypeTableRecord
  2
DASHED
 70
64
  3
- - - - - - - - - - - - - - - - - - - -
 72
65
 73
2
 40
0.2
 49
0.1
 74
0
 49
-0.1
 74
0
  0
ENDTAB
  0
TABLE
  2
LAYER
  5
2
100
AcDbSymbolTable
 70
36
  0
LAYER
  5
10
100
AcDbSymbolTableRecord
100
AcDbLayerTableRecord
  2
0
 70
0
 62
7
  6
CONTINUOUS
370
-3
390
F
  0
LAYER
  5
1FA
100
AcDbSymbolTableRecord
100
AcDbLayerTableRecord
  2
DEFAULT_1
 70
0
 62
7
  6
CENTER
370
-3
390
F
  0
LAYER
  5
1FB
100
AcDbSymbolTableRecord
100
AcDbLayerTableRecord
  2
DEFAULT_2
 70
0
 62
8
  6
HIDDEN
370
-3
390
F
  0
LAYER
  5
1FC
100
AcDbSymbolTableRecord
100
AcDbLayerTableRecord
  2
DEFAULT_3
 70
0
 62
7
  6
PHANTOM
370
-3
390
F
  0
LAYER
  5
1FD
100
AcDbSymbolTableRecord
100
AcDbLayerTableRecord
  2
ALL_FEATURES
 70
0
 62
7
  6
CONTINUOUS
370
-3
390
F
  0
LAYER
  5
1FE
100
AcDbSymbolTableRecord
100
AcDbLayerTableRecord
  2
AXES_FEATURES
 70
0
 62
7
  6
CONTINUOUS
370
-3
390
F
  0
LAYER
  5
1FF
100
AcDbSymbolTableRecord
100
AcDbLayerTableRecord
  2
DEFAULT_COORDINATE_SYSTEM
 70
0
 62
7
  6
CONTINUOUS
370
-3
390
F
  0
LAYER
  5
200
100
AcDbSymbolTableRecord
100
AcDbLayerTableRecord
  2
DEFAULT_DATUM_AXES
 70
0
 62
7
  6
CONTINUOUS
370
-3
390
F
  0
LAYER
  5
201
100
AcDbSymbolTableRecord
100
AcDbLayerTableRecord
  2
DEFAULT_DATUM_PLANES
 70
0
 62
7
  6
CONTINUOUS
370
-3
390
F
  0
LAYER
  5
202
100
AcDbSymbolTableRecord
100
AcDbLayerTableRecord
  2
DIMENSIONS
 70
0
 62
7
  6
CONTINUOUS
370
-3
390
F
  0
ENDTAB
  0
TABLE
  2
STYLE
  5
3
100
AcDbSymbolTable
 70
1
  0
STYLE
  5
11
100
AcDbSymbolTableRecord
100
AcDbTextStyleTableRecord
  2
STANDARD
 70
0
 40
0.0
 41
0.8
 50
0.0
 71
0
 42
0.2
  3
txt
  4

  0
STYLE
  5
203
100
AcDbSymbolTableRecord
100
AcDbTextStyleTableRecord
  2
TEXTSTYLE_1
 70
0
 40
0.0
 41
0.8
 50
0.0
 71
0
 42
0.2
  3
gdt
  4

  0
ENDTAB
  0
TABLE
  2
VIEW
  5
6
100
AcDbSymbolTable
 70
0
  0
ENDTAB
  0
TABLE
  2
UCS
  5
7
100
AcDbSymbolTable
 70
0
  0
ENDTAB
  0
TABLE
  2
APPID
  5
9
100
AcDbSymbolTable
 70
1
  0
APPID
  5
204
100
AcDbSymbolTableRecord
100
AcDbRegAppTableRecord
  2
ACAD
 70
0
  0
ENDTAB
  0
TABLE
  2
BLOCK_RECORD
  5
1
100
AcDbSymbolTable
 70
0
  0
BLOCK_RECORD
  5
205
100
AcDbSymbolTableRecord
100
AcDbBlockTableRecord
  2
*Model_Space
  0
BLOCK_RECORD
  5
206
100
AcDbSymbolTableRecord
100
AcDbBlockTableRecord
  2
*Paper_Space
  0
BLOCK_RECORD
  5
207
100
AcDbSymbolTableRecord
100
AcDbBlockTableRecord
  2
_FILLED
  0
ENDTAB
  0
TABLE
  2
DIMSTYLE
  5
A
100
AcDbSymbolTable
 70
1
100
AcDbDimStyleTable
 71
0
  0
DIMSTYLE
105
208
100
AcDbSymbolTableRecord
100
AcDbDimStyleTableRecord
  2
STANDARD
 70
0
  3

  4

 40
1.0
 41
0.1
 42
0.0625
 43
0.38
 44
0.125
 45
0.0
 46
0.0
 47
0.001
 48
0.001
140
0.08
141
0.09
142
0.0
143
25.4
144
1.0
145
0.0
146
1.0
147
0.09
 71
1.0
 72
0.0
 73
1
 74
1
 75
0
 76
0
 77
0
 78
4
 79
1
170
1
171
2
172
0
173
0
174
0
175
0
176
0
177
0
178
0
270
2
179
3
271
3
272
3
273
2
274
2
275
0
280
0
281
0
282
0
283
1
284
4
285
0
286
0
287
3
288
0
340
11
278
46
341
207
342
207
343
207
344
207
  0
ENDTAB
  0
ENDSEC
  0
SECTION
  2
BLOCKS
  0
BLOCK
  5
20
100
AcDbEntity
  8
0
100
AcDbBlockBegin
  2
*Model_Space
 70
0
 10
0.0
 20
0.0
 30
0.0
  3
*Model_Space
  1

  0
ENDBLK
  5
21
100
AcDbEntity
  8
0
100
AcDbBlockEnd
  0
BLOCK
  5
1C
100
AcDbEntity
  8
0
100
AcDbBlockBegin
  2
*Paper_Space
 70
0
 10
0.0
 20
0.0
 30
0.0
  3
*Paper_Space
  1

  0
ENDBLK
  5
1D
100
AcDbEntity
  8
0
100
AcDbBlockEnd
  0
BLOCK
  5
209
100
AcDbEntity
  8
0
100
AcDbBlockBegin
  2
_FILLED
 70
64
 10
0.0
 20
0.0
  3
_FILLED
  1

  0
SOLID
  5
20A
100
AcDbEntity
  8
0
  6
BYBLOCK
 62
0
100
AcDbTrace
 10
0.0
 20
0.0
 11
-1.0
 21
0.2
 12
-1.0
 22
-0.2
 13
-1.0
 23
-0.2
  0
ENDBLK
  5
20B
100
AcDbEntity
  8
0
  6
BYBLOCK
 62
0
100
AcDbBlockEnd
  0
ENDSEC
  0
SECTION
  2
ENTITIES
  0
LINE
  5
20C
100
AcDbEntity
  8
0
100
AcDbLine
 62
7
  6
CONTINUOUS
 10
11.1962642186
 20
6.4176695021
 11
10.6791204669
 21
6.4176695021
  0
LINE
  5
20D
100
AcDbEntity
  8
0
100
AcDbLine
 62
7
  6
CONTINUOUS
 10
10.8929951596
 20
11.5466588678
 11
10.9092486885
 21
11.5514461013
  0
LINE
  5
20E
100
AcDbEntity
  8
0
100
AcDbLine
 62
7
  6
CONTINUOUS
 10
10.8808050188
 20
11.5370844009
 11
10.8929951596
 21
11.5466588678
  0
LINE
  5
20F
100
AcDbEntity
  8
0
100
AcDbLine
 62
7
  6
CONTINUOUS
 10
10.8889317716
 20
11.5753822687
 11
10.872678266
 21
11.5658078017
  0
LINE
  5
210
100
AcDbEntity
  8
0
100
AcDbLine
 62
7
  6
CONTINUOUS
 10
10.9580092519
 20
11.3886801398
 11
10.941755723
 21
11.3838929063
  0
LINE
  5
211
100
AcDbEntity
  8
0
100
AcDbLine
 62
7
  6
CONTINUOUS
 10
12.7168073007
 20
7.6551695021
 11
12.7368875299
 21
7.659956736
  0
LINE
  5
212
100
AcDbEntity
  8
0
100
AcDbLine
 62
7
  6
CONTINUOUS
 10
12.3473313725
 20
7.6551695021
 11
12.3674116017
 21
7.659956736
  0
LINE
  5
213
100
AcDbEntity
  8
0
100
AcDbLine
 62
7
  6
CONTINUOUS
 10
12.1625934084
 20
7.6551695021
 11
12.1826736262
 21
7.659956736
  0
LINE
  5
214
100
AcDbEntity
  8
0
100
AcDbLine
 62
7
  6
CONTINUOUS
 10
10.872678266
 20
11.5658078017
 11
10.8564247371
 21
11.5466588678
  0
LINE
  5
215
100
AcDbEntity
  8
0
100
AcDbLine
 62
7
  6
CONTINUOUS
 10
10.9701993927
 20
11.3982546101
 11
10.9580092519
 21
11.3886801398
  0
LINE
  5
216
100
AcDbEntity
  8
0
100
AcDbLine
 62
7
  6
CONTINUOUS
 10
10.9620726167
 20
11.359956736
 11
10.9783261456
 21
11.3695312042
  0
LINE
  5
217
100
AcDbEntity
  8
0
100
AcDbLine
 62
7
  6
CONTINUOUS
 10
12.3152030379
 20
7.8801695021
 11
12.2951228317
 21
7.8753822687
  0
LINE
  5
218
100
AcDbEntity
  8
0
100
AcDbLine
 62
7
  6
CONTINUOUS
 10
12.1264490291
 20
7.8801695021
 11
12.1063688143
 21
7.8753822687
  0
LINE
  5
219
100
AcDbEntity
  8
0
100
AcDbLine
 62
7
  6
CONTINUOUS
 10
12.1264490291
 20
7.6551695021
 11
12.1625934084
 21
7.6551695021
  0
LINE
  5
21A
100
AcDbEntity
  8
0
100
AcDbLine
 62
7
  6
CONTINUOUS
 10
12.3152030379
 20
7.6551695021
 11
12.3473313725
 21
7.6551695021
  0
LINE
  5
21B
100
AcDbEntity
  8
0
100
AcDbLine
 62
7
  6
CONTINUOUS
 10
12.4437163992
 20
7.6551695021
 11
12.5882939623
 21
7.6551695021
  0
LINE
  5
21C
100
AcDbEntity
  8
0
100
AcDbLine
 62
7
  6
CONTINUOUS
 10
12.6204222739
 20
7.6551695021
 11
12.7168073007
 21
7.6551695021
  0
LINE
  5
21D
100
AcDbEntity
  8
0
100
AcDbLine
 62
7
  6
CONTINUOUS
 10
12.7168073007
 20
7.6838929063
 11
12.6445185306
 21
7.6838929063
  0
LINE
  5
21E
100
AcDbEntity
  8
0
100
AcDbLine
 62
7
  6
CONTINUOUS
 10
12.5882939623
 20
7.6838929063
 11
12.4678126789
 21
7.6838929063
  0
LINE
  5
21F
100
AcDbEntity
  8
0
100
AcDbLine
 62
7
  6
CONTINUOUS
 10
12.3473313725
 20
7.6838929063
 11
12.3152030379
 21
7.6838929063
  0
LINE
  5
220
100
AcDbEntity
  8
0
100
AcDbLine
 62
7
  6
CONTINUOUS
 10
12.1625934084
 20
7.6838929063
 11
12.1264490291
 21
7.6838929063
  0
LINE
  5
221
100
AcDbEntity
  8
0
100
AcDbLine
 62
7
  6
CONTINUOUS
 10
12.2188180112
 20
7.7126163105
 11
12.1947217545
 21
7.7126163105
  0
LINE
  5
222
100
AcDbEntity
  8
0
100
AcDbLine
 62
7
  6
CONTINUOUS
 10
10.9783261456
 20
11.3695312042
 11
10.9945796744
 21
11.3886801398
  0
LINE
  5
223
100
AcDbEntity
  8
0
100
AcDbLine
 62
7
  6
CONTINUOUS
 10
12.1947217545
 20
7.8227226871
 11
12.2188180112
 21
7.8227226871
  0
LINE
  5
224
100
AcDbEntity
  8
0
100
AcDbLine
 62
7
  6
CONTINUOUS
 10
12.1264490291
 20
7.8514461013
 11
12.1625934084
 21
7.8514461013
  0
LINE
  5
225
100
AcDbEntity
  8
0
100
AcDbLine
 62
7
  6
CONTINUOUS
 10
12.3152030379
 20
7.8514461013
 11
12.3473313725
 21
7.8514461013
  0
LINE
  5
226
100
AcDbEntity
  8
0
100
AcDbLine
 62
7
  6
CONTINUOUS
 10
12.6445185306
 20
7.8514461013
 11
12.7168073007
 21
7.8514461013
  0
LINE
  5
227
100
AcDbEntity
  8
0
100
AcDbLine
 62
7
  6
CONTINUOUS
 10
12.7168073007
 20
7.8801695021
 11
12.6204222739
 21
7.8801695021
  0
LINE
  5
228
100
AcDbEntity
  8
0
100
AcDbLine
 62
7
  6
CONTINUOUS
 10
12.4678126789
 20
7.8801695021
 11
12.4437163992
 21
7.8801695021
  0
LINE
  5
229
100
AcDbEntity
  8
0
100
AcDbLine
 62
7
  6
CONTINUOUS
 10
12.3473313725
 20
7.8801695021
 11
12.3152030379
 21
7.8801695021
  0
LINE
  5
22A
100
AcDbEntity
  8
0
100
AcDbLine
 62
7
  6
CONTINUOUS
 10
12.1625934084
 20
7.8801695021
 11
12.1264490291
 21
7.8801695021
  0
LINE
  5
22B
100
AcDbEntity
  8
0
100
AcDbLine
 62
7
  6
CONTINUOUS
 10
12.1063688143
 20
7.659956736
 11
12.1264490291
 21
7.6551695021
  0
LINE
  5
22C
100
AcDbEntity
  8
0
100
AcDbLine
 62
7
  6
CONTINUOUS
 10
12.2951228317
 20
7.659956736
 11
12.3152030379
 21
7.6551695021
  0
LINE
  5
22D
100
AcDbEntity
  8
0
100
AcDbLine
 62
7
  6
CONTINUOUS
 10
10.8564247371
 20
11.5466588678
 11
10.8482979843
 21
11.527509934
  0
LINE
  5
22E
100
AcDbEntity
  8
0
100
AcDbLine
 62
7
  6
CONTINUOUS
 10
10.872678266
 20
11.5227226871
 11
10.8808050188
 21
11.5370844009
  0
LINE
  5
22F
100
AcDbEntity
  8
0
100
AcDbLine
 62
7
  6
CONTINUOUS
 10
10.9783261456
 20
11.4126163105
 11
10.9701993927
 21
11.3982546101
  0
LINE
  5
230
100
AcDbEntity
  8
0
100
AcDbLine
 62
7
  6
CONTINUOUS
 10
12.5691777796
 20
10.7892120528
 11
12.5555758379
 21
10.7844248193
  0
LINE
  5
231
100
AcDbEntity
  8
0
100
AcDbLine
 62
7
  6
CONTINUOUS
 10
12.1826736262
 20
7.8753822687
 11
12.1625934084
 21
7.8801695021
  0
LINE
  5
232
100
AcDbEntity
  8
0
100
AcDbLine
 62
7
  6
CONTINUOUS
 10
12.3674116017
 20
7.8753822687
 11
12.3473313725
 21
7.8801695021
  0
LINE
  5
233
100
AcDbEntity
  8
0
100
AcDbLine
 62
7
  6
CONTINUOUS
 10
12.7368875299
 20
7.8753822687
 11
12.7168073007
 21
7.8801695021
  0
LINE
  5
234
100
AcDbEntity
  8
0
100
AcDbLine
 62
7
  6
CONTINUOUS
 10
12.1264490291
 20
7.6838929063
 11
12.1103848561
 21
7.6886801398
  0
LINE
  5
235
100
AcDbEntity
  8
0
100
AcDbLine
 62
7
  6
CONTINUOUS
 10
12.3152030379
 20
7.6838929063
 11
12.2991388591
 21
7.6886801398
  0
LINE
  5
236
100
AcDbEntity
  8
0
100
AcDbLine
 62
7
  6
CONTINUOUS
 10
12.1625934084
 20
7.8514461013
 11
12.1786575872
 21
7.8466588678
  0
LINE
  5
237
100
AcDbEntity
  8
0
100
AcDbLine
 62
7
  6
CONTINUOUS
 10
12.3473313725
 20
7.8514461013
 11
12.3633955513
 21
7.8466588678
  0
LINE
  5
238
100
AcDbEntity
  8
0
100
AcDbLine
 62
7
  6
CONTINUOUS
 10
10.1627556842
 20
8.2868671901
 11
10.1605383007
 21
8.3079641854
  0
LINE
  5
239
100
AcDbEntity
  8
0
100
AcDbLine
 62
7
  6
CONTINUOUS
 10
9.977987026
 20
10.0448235442
 11
9.9757696424
 21
10.0659205395
  0
LINE
  5
23A
100
AcDbEntity
  8
0
100
AcDbLine
 62
7
  6
CONTINUOUS
 10
10.1289982476
 20
8.3145095677
 11
10.1275184894
 21
8.3356710969
  0
LINE
  5
23B
100
AcDbEntity
  8
0
100
AcDbLine
 62
7
  6
CONTINUOUS
 10
10.0056939375
 20
10.0778433555
 11
10.0042141792
 21
10.0990048846
  0
LINE
  5
23C
100
AcDbEntity
  8
0
100
AcDbLine
 62
7
  6
CONTINUOUS
 10
10.0962260802
 20
8.3433132239
 11
10.0954857501
 21
8.3645135048
  0
LINE
  5
23D
100
AcDbEntity
  8
0
100
AcDbLine
 62
7
  6
CONTINUOUS
 10
10.0345363454
 20
10.1098760948
 11
10.0337960153
 21
10.1310763757
  0
LINE
  5
23E
100
AcDbEntity
  8
0
100
AcDbLine
 62
7
  6
CONTINUOUS
 10
10.0644791099
 20
8.3732430658
 11
10.0644791099
 21
8.3944562693
  0
LINE
  5
23F
100
AcDbEntity
  8
0
100
AcDbLine
 62
7
  6
CONTINUOUS
 10
10.0644791099
 20
10.140882735
 11
10.0644791099
 21
10.1620959384
  0
LINE
  5
240
100
AcDbEntity
  8
0
100
AcDbLine
 62
7
  6
CONTINUOUS
 10
10.0337960153
 20
8.4042626286
 11
10.0345363454
 21
8.4254629095
  0
LINE
  5
241
100
AcDbEntity
  8
0
100
AcDbLine
 62
7
  6
CONTINUOUS
 10
10.0954857501
 20
10.1708254994
 11
10.0962260802
 21
10.1920257804
  0
LINE
  5
242
100
AcDbEntity
  8
0
100
AcDbLine
 62
7
  6
CONTINUOUS
 10
10.0042141792
 20
8.4363341196
 11
10.0056939375
 21
8.4574956488
  0
LINE
  5
243
100
AcDbEntity
  8
0
100
AcDbLine
 62
7
  6
CONTINUOUS
 10
10.1275184894
 20
10.1996679074
 11
10.1289982476
 21
10.2208294365
  0
LINE
  5
244
100
AcDbEntity
  8
0
100
AcDbLine
 62
7
  6
CONTINUOUS
 10
9.9757696424
 20
8.4694184648
 11
9.977987026
 21
8.4905154601
  0
LINE
  5
245
100
AcDbEntity
  8
0
100
AcDbLine
 62
7
  6
CONTINUOUS
 10
10.1605383007
 20
10.2273748189
 11
10.1627556842
 21
10.2484718142
  0
LINE
  5
246
100
AcDbEntity
  8
0
100
AcDbLine
 62
7
  6
CONTINUOUS
 10
9.9484970603
 20
8.5034753559
 11
9.9514493676
 21
8.5244821139
  0
LINE
  5
247
100
AcDbEntity
  8
0
100
AcDbLine
 62
7
  6
CONTINUOUS
 10
10.1945049544
 20
10.2539124773
 11
10.1974572618
 21
10.2749192353
  0
LINE
  5
248
100
AcDbEntity
  8
0
100
AcDbLine
 62
7
  6
CONTINUOUS
 10
9.9224296603
 20
8.5384632998
 11
9.9261132944
 21
8.559354227
  0
LINE
  5
249
100
AcDbEntity
  8
0
100
AcDbLine
 62
7
  6
CONTINUOUS
 10
10.2293770676
 20
10.2792485505
 11
10.2330607017
 21
10.3001394777
  0
LINE
  5
24A
100
AcDbEntity
  8
0
100
AcDbLine
 62
7
  6
CONTINUOUS
 10
9.8975992014
 20
8.5743396691
 11
9.9020096744
 21
8.5950893132
  0
LINE
  5
24B
100
AcDbEntity
  8
0
100
AcDbLine
 62
7
  6
CONTINUOUS
 10
10.2651121538
 20
10.3033521705
 11
10.2695226268
 21
10.3241018145
  0
LINE
  5
24C
100
AcDbEntity
  8
0
100
AcDbLine
 62
7
  6
CONTINUOUS
 10
9.8740359358
 20
8.6110607541
 11
9.8791678742
 21
8.6316438347
  0
LINE
  5
24D
100
AcDbEntity
  8
0
100
AcDbLine
 62
7
  6
CONTINUOUS
 10
10.3016666753
 20
10.3261939707
 11
10.3067986137
 21
10.3467770513
  0
LINE
  5
24E
100
AcDbEntity
  8
0
100
AcDbLine
 62
7
  6
CONTINUOUS
 10
9.8517685717
 20
8.6485818157
 11
9.857615723
 21
8.6689732556
  0
LINE
  5
24F
100
AcDbEntity
  8
0
100
AcDbLine
 62
7
  6
CONTINUOUS
 10
10.3389960962
 20
10.3477461219
 11
10.3448432475
 21
10.3681375618
  0
LINE
  5
250
100
AcDbEntity
  8
0
100
AcDbLine
 62
7
  6
CONTINUOUS
 10
9.8308242385
 20
8.6868571402
 11
9.8373794788
 21
8.7070320956
  0
LINE
  5
251
100
AcDbEntity
  8
0
100
AcDbLine
 62
7
  6
CONTINUOUS
 10
10.3770549362
 20
10.367982366
 11
10.3836101765
 21
10.3881573214
  0
LINE
  5
252
100
AcDbEntity
  8
0
100
AcDbLine
 62
7
  6
CONTINUOUS
 10
9.8112284535
 20
8.7258400952
 11
9.8184837964
 21
8.7457739859
  0
LINE
  5
253
100
AcDbEntity
  8
0
100
AcDbLine
 62
7
  6
CONTINUOUS
 10
10.4157968265
 20
10.3868780485
 11
10.4230521694
 21
10.4068119392
  0
LINE
  5
254
100
AcDbEntity
  8
0
100
AcDbLine
 62
7
  6
CONTINUOUS
 10
9.7930050913
 20
8.7654831858
 11
9.8009516971
 21
8.7851517255
  0
LINE
  5
255
100
AcDbEntity
  8
0
100
AcDbLine
 62
7
  6
CONTINUOUS
 10
10.4551745661
 20
10.4044101477
 11
10.463121172
 21
10.4240786875
  0
LINE
  5
256
100
AcDbEntity
  8
0
100
AcDbLine
 62
7
  6
CONTINUOUS
 10
10.9945796744
 20
11.3886801398
 11
11.0027064272
 21
11.407829077
  0
LINE
  5
257
100
AcDbEntity
  8
0
100
AcDbLine
 62
7
  6
CONTINUOUS
 10
9.7761763541
 20
8.8057381131
 11
9.7848045413
 21
8.8251173387
  0
LINE
  5
258
100
AcDbEntity
  8
0
100
AcDbLine
 62
7
  6
CONTINUOUS
 10
10.4951401793
 20
10.4205573036
 11
10.5037683665
 21
10.4399365292
  0
LINE
  5
259
100
AcDbEntity
  8
0
100
AcDbLine
 62
7
  6
CONTINUOUS
 10
9.7607627453
 20
8.8465558326
 11
9.7700620016
 21
8.8656221336
  0
LINE
  5
25A
100
AcDbEntity
  8
0
100
AcDbLine
 62
7
  6
CONTINUOUS
 10
10.5356449742
 20
10.4352998433
 11
10.5449442305
 21
10.4543661442
  0
LINE
  5
25B
100
AcDbEntity
  8
0
100
AcDbLine
 62
7
  6
CONTINUOUS
 10
9.7467830439
 20
8.8878866143
 11
9.7567420396
 21
8.9066167612
  0
LINE
  5
25C
100
AcDbEntity
  8
0
100
AcDbLine
 62
7
  6
CONTINUOUS
 10
10.5766396018
 20
10.4486198052
 11
10.5865985976
 21
10.4673499521
  0
LINE
  5
25D
100
AcDbEntity
  8
0
100
AcDbLine
 62
7
  6
CONTINUOUS
 10
9.734254282
 20
8.9296801029
 11
9.7448608837
 21
8.948051276
  0
LINE
  5
25E
100
AcDbEntity
  8
0
100
AcDbLine
 62
7
  6
CONTINUOUS
 10
10.6180741166
 20
10.4605009612
 11
10.6286807183
 21
10.4788721342
  0
LINE
  5
25F
100
AcDbEntity
  8
0
100
AcDbLine
 62
7
  6
CONTINUOUS
 10
9.723191724
 20
8.9718853796
 11
9.7344330092
 21
8.9898751964
  0
LINE
  5
260
100
AcDbEntity
  8
0
100
AcDbLine
 62
7
  6
CONTINUOUS
 10
10.6598980369
 20
10.4709288357
 11
10.6711393221
 21
10.4889186525
  0
LINE
  5
261
100
AcDbEntity
  8
0
100
AcDbLine
 62
7
  6
CONTINUOUS
 10
9.713608848
 20
9.0144510236
 11
9.7254711208
 21
9.0320375663
  0
LINE
  5
262
100
AcDbEntity
  8
0
100
AcDbLine
 62
7
  6
CONTINUOUS
 10
10.7020604069
 20
10.4798907241
 11
10.7139226797
 21
10.4974772668
  0
LINE
  5
263
100
AcDbEntity
  8
0
100
AcDbLine
 62
7
  6
CONTINUOUS
 10
9.7055173291
 20
9.0573251753
 11
9.7179861373
 21
9.0744870174
  0
LINE
  5
264
100
AcDbEntity
  8
0
100
AcDbLine
 62
7
  6
CONTINUOUS
 10
10.744509858
 20
10.4873757076
 11
10.7569786662
 21
10.5045375497
  0
LINE
  5
265
100
AcDbEntity
  8
0
100
AcDbLine
 62
7
  6
CONTINUOUS
 10
9.6989270257
 20
9.1004555992
 11
9.7119871778
 21
9.1171718317
  0
LINE
  5
266
100
AcDbEntity
  8
0
100
AcDbLine
 62
7
  6
CONTINUOUS
 10
10.7871946723
 20
10.4933746671
 11
10.8002548244
 21
10.5100908995
  0
LINE
  5
267
100
AcDbEntity
  8
0
100
AcDbLine
 62
7
  6
CONTINUOUS
 10
9.693845967
 20
9.1437897475
 11
9.7074815513
 21
9.1600400041
  0
LINE
  5
268
100
AcDbEntity
  8
0
100
AcDbLine
 62
7
  6
CONTINUOUS
 10
10.8300628447
 20
10.4978802935
 11
10.8436984291
 21
10.5141305501
  0
LINE
  5
269
100
AcDbEntity
  8
0
100
AcDbLine
 62
7
  6
CONTINUOUS
 10
9.6902803435
 20
9.1872748242
 11
9.7044747472
 21
9.2030393066
  0
LINE
  5
26A
100
AcDbEntity
  8
0
100
AcDbLine
 62
7
  6
CONTINUOUS
 10
10.8730621472
 20
10.5008870977
 11
10.8872565509
 21
10.51665158
  0
LINE
  5
26B
100
AcDbEntity
  8
0
100
AcDbLine
 62
7
  6
CONTINUOUS
 10
9.6882344994
 20
9.2308578494
 11
9.7029704288
 21
9.246117351
  0
LINE
  5
26C
100
AcDbEntity
  8
0
100
AcDbLine
 62
7
  6
CONTINUOUS
 10
10.9161401916
 20
10.5023914161
 11
10.9308761209
 21
10.5176509177
  0
LINE
  5
26D
100
AcDbEntity
  8
0
100
AcDbLine
 62
7
  6
CONTINUOUS
 10
9.6877109272
 20
9.274485724
 11
9.7029704288
 21
9.2892216533
  0
LINE
  5
26E
100
AcDbEntity
  8
0
100
AcDbLine
 62
7
  6
CONTINUOUS
 10
10.9592444939
 20
10.5023914161
 11
10.9745039954
 21
10.5171273455
  0
LINE
  5
26F
100
AcDbEntity
  8
0
100
AcDbLine
 62
7
  6
CONTINUOUS
 10
9.6887102648
 20
9.318105294
 11
9.7044747472
 21
9.3322996977
  0
LINE
  5
270
100
AcDbEntity
  8
0
100
AcDbLine
 62
7
  6
CONTINUOUS
 10
11.0023225383
 20
10.5008870977
 11
11.0180870207
 21
10.5150815013
  0
LINE
  5
271
100
AcDbEntity
  8
0
100
AcDbLine
 62
7
  6
CONTINUOUS
 10
9.6912312947
 20
9.3616634158
 11
9.7074815513
 21
9.3752990001
  0
LINE
  5
272
100
AcDbEntity
  8
0
100
AcDbLine
 62
7
  6
CONTINUOUS
 10
11.0453218407
 20
10.4978802935
 11
11.0615720973
 21
10.5115158779
  0
LINE
  5
273
100
AcDbEntity
  8
0
100
AcDbLine
 62
7
  6
CONTINUOUS
 10
9.6952709454
 20
9.4051070205
 11
9.7119871778
 21
9.4181671726
  0
LINE
  5
274
100
AcDbEntity
  8
0
100
AcDbLine
 62
7
  6
CONTINUOUS
 10
11.0881900132
 20
10.4933746671
 11
11.1049062456
 21
10.5064348192
  0
LINE
  5
275
100
AcDbEntity
  8
0
100
AcDbLine
 62
7
  6
CONTINUOUS
 10
9.7008242952
 20
9.4483831787
 11
9.7179861373
 21
9.4608519869
  0
LINE
  5
276
100
AcDbEntity
  8
0
100
AcDbLine
 62
7
  6
CONTINUOUS
 10
11.1308748275
 20
10.4873757076
 11
11.1480366695
 21
10.4998445158
  0
LINE
  5
277
100
AcDbEntity
  8
0
100
AcDbLine
 62
7
  6
CONTINUOUS
 10
9.7078845781
 20
9.4914391652
 11
9.7254711208
 21
9.503301438
  0
LINE
  5
278
100
AcDbEntity
  8
0
100
AcDbLine
 62
7
  6
CONTINUOUS
 10
11.1733242786
 20
10.4798907241
 11
11.1909108213
 21
10.4917529969
  0
LINE
  5
279
100
AcDbEntity
  8
0
100
AcDbLine
 62
7
  6
CONTINUOUS
 10
9.7164431924
 20
9.5342225228
 11
9.7344330092
 21
9.5454638079
  0
LINE
  5
27A
100
AcDbEntity
  8
0
100
AcDbLine
 62
7
  6
CONTINUOUS
 10
11.2154866485
 20
10.4709288357
 11
11.2334764653
 21
10.4821701208
  0
LINE
  5
27B
100
AcDbEntity
  8
0
100
AcDbLine
 62
7
  6
CONTINUOUS
 10
9.7264897107
 20
9.5766811266
 11
9.7448608837
 21
9.5872877283
  0
LINE
  5
27C
100
AcDbEntity
  8
0
100
AcDbLine
 62
7
  6
CONTINUOUS
 10
11.2573105689
 20
10.4605009612
 11
11.275681742
 21
10.4711075629
  0
LINE
  5
27D
100
AcDbEntity
  8
0
100
AcDbLine
 62
7
  6
CONTINUOUS
 10
9.7380118927
 20
9.6187632473
 11
9.7567420396
 21
9.6287222431
  0
LINE
  5
27E
100
AcDbEntity
  8
0
100
AcDbLine
 62
7
  6
CONTINUOUS
 10
11.2987450837
 20
10.4486198052
 11
11.3174752306
 21
10.458578801
  0
LINE
  5
27F
100
AcDbEntity
  8
0
100
AcDbLine
 62
7
  6
CONTINUOUS
 10
9.7509957007
 20
9.6604176144
 11
9.7700620016
 21
9.6697168707
  0
LINE
  5
280
100
AcDbEntity
  8
0
100
AcDbLine
 62
7
  6
CONTINUOUS
 10
11.3397397113
 20
10.4352998433
 11
11.3588060123
 21
10.4445990996
  0
LINE
  5
281
100
AcDbEntity
  8
0
100
AcDbLine
 62
7
  6
CONTINUOUS
 10
9.7654253156
 20
9.7015934784
 11
9.7848045413
 21
9.7102216656
  0
LINE
  5
282
100
AcDbEntity
  8
0
100
AcDbLine
 62
7
  6
CONTINUOUS
 10
11.3802445061
 20
10.4205573036
 11
11.3996237318
 21
10.4291854908
  0
LINE
  5
283
100
AcDbEntity
  8
0
100
AcDbLine
 62
7
  6
CONTINUOUS
 10
9.7812831574
 20
9.7422406729
 11
9.8009516971
 21
9.7501872788
  0
LINE
  5
284
100
AcDbEntity
  8
0
100
AcDbLine
 62
7
  6
CONTINUOUS
 10
11.4202101194
 20
10.4044101477
 11
11.4398786591
 21
10.4123567536
  0
LINE
  5
285
100
AcDbEntity
  8
0
100
AcDbLine
 62
7
  6
CONTINUOUS
 10
9.7985499057
 20
9.7823096755
 11
9.8184837964
 21
9.7895650184
  0
LINE
  5
286
100
AcDbEntity
  8
0
100
AcDbLine
 62
7
  6
CONTINUOUS
 10
11.459587859
 20
10.3868780485
 11
11.4795217497
 21
10.3941333914
  0
LINE
  5
287
100
AcDbEntity
  8
0
100
AcDbLine
 62
7
  6
CONTINUOUS
 10
9.8172045235
 20
9.8217516683
 11
9.8373794788
 21
9.8283069087
  0
LINE
  5
288
100
AcDbEntity
  8
0
100
AcDbLine
 62
7
  6
CONTINUOUS
 10
11.4983297493
 20
10.367982366
 11
11.5185047047
 21
10.3745376064
  0
LINE
  5
289
100
AcDbEntity
  8
0
100
AcDbLine
 62
7
  6
CONTINUOUS
 10
9.8372242831
 20
9.8605185974
 11
9.857615723
 21
9.8663657487
  0
LINE
  5
28A
100
AcDbEntity
  8
0
100
AcDbLine
 62
7
  6
CONTINUOUS
 10
11.5363885893
 20
10.3477461219
 11
11.5567800292
 21
10.3535932732
  0
LINE
  5
28B
100
AcDbEntity
  8
0
100
AcDbLine
 62
7
  6
CONTINUOUS
 10
12.0167998919
 20
8.6367757731
 11
11.9962168113
 21
8.6316438347
  0
LINE
  5
28C
100
AcDbEntity
  8
0
100
AcDbLine
 62
7
  6
CONTINUOUS
 10
10.3016666753
 20
8.2091450336
 11
10.2810835947
 21
8.2040130952
  0
LINE
  5
28D
100
AcDbEntity
  8
0
100
AcDbLine
 62
7
  6
CONTINUOUS
 10
11.9941246551
 20
8.5994997862
 11
11.9733750111
 21
8.5950893132
  0
LINE
  5
28E
100
AcDbEntity
  8
0
100
AcDbLine
 62
7
  6
CONTINUOUS
 10
10.2651121538
 20
8.2319868338
 11
10.2443625097
 21
8.2275763608
  0
LINE
  5
28F
100
AcDbEntity
  8
0
100
AcDbLine
 62
7
  6
CONTINUOUS
 10
11.9701623183
 20
8.5630378611
 11
11.9492713911
 21
8.559354227
  0
LINE
  5
290
100
AcDbEntity
  8
0
100
AcDbLine
 62
7
  6
CONTINUOUS
 10
10.2293770676
 20
8.2560904538
 11
10.2084861404
 21
8.2524068197
  0
LINE
  5
291
100
AcDbEntity
  8
0
100
AcDbLine
 62
7
  6
CONTINUOUS
 10
11.9449420759
 20
8.5274344212
 11
11.9239353179
 21
8.5244821139
  0
LINE
  5
292
100
AcDbEntity
  8
0
100
AcDbLine
 62
7
  6
CONTINUOUS
 10
10.1945049544
 20
8.281426527
 11
10.1734981964
 21
8.2784742197
  0
LINE
  5
293
100
AcDbEntity
  8
0
100
AcDbLine
 62
7
  6
CONTINUOUS
 10
11.9184946548
 20
8.4927328436
 11
11.8973976595
 21
8.4905154601
  0
LINE
  5
294
100
AcDbEntity
  8
0
100
AcDbLine
 62
7
  6
CONTINUOUS
 10
10.1605383007
 20
8.3079641854
 11
10.1394413054
 21
8.3057468018
  0
LINE
  5
295
100
AcDbEntity
  8
0
100
AcDbLine
 62
7
  6
CONTINUOUS
 10
11.8908522771
 20
8.458975407
 11
11.869690748
 21
8.4574956488
  0
LINE
  5
296
100
AcDbEntity
  8
0
100
AcDbLine
 62
7
  6
CONTINUOUS
 10
10.1275184894
 20
8.3356710969
 11
10.1063569602
 21
8.3341913386
  0
LINE
  5
297
100
AcDbEntity
  8
0
100
AcDbLine
 62
7
  6
CONTINUOUS
 10
11.862048621
 20
8.4262032397
 11
11.84084834
 21
8.4254629095
  0
LINE
  5
298
100
AcDbEntity
  8
0
100
AcDbLine
 62
7
  6
CONTINUOUS
 10
10.0954857501
 20
8.3645135048
 11
10.0742854692
 21
8.3637731747
  0
LINE
  5
299
100
AcDbEntity
  8
0
100
AcDbLine
 62
7
  6
CONTINUOUS
 10
11.832118779
 20
8.3944562693
 11
11.8109055756
 21
8.3944562693
  0
LINE
  5
29A
100
AcDbEntity
  8
0
100
AcDbLine
 62
7
  6
CONTINUOUS
 10
10.0644791099
 20
8.3944562693
 11
10.0432659064
 21
8.3944562693
  0
LINE
  5
29B
100
AcDbEntity
  8
0
100
AcDbLine
 62
7
  6
CONTINUOUS
 10
11.8010992163
 20
8.3637731747
 11
11.7798989354
 21
8.3645135048
  0
LINE
  5
29C
100
AcDbEntity
  8
0
100
AcDbLine
 62
7
  6
CONTINUOUS
 10
10.0345363454
 20
8.4254629095
 11
10.0133360645
 21
8.4262032397
  0
LINE
  5
29D
100
AcDbEntity
  8
0
100
AcDbLine
 62
7
  6
CONTINUOUS
 10
11.7690277252
 20
8.3341913386
 11
11.7478661961
 21
8.3356710969
  0
LINE
  5
29E
100
AcDbEntity
  8
0
100
AcDbLine
 62
7
  6
CONTINUOUS
 10
10.0056939375
 20
8.4574956488
 11
9.9845324083
 21
8.458975407
  0
LINE
  5
29F
100
AcDbEntity
  8
0
100
AcDbLine
 62
7
  6
CONTINUOUS
 10
11.7359433801
 20
8.3057468018
 11
11.7148463848
 21
8.3079641854
  0
LINE
  5
2A0
100
AcDbEntity
  8
0
100
AcDbLine
 62
7
  6
CONTINUOUS
 10
9.977987026
 20
8.4905154601
 11
9.9568900307
 21
8.4927328436
  0
LINE
  5
2A1
100
AcDbEntity
  8
0
100
AcDbLine
 62
7
  6
CONTINUOUS
 10
11.701886489
 20
8.2784742197
 11
11.680879731
 21
8.281426527
  0
LINE
  5
2A2
100
AcDbEntity
  8
0
100
AcDbLine
 62
7
  6
CONTINUOUS
 10
9.9514493676
 20
8.5244821139
 11
9.9304426096
 21
8.5274344212
  0
LINE
  5
2A3
100
AcDbEntity
  8
0
100
AcDbLine
 62
7
  6
CONTINUOUS
 10
11.6668985451
 20
8.2524068197
 11
11.6460076179
 21
8.2560904538
  0
LINE
  5
2A4
100
AcDbEntity
  8
0
100
AcDbLine
 62
7
  6
CONTINUOUS
 10
9.9261132944
 20
8.559354227
 11
9.9052223672
 21
8.5630378611
  0
LINE
  5
2A5
100
AcDbEntity
  8
0
100
AcDbLine
 62
7
  6
CONTINUOUS
 10
11.6310221757
 20
8.2275763608
 11
11.6102725317
 21
8.2319868338
  0
LINE
  5
2A6
100
AcDbEntity
  8
0
100
AcDbLine
 62
7
  6
CONTINUOUS
 10
9.9020096744
 20
8.5950893132
 11
9.8812600303
 21
8.5994997862
  0
LINE
  5
2A7
100
AcDbEntity
  8
0
100
AcDbLine
 62
7
  6
CONTINUOUS
 10
11.5943010908
 20
8.2040130952
 11
11.5737180102
 21
8.2091450336
  0
LINE
  5
2A8
100
AcDbEntity
  8
0
100
AcDbLine
 62
7
  6
CONTINUOUS
 10
9.8791678742
 20
8.6316438347
 11
9.8585847936
 21
8.6367757731
  0
LINE
  5
2A9
100
AcDbEntity
  8
0
100
AcDbLine
 62
7
  6
CONTINUOUS
 10
11.5567800292
 20
8.1817457311
 11
11.5363885893
 21
8.1875928824
  0
LINE
  5
2AA
100
AcDbEntity
  8
0
100
AcDbLine
 62
7
  6
CONTINUOUS
 10
9.857615723
 20
8.6689732556
 11
9.8372242831
 21
8.6748204069
  0
LINE
  5
2AB
100
AcDbEntity
  8
0
100
AcDbLine
 62
7
  6
CONTINUOUS
 10
12.7168073007
 20
7.8514461013
 11
12.7328715024
 21
7.8466588678
  0
LINE
  5
2AC
100
AcDbEntity
  8
0
100
AcDbLine
 62
7
  6
CONTINUOUS
 10
11.5185047047
 20
8.1608013979
 11
11.4983297493
 21
8.1673566382
  0
LINE
  5
2AD
100
AcDbEntity
  8
0
100
AcDbLine
 62
7
  6
CONTINUOUS
 10
9.8373794788
 20
8.7070320956
 11
9.8172045235
 21
8.7135873359
  0
LINE
  5
2AE
100
AcDbEntity
  8
0
100
AcDbLine
 62
7
  6
CONTINUOUS
 10
11.4795217497
 20
8.1412056129
 11
11.459587859
 21
8.1484609558
  0
LINE
  5
2AF
100
AcDbEntity
  8
0
100
AcDbLine
 62
7
  6
CONTINUOUS
 10
9.8184837964
 20
8.7457739859
 11
9.7985499057
 21
8.7530293288
  0
LINE
  5
2B0
100
AcDbEntity
  8
0
100
AcDbLine
 62
7
  6
CONTINUOUS
 10
11.4398786591
 20
8.1229822507
 11
11.4202101194
 21
8.1309288565
  0
LINE
  5
2B1
100
AcDbEntity
  8
0
100
AcDbLine
 62
7
  6
CONTINUOUS
 10
9.8009516971
 20
8.7851517255
 11
9.7812831574
 21
8.7930983314
  0
LINE
  5
2B2
100
AcDbEntity
  8
0
100
AcDbLine
 62
7
  6
CONTINUOUS
 10
11.3996237318
 20
8.1061535135
 11
11.3802445061
 21
8.1147817007
  0
LINE
  5
2B3
100
AcDbEntity
  8
0
100
AcDbLine
 62
7
  6
CONTINUOUS
 10
9.7848045413
 20
8.8251173387
 11
9.7654253156
 21
8.8337455259
  0
LINE
  5
2B4
100
AcDbEntity
  8
0
100
AcDbLine
 62
7
  6
CONTINUOUS
 10
11.3588060123
 20
8.0907399047
 11
11.3397397113
 21
8.100039161
  0
LINE
  5
2B5
100
AcDbEntity
  8
0
100
AcDbLine
 62
7
  6
CONTINUOUS
 10
9.7700620016
 20
8.8656221336
 11
9.7509957007
 21
8.8749213899
  0
LINE
  5
2B6
100
AcDbEntity
  8
0
100
AcDbLine
 62
7
  6
CONTINUOUS
 10
11.3174752306
 20
8.0767602033
 11
11.2987450837
 21
8.0867191991
  0
LINE
  5
2B7
100
AcDbEntity
  8
0
100
AcDbLine
 62
7
  6
CONTINUOUS
 10
9.7567420396
 20
8.9066167612
 11
9.7380118927
 21
8.916575757
  0
LINE
  5
2B8
100
AcDbEntity
  8
0
100
AcDbLine
 62
7
  6
CONTINUOUS
 10
11.275681742
 20
8.0642314414
 11
11.2573105689
 21
8.0748380431
  0
LINE
  5
2B9
100
AcDbEntity
  8
0
100
AcDbLine
 62
7
  6
CONTINUOUS
 10
9.7448608837
 20
8.948051276
 11
9.7264897107
 21
8.9586578777
  0
LINE
  5
2BA
100
AcDbEntity
  8
0
100
AcDbLine
 62
7
  6
CONTINUOUS
 10
12.0903046412
 20
7.6695312042
 11
12.1063688143
 21
7.659956736
  0
LINE
  5
2BB
100
AcDbEntity
  8
0
100
AcDbLine
 62
7
  6
CONTINUOUS
 10
12.2790586529
 20
7.6695312042
 11
12.2951228317
 21
7.659956736
  0
LINE
  5
2BC
100
AcDbEntity
  8
0
100
AcDbLine
 62
7
  6
CONTINUOUS
 10
11.2334764653
 20
8.0531688834
 11
11.2154866485
 21
8.0644101686
  0
LINE
  5
2BD
100
AcDbEntity
  8
0
100
AcDbLine
 62
7
  6
CONTINUOUS
 10
9.7344330092
 20
8.9898751964
 11
9.7164431924
 21
9.0011164815
  0
LINE
  5
2BE
100
AcDbEntity
  8
0
100
AcDbLine
 62
7
  6
CONTINUOUS
 10
11.1909108213
 20
8.0435860074
 11
11.1803937332
 21
8.0506798728
  0
LINE
  5
2BF
100
AcDbEntity
  8
0
100
AcDbLine
 62
7
  6
CONTINUOUS
 10
9.7254711208
 20
9.0320375663
 11
9.7078845781
 21
9.0438998391
  0
LINE
  5
2C0
100
AcDbEntity
  8
0
100
AcDbLine
 62
7
  6
CONTINUOUS
 10
9.7179861373
 20
9.0744870174
 11
9.7008242952
 21
9.0869558256
  0
LINE
  5
2C1
100
AcDbEntity
  8
0
100
AcDbLine
 62
7
  6
CONTINUOUS
 10
9.7119871778
 20
9.1171718317
 11
9.6952709454
 21
9.1302319838
  0
LINE
  5
2C2
100
AcDbEntity
  8
0
100
AcDbLine
 62
7
  6
CONTINUOUS
 10
9.7074815513
 20
9.1600400041
 11
9.6912312947
 21
9.1736755885
  0
LINE
  5
2C3
100
AcDbEntity
  8
0
100
AcDbLine
 62
7
  6
CONTINUOUS
 10
9.7044747472
 20
9.2030393066
 11
9.6887102648
 21
9.2172337103
  0
LINE
  5
2C4
100
AcDbEntity
  8
0
100
AcDbLine
 62
7
  6
CONTINUOUS
 10
9.7029704288
 20
9.246117351
 11
9.6877109272
 21
9.2608532803
  0
LINE
  5
2C5
100
AcDbEntity
  8
0
100
AcDbLine
 62
7
  6
CONTINUOUS
 10
9.7029704288
 20
9.2892216533
 11
9.6882344994
 21
9.3044811548
  0
LINE
  5
2C6
100
AcDbEntity
  8
0
100
AcDbLine
 62
7
  6
CONTINUOUS
 10
9.7044747472
 20
9.3322996977
 11
9.6902803435
 21
9.3480641801
  0
LINE
  5
2C7
100
AcDbEntity
  8
0
100
AcDbLine
 62
7
  6
CONTINUOUS
 10
9.7074815513
 20
9.3752990001
 11
9.693845967
 21
9.3915492567
  0
LINE
  5
2C8
100
AcDbEntity
  8
0
100
AcDbLine
 62
7
  6
CONTINUOUS
 10
9.7119871778
 20
9.4181671726
 11
9.6989270257
 21
9.434883405
  0
LINE
  5
2C9
100
AcDbEntity
  8
0
100
AcDbLine
 62
7
  6
CONTINUOUS
 10
9.7179861373
 20
9.4608519869
 11
9.7055173291
 21
9.4780138289
  0
LINE
  5
2CA
100
AcDbEntity
  8
0
100
AcDbLine
 62
7
  6
CONTINUOUS
 10
9.7254711208
 20
9.503301438
 11
9.713608848
 21
9.5208879807
  0
LINE
  5
2CB
100
AcDbEntity
  8
0
100
AcDbLine
 62
7
  6
CONTINUOUS
 10
10.6711393221
 20
8.0464203518
 11
10.6598980369
 21
8.0644101686
  0
LINE
  5
2CC
100
AcDbEntity
  8
0
100
AcDbLine
 62
7
  6
CONTINUOUS
 10
9.7344330092
 20
9.5454638079
 11
9.723191724
 21
9.5634536247
  0
LINE
  5
2CD
100
AcDbEntity
  8
0
100
AcDbLine
 62
7
  6
CONTINUOUS
 10
10.6286807183
 20
8.0564668701
 11
10.6180741166
 21
8.0748380431
  0
LINE
  5
2CE
100
AcDbEntity
  8
0
100
AcDbLine
 62
7
  6
CONTINUOUS
 10
9.7448608837
 20
9.5872877283
 11
9.734254282
 21
9.6056589014
  0
LINE
  5
2CF
100
AcDbEntity
  8
0
100
AcDbLine
 62
7
  6
CONTINUOUS
 10
10.5865985976
 20
8.0679890521
 11
10.5766396018
 21
8.0867191991
  0
LINE
  5
2D0
100
AcDbEntity
  8
0
100
AcDbLine
 62
7
  6
CONTINUOUS
 10
9.7567420396
 20
9.6287222431
 11
9.7467830439
 21
9.64745239
  0
LINE
  5
2D1
100
AcDbEntity
  8
0
100
AcDbLine
 62
7
  6
CONTINUOUS
 10
10.5449442305
 20
8.0809728601
 11
10.5356449742
 21
8.100039161
  0
LINE
  5
2D2
100
AcDbEntity
  8
0
100
AcDbLine
 62
7
  6
CONTINUOUS
 10
9.7700620016
 20
9.6697168707
 11
9.7607627453
 21
9.6887831717
  0
LINE
  5
2D3
100
AcDbEntity
  8
0
100
AcDbLine
 62
7
  6
CONTINUOUS
 10
10.5037683665
 20
8.095402475
 11
10.4951401793
 21
8.1147817007
  0
LINE
  5
2D4
100
AcDbEntity
  8
0
100
AcDbLine
 62
7
  6
CONTINUOUS
 10
9.7848045413
 20
9.7102216656
 11
9.7761763541
 21
9.7296008912
  0
LINE
  5
2D5
100
AcDbEntity
  8
0
100
AcDbLine
 62
7
  6
CONTINUOUS
 10
10.463121172
 20
8.1112603168
 11
10.4551745661
 21
8.1309288565
  0
LINE
  5
2D6
100
AcDbEntity
  8
0
100
AcDbLine
 62
7
  6
CONTINUOUS
 10
9.8009516971
 20
9.7501872788
 11
9.7930050913
 21
9.7698558185
  0
LINE
  5
2D7
100
AcDbEntity
  8
0
100
AcDbLine
 62
7
  6
CONTINUOUS
 10
10.4230521694
 20
8.1285270651
 11
10.4157968265
 21
8.1484609558
  0
LINE
  5
2D8
100
AcDbEntity
  8
0
100
AcDbLine
 62
7
  6
CONTINUOUS
 10
9.8184837964
 20
9.7895650184
 11
9.8112284535
 21
9.8094989091
  0
LINE
  5
2D9
100
AcDbEntity
  8
0
100
AcDbLine
 62
7
  6
CONTINUOUS
 10
10.3836101765
 20
8.1471816829
 11
10.3770549362
 21
8.1673566382
  0
LINE
  5
2DA
100
AcDbEntity
  8
0
100
AcDbLine
 62
7
  6
CONTINUOUS
 10
9.8373794788
 20
9.8283069087
 11
9.8308242385
 21
9.8484818641
  0
LINE
  5
2DB
100
AcDbEntity
  8
0
100
AcDbLine
 62
7
  6
CONTINUOUS
 10
10.3448432475
 20
8.1672014425
 11
10.3389960962
 21
8.1875928824
  0
LINE
  5
2DC
100
AcDbEntity
  8
0
100
AcDbLine
 62
7
  6
CONTINUOUS
 10
9.857615723
 20
9.8663657487
 11
9.8517685717
 21
9.8867571886
  0
LINE
  5
2DD
100
AcDbEntity
  8
0
100
AcDbLine
 62
7
  6
CONTINUOUS
 10
10.3067986137
 20
8.188561953
 11
10.3016666753
 21
8.2091450336
  0
LINE
  5
2DE
100
AcDbEntity
  8
0
100
AcDbLine
 62
7
  6
CONTINUOUS
 10
9.8791678742
 20
9.9036951696
 11
9.8740359358
 21
9.9242782502
  0
LINE
  5
2DF
100
AcDbEntity
  8
0
100
AcDbLine
 62
7
  6
CONTINUOUS
 10
10.2695226268
 20
8.2112371898
 11
10.2651121538
 21
8.2319868338
  0
LINE
  5
2E0
100
AcDbEntity
  8
0
100
AcDbLine
 62
7
  6
CONTINUOUS
 10
9.9020096744
 20
9.9402496911
 11
9.8975992014
 21
9.9609993352
  0
LINE
  5
2E1
100
AcDbEntity
  8
0
100
AcDbLine
 62
7
  6
CONTINUOUS
 10
10.2330607017
 20
8.2351995266
 11
10.2293770676
 21
8.2560904538
  0
LINE
  5
2E2
100
AcDbEntity
  8
0
100
AcDbLine
 62
7
  6
CONTINUOUS
 10
9.9261132944
 20
9.9759847773
 11
9.9224296603
 21
9.9968757045
  0
LINE
  5
2E3
100
AcDbEntity
  8
0
100
AcDbLine
 62
7
  6
CONTINUOUS
 10
10.1974572618
 20
8.260419769
 11
10.1945049544
 21
8.281426527
  0
LINE
  5
2E4
100
AcDbEntity
  8
0
100
AcDbLine
 62
7
  6
CONTINUOUS
 10
9.9514493676
 20
10.0108568904
 11
9.9484970603
 21
10.0318636484
  0
LINE
  5
2E5
100
AcDbEntity
  8
0
100
AcDbLine
 62
7
  6
CONTINUOUS
 10
10.6491923427
 20
11.5801695021
 11
10.6491923427
 21
11.3551695021
  0
LINE
  5
2E6
100
AcDbEntity
  8
0
100
AcDbLine
 62
7
  6
CONTINUOUS
 10
10.8482979843
 20
11.527509934
 11
10.8442345963
 21
11.5035737532
  0
LINE
  5
2E7
100
AcDbEntity
  8
0
100
AcDbLine
 62
7
  6
CONTINUOUS
 10
11.0027064272
 20
11.407829077
 11
11.0067698153
 21
11.4317652444
  0
LINE
  5
2E8
100
AcDbEntity
  8
0
100
AcDbLine
 62
7
  6
CONTINUOUS
 10
10.8686148779
 20
11.5035737532
 11
10.872678266
 21
11.5227226871
  0
LINE
  5
2E9
100
AcDbEntity
  8
0
100
AcDbLine
 62
7
  6
CONTINUOUS
 10
10.9823895336
 20
11.4317652444
 11
10.9783261456
 21
11.4126163105
  0
LINE
  5
2EA
100
AcDbEntity
  8
0
100
AcDbLine
 62
7
  6
CONTINUOUS
 10
12.5737117429
 20
10.7652758854
 11
12.5918476998
 21
10.7748503524
  0
LINE
  5
2EB
100
AcDbEntity
  8
0
100
AcDbLine
 62
7
  6
CONTINUOUS
 10
12.1987377935
 20
7.8658078017
 11
12.1826736262
 21
7.8753822687
  0
LINE
  5
2EC
100
AcDbEntity
  8
0
100
AcDbLine
 62
7
  6
CONTINUOUS
 10
12.3834757575
 20
7.8658078017
 11
12.3674116017
 21
7.8753822687
  0
LINE
  5
2ED
100
AcDbEntity
  8
0
100
AcDbLine
 62
7
  6
CONTINUOUS
 10
12.7529516857
 20
7.8658078017
 11
12.7368875299
 21
7.8753822687
  0
LINE
  5
2EE
100
AcDbEntity
  8
0
100
AcDbLine
 62
7
  6
CONTINUOUS
 10
12.1103848561
 20
7.6886801398
 11
12.0983367278
 21
7.6982546101
  0
LINE
  5
2EF
100
AcDbEntity
  8
0
100
AcDbLine
 62
7
  6
CONTINUOUS
 10
12.2991388591
 20
7.6886801398
 11
12.2870907308
 21
7.6982546101
  0
LINE
  5
2F0
100
AcDbEntity
  8
0
100
AcDbLine
 62
7
  6
CONTINUOUS
 10
12.1786575872
 20
7.8466588678
 11
12.1907057156
 21
7.8370844009
  0
LINE
  5
2F1
100
AcDbEntity
  8
0
100
AcDbLine
 62
7
  6
CONTINUOUS
 10
10.6735726244
 20
11.3551695021
 11
10.6735726244
 21
11.4604886519
  0
LINE
  5
2F2
100
AcDbEntity
  8
0
100
AcDbLine
 62
7
  6
CONTINUOUS
 10
10.6735726244
 20
11.4892120528
 11
10.6735726244
 21
11.5801695021
  0
LINE
  5
2F3
100
AcDbEntity
  8
0
100
AcDbLine
 62
7
  6
CONTINUOUS
 10
10.7873472684
 20
11.5801695021
 11
10.7873472684
 21
11.4892120528
  0
LINE
  5
2F4
100
AcDbEntity
  8
0
100
AcDbLine
 62
7
  6
CONTINUOUS
 10
10.7873472684
 20
11.4604886519
 11
10.7873472684
 21
11.3551695021
  0
LINE
  5
2F5
100
AcDbEntity
  8
0
100
AcDbLine
 62
7
  6
CONTINUOUS
 10
10.8117275501
 20
11.3551695021
 11
10.8117275501
 21
11.5801695021
  0
LINE
  5
2F6
100
AcDbEntity
  8
0
100
AcDbLine
 62
7
  6
CONTINUOUS
 10
10.8442345963
 20
11.5035737532
 11
10.8442345963
 21
11.4317652444
  0
LINE
  5
2F7
100
AcDbEntity
  8
0
100
AcDbLine
 62
7
  6
CONTINUOUS
 10
10.8686148779
 20
11.4317652444
 11
10.8686148779
 21
11.5035737532
  0
LINE
  5
2F8
100
AcDbEntity
  8
0
100
AcDbLine
 62
7
  6
CONTINUOUS
 10
10.7247214178
 20
8.897998141
 11
10.6391450671
 21
6.4590721477
  0
LINE
  5
2F9
100
AcDbEntity
  8
0
100
AcDbLine
 62
7
  6
CONTINUOUS
 10
12.3633955513
 20
7.8466588678
 11
12.3754436796
 21
7.8370844009
  0
LINE
  5
2FA
100
AcDbEntity
  8
0
100
AcDbLine
 62
7
  6
CONTINUOUS
 10
12.7328715024
 20
7.8466588678
 11
12.7449196308
 21
7.8370844009
  0
LINE
  5
2FB
100
AcDbEntity
  8
0
100
AcDbLine
 62
7
  6
CONTINUOUS
 10
12.0742404711
 20
7.6886801398
 11
12.0903046412
 21
7.6695312042
  0
LINE
  5
2FC
100
AcDbEntity
  8
0
100
AcDbLine
 62
7
  6
CONTINUOUS
 10
12.2629944741
 20
7.6886801398
 11
12.2790586529
 21
7.6695312042
  0
LINE
  5
2FD
100
AcDbEntity
  8
0
100
AcDbLine
 62
7
  6
CONTINUOUS
 10
11.1506632677
 20
8.897998141
 11
11.2362396183
 21
6.4590721477
  0
LINE
  5
2FE
100
AcDbEntity
  8
0
100
AcDbLine
 62
7
  6
CONTINUOUS
 10
10.9823895336
 20
11.5035737532
 11
10.9823895336
 21
11.4317652444
  0
LINE
  5
2FF
100
AcDbEntity
  8
0
100
AcDbLine
 62
7
  6
CONTINUOUS
 10
11.0067698153
 20
11.4317652444
 11
11.0067698153
 21
11.5035737532
  0
LINE
  5
300
100
AcDbEntity
  8
0
100
AcDbLine
 62
7
  6
CONTINUOUS
 10
11.0392768498
 20
11.5801695021
 11
11.0392768498
 21
11.5562333348
  0
LINE
  5
301
100
AcDbEntity
  8
0
100
AcDbLine
 62
7
  6
CONTINUOUS
 10
11.1042909188
 20
11.5562333348
 11
11.1042909188
 21
11.3551695021
  0
LINE
  5
302
100
AcDbEntity
  8
0
100
AcDbLine
 62
7
  6
CONTINUOUS
 10
11.1286712005
 20
11.3551695021
 11
11.1286712005
 21
11.5562333348
  0
LINE
  5
303
100
AcDbEntity
  8
0
100
AcDbLine
 62
7
  6
CONTINUOUS
 10
11.193685316
 20
11.5562333348
 11
11.193685316
 21
11.5801695021
  0
LINE
  5
304
100
AcDbEntity
  8
0
100
AcDbLine
 62
7
  6
CONTINUOUS
 10
12.5782457581
 20
10.7987865197
 11
12.5691777796
 21
10.7892120528
  0
LINE
  5
305
100
AcDbEntity
  8
0
100
AcDbLine
 62
7
  6
CONTINUOUS
 10
12.2148019722
 20
7.8466588678
 11
12.1987377935
 21
7.8658078017
  0
LINE
  5
306
100
AcDbEntity
  8
0
100
AcDbLine
 62
7
  6
CONTINUOUS
 10
12.3995399363
 20
7.8466588678
 11
12.3834757575
 21
7.8658078017
  0
LINE
  5
307
100
AcDbEntity
  8
0
100
AcDbLine
 62
7
  6
CONTINUOUS
 10
12.0983367278
 20
7.6982546101
 11
12.0903046412
 21
7.7126163105
  0
LINE
  5
308
100
AcDbEntity
  8
0
100
AcDbLine
 62
7
  6
CONTINUOUS
 10
10.8442345963
 20
11.4317652444
 11
10.8482979843
 21
11.407829077
  0
LINE
  5
309
100
AcDbEntity
  8
0
100
AcDbLine
 62
7
  6
CONTINUOUS
 10
12.5918476998
 20
10.7748503524
 11
12.6054496416
 21
10.7939992862
  0
LINE
  5
30A
100
AcDbEntity
  8
0
100
AcDbLine
 62
7
  6
CONTINUOUS
 10
12.7690158875
 20
7.8466588678
 11
12.7529516857
 21
7.8658078017
  0
LINE
  5
30B
100
AcDbEntity
  8
0
100
AcDbLine
 62
7
  6
CONTINUOUS
 10
12.2870907308
 20
7.6982546101
 11
12.2790586529
 21
7.7126163105
  0
LINE
  5
30C
100
AcDbEntity
  8
0
100
AcDbLine
 62
7
  6
CONTINUOUS
 10
12.3754436796
 20
7.8370844009
 11
12.3834757575
 21
7.8227226871
  0
LINE
  5
30D
100
AcDbEntity
  8
0
100
AcDbLine
 62
7
  6
CONTINUOUS
 10
12.0662083856
 20
7.707829077
 11
12.0742404711
 21
7.6886801398
  0
LINE
  5
30E
100
AcDbEntity
  8
0
100
AcDbLine
 62
7
  6
CONTINUOUS
 10
12.2549623962
 20
7.707829077
 11
12.2629944741
 21
7.6886801398
  0
LINE
  5
30F
100
AcDbEntity
  8
0
100
AcDbLine
 62
7
  6
CONTINUOUS
 10
10.872678266
 20
11.4126163105
 11
10.8686148779
 21
11.4317652444
  0
LINE
  5
310
100
AcDbEntity
  8
0
100
AcDbLine
 62
7
  6
CONTINUOUS
 10
10.9783261456
 20
11.5227226871
 11
10.9823895336
 21
11.5035737532
  0
LINE
  5
311
100
AcDbEntity
  8
0
100
AcDbLine
 62
7
  6
CONTINUOUS
 10
11.0067698153
 20
11.5035737532
 11
11.0027064272
 21
11.527509934
  0
LINE
  5
312
100
AcDbEntity
  8
0
100
AcDbLine
 62
7
  6
CONTINUOUS
 10
11.7126290013
 20
10.2484718142
 11
11.7148463848
 21
10.2273748189
  0
LINE
  5
313
100
AcDbEntity
  8
0
100
AcDbLine
 62
7
  6
CONTINUOUS
 10
11.8973976595
 20
8.4905154601
 11
11.899615043
 21
8.4694184648
  0
LINE
  5
314
100
AcDbEntity
  8
0
100
AcDbLine
 62
7
  6
CONTINUOUS
 10
11.7463864378
 20
10.2208294365
 11
11.7478661961
 21
10.1996679074
  0
LINE
  5
315
100
AcDbEntity
  8
0
100
AcDbLine
 62
7
  6
CONTINUOUS
 10
11.869690748
 20
8.4574956488
 11
11.8711705063
 21
8.4363341196
  0
LINE
  5
316
100
AcDbEntity
  8
0
100
AcDbLine
 62
7
  6
CONTINUOUS
 10
11.7791586052
 20
10.1920257804
 11
11.7798989354
 21
10.1708254994
  0
LINE
  5
317
100
AcDbEntity
  8
0
100
AcDbLine
 62
7
  6
CONTINUOUS
 10
11.84084834
 20
8.4254629095
 11
11.8415886702
 21
8.4042626286
  0
LINE
  5
318
100
AcDbEntity
  8
0
100
AcDbLine
 62
7
  6
CONTINUOUS
 10
11.8109055756
 20
10.1620959384
 11
11.8109055756
 21
10.140882735
  0
LINE
  5
319
100
AcDbEntity
  8
0
100
AcDbLine
 62
7
  6
CONTINUOUS
 10
11.8109055756
 20
8.3944562693
 11
11.8109055756
 21
8.3732430658
  0
LINE
  5
31A
100
AcDbEntity
  8
0
100
AcDbLine
 62
7
  6
CONTINUOUS
 10
11.8415886702
 20
10.1310763757
 11
11.84084834
 21
10.1098760948
  0
LINE
  5
31B
100
AcDbEntity
  8
0
100
AcDbLine
 62
7
  6
CONTINUOUS
 10
11.7798989354
 20
8.3645135048
 11
11.7791586052
 21
8.3433132239
  0
LINE
  5
31C
100
AcDbEntity
  8
0
100
AcDbLine
 62
7
  6
CONTINUOUS
 10
11.8711705063
 20
10.0990048846
 11
11.869690748
 21
10.0778433555
  0
LINE
  5
31D
100
AcDbEntity
  8
0
100
AcDbLine
 62
7
  6
CONTINUOUS
 10
11.7478661961
 20
8.3356710969
 11
11.7463864378
 21
8.3145095677
  0
LINE
  5
31E
100
AcDbEntity
  8
0
100
AcDbLine
 62
7
  6
CONTINUOUS
 10
11.899615043
 20
10.0659205395
 11
11.8973976595
 21
10.0448235442
  0
LINE
  5
31F
100
AcDbEntity
  8
0
100
AcDbLine
 62
7
  6
CONTINUOUS
 10
11.7148463848
 20
8.3079641854
 11
11.7126290013
 21
8.2868671901
  0
LINE
  5
320
100
AcDbEntity
  8
0
100
AcDbLine
 62
7
  6
CONTINUOUS
 10
11.9268876252
 20
10.0318636484
 11
11.9239353179
 21
10.0108568904
  0
LINE
  5
321
100
AcDbEntity
  8
0
100
AcDbLine
 62
7
  6
CONTINUOUS
 10
11.680879731
 20
8.281426527
 11
11.6779274237
 21
8.260419769
  0
LINE
  5
322
100
AcDbEntity
  8
0
100
AcDbLine
 62
7
  6
CONTINUOUS
 10
12.1611195272
 20
10.8801695021
 11
12.1339156437
 21
10.707829077
  0
LINE
  5
323
100
AcDbEntity
  8
0
100
AcDbLine
 62
7
  6
CONTINUOUS
 10
11.9529550252
 20
9.9968757045
 11
11.9492713911
 21
9.9759847773
  0
LINE
  5
324
100
AcDbEntity
  8
0
100
AcDbLine
 62
7
  6
CONTINUOUS
 10
11.6460076179
 20
8.2560904538
 11
11.6423239838
 21
8.2351995266
  0
LINE
  5
325
100
AcDbEntity
  8
0
100
AcDbLine
 62
7
  6
CONTINUOUS
 10
12.0432360342
 20
10.6551695021
 11
12.0795078767
 21
10.8370844009
  0
LINE
  5
326
100
AcDbEntity
  8
0
100
AcDbLine
 62
7
  6
CONTINUOUS
 10
12.0613719522
 20
10.8801695021
 11
12.0251001097
 21
10.707829077
  0
LINE
  5
327
100
AcDbEntity
  8
0
100
AcDbLine
 62
7
  6
CONTINUOUS
 10
11.9777854841
 20
9.9609993352
 11
11.9733750111
 21
9.9402496911
  0
LINE
  5
328
100
AcDbEntity
  8
0
100
AcDbLine
 62
7
  6
CONTINUOUS
 10
11.6102725317
 20
8.2319868338
 11
11.6058620587
 21
8.2112371898
  0
LINE
  5
329
100
AcDbEntity
  8
0
100
AcDbLine
 62
7
  6
CONTINUOUS
 10
12.0013487497
 20
9.9242782502
 11
11.9962168113
 21
9.9036951696
  0
LINE
  5
32A
100
AcDbEntity
  8
0
100
AcDbLine
 62
7
  6
CONTINUOUS
 10
11.5737180102
 20
8.2091450336
 11
11.5685860718
 21
8.188561953
  0
LINE
  5
32B
100
AcDbEntity
  8
0
100
AcDbLine
 62
7
  6
CONTINUOUS
 10
12.0236161138
 20
9.8867571886
 11
12.0177689624
 21
9.8663657487
  0
LINE
  5
32C
100
AcDbEntity
  8
0
100
AcDbLine
 62
7
  6
CONTINUOUS
 10
11.5363885893
 20
8.1875928824
 11
11.530541438
 21
8.1672014425
  0
LINE
  5
32D
100
AcDbEntity
  8
0
100
AcDbLine
 62
7
  6
CONTINUOUS
 10
12.2744690504
 20
10.7317652444
 11
12.3152748757
 21
10.8610205683
  0
LINE
  5
32E
100
AcDbEntity
  8
0
100
AcDbLine
 62
7
  6
CONTINUOUS
 10
12.2517991302
 20
10.6551695021
 11
12.2699350612
 21
10.7126163105
  0
LINE
  5
32F
100
AcDbEntity
  8
0
100
AcDbLine
 62
7
  6
CONTINUOUS
 10
12.2971389447
 20
10.8801695021
 11
12.2245952467
 21
10.6551695021
  0
LINE
  5
330
100
AcDbEntity
  8
0
100
AcDbLine
 62
7
  6
CONTINUOUS
 10
12.044560447
 20
9.8484818641
 11
12.0380052066
 21
9.8283069087
  0
LINE
  5
331
100
AcDbEntity
  8
0
100
AcDbLine
 62
7
  6
CONTINUOUS
 10
11.4983297493
 20
8.1673566382
 11
11.4917745089
 21
8.1471816829
  0
LINE
  5
332
100
AcDbEntity
  8
0
100
AcDbLine
 62
7
  6
CONTINUOUS
 10
12.064156232
 20
9.8094989091
 11
12.0569008891
 21
9.7895650184
  0
LINE
  5
333
100
AcDbEntity
  8
0
100
AcDbLine
 62
7
  6
CONTINUOUS
 10
11.459587859
 20
8.1484609558
 11
11.4523325161
 21
8.1285270651
  0
LINE
  5
334
100
AcDbEntity
  8
0
100
AcDbLine
 62
7
  6
CONTINUOUS
 10
12.0823795942
 20
9.7698558185
 11
12.0744329883
 21
9.7501872788
  0
LINE
  5
335
100
AcDbEntity
  8
0
100
AcDbLine
 62
7
  6
CONTINUOUS
 10
11.4202101194
 20
8.1309288565
 11
11.4122635135
 21
8.1112603168
  0
LINE
  5
336
100
AcDbEntity
  8
0
100
AcDbLine
 62
7
  6
CONTINUOUS
 10
12.0992083314
 20
9.7296008912
 11
12.0905801442
 21
9.7102216656
  0
LINE
  5
337
100
AcDbEntity
  8
0
100
AcDbLine
 62
7
  6
CONTINUOUS
 10
11.3802445061
 20
8.1147817007
 11
11.371616319
 21
8.095402475
  0
LINE
  5
338
100
AcDbEntity
  8
0
100
AcDbLine
 62
7
  6
CONTINUOUS
 10
12.1146219402
 20
9.6887831717
 11
12.1053226839
 21
9.6697168707
  0
LINE
  5
339
100
AcDbEntity
  8
0
100
AcDbLine
 62
7
  6
CONTINUOUS
 10
11.3397397113
 20
8.100039161
 11
11.330440455
 21
8.0809728601
  0
LINE
  5
33A
100
AcDbEntity
  8
0
100
AcDbLine
 62
7
  6
CONTINUOUS
 10
12.1286016416
 20
9.64745239
 11
12.1186426458
 21
9.6287222431
  0
LINE
  5
33B
100
AcDbEntity
  8
0
100
AcDbLine
 62
7
  6
CONTINUOUS
 10
11.2987450837
 20
8.0867191991
 11
11.2887860879
 21
8.0679890521
  0
LINE
  5
33C
100
AcDbEntity
  8
0
100
AcDbLine
 62
7
  6
CONTINUOUS
 10
12.1411304035
 20
9.6056589014
 11
12.1305238018
 21
9.5872877283
  0
LINE
  5
33D
100
AcDbEntity
  8
0
100
AcDbLine
 62
7
  6
CONTINUOUS
 10
11.2573105689
 20
8.0748380431
 11
11.2467039672
 21
8.0564668701
  0
LINE
  5
33E
100
AcDbEntity
  8
0
100
AcDbLine
 62
7
  6
CONTINUOUS
 10
12.1521929614
 20
9.5634536247
 11
12.1409516763
 21
9.5454638079
  0
LINE
  5
33F
100
AcDbEntity
  8
0
100
AcDbLine
 62
7
  6
CONTINUOUS
 10
11.2154866485
 20
8.0644101686
 11
11.2042453634
 21
8.0464203518
  0
LINE
  5
340
100
AcDbEntity
  8
0
100
AcDbLine
 62
7
  6
CONTINUOUS
 10
12.1617758375
 20
9.5208879807
 11
12.1499135647
 21
9.503301438
  0
LINE
  5
341
100
AcDbEntity
  8
0
100
AcDbLine
 62
7
  6
CONTINUOUS
 10
12.1698673564
 20
9.4780138289
 11
12.1573985482
 21
9.4608519869
  0
LINE
  5
342
100
AcDbEntity
  8
0
100
AcDbLine
 62
7
  6
CONTINUOUS
 10
12.1764576598
 20
9.434883405
 11
12.1633975076
 21
9.4181671726
  0
LINE
  5
343
100
AcDbEntity
  8
0
100
AcDbLine
 62
7
  6
CONTINUOUS
 10
12.1815387185
 20
9.3915492567
 11
12.1679031341
 21
9.3752990001
  0
LINE
  5
344
100
AcDbEntity
  8
0
100
AcDbLine
 62
7
  6
CONTINUOUS
 10
12.1851043419
 20
9.3480641801
 11
12.1709099383
 21
9.3322996977
  0
LINE
  5
345
100
AcDbEntity
  8
0
100
AcDbLine
 62
7
  6
CONTINUOUS
 10
12.1871501861
 20
9.3044811548
 11
12.1724142567
 21
9.2892216533
  0
LINE
  5
346
100
AcDbEntity
  8
0
100
AcDbLine
 62
7
  6
CONTINUOUS
 10
12.1876737582
 20
9.2608532803
 11
12.1724142567
 21
9.246117351
  0
LINE
  5
347
100
AcDbEntity
  8
0
100
AcDbLine
 62
7
  6
CONTINUOUS
 10
12.1866744206
 20
9.2172337103
 11
12.1709099383
 21
9.2030393066
  0
LINE
  5
348
100
AcDbEntity
  8
0
100
AcDbLine
 62
7
  6
CONTINUOUS
 10
12.1841533907
 20
9.1736755885
 11
12.1679031341
 21
9.1600400041
  0
LINE
  5
349
100
AcDbEntity
  8
0
100
AcDbLine
 62
7
  6
CONTINUOUS
 10
12.1801137401
 20
9.1302319838
 11
12.1633975076
 21
9.1171718317
  0
LINE
  5
34A
100
AcDbEntity
  8
0
100
AcDbLine
 62
7
  6
CONTINUOUS
 10
12.1745603903
 20
9.0869558256
 11
12.1573985482
 21
9.0744870174
  0
LINE
  5
34B
100
AcDbEntity
  8
0
100
AcDbLine
 62
7
  6
CONTINUOUS
 10
12.1675001074
 20
9.0438998391
 11
12.1499135647
 21
9.0320375663
  0
LINE
  5
34C
100
AcDbEntity
  8
0
100
AcDbLine
 62
7
  6
CONTINUOUS
 10
10.6949909522
 20
8.0506798728
 11
10.6844738642
 21
8.0435860074
  0
LINE
  5
34D
100
AcDbEntity
  8
0
100
AcDbLine
 62
7
  6
CONTINUOUS
 10
12.1589414931
 20
9.0011164815
 11
12.1409516763
 21
8.9898751964
  0
LINE
  5
34E
100
AcDbEntity
  8
0
100
AcDbLine
 62
7
  6
CONTINUOUS
 10
10.6598980369
 20
8.0644101686
 11
10.6419082202
 21
8.0531688834
  0
LINE
  5
34F
100
AcDbEntity
  8
0
100
AcDbLine
 62
7
  6
CONTINUOUS
 10
12.1488949748
 20
8.9586578777
 11
12.1305238018
 21
8.948051276
  0
LINE
  5
350
100
AcDbEntity
  8
0
100
AcDbLine
 62
7
  6
CONTINUOUS
 10
10.6180741166
 20
8.0748380431
 11
10.5997029435
 21
8.0642314414
  0
LINE
  5
351
100
AcDbEntity
  8
0
100
AcDbLine
 62
7
  6
CONTINUOUS
 10
12.1373727927
 20
8.916575757
 11
12.1186426458
 21
8.9066167612
  0
LINE
  5
352
100
AcDbEntity
  8
0
100
AcDbLine
 62
7
  6
CONTINUOUS
 10
10.5766396018
 20
8.0867191991
 11
10.5579094549
 21
8.0767602033
  0
LINE
  5
353
100
AcDbEntity
  8
0
100
AcDbLine
 62
7
  6
CONTINUOUS
 10
12.1243889848
 20
8.8749213899
 11
12.1053226839
 21
8.8656221336
  0
LINE
  5
354
100
AcDbEntity
  8
0
100
AcDbLine
 62
7
  6
CONTINUOUS
 10
10.5356449742
 20
8.100039161
 11
10.5165786732
 21
8.0907399047
  0
LINE
  5
355
100
AcDbEntity
  8
0
100
AcDbLine
 62
7
  6
CONTINUOUS
 10
12.1099593698
 20
8.8337455259
 11
12.0905801442
 21
8.8251173387
  0
LINE
  5
356
100
AcDbEntity
  8
0
100
AcDbLine
 62
7
  6
CONTINUOUS
 10
10.4951401793
 20
8.1147817007
 11
10.4757609537
 21
8.1061535135
  0
LINE
  5
357
100
AcDbEntity
  8
0
100
AcDbLine
 62
7
  6
CONTINUOUS
 10
12.0941015281
 20
8.7930983314
 11
12.0744329883
 21
8.7851517255
  0
LINE
  5
358
100
AcDbEntity
  8
0
100
AcDbLine
 62
7
  6
CONTINUOUS
 10
10.4551745661
 20
8.1309288565
 11
10.4355060264
 21
8.1229822507
  0
LINE
  5
359
100
AcDbEntity
  8
0
100
AcDbLine
 62
7
  6
CONTINUOUS
 10
12.0768347798
 20
8.7530293288
 11
12.0569008891
 21
8.7457739859
  0
LINE
  5
35A
100
AcDbEntity
  8
0
100
AcDbLine
 62
7
  6
CONTINUOUS
 10
10.4157968265
 20
8.1484609558
 11
10.3958629358
 21
8.1412056129
  0
LINE
  5
35B
100
AcDbEntity
  8
0
100
AcDbLine
 62
7
  6
CONTINUOUS
 10
12.058180162
 20
8.7135873359
 11
12.0380052066
 21
8.7070320956
  0
LINE
  5
35C
100
AcDbEntity
  8
0
100
AcDbLine
 62
7
  6
CONTINUOUS
 10
10.3770549362
 20
8.1673566382
 11
10.3568799808
 21
8.1608013979
  0
LINE
  5
35D
100
AcDbEntity
  8
0
100
AcDbLine
 62
7
  6
CONTINUOUS
 10
12.0381604024
 20
8.6748204069
 11
12.0177689624
 21
8.6689732556
  0
LINE
  5
35E
100
AcDbEntity
  8
0
100
AcDbLine
 62
7
  6
CONTINUOUS
 10
10.3389960962
 20
8.1875928824
 11
10.3186046563
 21
8.1817457311
  0
LINE
  5
35F
100
AcDbEntity
  8
0
100
AcDbLine
 62
7
  6
CONTINUOUS
 10
9.8585847936
 20
9.8985632312
 11
9.8791678742
 21
9.9036951696
  0
LINE
  5
360
100
AcDbEntity
  8
0
100
AcDbLine
 62
7
  6
CONTINUOUS
 10
11.5737180102
 20
10.3261939707
 11
11.5943010908
 21
10.3313259091
  0
LINE
  5
361
100
AcDbEntity
  8
0
100
AcDbLine
 62
7
  6
CONTINUOUS
 10
9.8812600303
 20
9.9358392181
 11
9.9020096744
 21
9.9402496911
  0
LINE
  5
362
100
AcDbEntity
  8
0
100
AcDbLine
 62
7
  6
CONTINUOUS
 10
11.6102725317
 20
10.3033521705
 11
11.6310221757
 21
10.3077626435
  0
LINE
  5
363
100
AcDbEntity
  8
0
100
AcDbLine
 62
7
  6
CONTINUOUS
 10
9.9052223672
 20
9.9723011432
 11
9.9261132944
 21
9.9759847773
  0
LINE
  5
364
100
AcDbEntity
  8
0
100
AcDbLine
 62
7
  6
CONTINUOUS
 10
11.6460076179
 20
10.2792485505
 11
11.6668985451
 21
10.2829321846
  0
LINE
  5
365
100
AcDbEntity
  8
0
100
AcDbLine
 62
7
  6
CONTINUOUS
 10
9.9304426096
 20
10.0079045831
 11
9.9514493676
 21
10.0108568904
  0
LINE
  5
366
100
AcDbEntity
  8
0
100
AcDbLine
 62
7
  6
CONTINUOUS
 10
11.680879731
 20
10.2539124773
 11
11.701886489
 21
10.2568647846
  0
LINE
  5
367
100
AcDbEntity
  8
0
100
AcDbLine
 62
7
  6
CONTINUOUS
 10
9.9568900307
 20
10.0426061607
 11
9.977987026
 21
10.0448235442
  0
LINE
  5
368
100
AcDbEntity
  8
0
100
AcDbLine
 62
7
  6
CONTINUOUS
 10
11.7148463848
 20
10.2273748189
 11
11.7359433801
 21
10.2295922024
  0
LINE
  5
369
100
AcDbEntity
  8
0
100
AcDbLine
 62
7
  6
CONTINUOUS
 10
9.9845324083
 20
10.0763635972
 11
10.0056939375
 21
10.0778433555
  0
LINE
  5
36A
100
AcDbEntity
  8
0
100
AcDbLine
 62
7
  6
CONTINUOUS
 10
11.7478661961
 20
10.1996679074
 11
11.7690277252
 21
10.2011476657
  0
LINE
  5
36B
100
AcDbEntity
  8
0
100
AcDbLine
 62
7
  6
CONTINUOUS
 10
10.0133360645
 20
10.1091357646
 11
10.0345363454
 21
10.1098760948
  0
LINE
  5
36C
100
AcDbEntity
  8
0
100
AcDbLine
 62
7
  6
CONTINUOUS
 10
11.7798989354
 20
10.1708254994
 11
11.8010992163
 21
10.1715658296
  0
LINE
  5
36D
100
AcDbEntity
  8
0
100
AcDbLine
 62
7
  6
CONTINUOUS
 10
10.0432659064
 20
10.140882735
 11
10.0644791099
 21
10.140882735
  0
LINE
  5
36E
100
AcDbEntity
  8
0
100
AcDbLine
 62
7
  6
CONTINUOUS
 10
11.8109055756
 20
10.140882735
 11
11.832118779
 21
10.140882735
  0
LINE
  5
36F
100
AcDbEntity
  8
0
100
AcDbLine
 62
7
  6
CONTINUOUS
 10
10.0742854692
 20
10.1715658296
 11
10.0954857501
 21
10.1708254994
  0
LINE
  5
370
100
AcDbEntity
  8
0
100
AcDbLine
 62
7
  6
CONTINUOUS
 10
11.84084834
 20
10.1098760948
 11
11.862048621
 21
10.1091357646
  0
LINE
  5
371
100
AcDbEntity
  8
0
100
AcDbLine
 62
7
  6
CONTINUOUS
 10
10.1063569602
 20
10.2011476657
 11
10.1275184894
 21
10.1996679074
  0
LINE
  5
372
100
AcDbEntity
  8
0
100
AcDbLine
 62
7
  6
CONTINUOUS
 10
11.869690748
 20
10.0778433555
 11
11.8908522771
 21
10.0763635972
  0
LINE
  5
373
100
AcDbEntity
  8
0
100
AcDbLine
 62
7
  6
CONTINUOUS
 10
10.1394413054
 20
10.2295922024
 11
10.1605383007
 21
10.2273748189
  0
LINE
  5
374
100
AcDbEntity
  8
0
100
AcDbLine
 62
7
  6
CONTINUOUS
 10
11.8973976595
 20
10.0448235442
 11
11.9184946548
 21
10.0426061607
  0
LINE
  5
375
100
AcDbEntity
  8
0
100
AcDbLine
 62
7
  6
CONTINUOUS
 10
10.1734981964
 20
10.2568647846
 11
10.1945049544
 21
10.2539124773
  0
LINE
  5
376
100
AcDbEntity
  8
0
100
AcDbLine
 62
7
  6
CONTINUOUS
 10
11.9239353179
 20
10.0108568904
 11
11.9449420759
 21
10.0079045831
  0
LINE
  5
377
100
AcDbEntity
  8
0
100
AcDbLine
 62
7
  6
CONTINUOUS
 10
10.2084861404
 20
10.2829321846
 11
10.2293770676
 21
10.2792485505
  0
LINE
  5
378
100
AcDbEntity
  8
0
100
AcDbLine
 62
7
  6
CONTINUOUS
 10
11.9492713911
 20
9.9759847773
 11
11.9701623183
 21
9.9723011432
  0
LINE
  5
379
100
AcDbEntity
  8
0
100
AcDbLine
 62
7
  6
CONTINUOUS
 10
10.2443625097
 20
10.3077626435
 11
10.2651121538
 21
10.3033521705
  0
LINE
  5
37A
100
AcDbEntity
  8
0
100
AcDbLine
 62
7
  6
CONTINUOUS
 10
11.9733750111
 20
9.9402496911
 11
11.9941246551
 21
9.9358392181
  0
LINE
  5
37B
100
AcDbEntity
  8
0
100
AcDbLine
 62
7
  6
CONTINUOUS
 10
10.2810835947
 20
10.3313259091
 11
10.3016666753
 21
10.3261939707
  0
LINE
  5
37C
100
AcDbEntity
  8
0
100
AcDbLine
 62
7
  6
CONTINUOUS
 10
11.9962168113
 20
9.9036951696
 11
12.0167998919
 21
9.8985632312
  0
LINE
  5
37D
100
AcDbEntity
  8
0
100
AcDbLine
 62
7
  6
CONTINUOUS
 10
10.3186046563
 20
10.3535932732
 11
10.3389960962
 21
10.3477461219
  0
LINE
  5
37E
100
AcDbEntity
  8
0
100
AcDbLine
 62
7
  6
CONTINUOUS
 10
12.0177689624
 20
9.8663657487
 11
12.0381604024
 21
9.8605185974
  0
LINE
  5
37F
100
AcDbEntity
  8
0
100
AcDbLine
 62
7
  6
CONTINUOUS
 10
10.3568799808
 20
10.3745376064
 11
10.3770549362
 21
10.367982366
  0
LINE
  5
380
100
AcDbEntity
  8
0
100
AcDbLine
 62
7
  6
CONTINUOUS
 10
12.0380052066
 20
9.8283069087
 11
12.058180162
 21
9.8217516683
  0
LINE
  5
381
100
AcDbEntity
  8
0
100
AcDbLine
 62
7
  6
CONTINUOUS
 10
10.3958629358
 20
10.3941333914
 11
10.4157968265
 21
10.3868780485
  0
LINE
  5
382
100
AcDbEntity
  8
0
100
AcDbLine
 62
7
  6
CONTINUOUS
 10
12.0569008891
 20
9.7895650184
 11
12.0768347798
 21
9.7823096755
  0
LINE
  5
383
100
AcDbEntity
  8
0
100
AcDbLine
 62
7
  6
CONTINUOUS
 10
10.4355060264
 20
10.4123567536
 11
10.4551745661
 21
10.4044101477
  0
LINE
  5
384
100
AcDbEntity
  8
0
100
AcDbLine
 62
7
  6
CONTINUOUS
 10
12.0744329883
 20
9.7501872788
 11
12.0941015281
 21
9.7422406729
  0
LINE
  5
385
100
AcDbEntity
  8
0
100
AcDbLine
 62
7
  6
CONTINUOUS
 10
10.4757609537
 20
10.4291854908
 11
10.4951401793
 21
10.4205573036
  0
LINE
  5
386
100
AcDbEntity
  8
0
100
AcDbLine
 62
7
  6
CONTINUOUS
 10
12.0905801442
 20
9.7102216656
 11
12.1099593698
 21
9.7015934784
  0
LINE
  5
387
100
AcDbEntity
  8
0
100
AcDbLine
 62
7
  6
CONTINUOUS
 10
10.5165786732
 20
10.4445990996
 11
10.5356449742
 21
10.4352998433
  0
LINE
  5
388
100
AcDbEntity
  8
0
100
AcDbLine
 62
7
  6
CONTINUOUS
 10
12.1053226839
 20
9.6697168707
 11
12.1243889848
 21
9.6604176144
  0
LINE
  5
389
100
AcDbEntity
  8
0
100
AcDbLine
 62
7
  6
CONTINUOUS
 10
10.5579094549
 20
10.458578801
 11
10.5766396018
 21
10.4486198052
  0
LINE
  5
38A
100
AcDbEntity
  8
0
100
AcDbLine
 62
7
  6
CONTINUOUS
 10
12.1186426458
 20
9.6287222431
 11
12.1373727927
 21
9.6187632473
  0
LINE
  5
38B
100
AcDbEntity
  8
0
100
AcDbLine
 62
7
  6
CONTINUOUS
 10
10.5997029435
 20
10.4711075629
 11
10.6180741166
 21
10.4605009612
  0
LINE
  5
38C
100
AcDbEntity
  8
0
100
AcDbLine
 62
7
  6
CONTINUOUS
 10
12.1305238018
 20
9.5872877283
 11
12.1488949748
 21
9.5766811266
  0
LINE
  5
38D
100
AcDbEntity
  8
0
100
AcDbLine
 62
7
  6
CONTINUOUS
 10
10.6419082202
 20
10.4821701208
 11
10.6598980369
 21
10.4709288357
  0
LINE
  5
38E
100
AcDbEntity
  8
0
100
AcDbLine
 62
7
  6
CONTINUOUS
 10
12.1409516763
 20
9.5454638079
 11
12.1589414931
 21
9.5342225228
  0
LINE
  5
38F
100
AcDbEntity
  8
0
100
AcDbLine
 62
7
  6
CONTINUOUS
 10
10.6844738642
 20
10.4917529969
 11
10.7020604069
 21
10.4798907241
  0
LINE
  5
390
100
AcDbEntity
  8
0
100
AcDbLine
 62
7
  6
CONTINUOUS
 10
12.1499135647
 20
9.503301438
 11
12.1675001074
 21
9.4914391652
  0
LINE
  5
391
100
AcDbEntity
  8
0
100
AcDbLine
 62
7
  6
CONTINUOUS
 10
10.7273480159
 20
10.4998445158
 11
10.744509858
 21
10.4873757076
  0
LINE
  5
392
100
AcDbEntity
  8
0
100
AcDbLine
 62
7
  6
CONTINUOUS
 10
12.1573985482
 20
9.4608519869
 11
12.1745603903
 21
9.4483831787
  0
LINE
  5
393
100
AcDbEntity
  8
0
100
AcDbLine
 62
7
  6
CONTINUOUS
 10
10.7704784398
 20
10.5064348192
 11
10.7871946723
 21
10.4933746671
  0
LINE
  5
394
100
AcDbEntity
  8
0
100
AcDbLine
 62
7
  6
CONTINUOUS
 10
12.1633975076
 20
9.4181671726
 11
12.1801137401
 21
9.4051070205
  0
LINE
  5
395
100
AcDbEntity
  8
0
100
AcDbLine
 62
7
  6
CONTINUOUS
 10
10.8138125881
 20
10.5115158779
 11
10.8300628447
 21
10.4978802935
  0
LINE
  5
396
100
AcDbEntity
  8
0
100
AcDbLine
 62
7
  6
CONTINUOUS
 10
12.1679031341
 20
9.3752990001
 11
12.1841533907
 21
9.3616634158
  0
LINE
  5
397
100
AcDbEntity
  8
0
100
AcDbLine
 62
7
  6
CONTINUOUS
 10
10.8572976648
 20
10.5150815013
 11
10.8730621472
 21
10.5008870977
  0
LINE
  5
398
100
AcDbEntity
  8
0
100
AcDbLine
 62
7
  6
CONTINUOUS
 10
12.1709099383
 20
9.3322996977
 11
12.1866744206
 21
9.318105294
  0
LINE
  5
399
100
AcDbEntity
  8
0
100
AcDbLine
 62
7
  6
CONTINUOUS
 10
10.90088069
 20
10.5171273455
 11
10.9161401916
 21
10.5023914161
  0
LINE
  5
39A
100
AcDbEntity
  8
0
100
AcDbLine
 62
7
  6
CONTINUOUS
 10
12.1724142567
 20
9.2892216533
 11
12.1876737582
 21
9.274485724
  0
LINE
  5
39B
100
AcDbEntity
  8
0
100
AcDbLine
 62
7
  6
CONTINUOUS
 10
10.9445085646
 20
10.5176509177
 11
10.9592444939
 21
10.5023914161
  0
LINE
  5
39C
100
AcDbEntity
  8
0
100
AcDbLine
 62
7
  6
CONTINUOUS
 10
12.1724142567
 20
9.246117351
 11
12.1871501861
 21
9.2308578494
  0
LINE
  5
39D
100
AcDbEntity
  8
0
100
AcDbLine
 62
7
  6
CONTINUOUS
 10
10.9881281346
 20
10.51665158
 11
11.0023225383
 21
10.5008870977
  0
LINE
  5
39E
100
AcDbEntity
  8
0
100
AcDbLine
 62
7
  6
CONTINUOUS
 10
12.1709099383
 20
9.2030393066
 11
12.1851043419
 21
9.1872748242
  0
LINE
  5
39F
100
AcDbEntity
  8
0
100
AcDbLine
 62
7
  6
CONTINUOUS
 10
11.0316862564
 20
10.5141305501
 11
11.0453218407
 21
10.4978802935
  0
LINE
  5
3A0
100
AcDbEntity
  8
0
100
AcDbLine
 62
7
  6
CONTINUOUS
 10
12.1679031341
 20
9.1600400041
 11
12.1815387185
 21
9.1437897475
  0
LINE
  5
3A1
100
AcDbEntity
  8
0
100
AcDbLine
 62
7
  6
CONTINUOUS
 10
11.0751298611
 20
10.5100908995
 11
11.0881900132
 21
10.4933746671
  0
LINE
  5
3A2
100
AcDbEntity
  8
0
100
AcDbLine
 62
7
  6
CONTINUOUS
 10
12.1633975076
 20
9.1171718317
 11
12.1764576598
 21
9.1004555992
  0
LINE
  5
3A3
100
AcDbEntity
  8
0
100
AcDbLine
 62
7
  6
CONTINUOUS
 10
11.1184060193
 20
10.5045375497
 11
11.1308748275
 21
10.4873757076
  0
LINE
  5
3A4
100
AcDbEntity
  8
0
100
AcDbLine
 62
7
  6
CONTINUOUS
 10
12.1573985482
 20
9.0744870174
 11
12.1698673564
 21
9.0573251753
  0
LINE
  5
3A5
100
AcDbEntity
  8
0
100
AcDbLine
 62
7
  6
CONTINUOUS
 10
11.1614620058
 20
10.4974772668
 11
11.1733242786
 21
10.4798907241
  0
LINE
  5
3A6
100
AcDbEntity
  8
0
100
AcDbLine
 62
7
  6
CONTINUOUS
 10
12.1499135647
 20
9.0320375663
 11
12.1617758375
 21
9.0144510236
  0
LINE
  5
3A7
100
AcDbEntity
  8
0
100
AcDbLine
 62
7
  6
CONTINUOUS
 10
11.2042453634
 20
10.4889186525
 11
11.2154866485
 21
10.4709288357
  0
LINE
  5
3A8
100
AcDbEntity
  8
0
100
AcDbLine
 62
7
  6
CONTINUOUS
 10
12.1409516763
 20
8.9898751964
 11
12.1521929614
 21
8.9718853796
  0
LINE
  5
3A9
100
AcDbEntity
  8
0
100
AcDbLine
 62
7
  6
CONTINUOUS
 10
11.2467039672
 20
10.4788721342
 11
11.2573105689
 21
10.4605009612
  0
LINE
  5
3AA
100
AcDbEntity
  8
0
100
AcDbLine
 62
7
  6
CONTINUOUS
 10
12.1305238018
 20
8.948051276
 11
12.1411304035
 21
8.9296801029
  0
LINE
  5
3AB
100
AcDbEntity
  8
0
100
AcDbLine
 62
7
  6
CONTINUOUS
 10
12.7449196308
 20
7.8370844009
 11
12.7529516857
 21
7.8227226871
  0
LINE
  5
3AC
100
AcDbEntity
  8
0
100
AcDbLine
 62
7
  6
CONTINUOUS
 10
11.2887860879
 20
10.4673499521
 11
11.2987450837
 21
10.4486198052
  0
LINE
  5
3AD
100
AcDbEntity
  8
0
100
AcDbLine
 62
7
  6
CONTINUOUS
 10
12.1186426458
 20
8.9066167612
 11
12.1286016416
 21
8.8878866143
  0
LINE
  5
3AE
100
AcDbEntity
  8
0
100
AcDbLine
 62
7
  6
CONTINUOUS
 10
11.330440455
 20
10.4543661442
 11
11.3397397113
 21
10.4352998433
  0
LINE
  5
3AF
100
AcDbEntity
  8
0
100
AcDbLine
 62
7
  6
CONTINUOUS
 10
12.1053226839
 20
8.8656221336
 11
12.1146219402
 21
8.8465558326
  0
LINE
  5
3B0
100
AcDbEntity
  8
0
100
AcDbLine
 62
7
  6
CONTINUOUS
 10
11.371616319
 20
10.4399365292
 11
11.3802445061
 21
10.4205573036
  0
LINE
  5
3B1
100
AcDbEntity
  8
0
100
AcDbLine
 62
7
  6
CONTINUOUS
 10
12.0905801442
 20
8.8251173387
 11
12.0992083314
 21
8.8057381131
  0
LINE
  5
3B2
100
AcDbEntity
  8
0
100
AcDbLine
 62
7
  6
CONTINUOUS
 10
10.8482979843
 20
11.407829077
 11
10.8564247371
 21
11.3886801398
  0
LINE
  5
3B3
100
AcDbEntity
  8
0
100
AcDbLine
 62
7
  6
CONTINUOUS
 10
11.0027064272
 20
11.527509934
 11
10.9945796744
 21
11.5466588678
  0
LINE
  5
3B4
100
AcDbEntity
  8
0
100
AcDbLine
 62
7
  6
CONTINUOUS
 10
12.4075720142
 20
7.827509934
 11
12.3995399363
 21
7.8466588678
  0
LINE
  5
3B5
100
AcDbEntity
  8
0
100
AcDbLine
 62
7
  6
CONTINUOUS
 10
11.4122635135
 20
10.4240786875
 11
11.4202101194
 21
10.4044101477
  0
LINE
  5
3B6
100
AcDbEntity
  8
0
100
AcDbLine
 62
7
  6
CONTINUOUS
 10
12.0744329883
 20
8.7851517255
 11
12.0823795942
 21
8.7654831858
  0
LINE
  5
3B7
100
AcDbEntity
  8
0
100
AcDbLine
 62
7
  6
CONTINUOUS
 10
11.4523325161
 20
10.4068119392
 11
11.459587859
 21
10.3868780485
  0
LINE
  5
3B8
100
AcDbEntity
  8
0
100
AcDbLine
 62
7
  6
CONTINUOUS
 10
12.0569008891
 20
8.7457739859
 11
12.064156232
 21
8.7258400952
  0
LINE
  5
3B9
100
AcDbEntity
  8
0
100
AcDbLine
 62
7
  6
CONTINUOUS
 10
11.4917745089
 20
10.3881573214
 11
11.4983297493
 21
10.367982366
  0
LINE
  5
3BA
100
AcDbEntity
  8
0
100
AcDbLine
 62
7
  6
CONTINUOUS
 10
12.0380052066
 20
8.7070320956
 11
12.044560447
 21
8.6868571402
  0
LINE
  5
3BB
100
AcDbEntity
  8
0
100
AcDbLine
 62
7
  6
CONTINUOUS
 10
11.530541438
 20
10.3681375618
 11
11.5363885893
 21
10.3477461219
  0
LINE
  5
3BC
100
AcDbEntity
  8
0
100
AcDbLine
 62
7
  6
CONTINUOUS
 10
12.0177689624
 20
8.6689732556
 11
12.0236161138
 21
8.6485818157
  0
LINE
  5
3BD
100
AcDbEntity
  8
0
100
AcDbLine
 62
7
  6
CONTINUOUS
 10
12.1907057156
 20
7.8370844009
 11
12.1947217545
 21
7.8227226871
  0
LINE
  5
3BE
100
AcDbEntity
  8
0
100
AcDbLine
 62
7
  6
CONTINUOUS
 10
11.5685860718
 20
10.3467770513
 11
11.5737180102
 21
10.3261939707
  0
LINE
  5
3BF
100
AcDbEntity
  8
0
100
AcDbLine
 62
7
  6
CONTINUOUS
 10
11.9962168113
 20
8.6316438347
 11
12.0013487497
 21
8.6110607541
  0
LINE
  5
3C0
100
AcDbEntity
  8
0
100
AcDbLine
 62
7
  6
CONTINUOUS
 10
11.6058620587
 20
10.3241018145
 11
11.6102725317
 21
10.3033521705
  0
LINE
  5
3C1
100
AcDbEntity
  8
0
100
AcDbLine
 62
7
  6
CONTINUOUS
 10
11.9733750111
 20
8.5950893132
 11
11.9777854841
 21
8.5743396691
  0
LINE
  5
3C2
100
AcDbEntity
  8
0
100
AcDbLine
 62
7
  6
CONTINUOUS
 10
12.0903046412
 20
7.7126163105
 11
12.0862885994
 21
7.7317652444
  0
LINE
  5
3C3
100
AcDbEntity
  8
0
100
AcDbLine
 62
7
  6
CONTINUOUS
 10
11.6423239838
 20
10.3001394777
 11
11.6460076179
 21
10.2792485505
  0
LINE
  5
3C4
100
AcDbEntity
  8
0
100
AcDbLine
 62
7
  6
CONTINUOUS
 10
11.9492713911
 20
8.559354227
 11
11.9529550252
 21
8.5384632998
  0
LINE
  5
3C5
100
AcDbEntity
  8
0
100
AcDbLine
 62
7
  6
CONTINUOUS
 10
12.0621923427
 20
7.7317652444
 11
12.0662083856
 21
7.707829077
  0
LINE
  5
3C6
100
AcDbEntity
  8
0
100
AcDbLine
 62
7
  6
CONTINUOUS
 10
11.6779274237
 20
10.2749192353
 11
11.680879731
 21
10.2539124773
  0
LINE
  5
3C7
100
AcDbEntity
  8
0
100
AcDbLine
 62
7
  6
CONTINUOUS
 10
11.9239353179
 20
8.5244821139
 11
11.9268876252
 21
8.5034753559
  0
LINE
  5
3C8
100
AcDbEntity
  8
0
100
AcDbLine
 62
7
  6
CONTINUOUS
 10
12.0621923427
 20
7.8035737532
 11
12.0621923427
 21
7.7317652444
  0
LINE
  5
3C9
100
AcDbEntity
  8
0
100
AcDbLine
 62
7
  6
CONTINUOUS
 10
12.0862885994
 20
7.7317652444
 11
12.0862885994
 21
7.8035737532
  0
LINE
  5
3CA
100
AcDbEntity
  8
0
100
AcDbLine
 62
7
  6
CONTINUOUS
 10
12.1520515617
 20
10.6551695021
 11
12.1883234107
 21
10.8801695021
  0
LINE
  5
3CB
100
AcDbEntity
  8
0
100
AcDbLine
 62
7
  6
CONTINUOUS
 10
12.5827797214
 20
10.8131482201
 11
12.5782457581
 21
10.7987865197
  0
LINE
  5
3CC
100
AcDbEntity
  8
0
100
AcDbLine
 62
7
  6
CONTINUOUS
 10
12.6054496416
 20
10.7939992862
 11
12.6099836049
 21
10.8083609867
  0
LINE
  5
3CD
100
AcDbEntity
  8
0
100
AcDbLine
 62
7
  6
CONTINUOUS
 10
12.7777408691
 20
10.6551695021
 11
12.8412166146
 21
10.8322971674
  0
LINE
  5
3CE
100
AcDbEntity
  8
0
100
AcDbLine
 62
7
  6
CONTINUOUS
 10
10.8808050188
 20
11.3982546101
 11
10.872678266
 21
11.4126163105
  0
LINE
  5
3CF
100
AcDbEntity
  8
0
100
AcDbLine
 62
7
  6
CONTINUOUS
 10
10.9701993927
 20
11.5370844009
 11
10.9783261456
 21
11.5227226871
  0
LINE
  5
3D0
100
AcDbEntity
  8
0
100
AcDbLine
 62
7
  6
CONTINUOUS
 10
12.7770479424
 20
7.827509934
 11
12.7690158875
 21
7.8466588678
  0
LINE
  5
3D1
100
AcDbEntity
  8
0
100
AcDbLine
 62
7
  6
CONTINUOUS
 10
12.2790586529
 20
7.7126163105
 11
12.2750426025
 21
7.7317652444
  0
LINE
  5
3D2
100
AcDbEntity
  8
0
100
AcDbLine
 62
7
  6
CONTINUOUS
 10
12.3834757575
 20
7.8227226871
 11
12.387491808
 21
7.8035737532
  0
LINE
  5
3D3
100
AcDbEntity
  8
0
100
AcDbLine
 62
7
  6
CONTINUOUS
 10
12.2188180112
 20
7.8227226871
 11
12.2148019722
 21
7.8466588678
  0
LINE
  5
3D4
100
AcDbEntity
  8
0
100
AcDbLine
 62
7
  6
CONTINUOUS
 10
12.2509463573
 20
7.7317652444
 11
12.2549623962
 21
7.707829077
  0
LINE
  5
3D5
100
AcDbEntity
  8
0
100
AcDbLine
 62
7
  6
CONTINUOUS
 10
12.4115880647
 20
7.8035737532
 11
12.4075720142
 21
7.827509934
  0
LINE
  5
3D6
100
AcDbEntity
  8
0
100
AcDbLine
 62
7
  6
CONTINUOUS
 10
12.2509463573
 20
7.8035737532
 11
12.2509463573
 21
7.7317652444
  0
LINE
  5
3D7
100
AcDbEntity
  8
0
100
AcDbLine
 62
7
  6
CONTINUOUS
 10
12.2750426025
 20
7.7317652444
 11
12.2750426025
 21
7.8035737532
  0
LINE
  5
3D8
100
AcDbEntity
  8
0
100
AcDbLine
 62
7
  6
CONTINUOUS
 10
12.387491808
 20
7.8035737532
 11
12.387491808
 21
7.7317652444
  0
LINE
  5
3D9
100
AcDbEntity
  8
0
100
AcDbLine
 62
7
  6
CONTINUOUS
 10
12.4115880647
 20
7.7317652444
 11
12.4115880647
 21
7.8035737532
  0
LINE
  5
3DA
100
AcDbEntity
  8
0
100
AcDbLine
 62
7
  6
CONTINUOUS
 10
12.4422263406
 20
10.8801695021
 11
12.4422263406
 21
10.6551695021
  0
LINE
  5
3DB
100
AcDbEntity
  8
0
100
AcDbLine
 62
7
  6
CONTINUOUS
 10
12.4437163992
 20
7.8801695021
 11
12.4437163992
 21
7.6551695021
  0
LINE
  5
3DC
100
AcDbEntity
  8
0
100
AcDbLine
 62
7
  6
CONTINUOUS
 10
12.4678126789
 20
7.6838929063
 11
12.4678126789
 21
7.8801695021
  0
LINE
  5
3DD
100
AcDbEntity
  8
0
100
AcDbLine
 62
7
  6
CONTINUOUS
 10
12.4694302241
 20
10.6551695021
 11
12.4694302241
 21
10.7557014185
  0
LINE
  5
3DE
100
AcDbEntity
  8
0
100
AcDbLine
 62
7
  6
CONTINUOUS
 10
12.4694302241
 20
10.7844248193
 11
12.4694302241
 21
10.8562333348
  0
LINE
  5
3DF
100
AcDbEntity
  8
0
100
AcDbLine
 62
7
  6
CONTINUOUS
 10
12.0662083856
 20
7.827509934
 11
12.0621923427
 21
7.8035737532
  0
LINE
  5
3E0
100
AcDbEntity
  8
0
100
AcDbLine
 62
7
  6
CONTINUOUS
 10
12.2148019722
 20
7.6886801398
 11
12.2188180112
 21
7.7126163105
  0
LINE
  5
3E1
100
AcDbEntity
  8
0
100
AcDbLine
 62
7
  6
CONTINUOUS
 10
12.2549623962
 20
7.827509934
 11
12.2509463573
 21
7.8035737532
  0
LINE
  5
3E2
100
AcDbEntity
  8
0
100
AcDbLine
 62
7
  6
CONTINUOUS
 10
12.0862885994
 20
7.8035737532
 11
12.0903046412
 21
7.8227226871
  0
LINE
  5
3E3
100
AcDbEntity
  8
0
100
AcDbLine
 62
7
  6
CONTINUOUS
 10
12.8276146728
 20
10.8801695021
 11
12.7596049641
 21
10.6791056729
  0
LINE
  5
3E4
100
AcDbEntity
  8
0
100
AcDbLine
 62
7
  6
CONTINUOUS
 10
12.0069641885
 20
10.6551695021
 11
12.0432360342
 21
10.6551695021
  0
LINE
  5
3E5
100
AcDbEntity
  8
0
100
AcDbLine
 62
7
  6
CONTINUOUS
 10
12.1157797257
 20
10.6551695021
 11
12.1520515617
 21
10.6551695021
  0
LINE
  5
3E6
100
AcDbEntity
  8
0
100
AcDbLine
 62
7
  6
CONTINUOUS
 10
12.2245952467
 20
10.6551695021
 11
12.2517991302
 21
10.6551695021
  0
LINE
  5
3E7
100
AcDbEntity
  8
0
100
AcDbLine
 62
7
  6
CONTINUOUS
 10
12.3787505952
 20
10.6551695021
 11
12.4059544787
 21
10.6551695021
  0
LINE
  5
3E8
100
AcDbEntity
  8
0
100
AcDbLine
 62
7
  6
CONTINUOUS
 10
12.4422263406
 20
10.6551695021
 11
12.4694302241
 21
10.6551695021
  0
LINE
  5
3E9
100
AcDbEntity
  8
0
100
AcDbLine
 62
7
  6
CONTINUOUS
 10
12.5827797214
 20
10.6551695021
 11
12.6145175682
 21
10.6551695021
  0
LINE
  5
3EA
100
AcDbEntity
  8
0
100
AcDbLine
 62
7
  6
CONTINUOUS
 10
12.6507894301
 20
10.6551695021
 11
12.6779933136
 21
10.6551695021
  0
LINE
  5
3EB
100
AcDbEntity
  8
0
100
AcDbLine
 62
7
  6
CONTINUOUS
 10
12.7414690591
 20
10.6551695021
 11
12.7777408691
 21
10.6551695021
  0
LINE
  5
3EC
100
AcDbEntity
  8
0
100
AcDbLine
 62
7
  6
CONTINUOUS
 10
12.8412166146
 20
10.6551695021
 11
12.8684204981
 21
10.6551695021
  0
LINE
  5
3ED
100
AcDbEntity
  8
0
100
AcDbLine
 62
7
  6
CONTINUOUS
 10
12.2699350612
 20
10.7126163105
 11
12.3606146642
 21
10.7126163105
  0
LINE
  5
3EE
100
AcDbEntity
  8
0
100
AcDbLine
 62
7
  6
CONTINUOUS
 10
12.3560807009
 20
10.7317652444
 11
12.2744690504
 21
10.7317652444
  0
LINE
  5
3EF
100
AcDbEntity
  8
0
100
AcDbLine
 62
7
  6
CONTINUOUS
 10
12.4694302241
 20
10.7557014185
 11
12.5465078594
 21
10.7557014185
  0
LINE
  5
3F0
100
AcDbEntity
  8
0
100
AcDbLine
 62
7
  6
CONTINUOUS
 10
12.5555758379
 20
10.7844248193
 11
12.4694302241
 21
10.7844248193
  0
LINE
  5
3F1
100
AcDbEntity
  8
0
100
AcDbLine
 62
7
  6
CONTINUOUS
 10
10.8564247371
 20
11.3886801398
 11
10.872678266
 21
11.3695312042
  0
LINE
  5
3F2
100
AcDbEntity
  8
0
100
AcDbLine
 62
7
  6
CONTINUOUS
 10
10.9945796744
 20
11.5466588678
 11
10.9783261456
 21
11.5658078017
  0
LINE
  5
3F3
100
AcDbEntity
  8
0
100
AcDbLine
 62
7
  6
CONTINUOUS
 10
12.1339156437
 20
10.707829077
 11
12.0976437947
 21
10.8801695021
  0
LINE
  5
3F4
100
AcDbEntity
  8
0
100
AcDbLine
 62
7
  6
CONTINUOUS
 10
12.7529516857
 20
7.8227226871
 11
12.7569677591
 21
7.8035737532
  0
LINE
  5
3F5
100
AcDbEntity
  8
0
100
AcDbLine
 62
7
  6
CONTINUOUS
 10
12.0795078767
 20
10.8370844009
 11
12.1157797257
 21
10.6551695021
  0
LINE
  5
3F6
100
AcDbEntity
  8
0
100
AcDbLine
 62
7
  6
CONTINUOUS
 10
11.9706923427
 20
10.8801695021
 11
12.0069641885
 21
10.6551695021
  0
LINE
  5
3F7
100
AcDbEntity
  8
0
100
AcDbLine
 62
7
  6
CONTINUOUS
 10
12.0251001097
 20
10.707829077
 11
11.9978962262
 21
10.8801695021
  0
LINE
  5
3F8
100
AcDbEntity
  8
0
100
AcDbLine
 62
7
  6
CONTINUOUS
 10
12.5827797214
 20
10.827509934
 11
12.5827797214
 21
10.8131482201
  0
LINE
  5
3F9
100
AcDbEntity
  8
0
100
AcDbLine
 62
7
  6
CONTINUOUS
 10
12.5882939623
 20
7.6551695021
 11
12.5882939623
 21
7.6838929063
  0
LINE
  5
3FA
100
AcDbEntity
  8
0
100
AcDbLine
 62
7
  6
CONTINUOUS
 10
12.6099836049
 20
10.8083609867
 11
12.6099836049
 21
10.827509934
  0
LINE
  5
3FB
100
AcDbEntity
  8
0
100
AcDbLine
 62
7
  6
CONTINUOUS
 10
12.6204222739
 20
7.8801695021
 11
12.6204222739
 21
7.6551695021
  0
LINE
  5
3FC
100
AcDbEntity
  8
0
100
AcDbLine
 62
7
  6
CONTINUOUS
 10
12.6445185306
 20
7.6838929063
 11
12.6445185306
 21
7.8514461013
  0
LINE
  5
3FD
100
AcDbEntity
  8
0
100
AcDbLine
 62
7
  6
CONTINUOUS
 10
12.6507894301
 20
10.8801695021
 11
12.6507894301
 21
10.6551695021
  0
LINE
  5
3FE
100
AcDbEntity
  8
0
100
AcDbLine
 62
7
  6
CONTINUOUS
 10
12.6779933136
 20
10.6551695021
 11
12.6779933136
 21
10.8322971674
  0
LINE
  5
3FF
100
AcDbEntity
  8
0
100
AcDbLine
 62
7
  6
CONTINUOUS
 10
12.7569677591
 20
7.8035737532
 11
12.7569677591
 21
7.7317652444
  0
LINE
  5
400
100
AcDbEntity
  8
0
100
AcDbLine
 62
7
  6
CONTINUOUS
 10
12.7810640158
 20
7.7317652444
 11
12.7810640158
 21
7.8035737532
  0
LINE
  5
401
100
AcDbEntity
  8
0
100
AcDbLine
 62
7
  6
CONTINUOUS
 10
12.4075720142
 20
7.707829077
 11
12.4115880647
 21
7.7317652444
  0
LINE
  5
402
100
AcDbEntity
  8
0
100
AcDbLine
 62
7
  6
CONTINUOUS
 10
12.2750426025
 20
7.8035737532
 11
12.2790586529
 21
7.8227226871
  0
LINE
  5
403
100
AcDbEntity
  8
0
100
AcDbLine
 62
7
  6
CONTINUOUS
 10
12.387491808
 20
7.7317652444
 11
12.3834757575
 21
7.7126163105
  0
LINE
  5
404
100
AcDbEntity
  8
0
100
AcDbLine
 62
7
  6
CONTINUOUS
 10
12.1947217545
 20
7.7126163105
 11
12.1907057156
 21
7.6982546101
  0
LINE
  5
405
100
AcDbEntity
  8
0
100
AcDbLine
 62
7
  6
CONTINUOUS
 10
12.0742404711
 20
7.8466588678
 11
12.0662083856
 21
7.827509934
  0
LINE
  5
406
100
AcDbEntity
  8
0
100
AcDbLine
 62
7
  6
CONTINUOUS
 10
12.2629944741
 20
7.8466588678
 11
12.2549623962
 21
7.827509934
  0
LINE
  5
407
100
AcDbEntity
  8
0
100
AcDbLine
 62
7
  6
CONTINUOUS
 10
12.0903046412
 20
7.8227226871
 11
12.0983367278
 21
7.8370844009
  0
LINE
  5
408
100
AcDbEntity
  8
0
100
AcDbLine
 62
7
  6
CONTINUOUS
 10
12.2790586529
 20
7.8227226871
 11
12.2870907308
 21
7.8370844009
  0
LINE
  5
409
100
AcDbEntity
  8
0
100
AcDbLine
 62
7
  6
CONTINUOUS
 10
12.0903046412
 20
7.8658078017
 11
12.0742404711
 21
7.8466588678
  0
LINE
  5
40A
100
AcDbEntity
  8
0
100
AcDbLine
 62
7
  6
CONTINUOUS
 10
12.0983367278
 20
7.8370844009
 11
12.1103848561
 21
7.8466588678
  0
LINE
  5
40B
100
AcDbEntity
  8
0
100
AcDbLine
 62
7
  6
CONTINUOUS
 10
12.1063688143
 20
7.8753822687
 11
12.0903046412
 21
7.8658078017
  0
LINE
  5
40C
100
AcDbEntity
  8
0
100
AcDbLine
 62
7
  6
CONTINUOUS
 10
12.1103848561
 20
7.8466588678
 11
12.1264490291
 21
7.8514461013
  0
LINE
  5
40D
100
AcDbEntity
  8
0
100
AcDbLine
 62
7
  6
CONTINUOUS
 10
12.2991388591
 20
7.8466588678
 11
12.3152030379
 21
7.8514461013
  0
LINE
  5
40E
100
AcDbEntity
  8
0
100
AcDbLine
 62
7
  6
CONTINUOUS
 10
12.1786575872
 20
7.6886801398
 11
12.1625934084
 21
7.6838929063
  0
LINE
  5
40F
100
AcDbEntity
  8
0
100
AcDbLine
 62
7
  6
CONTINUOUS
 10
12.4694302241
 20
10.8562333348
 11
12.5555758379
 21
10.8562333348
  0
LINE
  5
410
100
AcDbEntity
  8
0
100
AcDbLine
 62
7
  6
CONTINUOUS
 10
12.8684204981
 20
10.8801695021
 11
12.8276146728
 21
10.8801695021
  0
LINE
  5
411
100
AcDbEntity
  8
0
100
AcDbLine
 62
7
  6
CONTINUOUS
 10
12.6915952554
 20
10.8801695021
 11
12.6507894301
 21
10.8801695021
  0
LINE
  5
412
100
AcDbEntity
  8
0
100
AcDbLine
 62
7
  6
CONTINUOUS
 10
12.5510418746
 20
10.8801695021
 11
12.4422263406
 21
10.8801695021
  0
LINE
  5
413
100
AcDbEntity
  8
0
100
AcDbLine
 62
7
  6
CONTINUOUS
 10
12.3334107807
 20
10.8801695021
 11
12.2971389447
 21
10.8801695021
  0
LINE
  5
414
100
AcDbEntity
  8
0
100
AcDbLine
 62
7
  6
CONTINUOUS
 10
12.1883234107
 20
10.8801695021
 11
12.1611195272
 21
10.8801695021
  0
LINE
  5
415
100
AcDbEntity
  8
0
100
AcDbLine
 62
7
  6
CONTINUOUS
 10
12.0976437947
 20
10.8801695021
 11
12.0613719522
 21
10.8801695021
  0
LINE
  5
416
100
AcDbEntity
  8
0
100
AcDbLine
 62
7
  6
CONTINUOUS
 10
11.9978962262
 20
10.8801695021
 11
11.9706923427
 21
10.8801695021
  0
LINE
  5
417
100
AcDbEntity
  8
0
100
AcDbLine
 62
7
  6
CONTINUOUS
 10
10.872678266
 20
11.3695312042
 11
10.8889317716
 21
11.359956736
  0
LINE
  5
418
100
AcDbEntity
  8
0
100
AcDbLine
 62
7
  6
CONTINUOUS
 10
10.8929951596
 20
11.3886801398
 11
10.8808050188
 21
11.3982546101
  0
LINE
  5
419
100
AcDbEntity
  8
0
100
AcDbLine
 62
7
  6
CONTINUOUS
 10
10.9580092519
 20
11.5466588678
 11
10.9701993927
 21
11.5370844009
  0
LINE
  5
41A
100
AcDbEntity
  8
0
100
AcDbLine
 62
7
  6
CONTINUOUS
 10
12.4059544787
 20
10.6551695021
 11
12.3334107807
 21
10.8801695021
  0
LINE
  5
41B
100
AcDbEntity
  8
0
100
AcDbLine
 62
7
  6
CONTINUOUS
 10
12.3606146642
 20
10.7126163105
 11
12.3787505952
 21
10.6551695021
  0
LINE
  5
41C
100
AcDbEntity
  8
0
100
AcDbLine
 62
7
  6
CONTINUOUS
 10
12.3152748757
 20
10.8610205683
 11
12.3560807009
 21
10.7317652444
  0
LINE
  5
41D
100
AcDbEntity
  8
0
100
AcDbLine
 62
7
  6
CONTINUOUS
 10
12.7810640158
 20
7.8035737532
 11
12.7770479424
 21
7.827509934
  0
LINE
  5
41E
100
AcDbEntity
  8
0
100
AcDbLine
 62
7
  6
CONTINUOUS
 10
12.8412166146
 20
10.8322971674
 11
12.8412166146
 21
10.6551695021
  0
LINE
  5
41F
100
AcDbEntity
  8
0
100
AcDbLine
 62
7
  6
CONTINUOUS
 10
12.8684204981
 20
10.6551695021
 11
12.8684204981
 21
10.8801695021
  0
LINE
  5
420
100
AcDbEntity
  8
0
100
AcDbLine
 62
7
  6
CONTINUOUS
 10
12.7770479424
 20
7.707829077
 11
12.7810640158
 21
7.7317652444
  0
LINE
  5
421
100
AcDbEntity
  8
0
100
AcDbLine
 62
7
  6
CONTINUOUS
 10
12.7569677591
 20
7.7317652444
 11
12.7529516857
 21
7.7126163105
  0
LINE
  5
422
100
AcDbEntity
  8
0
100
AcDbLine
 62
7
  6
CONTINUOUS
 10
12.3995399363
 20
7.6886801398
 11
12.4075720142
 21
7.707829077
  0
LINE
  5
423
100
AcDbEntity
  8
0
100
AcDbLine
 62
7
  6
CONTINUOUS
 10
12.3834757575
 20
7.7126163105
 11
12.3754436796
 21
7.6982546101
  0
LINE
  5
424
100
AcDbEntity
  8
0
100
AcDbLine
 62
7
  6
CONTINUOUS
 10
12.2790586529
 20
7.8658078017
 11
12.2629944741
 21
7.8466588678
  0
LINE
  5
425
100
AcDbEntity
  8
0
100
AcDbLine
 62
7
  6
CONTINUOUS
 10
12.1987377935
 20
7.6695312042
 11
12.2148019722
 21
7.6886801398
  0
LINE
  5
426
100
AcDbEntity
  8
0
100
AcDbLine
 62
7
  6
CONTINUOUS
 10
12.3834757575
 20
7.6695312042
 11
12.3995399363
 21
7.6886801398
  0
LINE
  5
427
100
AcDbEntity
  8
0
100
AcDbLine
 62
7
  6
CONTINUOUS
 10
12.2870907308
 20
7.8370844009
 11
12.2991388591
 21
7.8466588678
  0
LINE
  5
428
100
AcDbEntity
  8
0
100
AcDbLine
 62
7
  6
CONTINUOUS
 10
12.1907057156
 20
7.6982546101
 11
12.1786575872
 21
7.6886801398
  0
LINE
  5
429
100
AcDbEntity
  8
0
100
AcDbLine
 62
7
  6
CONTINUOUS
 10
12.3754436796
 20
7.6982546101
 11
12.3633955513
 21
7.6886801398
  0
LINE
  5
42A
100
AcDbEntity
  8
0
100
AcDbLine
 62
7
  6
CONTINUOUS
 10
12.2951228317
 20
7.8753822687
 11
12.2790586529
 21
7.8658078017
  0
LINE
  5
42B
100
AcDbEntity
  8
0
100
AcDbLine
 62
7
  6
CONTINUOUS
 10
12.1826736262
 20
7.659956736
 11
12.1987377935
 21
7.6695312042
  0
LINE
  5
42C
100
AcDbEntity
  8
0
100
AcDbLine
 62
7
  6
CONTINUOUS
 10
12.3674116017
 20
7.659956736
 11
12.3834757575
 21
7.6695312042
  0
LINE
  5
42D
100
AcDbEntity
  8
0
100
AcDbLine
 62
7
  6
CONTINUOUS
 10
12.3633955513
 20
7.6886801398
 11
12.3473313725
 21
7.6838929063
  0
LINE
  5
42E
100
AcDbEntity
  8
0
100
AcDbLine
 62
7
  6
CONTINUOUS
 10
12.7328715024
 20
7.6886801398
 11
12.7168073007
 21
7.6838929063
  0
LINE
  5
42F
100
AcDbEntity
  8
0
100
AcDbLine
 62
7
  6
CONTINUOUS
 10
10.941755723
 20
11.3551695021
 11
10.9620726167
 21
11.359956736
  0
LINE
  5
430
100
AcDbEntity
  8
0
100
AcDbLine
 62
7
  6
CONTINUOUS
 10
10.6491923427
 20
11.3551695021
 11
10.6735726244
 21
11.3551695021
  0
LINE
  5
431
100
AcDbEntity
  8
0
100
AcDbLine
 62
7
  6
CONTINUOUS
 10
10.7873472684
 20
11.3551695021
 11
10.8117275501
 21
11.3551695021
  0
LINE
  5
432
100
AcDbEntity
  8
0
100
AcDbLine
 62
7
  6
CONTINUOUS
 10
10.9092486885
 20
11.3551695021
 11
10.941755723
 21
11.3551695021
  0
LINE
  5
433
100
AcDbEntity
  8
0
100
AcDbLine
 62
7
  6
CONTINUOUS
 10
11.1042909188
 20
11.3551695021
 11
11.1286712005
 21
11.3551695021
  0
LINE
  5
434
100
AcDbEntity
  8
0
100
AcDbLine
 62
7
  6
CONTINUOUS
 10
10.941755723
 20
11.3838929063
 11
10.9092486885
 21
11.3838929063
  0
LINE
  5
435
100
AcDbEntity
  8
0
100
AcDbLine
 62
7
  6
CONTINUOUS
 10
12.5737117429
 20
10.8753822687
 11
12.5510418746
 21
10.8801695021
  0
LINE
  5
436
100
AcDbEntity
  8
0
100
AcDbLine
 62
7
  6
CONTINUOUS
 10
10.8889317716
 20
11.359956736
 11
10.9092486885
 21
11.3551695021
  0
LINE
  5
437
100
AcDbEntity
  8
0
100
AcDbLine
 62
7
  6
CONTINUOUS
 10
10.9092486885
 20
11.3838929063
 11
10.8929951596
 21
11.3886801398
  0
LINE
  5
438
100
AcDbEntity
  8
0
100
AcDbLine
 62
7
  6
CONTINUOUS
 10
12.5555758379
 20
10.8562333348
 11
12.5691777796
 21
10.8514461013
  0
LINE
  5
439
100
AcDbEntity
  8
0
100
AcDbLine
 62
7
  6
CONTINUOUS
 10
10.9783261456
 20
11.5658078017
 11
10.9620726167
 21
11.5753822687
  0
LINE
  5
43A
100
AcDbEntity
  8
0
100
AcDbLine
 62
7
  6
CONTINUOUS
 10
12.6145175682
 20
10.6551695021
 11
12.5737117429
 21
10.7652758854
  0
LINE
  5
43B
100
AcDbEntity
  8
0
100
AcDbLine
 62
7
  6
CONTINUOUS
 10
12.5465078594
 20
10.7557014185
 11
12.5827797214
 21
10.6551695021
  0
LINE
  5
43C
100
AcDbEntity
  8
0
100
AcDbLine
 62
7
  6
CONTINUOUS
 10
12.6779933136
 20
10.8322971674
 11
12.7414690591
 21
10.6551695021
  0
LINE
  5
43D
100
AcDbEntity
  8
0
100
AcDbLine
 62
7
  6
CONTINUOUS
 10
12.7596049641
 20
10.6791056729
 11
12.6915952554
 21
10.8801695021
  0
LINE
  5
43E
100
AcDbEntity
  8
0
100
AcDbLine
 62
7
  6
CONTINUOUS
 10
12.5782457581
 20
10.8418716344
 11
12.5827797214
 21
10.827509934
  0
LINE
  5
43F
100
AcDbEntity
  8
0
100
AcDbLine
 62
7
  6
CONTINUOUS
 10
12.6099836049
 20
10.827509934
 11
12.6054496416
 21
10.8418716344
  0
LINE
  5
440
100
AcDbEntity
  8
0
100
AcDbLine
 62
7
  6
CONTINUOUS
 10
12.7690158875
 20
7.6886801398
 11
12.7770479424
 21
7.707829077
  0
LINE
  5
441
100
AcDbEntity
  8
0
100
AcDbLine
 62
7
  6
CONTINUOUS
 10
12.7529516857
 20
7.7126163105
 11
12.7449196308
 21
7.6982546101
  0
LINE
  5
442
100
AcDbEntity
  8
0
100
AcDbLine
 62
7
  6
CONTINUOUS
 10
12.7529516857
 20
7.6695312042
 11
12.7690158875
 21
7.6886801398
  0
LINE
  5
443
100
AcDbEntity
  8
0
100
AcDbLine
 62
7
  6
CONTINUOUS
 10
12.7449196308
 20
7.6982546101
 11
12.7328715024
 21
7.6886801398
  0
LINE
  5
444
100
AcDbEntity
  8
0
100
AcDbLine
 62
7
  6
CONTINUOUS
 10
12.7368875299
 20
7.659956736
 11
12.7529516857
 21
7.6695312042
  0
LINE
  5
445
100
AcDbEntity
  8
0
100
AcDbLine
 62
7
  6
CONTINUOUS
 10
10.9092486885
 20
11.5801695021
 11
10.8889317716
 21
11.5753822687
  0
LINE
  5
446
100
AcDbEntity
  8
0
100
AcDbLine
 62
7
  6
CONTINUOUS
 10
10.6735726244
 20
11.4604886519
 11
10.7873472684
 21
11.4604886519
  0
LINE
  5
447
100
AcDbEntity
  8
0
100
AcDbLine
 62
7
  6
CONTINUOUS
 10
10.7873472684
 20
11.4892120528
 11
10.6735726244
 21
11.4892120528
  0
LINE
  5
448
100
AcDbEntity
  8
0
100
AcDbLine
 62
7
  6
CONTINUOUS
 10
10.9092486885
 20
11.5514461013
 11
10.941755723
 21
11.5514461013
  0
LINE
  5
449
100
AcDbEntity
  8
0
100
AcDbLine
 62
7
  6
CONTINUOUS
 10
11.0392768498
 20
11.5562333348
 11
11.1042909188
 21
11.5562333348
  0
LINE
  5
44A
100
AcDbEntity
  8
0
100
AcDbLine
 62
7
  6
CONTINUOUS
 10
11.1286712005
 20
11.5562333348
 11
11.193685316
 21
11.5562333348
  0
LINE
  5
44B
100
AcDbEntity
  8
0
100
AcDbLine
 62
7
  6
CONTINUOUS
 10
11.193685316
 20
11.5801695021
 11
11.0392768498
 21
11.5801695021
  0
LINE
  5
44C
100
AcDbEntity
  8
0
100
AcDbLine
 62
7
  6
CONTINUOUS
 10
10.941755723
 20
11.5801695021
 11
10.9092486885
 21
11.5801695021
  0
LINE
  5
44D
100
AcDbEntity
  8
0
100
AcDbLine
 62
7
  6
CONTINUOUS
 10
10.8117275501
 20
11.5801695021
 11
10.7873472684
 21
11.5801695021
  0
LINE
  5
44E
100
AcDbEntity
  8
0
100
AcDbLine
 62
7
  6
CONTINUOUS
 10
10.6735726244
 20
11.5801695021
 11
10.6491923427
 21
11.5801695021
  0
LINE
  5
44F
100
AcDbEntity
  8
0
100
AcDbLine
 62
7
  6
CONTINUOUS
 10
10.9620726167
 20
11.5753822687
 11
10.941755723
 21
11.5801695021
  0
LINE
  5
450
100
AcDbEntity
  8
0
100
AcDbLine
 62
7
  6
CONTINUOUS
 10
10.941755723
 20
11.5514461013
 11
10.9580092519
 21
11.5466588678
  0
LINE
  5
451
100
AcDbEntity
  8
0
100
AcDbLine
 62
7
  6
CONTINUOUS
 10
12.5918476998
 20
10.8610205683
 11
12.5737117429
 21
10.8753822687
  0
LINE
  5
452
100
AcDbEntity
  8
0
100
AcDbLine
 62
7
  6
CONTINUOUS
 10
12.5691777796
 20
10.8514461013
 11
12.5782457581
 21
10.8418716344
  0
LINE
  5
453
100
AcDbEntity
  8
0
100
AcDbLine
 62
7
  6
CONTINUOUS
 10
12.6054496416
 20
10.8418716344
 11
12.5918476998
 21
10.8610205683
  0
ARC
  5
454
100
AcDbEntity
  8
0
100
AcDbCircle
 62
9
  6
CONTINUOUS
 10
7.6896960534
 20
8.2400285052
 40
3.1298561843
100
AcDbArc
 50
11.2246849525
 51
11.8134408011
  0
ARC
  5
455
100
AcDbEntity
  8
0
100
AcDbCircle
 62
7
  6
CONTINUOUS
 10
10.6697552431
 20
8.8999267787
 40
0.055
100
AcDbArc
 50
357.990446187
 51
53.9229443907
  0
ARC
  5
456
100
AcDbEntity
  8
0
100
AcDbCircle
 62
7
  6
CONTINUOUS
 10
10.6791204669
 20
6.4576695021
 40
0.04
100
AcDbArc
 50
177.990446187
 51
270.0
  0
ARC
  5
457
100
AcDbEntity
  8
0
100
AcDbCircle
 62
7
  6
CONTINUOUS
 10
10.9376923427
 20
7.0976695021
 40
0.45
100
AcDbArc
 50
125.8454174422
 51
230.1326316581
  0
ARC
  5
458
100
AcDbEntity
  8
0
100
AcDbCircle
 62
7
  6
CONTINUOUS
 10
10.9376923427
 20
7.0976695021
 40
0.45
100
AcDbArc
 50
309.8673683419
 51
54.1545825578
  0
ARC
  5
459
100
AcDbEntity
  8
0
100
AcDbCircle
 62
9
  6
CONTINUOUS
 10
10.9376923427
 20
7.0976695021
 40
0.4492005033
100
AcDbArc
 50
125.9238795199
 51
230.0537812042
  0
ARC
  5
45A
100
AcDbEntity
  8
0
100
AcDbCircle
 62
9
  6
CONTINUOUS
 10
10.9376923427
 20
7.0976695021
 40
0.4492005033
100
AcDbArc
 50
309.9462187958
 51
54.0761204801
  0
ARC
  5
45B
100
AcDbEntity
  8
0
100
AcDbCircle
 62
9
  6
CONTINUOUS
 10
10.9376923427
 20
7.0976695021
 40
0.4177005033
100
AcDbArc
 50
129.3717615268
 51
226.6025451538
  0
ARC
  5
45C
100
AcDbEntity
  8
0
100
AcDbCircle
 62
9
  6
CONTINUOUS
 10
10.9376923427
 20
7.0976695021
 40
0.4177005033
100
AcDbArc
 50
313.3974548462
 51
50.6282384732
  0
ARC
  5
45D
100
AcDbEntity
  8
0
100
AcDbCircle
 62
9
  6
CONTINUOUS
 10
10.9376923427
 20
7.0976695021
 40
0.3875
100
AcDbArc
 50
133.4438894639
 51
222.5332212828
  0
ARC
  5
45E
100
AcDbEntity
  8
0
100
AcDbCircle
 62
9
  6
CONTINUOUS
 10
10.9376923427
 20
7.0976695021
 40
0.3875
100
AcDbArc
 50
317.4667787172
 51
46.5561105361
  0
ARC
  5
45F
100
AcDbEntity
  8
0
100
AcDbCircle
 62
7
  6
CONTINUOUS
 10
11.1962642186
 20
6.4576695021
 40
0.04
100
AcDbArc
 50
270.0
 51
2.009553813
  0
CIRCLE
  5
460
100
AcDbEntity
  8
0
100
AcDbCircle
 62
7
  6
CONTINUOUS
 10
10.9376923427
 20
9.2676695021
 40
3.25
  0
CIRCLE
  5
461
100
AcDbEntity
  8
0
100
AcDbCircle
 62
9
  6
CONTINUOUS
 10
10.9376923427
 20
9.2676695021
 40
3.2115516844
  0
CIRCLE
  5
462
100
AcDbEntity
  8
0
100
AcDbCircle
 62
9
  6
CONTINUOUS
 10
10.9376923427
 20
9.2676695021
 40
3.1422181513
  0
CIRCLE
  5
463
100
AcDbEntity
  8
0
100
AcDbCircle
 62
9
  6
CONTINUOUS
 10
10.9376923427
 20
9.2676695021
 40
3.0828434898
  0
ARC
  5
464
100
AcDbEntity
  8
0
100
AcDbCircle
 62
7
  6
CONTINUOUS
 10
10.9376923427
 20
9.2676695021
 40
1.25
100
AcDbArc
 50
123.6875658564
 51
124.3124341436
  0
ARC
  5
465
100
AcDbEntity
  8
0
100
AcDbCircle
 62
7
  6
CONTINUOUS
 10
10.9376923427
 20
9.2676695021
 40
1.25
100
AcDbArc
 50
89.6875658564
 51
90.3124341436
  0
ARC
  5
466
100
AcDbEntity
  8
0
100
AcDbCircle
 62
7
  6
CONTINUOUS
 10
10.9376923427
 20
9.2676695021
 40
1.25
100
AcDbArc
 50
55.6875658564
 51
56.3124341436
  0
ARC
  5
467
100
AcDbEntity
  8
0
100
AcDbCircle
 62
7
  6
CONTINUOUS
 10
10.9376923427
 20
9.2676695021
 40
1.25
100
AcDbArc
 50
21.6875658564
 51
22.3124341436
  0
ARC
  5
468
100
AcDbEntity
  8
0
100
AcDbCircle
 62
7
  6
CONTINUOUS
 10
10.9376923427
 20
9.2676695021
 40
1.25
100
AcDbArc
 50
11.6875658564
 51
12.3124341436
  0
ARC
  5
469
100
AcDbEntity
  8
0
100
AcDbCircle
 62
7
  6
CONTINUOUS
 10
10.9376923427
 20
9.2676695021
 40
1.25
100
AcDbArc
 50
347.6875658564
 51
348.3124341436
  0
ARC
  5
46A
100
AcDbEntity
  8
0
100
AcDbCircle
 62
7
  6
CONTINUOUS
 10
10.9376923427
 20
9.2676695021
 40
1.25
100
AcDbArc
 50
337.6875658564
 51
338.3124341436
  0
ARC
  5
46B
100
AcDbEntity
  8
0
100
AcDbCircle
 62
7
  6
CONTINUOUS
 10
10.9376923427
 20
9.2676695021
 40
1.25
100
AcDbArc
 50
303.6875658564
 51
304.3124341436
  0
ARC
  5
46C
100
AcDbEntity
  8
0
100
AcDbCircle
 62
7
  6
CONTINUOUS
 10
10.9376923427
 20
9.2676695021
 40
1.25
100
AcDbArc
 50
235.6875658564
 51
236.3124341436
  0
ARC
  5
46D
100
AcDbEntity
  8
0
100
AcDbCircle
 62
7
  6
CONTINUOUS
 10
10.9376923427
 20
9.2676695021
 40
1.25
100
AcDbArc
 50
201.6875658564
 51
202.3124341436
  0
ARC
  5
46E
100
AcDbEntity
  8
0
100
AcDbCircle
 62
7
  6
CONTINUOUS
 10
10.9376923427
 20
9.2676695021
 40
1.25
100
AcDbArc
 50
191.6875658564
 51
192.3124341436
  0
ARC
  5
46F
100
AcDbEntity
  8
0
100
AcDbCircle
 62
7
  6
CONTINUOUS
 10
10.9376923427
 20
9.2676695021
 40
1.25
100
AcDbArc
 50
167.6875658564
 51
168.3124341436
  0
ARC
  5
470
100
AcDbEntity
  8
0
100
AcDbCircle
 62
7
  6
CONTINUOUS
 10
10.9376923427
 20
9.2676695021
 40
1.25
100
AcDbArc
 50
157.6875658564
 51
158.3124341436
  0
ARC
  5
471
100
AcDbEntity
  8
0
100
AcDbCircle
 62
7
  6
CONTINUOUS
 10
10.9376923427
 20
9.2676695021
 40
1.25
100
AcDbArc
 50
239.6875658564
 51
258.7856153434
  0
ARC
  5
472
100
AcDbEntity
  8
0
100
AcDbCircle
 62
7
  6
CONTINUOUS
 10
10.9376923427
 20
9.2676695021
 40
1.25
100
AcDbArc
 50
236.3200568243
 51
239.6810609222
  0
ARC
  5
473
100
AcDbEntity
  8
0
100
AcDbCircle
 62
7
  6
CONTINUOUS
 10
10.9376923427
 20
9.2676695021
 40
1.25
100
AcDbArc
 50
232.3206781636
 51
235.6781174563
  0
ARC
  5
474
100
AcDbEntity
  8
0
100
AcDbCircle
 62
7
  6
CONTINUOUS
 10
10.9376923427
 20
9.2676695021
 40
1.25
100
AcDbArc
 50
229.6875658564
 51
232.3124341436
  0
ARC
  5
475
100
AcDbEntity
  8
0
100
AcDbCircle
 62
7
  6
CONTINUOUS
 10
10.9376923427
 20
9.2676695021
 40
1.25
100
AcDbArc
 50
205.6875658564
 51
229.6768684784
  0
ARC
  5
476
100
AcDbEntity
  8
0
100
AcDbCircle
 62
7
  6
CONTINUOUS
 10
10.9376923427
 20
9.2676695021
 40
1.25
100
AcDbArc
 50
202.3190999169
 51
205.6819636632
  0
ARC
  5
477
100
AcDbEntity
  8
0
100
AcDbCircle
 62
7
  6
CONTINUOUS
 10
10.9376923427
 20
9.2676695021
 40
1.25
100
AcDbArc
 50
198.3215162274
 51
201.6772463843
  0
ARC
  5
478
100
AcDbEntity
  8
0
100
AcDbCircle
 62
7
  6
CONTINUOUS
 10
10.9376923427
 20
9.2676695021
 40
1.25
100
AcDbArc
 50
195.6875658564
 51
198.3124341436
  0
ARC
  5
479
100
AcDbEntity
  8
0
100
AcDbCircle
 62
7
  6
CONTINUOUS
 10
10.9376923427
 20
9.2676695021
 40
1.25
100
AcDbArc
 50
192.3235978379
 51
195.6776660651
  0
ARC
  5
47A
100
AcDbEntity
  8
0
100
AcDbCircle
 62
7
  6
CONTINUOUS
 10
10.9376923427
 20
9.2676695021
 40
1.25
100
AcDbArc
 50
168.3181135371
 51
191.6818864629
  0
ARC
  5
47B
100
AcDbEntity
  8
0
100
AcDbCircle
 62
7
  6
CONTINUOUS
 10
10.9376923427
 20
9.2676695021
 40
1.25
100
AcDbArc
 50
164.3223339349
 51
167.6764021621
  0
ARC
  5
47C
100
AcDbEntity
  8
0
100
AcDbCircle
 62
7
  6
CONTINUOUS
 10
10.9376923427
 20
9.2676695021
 40
1.25
100
AcDbArc
 50
161.6875658564
 51
164.3124341436
  0
ARC
  5
47D
100
AcDbEntity
  8
0
100
AcDbCircle
 62
7
  6
CONTINUOUS
 10
10.9376923427
 20
9.2676695021
 40
1.25
100
AcDbArc
 50
158.3227536157
 51
161.6784837726
  0
ARC
  5
47E
100
AcDbEntity
  8
0
100
AcDbCircle
 62
7
  6
CONTINUOUS
 10
10.9376923427
 20
9.2676695021
 40
1.25
100
AcDbArc
 50
154.3180363368
 51
157.6809000831
  0
ARC
  5
47F
100
AcDbEntity
  8
0
100
AcDbCircle
 62
7
  6
CONTINUOUS
 10
10.9376923427
 20
9.2676695021
 40
1.25
100
AcDbArc
 50
130.3231315216
 51
154.3124341436
  0
ARC
  5
480
100
AcDbEntity
  8
0
100
AcDbCircle
 62
7
  6
CONTINUOUS
 10
10.9376923427
 20
9.2676695021
 40
1.25
100
AcDbArc
 50
127.6875658564
 51
130.3124341436
  0
ARC
  5
481
100
AcDbEntity
  8
0
100
AcDbCircle
 62
7
  6
CONTINUOUS
 10
10.9376923427
 20
9.2676695021
 40
1.25
100
AcDbArc
 50
124.3218825437
 51
127.6793218364
  0
ARC
  5
482
100
AcDbEntity
  8
0
100
AcDbCircle
 62
7
  6
CONTINUOUS
 10
10.9376923427
 20
9.2676695021
 40
1.25
100
AcDbArc
 50
120.3189390778
 51
123.6799431757
  0
ARC
  5
483
100
AcDbEntity
  8
0
100
AcDbCircle
 62
7
  6
CONTINUOUS
 10
10.9376923427
 20
9.2676695021
 40
1.25
100
AcDbArc
 50
93.6875658564
 51
120.3124341436
  0
ARC
  5
484
100
AcDbEntity
  8
0
100
AcDbCircle
 62
7
  6
CONTINUOUS
 10
10.9376923427
 20
9.2676695021
 40
1.25
100
AcDbArc
 50
90.3210011835
 51
93.6801805602
  0
ARC
  5
485
100
AcDbEntity
  8
0
100
AcDbCircle
 62
7
  6
CONTINUOUS
 10
10.9376923427
 20
9.2676695021
 40
1.25
100
AcDbArc
 50
281.2143846566
 51
300.3124341436
  0
ARC
  5
486
100
AcDbEntity
  8
0
100
AcDbCircle
 62
7
  6
CONTINUOUS
 10
10.9376923427
 20
9.2676695021
 40
1.25
100
AcDbArc
 50
300.3189390778
 51
303.6799431757
  0
ARC
  5
487
100
AcDbEntity
  8
0
100
AcDbCircle
 62
7
  6
CONTINUOUS
 10
10.9376923427
 20
9.2676695021
 40
1.25
100
AcDbArc
 50
304.3218825437
 51
307.6793218364
  0
ARC
  5
488
100
AcDbEntity
  8
0
100
AcDbCircle
 62
7
  6
CONTINUOUS
 10
10.9376923427
 20
9.2676695021
 40
1.25
100
AcDbArc
 50
307.6875658564
 51
310.3124341436
  0
ARC
  5
489
100
AcDbEntity
  8
0
100
AcDbCircle
 62
7
  6
CONTINUOUS
 10
10.9376923427
 20
9.2676695021
 40
1.25
100
AcDbArc
 50
310.3231315216
 51
334.3124341436
  0
ARC
  5
48A
100
AcDbEntity
  8
0
100
AcDbCircle
 62
7
  6
CONTINUOUS
 10
10.9376923427
 20
9.2676695021
 40
1.25
100
AcDbArc
 50
334.3180363368
 51
337.6809000831
  0
ARC
  5
48B
100
AcDbEntity
  8
0
100
AcDbCircle
 62
7
  6
CONTINUOUS
 10
10.9376923427
 20
9.2676695021
 40
1.25
100
AcDbArc
 50
338.3227536157
 51
341.6784837726
  0
ARC
  5
48C
100
AcDbEntity
  8
0
100
AcDbCircle
 62
7
  6
CONTINUOUS
 10
10.9376923427
 20
9.2676695021
 40
1.25
100
AcDbArc
 50
341.6875658564
 51
344.3124341436
  0
ARC
  5
48D
100
AcDbEntity
  8
0
100
AcDbCircle
 62
7
  6
CONTINUOUS
 10
10.9376923427
 20
9.2676695021
 40
1.25
100
AcDbArc
 50
344.3223339349
 51
347.6764021621
  0
ARC
  5
48E
100
AcDbEntity
  8
0
100
AcDbCircle
 62
7
  6
CONTINUOUS
 10
10.9376923427
 20
9.2676695021
 40
1.25
100
AcDbArc
 50
348.3181135371
 51
11.6818864629
  0
ARC
  5
48F
100
AcDbEntity
  8
0
100
AcDbCircle
 62
7
  6
CONTINUOUS
 10
10.9376923427
 20
9.2676695021
 40
1.25
100
AcDbArc
 50
12.3235978379
 51
15.6776660651
  0
ARC
  5
490
100
AcDbEntity
  8
0
100
AcDbCircle
 62
7
  6
CONTINUOUS
 10
10.9376923427
 20
9.2676695021
 40
1.25
100
AcDbArc
 50
15.6875658564
 51
18.3124341436
  0
ARC
  5
491
100
AcDbEntity
  8
0
100
AcDbCircle
 62
7
  6
CONTINUOUS
 10
10.9376923427
 20
9.2676695021
 40
1.25
100
AcDbArc
 50
18.3215162274
 51
21.6772463843
  0
ARC
  5
492
100
AcDbEntity
  8
0
100
AcDbCircle
 62
7
  6
CONTINUOUS
 10
10.9376923427
 20
9.2676695021
 40
1.25
100
AcDbArc
 50
22.3190999169
 51
25.6819636632
  0
ARC
  5
493
100
AcDbEntity
  8
0
100
AcDbCircle
 62
7
  6
CONTINUOUS
 10
10.9376923427
 20
9.2676695021
 40
1.25
100
AcDbArc
 50
25.6875658564
 51
49.6768684784
  0
ARC
  5
494
100
AcDbEntity
  8
0
100
AcDbCircle
 62
7
  6
CONTINUOUS
 10
10.9376923427
 20
9.2676695021
 40
1.25
100
AcDbArc
 50
49.6875658564
 51
52.3124341436
  0
ARC
  5
495
100
AcDbEntity
  8
0
100
AcDbCircle
 62
7
  6
CONTINUOUS
 10
10.9376923427
 20
9.2676695021
 40
1.25
100
AcDbArc
 50
52.3206781636
 51
55.6781174563
  0
ARC
  5
496
100
AcDbEntity
  8
0
100
AcDbCircle
 62
7
  6
CONTINUOUS
 10
10.9376923427
 20
9.2676695021
 40
1.25
100
AcDbArc
 50
56.3200568243
 51
59.6810609222
  0
ARC
  5
497
100
AcDbEntity
  8
0
100
AcDbCircle
 62
7
  6
CONTINUOUS
 10
10.9376923427
 20
9.2676695021
 40
1.25
100
AcDbArc
 50
59.6875658564
 51
86.3124341436
  0
ARC
  5
498
100
AcDbEntity
  8
0
100
AcDbCircle
 62
7
  6
CONTINUOUS
 10
10.9376923427
 20
9.2676695021
 40
1.25
100
AcDbArc
 50
86.3198194398
 51
89.6789988165
  0
ARC
  5
499
100
AcDbEntity
  8
0
100
AcDbCircle
 62
9
  6
CONTINUOUS
 10
10.9376923427
 20
9.2676695021
 40
1.175
100
AcDbArc
 50
281.8081247647
 51
258.1918752353
  0
ARC
  5
49A
100
AcDbEntity
  8
0
100
AcDbCircle
 62
7
  6
CONTINUOUS
 10
10.9376923427
 20
9.2676695021
 40
1.075
100
AcDbArc
 50
282.7299326326
 51
257.2700673674
  0
ARC
  5
49B
100
AcDbEntity
  8
0
100
AcDbCircle
 62
7
  6
CONTINUOUS
 10
10.9376923427
 20
9.2676695021
 40
1.025
100
AcDbArc
 50
283.2592064687
 51
256.7407935313
  0
ARC
  5
49C
100
AcDbEntity
  8
0
100
AcDbCircle
 62
7
  6
CONTINUOUS
 10
10.9376923427
 20
9.2676695021
 40
0.95
100
AcDbArc
 50
284.1580353846
 51
255.8419646154
  0
ARC
  5
49D
100
AcDbEntity
  8
0
100
AcDbCircle
 62
7
  6
CONTINUOUS
 10
10.9376923427
 20
9.2676695021
 40
0.85
100
AcDbArc
 50
285.6139916797
 51
254.3860083203
  0
ARC
  5
49E
100
AcDbEntity
  8
0
100
AcDbCircle
 62
7
  6
CONTINUOUS
 10
10.9376923427
 20
9.2676695021
 40
0.75
100
AcDbArc
 50
287.474547352
 51
252.525452648
  0
ARC
  5
49F
100
AcDbEntity
  8
0
100
AcDbCircle
 62
9
  6
CONTINUOUS
 10
10.9378725108
 20
9.2451451554
 40
0.4341182619
100
AcDbArc
 50
245.7662645274
 51
269.9762208372
  0
ARC
  5
4A0
100
AcDbEntity
  8
0
100
AcDbCircle
 62
9
  6
CONTINUOUS
 10
10.9375124012
 20
9.2451443169
 40
0.4341173993
100
AcDbArc
 50
270.023749304
 51
294.233755631
  0
CIRCLE
  5
4A1
100
AcDbEntity
  8
0
100
AcDbCircle
 62
7
  6
CONTINUOUS
 10
10.9376923427
 20
9.2676695021
 40
0.4
  0
CIRCLE
  5
4A2
100
AcDbEntity
  8
0
100
AcDbCircle
 62
9
  6
CONTINUOUS
 10
10.9376923427
 20
9.2676695021
 40
0.3875
  0
CIRCLE
  5
4A3
100
AcDbEntity
  8
0
100
AcDbCircle
 62
7
  6
CONTINUOUS
 10
10.9376923427
 20
9.2676695021
 40
0.3125
  0
CIRCLE
  5
4A4
100
AcDbEntity
  8
0
100
AcDbCircle
 62
9
  6
CONTINUOUS
 10
10.9376923427
 20
9.2676695021
 40
0.2825
  0
CIRCLE
  5
4A5
100
AcDbEntity
  8
0
100
AcDbCircle
 62
7
  6
CONTINUOUS
 10
10.9376923427
 20
9.2676695021
 40
0.2625
  0
ARC
  5
4A6
100
AcDbEntity
  8
0
100
AcDbCircle
 62
7
  6
CONTINUOUS
 10
11.2056294423
 20
8.8999267787
 40
0.055
100
AcDbArc
 50
126.0770556093
 51
182.009553813
  0
ARC
  5
4A7
100
AcDbEntity
  8
0
100
AcDbCircle
 62
9
  6
CONTINUOUS
 10
14.160067565
 20
8.2452600868
 40
3.1037067077
100
AcDbArc
 50
168.1842613487
 51
168.7779764494
  0
ARC
  5
4A8
100
AcDbEntity
  8
0
100
AcDbCircle
 62
9
  6
CONTINUOUS
 10
10.9376877673
 20
248.9429461169
 40
242.4842122195
100
AcDbArc
 50
269.9376469279
 51
270.0623552344
  0
SPLINE
  5
4A9
100
AcDbEntity
  8
0
100
AcDbSpline
 62
9
  6
CONTINUOUS
 70
0
 71
3
 72
21
 73
17
 74
0
 42
0.0000001
 43
0.0000001
 44
0.0000000001
 40
0.0
 40
0.0
 40
0.0
 40
0.0
 40
0.0384118097
 40
0.0779741374
 40
0.1196847221
 40
0.1643721313
 40
0.2126350227
 40
0.2648660576
 40
0.3212828287
 40
0.381960041
 40
0.4468586527
 40
0.515843471
 40
0.5887066226
 40
0.6651781041
 40
0.8275611465
 40
1.0
 40
1.0
 40
1.0
 40
1.0
 10
11.150662957
 20
8.8979981301
 30
0.0
 10
11.1506789722
 20
8.8975426563
 30
0.0
 10
11.1506209221
 20
8.8966125718
 30
0.0
 10
11.1502662511
 20
8.8952298695
 30
0.0
 10
11.1496488636
 20
8.8938615074
 30
0.0
 10
11.1487762074
 20
8.8925168855
 30
0.0
 10
11.1476559253
 20
8.8912029063
 30
0.0
 10
11.146295833
 20
8.8899268323
 30
0.0
 10
11.1447049296
 20
8.8886957279
 30
0.0
 10
11.1428933393
 20
8.8875168126
 30
0.0
 10
11.1408725003
 20
8.8863974231
 30
0.0
 10
11.1386553681
 20
8.8853444957
 30
0.0
 10
11.1362561156
 20
8.884364761
 30
0.0
 10
11.1327647962
 20
8.8831402445
 30
0.0
 10
11.1280521657
 20
8.8818487501
 30
0.0
 10
11.1241459068
 20
8.8811031453
 30
0.0
 10
11.1221239457
 20
8.8807905421
 30
0.0
  0
SPLINE
  5
4AA
100
AcDbEntity
  8
0
100
AcDbSpline
 62
9
  6
CONTINUOUS
 70
0
 71
3
 72
31
 73
27
 74
0
 42
0.0000001
 43
0.0000001
 44
0.0000000001
 40
0.0
 40
0.0
 40
0.0
 40
0.0
 40
0.0031494592
 40
0.0063738151
 40
0.0134659428
 40
0.0219865639
 40
0.0322935975
 40
0.0445316534
 40
0.0587725826
 40
0.075052391
 40
0.093382628
 40
0.1137563424
 40
0.1361476331
 40
0.1868322029
 40
0.2450600218
 40
0.3103300026
 40
0.3820379314
 40
0.459496001
 40
0.5419587618
 40
0.628629577
 40
0.7186643382
 40
0.76466629
 40
0.8111752018
 40
0.8580810697
 40
0.9052734258
 40
1.0
 40
1.0
 40
1.0
 40
1.0
 10
11.1962642183
 20
6.4176695021
 30
0.0
 10
11.1963085461
 20
6.4176695021
 30
0.0
 10
11.1963984873
 20
6.4176780608
 30
0.0
 10
11.1965814106
 20
6.4177313471
 30
0.0
 10
11.1968112183
 20
6.4178720413
 30
0.0
 10
11.1970699737
 20
6.4181318114
 30
0.0
 10
11.1973285812
 20
6.4184859017
 30
0.0
 10
11.1975859829
 20
6.418936024
 30
0.0
 10
11.1978404922
 20
6.4194819544
 30
0.0
 10
11.1980909603
 20
6.4201226539
 30
0.0
 10
11.1983367491
 20
6.420856731
 30
0.0
 10
11.1985770324
 20
6.4216825715
 30
0.0
 10
11.1989028591
 20
6.4229570503
 30
0.0
 10
11.199284194
 20
6.4247661425
 30
0.0
 10
11.1996972976
 20
6.4271830434
 30
0.0
 10
11.2000806796
 20
6.4299039666
 30
0.0
 10
11.2004303614
 20
6.4329020212
 30
0.0
 10
11.200738556
 20
6.4361477597
 30
0.0
 10
11.2010022194
 20
6.4396086175
 30
0.0
 10
11.2012198876
 20
6.4432499924
 30
0.0
 10
11.2013599315
 20
6.4463815264
 30
0.0
 10
11.2014493419
 20
6.4489492665
 30
0.0
 10
11.2015045191
 20
6.4509107618
 30
0.0
 10
11.2015455366
 20
6.452889368
 30
0.0
 10
11.2015779624
 20
6.4555468602
 30
0.0
 10
11.2015824176
 20
6.4575443584
 30
0.0
 10
11.2015843421
 20
6.4588776092
 30
0.0
  0
SPLINE
  5
4AB
100
AcDbEntity
  8
0
100
AcDbSpline
 62
9
  6
CONTINUOUS
 70
0
 71
3
 72
21
 73
17
 74
0
 42
0.0000001
 43
0.0000001
 44
0.0000000001
 40
0.0
 40
0.0
 40
0.0
 40
0.0
 40
0.1239925749
 40
0.2479910343
 40
0.3100111575
 40
0.3720414198
 40
0.4341056132
 40
0.4962348276
 40
0.5584311837
 40
0.6207112606
 40
0.6831389065
 40
0.7457725396
 40
0.8086479081
 40
0.871874501
 40
0.9356117649
 40
1.0
 40
1.0
 40
1.0
 40
1.0
 10
10.7021421909
 20
8.9443801959
 30
0.0
 10
10.704921435
 20
8.9423552506
 30
0.0
 10
10.7103865119
 20
8.9381751378
 30
0.0
 10
10.7169593152
 20
8.9326270677
 30
0.0
 10
10.7220398172
 20
8.9279879941
 30
0.0
 10
10.7257553575
 20
8.9244042166
 30
0.0
 10
10.7293655689
 20
8.9207100176
 30
0.0
 10
10.7328604563
 20
8.9169000505
 30
0.0
 10
10.7362213906
 20
8.912963172
 30
0.0
 10
10.7394271607
 20
8.9088880229
 30
0.0
 10
10.7424563747
 20
8.9046646479
 30
0.0
 10
10.7452802452
 20
8.9002807653
 30
0.0
 10
10.7478461966
 20
8.8957144429
 30
0.0
 10
10.7500983937
 20
8.8909499447
 30
0.0
 10
10.7519690401
 20
8.8859771335
 30
0.0
 10
10.752896631
 20
8.8825386351
 30
0.0
 10
10.7532606758
 20
8.8807904557
 30
0.0
  0
SPLINE
  5
4AC
100
AcDbEntity
  8
0
100
AcDbSpline
 62
9
  6
CONTINUOUS
 70
0
 71
3
 72
21
 73
17
 74
0
 42
0.0000001
 43
0.0000001
 44
0.0000000001
 40
0.0
 40
0.0
 40
0.0
 40
0.0
 40
0.1724385514
 40
0.3348213678
 40
0.41129277
 40
0.4841558679
 40
0.5531406606
 40
0.6180392769
 40
0.678716525
 40
0.7351333634
 40
0.7873644947
 40
0.8356275052
 40
0.8803150447
 40
0.9220257514
 40
0.9615881663
 40
1.0
 40
1.0
 40
1.0
 40
1.0
 10
10.753260775
 20
8.8807905928
 30
0.0
 10
10.7512388161
 20
8.8811031927
 30
0.0
 10
10.747332561
 20
8.8818487913
 30
0.0
 10
10.7426199339
 20
8.8831402781
 30
0.0
 10
10.7391286155
 20
8.8843647887
 30
0.0
 10
10.7367293624
 20
8.8853445195
 30
0.0
 10
10.7345122284
 20
8.8863974431
 30
0.0
 10
10.7324913863
 20
8.8875168292
 30
0.0
 10
10.7306797914
 20
8.8886957412
 30
0.0
 10
10.7290888818
 20
8.8899268426
 30
0.0
 10
10.7277287815
 20
8.8912029139
 30
0.0
 10
10.7266084895
 20
8.8925168907
 30
0.0
 10
10.7257358213
 20
8.8938615107
 30
0.0
 10
10.7251184193
 20
8.8952298711
 30
0.0
 10
10.7247637314
 20
8.8966125723
 30
0.0
 10
10.7247056679
 20
8.8975426574
 30
0.0
 10
10.7247216764
 20
8.8979981319
 30
0.0
  0
SPLINE
  5
4AD
100
AcDbEntity
  8
0
100
AcDbSpline
 62
9
  6
CONTINUOUS
 70
0
 71
3
 72
32
 73
28
 74
0
 42
0.0000001
 43
0.0000001
 44
0.0000000001
 40
0.0
 40
0.0
 40
0.0
 40
0.0
 40
0.1017549006
 40
0.1519284437
 40
0.2014759749
 40
0.2983088375
 40
0.3915017042
 40
0.4803024753
 40
0.5639957047
 40
0.6419105589
 40
0.7134211898
 40
0.7779534766
 40
0.8349857781
 40
0.8840556928
 40
0.9247697565
 40
0.941888993
 40
0.9568069318
 40
0.9694954954
 40
0.9799380155
 40
0.9843156512
 40
0.9881317022
 40
0.9913891099
 40
0.994094275
 40
0.9962594728
 40
0.9979098481
 40
0.9991046017
 40
1.0
 40
1.0
 40
1.0
 40
1.0
 10
10.6738003433
 20
6.4588776092
 30
0.0
 10
10.6726236077
 20
6.4589151104
 30
0.0
 10
10.6708663353
 20
6.4589610324
 30
0.0
 10
10.6685359499
 20
6.4590199919
 30
0.0
 10
10.6662626082
 20
6.4590819689
 30
0.0
 10
10.6634917838
 20
6.4591603006
 30
0.0
 10
10.6602666864
 20
6.4592410512
 30
0.0
 10
10.6571933363
 20
6.4593079616
 30
0.0
 10
10.654296469
 20
6.4593588157
 30
0.0
 10
10.6515993954
 20
6.4593909714
 30
0.0
 10
10.6491238727
 20
6.4594057853
 30
0.0
 10
10.6468899228
 20
6.4594053671
 30
0.0
 10
10.6449156624
 20
6.4593926071
 30
0.0
 10
10.6432170701
 20
6.4593725333
 30
0.0
 10
10.6419803548
 20
6.4593499915
 30
0.0
 10
10.6411389115
 20
6.4593269507
 30
0.0
 10
10.6406217595
 20
6.4593078755
 30
0.0
 10
10.6401820836
 20
6.45928538
 30
0.0
 10
10.6398646023
 20
6.45926191
 30
0.0
 10
10.6396501636
 20
6.4592391069
 30
0.0
 10
10.6395188417
 20
6.4592213759
 30
0.0
 10
10.639407348
 20
6.459201863
 30
0.0
 10
10.6393157117
 20
6.4591805307
 30
0.0
 10
10.639243657
 20
6.459157607
 30
0.0
 10
10.6391910778
 20
6.4591328303
 30
0.0
 10
10.6391560534
 20
6.4591061786
 30
0.0
 10
10.6391454304
 20
6.4590825014
 30
0.0
 10
10.6391450671
 20
6.4590721477
 30
0.0
  0
SPLINE
  5
4AE
100
AcDbEntity
  8
0
100
AcDbSpline
 62
9
  6
CONTINUOUS
 70
0
 71
3
 72
15
 73
11
 74
0
 42
0.0000001
 43
0.0000001
 44
0.0000000001
 40
0.0
 40
0.0
 40
0.0
 40
0.0
 40
0.1249998843
 40
0.249998786
 40
0.3749973543
 40
0.499996136
 40
0.6249954913
 40
0.7499957621
 40
0.8749972047
 40
1.0
 40
1.0
 40
1.0
 40
1.0
 10
10.7596818504
 20
8.8492766737
 30
0.0
 10
10.7561268627
 20
8.7496759551
 30
0.0
 10
10.748963014
 20
8.5504772239
 30
0.0
 10
10.7381151974
 20
8.2516834829
 30
0.0
 10
10.7272262661
 20
7.9528921187
 30
0.0
 10
10.7163523614
 20
7.654099845
 30
0.0
 10
10.7055316529
 20
7.3553042794
 30
0.0
 10
10.6948062382
 20
7.0565031505
 30
0.0
 10
10.6842098364
 20
6.7576946712
 30
0.0
 10
10.67724967
 20
6.5584843647
 30
0.0
 10
10.6738003745
 20
6.4588776075
 30
0.0
  0
SPLINE
  5
4AF
100
AcDbEntity
  8
0
100
AcDbSpline
 62
9
  6
CONTINUOUS
 70
0
 71
3
 72
32
 73
28
 74
0
 42
0.0000001
 43
0.0000001
 44
0.0000000001
 40
0.0
 40
0.0
 40
0.0
 40
0.0
 40
0.1990734775
 40
0.2952719238
 40
0.388141639
 40
0.4768782022
 40
0.5607148388
 40
0.6389299573
 40
0.7108495603
 40
0.7758559278
 40
0.8333894699
 40
0.8829565116
 40
0.9046192237
 40
0.9241368947
 40
0.9414700245
 40
0.9565841738
 40
0.969447272
 40
0.9800381977
 40
0.9844774062
 40
0.9883442632
 40
0.9916389749
 40
0.994364652
 40
0.9965284767
 40
0.9981461422
 40
0.9987620533
 40
0.9992618347
 40
1.0
 40
1.0
 40
1.0
 40
1.0
 10
10.7596818504
 20
8.8492766737
 30
0.0
 10
10.7572470921
 20
8.8493566179
 30
0.0
 10
10.7536354835
 20
8.8494663735
 30
0.0
 10
10.7488874242
 20
8.8495915673
 30
0.0
 10
10.745488852
 20
8.8496715428
 30
0.0
 10
10.7422412907
 20
8.8497380112
 30
0.0
 10
10.7391728245
 20
8.8497904114
 30
0.0
 10
10.7363099502
 20
8.8498283168
 30
0.0
 10
10.7336773513
 20
8.8498514345
 30
0.0
 10
10.7312977417
 20
8.8498596409
 30
0.0
 10
10.7291916561
 20
8.8498529173
 30
0.0
 10
10.7276160505
 20
8.8498344095
 30
0.0
 10
10.7265058109
 20
8.8498109284
 30
0.0
 10
10.7257900628
 20
8.849790463
 30
0.0
 10
10.7251546094
 20
8.8497664319
 30
0.0
 10
10.7246008068
 20
8.8497389523
 30
0.0
 10
10.7241298365
 20
8.8497080971
 30
0.0
 10
10.7237897518
 20
8.8496783331
 30
0.0
 10
10.7235600069
 20
8.8496519305
 30
0.0
 10
10.7234193617
 20
8.8496325299
 30
0.0
 10
10.7233000428
 20
8.8496123716
 30
0.0
 10
10.7232020199
 20
8.8495915688
 30
0.0
 10
10.7231253032
 20
8.8495700614
 30
0.0
 10
10.7230749493
 20
8.8495505381
 30
0.0
 10
10.7230460303
 20
8.8495333649
 30
0.0
 10
10.72302849
 20
8.8495192299
 30
0.0
 10
10.7230199026
 20
8.8495048038
 30
0.0
 10
10.7230195868
 20
8.8494957764
 30
0.0
  0
SPLINE
  5
4B0
100
AcDbEntity
  8
0
100
AcDbSpline
 62
9
  6
CONTINUOUS
 70
0
 71
3
 72
31
 73
27
 74
0
 42
0.0000001
 43
0.0000001
 44
0.0000000001
 40
0.0
 40
0.0
 40
0.0
 40
0.0
 40
0.0031494676
 40
0.0063738317
 40
0.0134659739
 40
0.021986606
 40
0.0322936477
 40
0.0445317095
 40
0.058772643
 40
0.0750524543
 40
0.0933826933
 40
0.1137564086
 40
0.1361476997
 40
0.1868322682
 40
0.2450600841
 40
0.3103300602
 40
0.3820379832
 40
0.4594960462
 40
0.5419587997
 40
0.6286296073
 40
0.7186643607
 40
0.7646663085
 40
0.8111752165
 40
0.8580810805
 40
0.905273433
 40
1.0
 40
1.0
 40
1.0
 40
1.0
 10
10.6791204672
 20
6.4176695021
 30
0.0
 10
10.6790761393
 20
6.4176695021
 30
0.0
 10
10.6789861978
 20
6.4176780608
 30
0.0
 10
10.6788032741
 20
6.4177313471
 30
0.0
 10
10.6785734658
 20
6.4178720412
 30
0.0
 10
10.6783147097
 20
6.4181318114
 30
0.0
 10
10.6780561015
 20
6.4184859016
 30
0.0
 10
10.6777986992
 20
6.4189360239
 30
0.0
 10
10.6775441894
 20
6.4194819544
 30
0.0
 10
10.6772937207
 20
6.4201226538
 30
0.0
 10
10.6770479315
 20
6.420856731
 30
0.0
 10
10.6768076478
 20
6.4216825715
 30
0.0
 10
10.6764818207
 20
6.4229570503
 30
0.0
 10
10.6761004854
 20
6.4247661424
 30
0.0
 10
10.6756873814
 20
6.4271830433
 30
0.0
 10
10.6753039993
 20
6.4299039666
 30
0.0
 10
10.6749543177
 20
6.4329020211
 30
0.0
 10
10.6746461234
 20
6.4361477596
 30
0.0
 10
10.6743824605
 20
6.4396086175
 30
0.0
 10
10.6741647931
 20
6.4432499924
 30
0.0
 10
10.6740247499
 20
6.4463815263
 30
0.0
 10
10.6739353402
 20
6.4489492665
 30
0.0
 10
10.6738801636
 20
6.4509107618
 30
0.0
 10
10.6738391467
 20
6.4528893679
 30
0.0
 10
10.6738067219
 20
6.4555468602
 30
0.0
 10
10.6738022673
 20
6.4575443584
 30
0.0
 10
10.6738003433
 20
6.4588776092
 30
0.0
  0
SPLINE
  5
4B1
100
AcDbEntity
  8
0
100
AcDbSpline
 62
9
  6
CONTINUOUS
 70
0
 71
3
 72
30
 73
26
 74
0
 42
0.0000001
 43
0.0000001
 44
0.0000000001
 40
0.0
 40
0.0
 40
0.0
 40
0.0
 40
0.0019922566
 40
0.0036446373
 40
0.0058148656
 40
0.0085249724
 40
0.0117858316
 40
0.0156037094
 40
0.0199822433
 40
0.0304254192
 40
0.0431144992
 40
0.075154577
 40
0.1158723461
 40
0.1649463912
 40
0.2219835507
 40
0.2865211979
 40
0.3580377463
 40
0.435959073
 40
0.5196590944
 40
0.6084669692
 40
0.7016673891
 40
0.798507979
 40
0.8480593412
 40
0.8982367719
 40
1.0
 40
1.0
 40
1.0
 40
1.0
 10
11.2362396183
 20
6.4590721477
 30
0.0
 10
11.2362388101
 20
6.4590951826
 30
0.0
 10
11.2362005515
 20
6.4591287466
 30
0.0
 10
11.2361415143
 20
6.4591556092
 30
0.0
 10
11.2360688407
 20
6.4591797479
 30
0.0
 10
11.2359774357
 20
6.4592014322
 30
0.0
 10
11.2358658333
 20
6.459221553
 30
0.0
 10
11.2357345093
 20
6.4592394981
 30
0.0
 10
11.2355200448
 20
6.4592624001
 30
0.0
 10
11.2352025508
 20
6.459285602
 30
0.0
 10
11.2345650302
 20
6.4593176754
 30
0.0
 10
11.2335768156
 20
6.4593466441
 30
0.0
 10
11.2321675487
 20
6.4593726554
 30
0.0
 10
11.2304689398
 20
6.459392566
 30
0.0
 10
11.2284946832
 20
6.4594053675
 30
0.0
 10
11.226260733
 20
6.4594057903
 30
0.0
 10
11.2237852132
 20
6.459390971
 30
0.0
 10
11.2210881442
 20
6.4593588103
 30
0.0
 10
11.2181912844
 20
6.4593079685
 30
0.0
 10
11.2151179448
 20
6.4592410323
 30
0.0
 10
11.2118928586
 20
6.4591603105
 30
0.0
 10
11.2091220453
 20
6.4590820022
 30
0.0
 10
11.2068487173
 20
6.4590199704
 30
0.0
 10
11.2045183435
 20
6.4589609533
 30
0.0
 10
11.2027610769
 20
6.4589150588
 30
0.0
 10
11.2015843421
 20
6.4588776092
 30
0.0
  0
SPLINE
  5
4B2
100
AcDbEntity
  8
0
100
AcDbSpline
 62
9
  6
CONTINUOUS
 70
0
 71
3
 72
32
 73
28
 74
0
 42
0.0000001
 43
0.0000001
 44
0.0000000001
 40
0.0
 40
0.0
 40
0.0
 40
0.0
 40
0.0007381671
 40
0.0012379497
 40
0.001853862
 40
0.0034715299
 40
0.0056353568
 40
0.008361036
 40
0.0116557498
 40
0.0155226088
 40
0.0199618191
 40
0.0305527482
 40
0.0434158494
 40
0.0585300014
 40
0.0758631336
 40
0.0953808063
 40
0.1170435201
 40
0.1666105637
 40
0.2241441065
 40
0.289150473
 40
0.3610700738
 40
0.4392851893
 40
0.5231218217
 40
0.6118583801
 40
0.7047280905
 40
0.8009265316
 40
1.0
 40
1.0
 40
1.0
 40
1.0
 10
11.1523650975
 20
8.8494957855
 30
0.0
 10
11.1523647817
 20
8.849504813
 30
0.0
 10
11.1523561942
 20
8.849519239
 30
0.0
 10
11.1523386539
 20
8.8495333741
 30
0.0
 10
11.1523097348
 20
8.8495505472
 30
0.0
 10
11.1522593809
 20
8.8495700706
 30
0.0
 10
11.1521826641
 20
8.849591578
 30
0.0
 10
11.1520846411
 20
8.8496123809
 30
0.0
 10
11.1519653222
 20
8.8496325392
 30
0.0
 10
11.151824677
 20
8.8496519398
 30
0.0
 10
11.151594932
 20
8.8496783425
 30
0.0
 10
11.1512548472
 20
8.8497081065
 30
0.0
 10
11.1507838769
 20
8.8497389618
 30
0.0
 10
11.1502300743
 20
8.8497664414
 30
0.0
 10
11.1495946209
 20
8.8497904726
 30
0.0
 10
11.1488788728
 20
8.849810938
 30
0.0
 10
11.1477686334
 20
8.8498344192
 30
0.0
 10
11.146193028
 20
8.8498529271
 30
0.0
 10
11.1440869426
 20
8.8498596508
 30
0.0
 10
11.1417073334
 20
8.8498514445
 30
0.0
 10
11.1390747351
 20
8.849828327
 30
0.0
 10
11.1362118612
 20
8.8497904218
 30
0.0
 10
11.1331433957
 20
8.8497380217
 30
0.0
 10
11.1298958351
 20
8.8496715535
 30
0.0
 10
11.1264972636
 20
8.8495915781
 30
0.0
 10
11.1217492052
 20
8.8494663845
 30
0.0
 10
11.1181375973
 20
8.8493566291
 30
0.0
 10
11.1157028395
 20
8.8492766849
 30
0.0
  0
SPLINE
  5
4B3
100
AcDbEntity
  8
0
100
AcDbSpline
 62
9
  6
CONTINUOUS
 70
0
 71
3
 72
15
 73
11
 74
0
 42
0.0000001
 43
0.0000001
 44
0.0000000001
 40
0.0
 40
0.0
 40
0.0
 40
0.0
 40
0.1249998844
 40
0.2499987861
 40
0.3749973544
 40
0.499996136
 40
0.6249954913
 40
0.749995762
 40
0.8749972047
 40
1.0
 40
1.0
 40
1.0
 40
1.0
 10
11.1157028395
 20
8.8492766849
 30
0.0
 10
11.1192578279
 20
8.7496759658
 30
0.0
 10
11.1264216766
 20
8.5504772336
 30
0.0
 10
11.1372694909
 20
8.251683491
 30
0.0
 10
11.1481584175
 20
7.9528921255
 30
0.0
 10
11.1590323219
 20
7.6540998505
 30
0.0
 10
11.1698530326
 20
7.3553042837
 30
0.0
 10
11.1805784478
 20
7.0565031534
 30
0.0
 10
11.1911748496
 20
6.7576946726
 30
0.0
 10
11.198135016
 20
6.5584843652
 30
0.0
 10
11.2015843115
 20
6.4588776075
 30
0.0
  0
SPLINE
  5
4B4
100
AcDbEntity
  8
0
100
AcDbSpline
 62
9
  6
CONTINUOUS
 70
0
 71
3
 72
21
 73
17
 74
0
 42
0.0000001
 43
0.0000001
 44
0.0000000001
 40
0.0
 40
0.0
 40
0.0
 40
0.0
 40
0.1239932632
 40
0.2479907073
 40
0.3100107676
 40
0.3720413021
 40
0.4341057416
 40
0.4962349933
 40
0.5584314416
 40
0.6207116011
 40
0.6831388113
 40
0.7457723647
 40
0.808648944
 40
0.8718746497
 40
0.9356106871
 40
1.0
 40
1.0
 40
1.0
 40
1.0
 10
11.1732425011
 20
8.9443802179
 30
0.0
 10
11.1704632639
 20
8.9423552262
 30
0.0
 10
11.164998089
 20
8.9381752488
 30
0.0
 10
11.1584253819
 20
8.9326270625
 30
0.0
 10
11.1533449552
 20
8.9279879346
 30
0.0
 10
11.1496293174
 20
8.924404236
 30
0.0
 10
11.1460190113
 20
8.9207100998
 30
0.0
 10
11.1425242096
 20
8.9169000313
 30
0.0
 10
11.1391633587
 20
8.9129630734
 30
0.0
 10
11.1359573776
 20
8.9088880986
 30
0.0
 10
11.132928148
 20
8.9046647284
 30
0.0
 10
11.1301047491
 20
8.9002805249
 30
0.0
 10
11.127538204
 20
8.8957145469
 30
0.0
 10
11.1252857408
 20
8.8909501529
 30
0.0
 10
11.1234160736
 20
8.8859770083
 30
0.0
 10
11.1224881722
 20
8.8825386232
 30
0.0
 10
11.1221240244
 20
8.8807904333
 30
0.0
  0
ENDSEC
  0
SECTION
  2
OBJECTS
  0
DICTIONARY
  5
C
100
AcDbDictionary
280
0
281
1
  3
ACAD_GROUP
350
D
  3
ACAD_MLINESTYLE
350
17
  3
ACAD_LAYOUT
350
1A
  3
ACAD_PLOTSETTINGS
350
19
  3
ACAD_PLOTSTYLENAME
350
E
  0
DICTIONARY
  5
D
102
{ACAD_REACTORS
330
C
102
}
100
AcDbDictionary
280
0
281
1
  0
ACDBDICTIONARYWDFLT
  5
E
102
{ACAD_REACTORS
330
C
102
}
100
AcDbDictionary
281
1
  3
Normal
350
F
100
AcDbDictionaryWithDefault
340
F
  0
DICTIONARY
  5
17
102
{ACAD_REACTORS
330
C
102
}
100
AcDbDictionary
280
0
281
1
  3
Standard
350
18
  0
DICTIONARY
  5
19
102
{ACAD_REACTORS
330
C
102
}
100
AcDbDictionary
281
1
  0
DICTIONARY
  5
1A
102
{ACAD_REACTORS
330
C
102
}
100
AcDbDictionary
281
1
  3
Model
350
4B5
  3
Layout1
350
4B6
  0
ACDBPLACEHOLDER
  5
F
102
{ACAD_REACTORS
330
E
102
}
  0
MLINESTYLE
  5
18
102
{ACAD_REACTORS
330
17
102
}
100
AcDbMlineStyle
  2
STANDARD
 70
0
  3

 62
256
 51
90.0
 52
90.0
 71
2
 49
0.5
 62
256
  6
BYLAYER
 49
-0.5
 62
256
  6
BYLAYER
  0
LAYOUT
  5
4B5
102
{ACAD_REACTORS
330
1A
102
}
100
AcDbPlotSettings
  1

  2
none_device
  4
ANSI_C_(22.00_x_17.00_Inches)
  6

 40
0.0
 41
0.0
 42
0.0
 43
0.0
 44
558.8
 45
431.8
 46
0.0
 47
0.0
 48
0.0
 49
0.0
140
0.0
141
0.0
142
1.0
143
1.0
 70
1024
 72
0
 73
0
 74
0
  7

 75
0
147
1.0
148
0.0
149
0.0
100
AcDbLayout
  1
Model
 70
0
 71
0
 10
0.0
 20
0.0
 11
22.0
 21
17.0
 12
0.0
 22
0.0
 32
0.0
 14
0.0
 24
0.0
 34
0.0
 15
0.0
 25
0.0
 35
0.0
146
0.0
 13
0.0
 23
0.0
 33
0.0
 16
1.0
 26
0.0
 36
0.0
 17
0.0
 27
1.0
 37
0.0
 76
0
330
205
345
0
346
0
  0
LAYOUT
  5
4B6
102
{ACAD_REACTORS
330
1A
102
}
100
AcDbPlotSettings
  1

  2
none_device
  4
ANSI_C_(22.00_x_17.00_Inches)
  6

 40
0.0
 41
0.0
 42
0.0
 43
0.0
 44
558.8
 45
431.8
 46
0.0
 47
0.0
 48
0.0
 49
0.0
140
0.0
141
0.0
142
1.0
143
1.0
 70
0
 72
0
 73
0
 74
0
  7

 75
0
147
1.0
148
0.0
149
0.0
100
AcDbLayout
  1
Layout1
 70
0
 71
1
 10
0.0
 20
0.0
 11
22.0
 21
17.0
 12
0.0
 22
0.0
 32
0.0
 14
0.0
 24
0.0
 34
0.0
 15
0.0
 25
0.0
 35
0.0
146
0.0
 13
0.0
 23
0.0
 33
0.0
 16
1.0
 26
0.0
 36
0.0
 17
0.0
 27
1.0
 37
0.0
 76
0
330
206
345
0
346
0
  0
ENDSEC
  0
EOF
