999
DXF file: E:\BT Custom\CADOUTPUT\_RIGHT.dxf
999
Pro/ENGINEER 2018400 by Parametric Technology Corporation
  0
SECTION
  2
HEADER
  9
$ACADVER
  1
AC1018
  9
$DWGCODEPAGE
  3
ANSI_1252
  9
$EXTMAX
 10
22.0
 20
17.0
 30
0.0
  9
$EXTMIN
 10
0.0
 20
0.0
 30
0.0
  9
$LIMMIN
 10
0.0
 20
0.0
  9
$LIMMAX
 10
22.0
 20
17.0
  9
$VIEWCTR
 10
11.0
 20
8.5
  9
$VIEWSIZE
 40
17.0
  9
$CLAYER
  8
0
  9
$LTSCALE
 40
1.21
  9
$CELTYPE
  6
BYLAYER
  9
$DIMSCALE
 40
1.0
  9
$DIMASZ
 40
0.1
  9
$DIMEXO
 40
0.0625
  9
$DIMDLI
 40
0.836
  9
$DIMEXE
 40
0.125
  9
$DIMCEN
 40
0.198
  9
$DIMLFAC
 40
1.0
  9
$DIMBLK
  1
_FILLED
  9
$DIMALT
 70
1
  9
$DIMALTD
 70
2
  9
$DIMALTTD
 70
2
  9
$DIMALTF
 40
25.4
  9
$DIMTXT
 40
0.08
  9
$DIMTOL
 70
1
  9
$DIMLIM
 70
0
  9
$DIMTFAC
 40
1.0
  9
$DIMTP
 40
0.001
  9
$DIMTM
 40
0.001
  9
$DIMGAP
 40
0.09
  9
$DIMDSEP
 70
46
  9
$AUNITS
 70
0
  9
$PDMODE
 70
3
  9
$PDSIZE
 40
0.06
  9
$HANDSEED
  5
38A
  9
$TILEMODE
 70
1
  9
$MEASUREMENT
 70
0
  9
$INSUNITS
 70
1
  0
ENDSEC
  0
SECTION
  2
CLASSES
  0
CLASS
  1
ACDBDICTIONARYWDFLT
  2
AcDbDictionaryWithDefault
  3
AutoCAD 2000
 90
0
 91
1
280
0
281
0
  0
CLASS
  1
ACDBPLACEHOLDER
  2
AcDbPlaceHolder
  3
AutoCAD 2000
 90
0
 91
1
280
0
281
0
  0
CLASS
  1
LAYOUT
  2
AcDbLayout
  3
AutoCAD 2000
 90
0
 91
0
280
0
281
0
  0
ENDSEC
  0
SECTION
  2
TABLES
  0
TABLE
  2
VPORT
  5
8
100
AcDbSymbolTable
 70
2
  0
VPORT
  5
1F4
100
AcDbSymbolTableRecord
100
AcDbViewportTableRecord
  2
*ACTIVE
 70
0
 10
0.0
 20
0.0
 11
1.0
 21
1.0
 12
11.0
 22
8.5
 13
0.0
 23
0.0
 14
1.0
 24
1.0
 15
0.0
 25
0.0
 16
0.0
 26
0.0
 36
1.0
 17
0.0
 27
0.0
 37
0.0
 40
17.0
 41
1.2941176471
 42
50.0
 43
0.0
 44
0.0
 50
0.0
 51
0.0
 71
0
 72
100
 73
1
 74
1
 75
0
 76
0
 77
0
 78
0
  0
ENDTAB
  0
TABLE
  2
LTYPE
  5
5
100
AcDbSymbolTable
 70
6
  0
LTYPE
  5
14
100
AcDbSymbolTableRecord
100
AcDbLinetypeTableRecord
  2
BYBLOCK
 70
0
  3

 72
65
 73
0
 40
0.0
  0
LTYPE
  5
15
100
AcDbSymbolTableRecord
100
AcDbLinetypeTableRecord
  2
BYLAYER
 70
0
  3

 72
65
 73
0
 40
0.0
  0
LTYPE
  5
16
100
AcDbSymbolTableRecord
100
AcDbLinetypeTableRecord
  2
CONTINUOUS
 70
64
  3
Solid line
 72
65
 73
0
 40
0.0
  0
LTYPE
  5
1F5
100
AcDbSymbolTableRecord
100
AcDbLinetypeTableRecord
  2
CENTER
 70
64
  3
____ _ ____ _ ____ _ ____ _ ____ _ ____ _ ____
 72
65
 73
4
 40
0.6
 49
0.375
 74
0
 49
-0.075
 74
0
 49
0.075
 74
0
 49
-0.075
 74
0
  0
LTYPE
  5
1F6
100
AcDbSymbolTableRecord
100
AcDbLinetypeTableRecord
  2
HIDDEN
 70
64
  3
- - - - - - - - - - - - - - - - - - - -
 72
65
 73
2
 40
0.2
 49
0.1
 74
0
 49
-0.1
 74
0
  0
LTYPE
  5
1F7
100
AcDbSymbolTableRecord
100
AcDbLinetypeTableRecord
  2
PHANTOM
 70
64
  3
_____ _ _ _____ _ _ _____ _ _ _____
 72
65
 73
6
 40
0.8
 49
0.45
 74
0
 49
-0.05
 74
0
 49
0.1
 74
0
 49
-0.05
 74
0
 49
0.1
 74
0
 49
-0.05
 74
0
  0
LTYPE
  5
1F8
100
AcDbSymbolTableRecord
100
AcDbLinetypeTableRecord
  2
DOT
 70
64
  3
. . . . . . . . . . . . . . . . . . . .
 72
65
 73
2
 40
0.2
 49
0.1
 74
0
 49
-0.1
 74
0
  0
LTYPE
  5
1F9
100
AcDbSymbolTableRecord
100
AcDbLinetypeTableRecord
  2
DASHED
 70
64
  3
- - - - - - - - - - - - - - - - - - - -
 72
65
 73
2
 40
0.2
 49
0.1
 74
0
 49
-0.1
 74
0
  0
ENDTAB
  0
TABLE
  2
LAYER
  5
2
100
AcDbSymbolTable
 70
36
  0
LAYER
  5
10
100
AcDbSymbolTableRecord
100
AcDbLayerTableRecord
  2
0
 70
0
 62
7
  6
CONTINUOUS
370
-3
390
F
  0
LAYER
  5
1FA
100
AcDbSymbolTableRecord
100
AcDbLayerTableRecord
  2
DEFAULT_1
 70
0
 62
7
  6
CENTER
370
-3
390
F
  0
LAYER
  5
1FB
100
AcDbSymbolTableRecord
100
AcDbLayerTableRecord
  2
DEFAULT_2
 70
0
 62
8
  6
HIDDEN
370
-3
390
F
  0
LAYER
  5
1FC
100
AcDbSymbolTableRecord
100
AcDbLayerTableRecord
  2
DEFAULT_3
 70
0
 62
7
  6
PHANTOM
370
-3
390
F
  0
LAYER
  5
1FD
100
AcDbSymbolTableRecord
100
AcDbLayerTableRecord
  2
ALL_FEATURES
 70
0
 62
7
  6
CONTINUOUS
370
-3
390
F
  0
LAYER
  5
1FE
100
AcDbSymbolTableRecord
100
AcDbLayerTableRecord
  2
AXES_FEATURES
 70
0
 62
7
  6
CONTINUOUS
370
-3
390
F
  0
LAYER
  5
1FF
100
AcDbSymbolTableRecord
100
AcDbLayerTableRecord
  2
DEFAULT_COORDINATE_SYSTEM
 70
0
 62
7
  6
CONTINUOUS
370
-3
390
F
  0
LAYER
  5
200
100
AcDbSymbolTableRecord
100
AcDbLayerTableRecord
  2
DEFAULT_DATUM_AXES
 70
0
 62
7
  6
CONTINUOUS
370
-3
390
F
  0
LAYER
  5
201
100
AcDbSymbolTableRecord
100
AcDbLayerTableRecord
  2
DEFAULT_DATUM_PLANES
 70
0
 62
7
  6
CONTINUOUS
370
-3
390
F
  0
LAYER
  5
202
100
AcDbSymbolTableRecord
100
AcDbLayerTableRecord
  2
DIMENSIONS
 70
0
 62
7
  6
CONTINUOUS
370
-3
390
F
  0
ENDTAB
  0
TABLE
  2
STYLE
  5
3
100
AcDbSymbolTable
 70
1
  0
STYLE
  5
11
100
AcDbSymbolTableRecord
100
AcDbTextStyleTableRecord
  2
STANDARD
 70
0
 40
0.0
 41
0.8
 50
0.0
 71
0
 42
0.2
  3
txt
  4

  0
STYLE
  5
203
100
AcDbSymbolTableRecord
100
AcDbTextStyleTableRecord
  2
TEXTSTYLE_1
 70
0
 40
0.0
 41
0.8
 50
0.0
 71
0
 42
0.2
  3
gdt
  4

  0
ENDTAB
  0
TABLE
  2
VIEW
  5
6
100
AcDbSymbolTable
 70
0
  0
ENDTAB
  0
TABLE
  2
UCS
  5
7
100
AcDbSymbolTable
 70
0
  0
ENDTAB
  0
TABLE
  2
APPID
  5
9
100
AcDbSymbolTable
 70
1
  0
APPID
  5
204
100
AcDbSymbolTableRecord
100
AcDbRegAppTableRecord
  2
ACAD
 70
0
  0
ENDTAB
  0
TABLE
  2
BLOCK_RECORD
  5
1
100
AcDbSymbolTable
 70
0
  0
BLOCK_RECORD
  5
205
100
AcDbSymbolTableRecord
100
AcDbBlockTableRecord
  2
*Model_Space
  0
BLOCK_RECORD
  5
206
100
AcDbSymbolTableRecord
100
AcDbBlockTableRecord
  2
*Paper_Space
  0
BLOCK_RECORD
  5
207
100
AcDbSymbolTableRecord
100
AcDbBlockTableRecord
  2
_FILLED
  0
ENDTAB
  0
TABLE
  2
DIMSTYLE
  5
A
100
AcDbSymbolTable
 70
1
100
AcDbDimStyleTable
 71
0
  0
DIMSTYLE
105
208
100
AcDbSymbolTableRecord
100
AcDbDimStyleTableRecord
  2
STANDARD
 70
0
  3

  4

 40
1.0
 41
0.1
 42
0.0625
 43
0.38
 44
0.125
 45
0.0
 46
0.0
 47
0.001
 48
0.001
140
0.08
141
0.09
142
0.0
143
25.4
144
1.0
145
0.0
146
1.0
147
0.09
 71
1.0
 72
0.0
 73
1
 74
1
 75
0
 76
0
 77
0
 78
4
 79
1
170
1
171
2
172
0
173
0
174
0
175
0
176
0
177
0
178
0
270
2
179
3
271
3
272
3
273
2
274
2
275
0
280
0
281
0
282
0
283
1
284
4
285
0
286
0
287
3
288
0
340
11
278
46
341
207
342
207
343
207
344
207
  0
ENDTAB
  0
ENDSEC
  0
SECTION
  2
BLOCKS
  0
BLOCK
  5
20
100
AcDbEntity
  8
0
100
AcDbBlockBegin
  2
*Model_Space
 70
0
 10
0.0
 20
0.0
 30
0.0
  3
*Model_Space
  1

  0
ENDBLK
  5
21
100
AcDbEntity
  8
0
100
AcDbBlockEnd
  0
BLOCK
  5
1C
100
AcDbEntity
  8
0
100
AcDbBlockBegin
  2
*Paper_Space
 70
0
 10
0.0
 20
0.0
 30
0.0
  3
*Paper_Space
  1

  0
ENDBLK
  5
1D
100
AcDbEntity
  8
0
100
AcDbBlockEnd
  0
BLOCK
  5
209
100
AcDbEntity
  8
0
100
AcDbBlockBegin
  2
_FILLED
 70
64
 10
0.0
 20
0.0
  3
_FILLED
  1

  0
SOLID
  5
20A
100
AcDbEntity
  8
0
  6
BYBLOCK
 62
0
100
AcDbTrace
 10
0.0
 20
0.0
 11
-1.0
 21
0.2
 12
-1.0
 22
-0.2
 13
-1.0
 23
-0.2
  0
ENDBLK
  5
20B
100
AcDbEntity
  8
0
  6
BYBLOCK
 62
0
100
AcDbBlockEnd
  0
ENDSEC
  0
SECTION
  2
ENTITIES
  0
LINE
  5
20C
100
AcDbEntity
  8
0
100
AcDbLine
 62
7
  6
CONTINUOUS
 10
12.2754834891
 20
5.759891804
 11
12.1360202288
 21
5.759891804
  0
LINE
  5
20D
100
AcDbEntity
  8
0
100
AcDbLine
 62
7
  6
CONTINUOUS
 10
9.6620624408
 20
6.159891804
 11
9.2932244561
 21
6.159891804
  0
LINE
  5
20E
100
AcDbEntity
  8
0
100
AcDbLine
 62
9
  6
CONTINUOUS
 10
9.6447991803
 20
6.2012944497
 11
9.3104917096
 21
6.2012944497
  0
LINE
  5
20F
100
AcDbEntity
  8
0
100
AcDbLine
 62
7
  6
CONTINUOUS
 10
10.8674834891
 20
6.389891804
 11
10.7774834891
 21
6.389891804
  0
LINE
  5
210
100
AcDbEntity
  8
0
100
AcDbLine
 62
7
  6
CONTINUOUS
 10
11.8674834891
 20
6.603891804
 11
11.6944834891
 21
6.603891804
  0
LINE
  5
211
100
AcDbEntity
  8
0
100
AcDbLine
 62
7
  6
CONTINUOUS
 10
10.7704885196
 20
6.3906913007
 11
10.6344885196
 21
6.4221913007
  0
LINE
  5
212
100
AcDbEntity
  8
0
100
AcDbLine
 62
7
  6
CONTINUOUS
 10
11.1034834891
 20
6.662891804
 11
11.6824834891
 21
6.662891804
  0
LINE
  5
213
100
AcDbEntity
  8
0
100
AcDbLine
 62
7
  6
CONTINUOUS
 10
11.1034834891
 20
7.016891804
 11
11.6824834891
 21
7.016891804
  0
LINE
  5
214
100
AcDbEntity
  8
0
100
AcDbLine
 62
7
  6
CONTINUOUS
 10
11.8674834891
 20
7.075891804
 11
11.6944834891
 21
7.075891804
  0
LINE
  5
215
100
AcDbEntity
  8
0
100
AcDbLine
 62
7
  6
CONTINUOUS
 10
10.7704885196
 20
7.2890923074
 11
10.6344885196
 21
7.2575923074
  0
LINE
  5
216
100
AcDbEntity
  8
0
100
AcDbLine
 62
7
  6
CONTINUOUS
 10
10.8674834891
 20
7.289891804
 11
10.7774834891
 21
7.289891804
  0
LINE
  5
217
100
AcDbEntity
  8
0
100
AcDbLine
 62
7
  6
CONTINUOUS
 10
9.1444834891
 20
8.747391804
 11
9.1444834891
 21
9.272391804
  0
LINE
  5
218
100
AcDbEntity
  8
0
100
AcDbLine
 62
9
  6
CONTINUOUS
 10
9.1744834891
 20
9.272391804
 11
9.1744834891
 21
8.747391804
  0
LINE
  5
219
100
AcDbEntity
  8
0
100
AcDbLine
 62
7
  6
CONTINUOUS
 10
9.1944834891
 20
8.697391804
 11
9.1944834891
 21
9.322391804
  0
LINE
  5
21A
100
AcDbEntity
  8
0
100
AcDbLine
 62
7
  6
CONTINUOUS
 10
9.2694834891
 20
8.609891804
 11
9.2694834891
 21
9.409891804
  0
LINE
  5
21B
100
AcDbEntity
  8
0
100
AcDbLine
 62
9
  6
CONTINUOUS
 10
9.310479548
 20
6.159891804
 11
9.310479548
 21
6.2012944497
  0
LWPOLYLINE
  5
21C
100
AcDbEntity
  8
0
100
AcDbPolyline
 62
7
  6
CONTINUOUS
 90
4
 70
0
 10
9.3266686056
 20
8.5532537444
 10
9.3002906985
 20
7.7205573792
 10
9.2743896844
 20
6.922618547
 10
9.2532396907
 20
6.2009561691
  0
LINE
  5
21D
100
AcDbEntity
  8
0
100
AcDbLine
 62
7
  6
CONTINUOUS
 10
11.8124834891
 20
7.759891804
 11
11.9624834891
 21
7.759891804
  0
LINE
  5
21E
100
AcDbEntity
  8
0
100
AcDbLine
 62
7
  6
CONTINUOUS
 10
11.5624834891
 20
7.7599103885
 11
11.4874834891
 21
7.7599103885
  0
LINE
  5
21F
100
AcDbEntity
  8
0
100
AcDbLine
 62
7
  6
CONTINUOUS
 10
11.5624834891
 20
7.7604339607
 11
11.4874834891
 21
7.7604339607
  0
LINE
  5
220
100
AcDbEntity
  8
0
100
AcDbLine
 62
7
  6
CONTINUOUS
 10
11.5624834891
 20
7.7609097262
 11
11.4874834891
 21
7.7609097262
  0
LINE
  5
221
100
AcDbEntity
  8
0
100
AcDbLine
 62
7
  6
CONTINUOUS
 10
11.5624834891
 20
7.7624798048
 11
11.4874834891
 21
7.7624798048
  0
LINE
  5
222
100
AcDbEntity
  8
0
100
AcDbLine
 62
7
  6
CONTINUOUS
 10
11.5624834891
 20
7.763430756
 11
11.4874834891
 21
7.763430756
  0
LINE
  5
223
100
AcDbEntity
  8
0
100
AcDbLine
 62
7
  6
CONTINUOUS
 10
11.5624834891
 20
7.7660454283
 11
11.4874834891
 21
7.7660454283
  0
LINE
  5
224
100
AcDbEntity
  8
0
100
AcDbLine
 62
7
  6
CONTINUOUS
 10
11.5624834891
 20
7.7674704067
 11
11.4874834891
 21
7.7674704067
  0
LINE
  5
225
100
AcDbEntity
  8
0
100
AcDbLine
 62
7
  6
CONTINUOUS
 10
11.5624834891
 20
7.771126487
 11
11.4874834891
 21
7.771126487
  0
LINE
  5
226
100
AcDbEntity
  8
0
100
AcDbLine
 62
7
  6
CONTINUOUS
 10
11.5624834891
 20
7.7730237565
 11
11.4874834891
 21
7.7730237565
  0
LINE
  5
227
100
AcDbEntity
  8
0
100
AcDbLine
 62
7
  6
CONTINUOUS
 10
11.5624834891
 20
7.7777167904
 11
11.4874834891
 21
7.7777167904
  0
LINE
  5
228
100
AcDbEntity
  8
0
100
AcDbLine
 62
7
  6
CONTINUOUS
 10
11.5624834891
 20
7.7800840394
 11
11.4874834891
 21
7.7800840394
  0
LINE
  5
229
100
AcDbEntity
  8
0
100
AcDbLine
 62
7
  6
CONTINUOUS
 10
11.5624834891
 20
7.7858083093
 11
11.4874834891
 21
7.7858083093
  0
LINE
  5
22A
100
AcDbEntity
  8
0
100
AcDbLine
 62
7
  6
CONTINUOUS
 10
11.5624834891
 20
7.7886426537
 11
11.4874834891
 21
7.7886426537
  0
LINE
  5
22B
100
AcDbEntity
  8
0
100
AcDbLine
 62
7
  6
CONTINUOUS
 10
11.5624834891
 20
7.7953911853
 11
11.4874834891
 21
7.7953911853
  0
LINE
  5
22C
100
AcDbEntity
  8
0
100
AcDbLine
 62
7
  6
CONTINUOUS
 10
11.5624834891
 20
7.798689172
 11
11.4874834891
 21
7.798689172
  0
LINE
  5
22D
100
AcDbEntity
  8
0
100
AcDbLine
 62
7
  6
CONTINUOUS
 10
11.5624834891
 20
7.8064537433
 11
11.4874834891
 21
7.8064537433
  0
LINE
  5
22E
100
AcDbEntity
  8
0
100
AcDbLine
 62
7
  6
CONTINUOUS
 10
11.5624834891
 20
7.809891804
 11
11.7624834891
 21
7.809891804
  0
LINE
  5
22F
100
AcDbEntity
  8
0
100
AcDbLine
 62
7
  6
CONTINUOUS
 10
11.5624834891
 20
7.810211354
 11
11.4874834891
 21
7.810211354
  0
LINE
  5
230
100
AcDbEntity
  8
0
100
AcDbLine
 62
7
  6
CONTINUOUS
 10
11.5624834891
 20
7.8189825052
 11
11.4874834891
 21
7.8189825052
  0
LINE
  5
231
100
AcDbEntity
  8
0
100
AcDbLine
 62
7
  6
CONTINUOUS
 10
11.5624834891
 20
7.823195162
 11
11.4874834891
 21
7.823195162
  0
LINE
  5
232
100
AcDbEntity
  8
0
100
AcDbLine
 62
7
  6
CONTINUOUS
 10
11.5624834891
 20
7.8329622066
 11
11.4874834891
 21
7.8329622066
  0
LINE
  5
233
100
AcDbEntity
  8
0
100
AcDbLine
 62
7
  6
CONTINUOUS
 10
11.5624834891
 20
7.8376247769
 11
11.4874834891
 21
7.8376247769
  0
LWPOLYLINE
  5
234
100
AcDbEntity
  8
0
100
AcDbPolyline
 62
7
  6
CONTINUOUS
 90
4
 70
0
 10
9.7020613668
 20
6.1999064551
 10
9.6998517893
 20
6.9222728863
 10
9.6948864989
 20
7.7210555551
 10
9.6903596464
 20
8.5547034665
  0
LINE
  5
235
100
AcDbEntity
  8
0
100
AcDbLine
 62
9
  6
CONTINUOUS
 10
9.6448112489
 20
6.159891804
 11
9.6448112489
 21
6.2012944497
  0
LINE
  5
236
100
AcDbEntity
  8
0
100
AcDbLine
 62
7
  6
CONTINUOUS
 10
9.7444834891
 20
8.6098917967
 11
9.7444834891
 21
9.409891804
  0
LINE
  5
237
100
AcDbEntity
  8
0
100
AcDbLine
 62
9
  6
CONTINUOUS
 10
9.7644834891
 20
9.322391804
 11
9.7644834891
 21
8.697391804
  0
LINE
  5
238
100
AcDbEntity
  8
0
100
AcDbLine
 62
7
  6
CONTINUOUS
 10
9.6903597477
 20
8.5547045469
 11
9.6905202071
 21
8.5591020245
  0
LINE
  5
239
100
AcDbEntity
  8
0
100
AcDbLine
 62
7
  6
CONTINUOUS
 10
9.6905135092
 20
8.5590133795
 11
9.6914525215
 21
8.5658099581
  0
LINE
  5
23A
100
AcDbEntity
  8
0
100
AcDbLine
 62
7
  6
CONTINUOUS
 10
11.5624834891
 20
7.8483758154
 11
11.4874834891
 21
7.8483758154
  0
LINE
  5
23B
100
AcDbEntity
  8
0
100
AcDbLine
 62
7
  6
CONTINUOUS
 10
11.5624834891
 20
7.8534826187
 11
11.4874834891
 21
7.8534826187
  0
LINE
  5
23C
100
AcDbEntity
  8
0
100
AcDbLine
 62
7
  6
CONTINUOUS
 10
11.5624834891
 20
7.8652045526
 11
11.4874834891
 21
7.8652045526
  0
LINE
  5
23D
100
AcDbEntity
  8
0
100
AcDbLine
 62
7
  6
CONTINUOUS
 10
11.5624834891
 20
7.870749367
 11
11.4874834891
 21
7.870749367
  0
LINE
  5
23E
100
AcDbEntity
  8
0
100
AcDbLine
 62
7
  6
CONTINUOUS
 10
11.5624834891
 20
7.8834279148
 11
11.4874834891
 21
7.8834279148
  0
LINE
  5
23F
100
AcDbEntity
  8
0
100
AcDbLine
 62
7
  6
CONTINUOUS
 10
11.5624834891
 20
7.8894039848
 11
11.4874834891
 21
7.8894039848
  0
LINE
  5
240
100
AcDbEntity
  8
0
100
AcDbLine
 62
7
  6
CONTINUOUS
 10
11.5624834891
 20
7.9030236998
 11
11.4874834891
 21
7.9030236998
  0
LINE
  5
241
100
AcDbEntity
  8
0
100
AcDbLine
 62
7
  6
CONTINUOUS
 10
11.5624834891
 20
7.9094237444
 11
11.4874834891
 21
7.9094237444
  0
LINE
  5
242
100
AcDbEntity
  8
0
100
AcDbLine
 62
7
  6
CONTINUOUS
 10
11.5624834891
 20
7.923968033
 11
11.4874834891
 21
7.923968033
  0
LINE
  5
243
100
AcDbEntity
  8
0
100
AcDbLine
 62
7
  6
CONTINUOUS
 10
11.5624834891
 20
7.9307842549
 11
11.4874834891
 21
7.9307842549
  0
LINE
  5
244
100
AcDbEntity
  8
0
100
AcDbLine
 62
7
  6
CONTINUOUS
 10
11.5624834891
 20
7.9462353971
 11
11.4874834891
 21
7.9462353971
  0
LINE
  5
245
100
AcDbEntity
  8
0
100
AcDbLine
 62
7
  6
CONTINUOUS
 10
11.5624834891
 20
7.9534594917
 11
11.4874834891
 21
7.9534594917
  0
LINE
  5
246
100
AcDbEntity
  8
0
100
AcDbLine
 62
7
  6
CONTINUOUS
 10
11.5624834891
 20
7.9697986627
 11
11.4874834891
 21
7.9697986627
  0
LINE
  5
247
100
AcDbEntity
  8
0
100
AcDbLine
 62
7
  6
CONTINUOUS
 10
11.5624834891
 20
7.9774218285
 11
11.4874834891
 21
7.9774218285
  0
LINE
  5
248
100
AcDbEntity
  8
0
100
AcDbLine
 62
7
  6
CONTINUOUS
 10
10.3874834891
 20
7.984891804
 11
10.5874834891
 21
7.984891804
  0
LINE
  5
249
100
AcDbEntity
  8
0
100
AcDbLine
 62
7
  6
CONTINUOUS
 10
11.5624834891
 20
7.9946291216
 11
11.4874834891
 21
7.9946291216
  0
LINE
  5
24A
100
AcDbEntity
  8
0
100
AcDbLine
 62
7
  6
CONTINUOUS
 10
11.5624834891
 20
8.0026420709
 11
11.4874834891
 21
8.0026420709
  0
LINE
  5
24B
100
AcDbEntity
  8
0
100
AcDbLine
 62
7
  6
CONTINUOUS
 10
11.5624834891
 20
8.0206965216
 11
11.4874834891
 21
8.0206965216
  0
LINE
  5
24C
100
AcDbEntity
  8
0
100
AcDbLine
 62
7
  6
CONTINUOUS
 10
11.5624834891
 20
8.029089492
 11
11.4874834891
 21
8.029089492
  0
LINE
  5
24D
100
AcDbEntity
  8
0
100
AcDbLine
 62
7
  6
CONTINUOUS
 10
11.5624834891
 20
8.0479691037
 11
11.4874834891
 21
8.0479691037
  0
LINE
  5
24E
100
AcDbEntity
  8
0
100
AcDbLine
 62
7
  6
CONTINUOUS
 10
11.5624834891
 20
8.0567318696
 11
11.4874834891
 21
8.0567318696
  0
LINE
  5
24F
100
AcDbEntity
  8
0
100
AcDbLine
 62
7
  6
CONTINUOUS
 10
10.3374834891
 20
8.059891804
 11
10.3874834891
 21
8.059891804
  0
LINE
  5
250
100
AcDbEntity
  8
0
100
AcDbLine
 62
7
  6
CONTINUOUS
 10
10.5874834891
 20
8.059891804
 11
10.6874834891
 21
8.059891804
  0
LINE
  5
251
100
AcDbEntity
  8
0
100
AcDbLine
 62
7
  6
CONTINUOUS
 10
11.5624834891
 20
8.0764136405
 11
11.4874834891
 21
8.0764136405
  0
LINE
  5
252
100
AcDbEntity
  8
0
100
AcDbLine
 62
7
  6
CONTINUOUS
 10
11.1034834891
 20
7.064891804
 11
10.8894974482
 21
7.2807180636
  0
LINE
  5
253
100
AcDbEntity
  8
0
100
AcDbLine
 62
7
  6
CONTINUOUS
 10
9.6914250682
 20
8.5656733406
 11
9.693226459
 21
8.5724248216
  0
LINE
  5
254
100
AcDbEntity
  8
0
100
AcDbLine
 62
7
  6
CONTINUOUS
 10
9.693175783
 20
8.5722733047
 11
9.6958322623
 21
8.5788167277
  0
LINE
  5
255
100
AcDbEntity
  8
0
100
AcDbLine
 62
7
  6
CONTINUOUS
 10
11.5624834891
 20
8.0855355258
 11
11.4874834891
 21
8.0855355258
  0
LINE
  5
256
100
AcDbEntity
  8
0
100
AcDbLine
 62
7
  6
CONTINUOUS
 10
11.5624834891
 20
8.1059954766
 11
11.4874834891
 21
8.1059954766
  0
LINE
  5
257
100
AcDbEntity
  8
0
100
AcDbLine
 62
7
  6
CONTINUOUS
 10
11.5624834891
 20
8.1154653677
 11
11.4874834891
 21
8.1154653677
  0
LINE
  5
258
100
AcDbEntity
  8
0
100
AcDbLine
 62
7
  6
CONTINUOUS
 10
10.7624834891
 20
8.134891804
 11
11.2874834891
 21
8.134891804
  0
LINE
  5
259
100
AcDbEntity
  8
0
100
AcDbLine
 62
7
  6
CONTINUOUS
 10
11.5624834891
 20
8.1366785712
 11
11.4874834891
 21
8.1366785712
  0
LINE
  5
25A
100
AcDbEntity
  8
0
100
AcDbLine
 62
7
  6
CONTINUOUS
 10
11.5624834891
 20
8.1464849305
 11
11.4874834891
 21
8.1464849305
  0
LINE
  5
25B
100
AcDbEntity
  8
0
100
AcDbLine
 62
7
  6
CONTINUOUS
 10
11.4874834891
 20
8.1676852114
 11
11.5624834891
 21
8.1676852114
  0
LINE
  5
25C
100
AcDbEntity
  8
0
100
AcDbLine
 62
7
  6
CONTINUOUS
 10
11.5624834891
 20
8.1684255416
 11
11.4874834891
 21
8.1684255416
  0
LINE
  5
25D
100
AcDbEntity
  8
0
100
AcDbLine
 62
7
  6
CONTINUOUS
 10
11.5624834891
 20
8.1785564215
 11
11.4874834891
 21
8.1785564215
  0
LINE
  5
25E
100
AcDbEntity
  8
0
100
AcDbLine
 62
7
  6
CONTINUOUS
 10
11.4874834891
 20
8.1997179507
 11
11.5624834891
 21
8.1997179507
  0
LINE
  5
25F
100
AcDbEntity
  8
0
100
AcDbLine
 62
7
  6
CONTINUOUS
 10
11.5624834891
 20
8.2011977089
 11
11.4874834891
 21
8.2011977089
  0
LINE
  5
260
100
AcDbEntity
  8
0
100
AcDbLine
 62
7
  6
CONTINUOUS
 10
11.5624834891
 20
8.2116407667
 11
11.4874834891
 21
8.2116407667
  0
LINE
  5
261
100
AcDbEntity
  8
0
100
AcDbLine
 62
7
  6
CONTINUOUS
 10
11.4874834891
 20
8.232737762
 11
11.5624834891
 21
8.232737762
  0
LINE
  5
262
100
AcDbEntity
  8
0
100
AcDbLine
 62
7
  6
CONTINUOUS
 10
11.5624834891
 20
8.2349551455
 11
11.4874834891
 21
8.2349551455
  0
LINE
  5
263
100
AcDbEntity
  8
0
100
AcDbLine
 62
7
  6
CONTINUOUS
 10
11.5624834891
 20
8.2456976578
 11
11.4874834891
 21
8.2456976578
  0
LINE
  5
264
100
AcDbEntity
  8
0
100
AcDbLine
 62
7
  6
CONTINUOUS
 10
10.1874834891
 20
8.259891804
 11
10.2374834891
 21
8.259891804
  0
LINE
  5
265
100
AcDbEntity
  8
0
100
AcDbLine
 62
7
  6
CONTINUOUS
 10
11.4874834891
 20
8.2667044158
 11
11.5624834891
 21
8.2667044158
  0
LINE
  5
266
100
AcDbEntity
  8
0
100
AcDbLine
 62
7
  6
CONTINUOUS
 10
11.5624834891
 20
8.2696567231
 11
11.4874834891
 21
8.2696567231
  0
LINE
  5
267
100
AcDbEntity
  8
0
100
AcDbLine
 62
7
  6
CONTINUOUS
 10
11.5624834891
 20
8.2806856017
 11
11.4874834891
 21
8.2806856017
  0
LINE
  5
268
100
AcDbEntity
  8
0
100
AcDbLine
 62
7
  6
CONTINUOUS
 10
11.4874834891
 20
8.3015765289
 11
11.5624834891
 21
8.3015765289
  0
LINE
  5
269
100
AcDbEntity
  8
0
100
AcDbLine
 62
7
  6
CONTINUOUS
 10
11.5624834891
 20
8.305260163
 11
11.4874834891
 21
8.305260163
  0
LINE
  5
26A
100
AcDbEntity
  8
0
100
AcDbLine
 62
7
  6
CONTINUOUS
 10
11.5624834891
 20
8.316561971
 11
11.4874834891
 21
8.316561971
  0
LINE
  5
26B
100
AcDbEntity
  8
0
100
AcDbLine
 62
7
  6
CONTINUOUS
 10
10.0574834891
 20
8.697391804
 11
10.0574834891
 21
9.322391804
  0
LINE
  5
26C
100
AcDbEntity
  8
0
100
AcDbLine
 62
7
  6
CONTINUOUS
 10
10.0874834891
 20
9.409891804
 11
10.0874834891
 21
8.609891804
  0
LINE
  5
26D
100
AcDbEntity
  8
0
100
AcDbLine
 62
7
  6
CONTINUOUS
 10
10.1874834891
 20
9.759891804
 11
10.1874834891
 21
8.259891804
  0
LINE
  5
26E
100
AcDbEntity
  8
0
100
AcDbLine
 62
7
  6
CONTINUOUS
 10
10.2374834891
 20
9.859891804
 11
10.2374834891
 21
8.159891804
  0
LINE
  5
26F
100
AcDbEntity
  8
0
100
AcDbLine
 62
7
  6
CONTINUOUS
 10
9.6957633993
 20
8.5786735753
 11
9.6992377388
 21
8.584862051
  0
LINE
  5
270
100
AcDbEntity
  8
0
100
AcDbLine
 62
7
  6
CONTINUOUS
 10
9.6991596371
 20
8.5847414663
 11
9.7033882743
 21
8.5904435304
  0
LINE
  5
271
100
AcDbEntity
  8
0
100
AcDbLine
 62
7
  6
CONTINUOUS
 10
11.4874834891
 20
8.3373116151
 11
11.5624834891
 21
8.3373116151
  0
LINE
  5
272
100
AcDbEntity
  8
0
100
AcDbLine
 62
7
  6
CONTINUOUS
 10
11.5624834891
 20
8.3417220881
 11
11.4874834891
 21
8.3417220881
  0
LINE
  5
273
100
AcDbEntity
  8
0
100
AcDbLine
 62
7
  6
CONTINUOUS
 10
11.5624834891
 20
8.353283056
 11
11.4874834891
 21
8.353283056
  0
LINE
  5
274
100
AcDbEntity
  8
0
100
AcDbLine
 62
7
  6
CONTINUOUS
 10
11.4874834891
 20
8.3738661366
 11
11.5624834891
 21
8.3738661366
  0
LINE
  5
275
100
AcDbEntity
  8
0
100
AcDbLine
 62
7
  6
CONTINUOUS
 10
11.5624834891
 20
8.378998075
 11
11.4874834891
 21
8.378998075
  0
LINE
  5
276
100
AcDbEntity
  8
0
100
AcDbLine
 62
7
  6
CONTINUOUS
 10
11.5624834891
 20
8.3908041176
 11
11.4874834891
 21
8.3908041176
  0
LINE
  5
277
100
AcDbEntity
  8
0
100
AcDbLine
 62
7
  6
CONTINUOUS
 10
11.4874834891
 20
8.4111955575
 11
11.5624834891
 21
8.4111955575
  0
LINE
  5
278
100
AcDbEntity
  8
0
100
AcDbLine
 62
7
  6
CONTINUOUS
 10
11.5624834891
 20
8.4170427088
 11
11.4874834891
 21
8.4170427088
  0
LINE
  5
279
100
AcDbEntity
  8
0
100
AcDbLine
 62
7
  6
CONTINUOUS
 10
11.5624834891
 20
8.4290794421
 11
11.4874834891
 21
8.4290794421
  0
LINE
  5
27A
100
AcDbEntity
  8
0
100
AcDbLine
 62
7
  6
CONTINUOUS
 10
11.4874834891
 20
8.4492543975
 11
11.5624834891
 21
8.4492543975
  0
LINE
  5
27B
100
AcDbEntity
  8
0
100
AcDbLine
 62
7
  6
CONTINUOUS
 10
11.5624834891
 20
8.4558096379
 11
11.4874834891
 21
8.4558096379
  0
LINE
  5
27C
100
AcDbEntity
  8
0
100
AcDbLine
 62
7
  6
CONTINUOUS
 10
11.5624834891
 20
8.4680623971
 11
11.4874834891
 21
8.4680623971
  0
LINE
  5
27D
100
AcDbEntity
  8
0
100
AcDbLine
 62
7
  6
CONTINUOUS
 10
11.4874834891
 20
8.4879962878
 11
11.5624834891
 21
8.4879962878
  0
LINE
  5
27E
100
AcDbEntity
  8
0
100
AcDbLine
 62
7
  6
CONTINUOUS
 10
11.5624834891
 20
8.4952516307
 11
11.4874834891
 21
8.4952516307
  0
LINE
  5
27F
100
AcDbEntity
  8
0
100
AcDbLine
 62
7
  6
CONTINUOUS
 10
11.5624834891
 20
8.5077054877
 11
11.4874834891
 21
8.5077054877
  0
LINE
  5
280
100
AcDbEntity
  8
0
100
AcDbLine
 62
7
  6
CONTINUOUS
 10
11.4874834891
 20
8.5273740274
 11
11.5624834891
 21
8.5273740274
  0
LINE
  5
281
100
AcDbEntity
  8
0
100
AcDbLine
 62
7
  6
CONTINUOUS
 10
11.5624834891
 20
8.5353206333
 11
11.4874834891
 21
8.5353206333
  0
LINE
  5
282
100
AcDbEntity
  8
0
100
AcDbLine
 62
7
  6
CONTINUOUS
 10
11.5624834891
 20
8.547960415
 11
11.4874834891
 21
8.547960415
  0
LINE
  5
283
100
AcDbEntity
  8
0
100
AcDbLine
 62
7
  6
CONTINUOUS
 10
10.3374834891
 20
9.959891804
 11
10.3374834891
 21
8.059891804
  0
LINE
  5
284
100
AcDbEntity
  8
0
100
AcDbLine
 62
7
  6
CONTINUOUS
 10
10.3874834891
 20
10.034891804
 11
10.3874834891
 21
7.984891804
  0
LINE
  5
285
100
AcDbEntity
  8
0
100
AcDbLine
 62
7
  6
CONTINUOUS
 10
9.7033098945
 20
8.5903507576
 11
9.7082089098
 21
8.5954554692
  0
LINE
  5
286
100
AcDbEntity
  8
0
100
AcDbLine
 62
7
  6
CONTINUOUS
 10
9.708135655
 20
8.5953882337
 11
9.7136153901
 21
8.5998133761
  0
LINE
  5
287
100
AcDbEntity
  8
0
100
AcDbLine
 62
7
  6
CONTINUOUS
 10
9.739279433
 20
8.6095616782
 11
9.7444834891
 21
8.6098917832
  0
LINE
  5
288
100
AcDbEntity
  8
0
100
AcDbLine
 62
7
  6
CONTINUOUS
 10
11.4874834891
 20
8.5673396406
 11
11.5624834891
 21
8.5673396406
  0
LINE
  5
289
100
AcDbEntity
  8
0
100
AcDbLine
 62
7
  6
CONTINUOUS
 10
11.5624834891
 20
8.5759678278
 11
11.4874834891
 21
8.5759678278
  0
LINE
  5
28A
100
AcDbEntity
  8
0
100
AcDbLine
 62
7
  6
CONTINUOUS
 10
11.5624834891
 20
8.5887781345
 11
11.4874834891
 21
8.5887781345
  0
LINE
  5
28B
100
AcDbEntity
  8
0
100
AcDbLine
 62
7
  6
CONTINUOUS
 10
11.4874834891
 20
8.6078444355
 11
11.5624834891
 21
8.6078444355
  0
LINE
  5
28C
100
AcDbEntity
  8
0
100
AcDbLine
 62
7
  6
CONTINUOUS
 10
9.2716930041
 20
8.609891804
 11
9.2694834891
 21
8.609891804
  0
LINE
  5
28D
100
AcDbEntity
  8
0
100
AcDbLine
 62
7
  6
CONTINUOUS
 10
10.0874834891
 20
8.609891804
 11
10.1874834891
 21
8.609891804
  0
LINE
  5
28E
100
AcDbEntity
  8
0
100
AcDbLine
 62
7
  6
CONTINUOUS
 10
11.5624834891
 20
8.6171436918
 11
11.4874834891
 21
8.6171436918
  0
LINE
  5
28F
100
AcDbEntity
  8
0
100
AcDbLine
 62
7
  6
CONTINUOUS
 10
11.5624834891
 20
8.6301089162
 11
11.4874834891
 21
8.6301089162
  0
LINE
  5
290
100
AcDbEntity
  8
0
100
AcDbLine
 62
9
  6
CONTINUOUS
 10
9.3651120792
 20
8.6402204429
 11
9.653151638
 21
8.6402204429
  0
LINE
  5
291
100
AcDbEntity
  8
0
100
AcDbLine
 62
7
  6
CONTINUOUS
 10
11.4874834891
 20
8.6488390631
 11
11.5624834891
 21
8.6488390631
  0
LINE
  5
292
100
AcDbEntity
  8
0
100
AcDbLine
 62
7
  6
CONTINUOUS
 10
11.5624834891
 20
8.6587980589
 11
11.4874834891
 21
8.6587980589
  0
LINE
  5
293
100
AcDbEntity
  8
0
100
AcDbLine
 62
7
  6
CONTINUOUS
 10
11.5624834891
 20
8.6719024048
 11
11.4874834891
 21
8.6719024048
  0
LINE
  5
294
100
AcDbEntity
  8
0
100
AcDbLine
 62
9
  6
CONTINUOUS
 10
9.2906531921
 20
8.6866014977
 11
9.7286888342
 21
8.6866014977
  0
LINE
  5
295
100
AcDbEntity
  8
0
100
AcDbLine
 62
7
  6
CONTINUOUS
 10
11.4874834891
 20
8.6902735779
 11
11.5624834891
 21
8.6902735779
  0
LINE
  5
296
100
AcDbEntity
  8
0
100
AcDbLine
 62
7
  6
CONTINUOUS
 10
10.0574834891
 20
8.697391804
 11
9.7644834891
 21
8.697391804
  0
LINE
  5
297
100
AcDbEntity
  8
0
100
AcDbLine
 62
7
  6
CONTINUOUS
 10
11.5624834891
 20
8.7008801796
 11
11.4874834891
 21
8.7008801796
  0
LINE
  5
298
100
AcDbEntity
  8
0
100
AcDbLine
 62
7
  6
CONTINUOUS
 10
11.5624834891
 20
8.7141076815
 11
11.4874834891
 21
8.7141076815
  0
LINE
  5
299
100
AcDbEntity
  8
0
100
AcDbLine
 62
7
  6
CONTINUOUS
 10
11.4874834891
 20
8.7320974983
 11
11.5624834891
 21
8.7320974983
  0
LINE
  5
29A
100
AcDbEntity
  8
0
100
AcDbLine
 62
7
  6
CONTINUOUS
 10
11.5624834891
 20
8.7433387834
 11
11.4874834891
 21
8.7433387834
  0
LINE
  5
29B
100
AcDbEntity
  8
0
100
AcDbLine
 62
7
  6
CONTINUOUS
 10
9.1744834891
 20
8.747391804
 11
9.1444834891
 21
8.747391804
  0
LINE
  5
29C
100
AcDbEntity
  8
0
100
AcDbLine
 62
7
  6
CONTINUOUS
 10
11.5624834891
 20
8.7566733255
 11
11.4874834891
 21
8.7566733255
  0
LINE
  5
29D
100
AcDbEntity
  8
0
100
AcDbLine
 62
7
  6
CONTINUOUS
 10
11.4874834891
 20
8.7742598682
 11
11.5624834891
 21
8.7742598682
  0
LINE
  5
29E
100
AcDbEntity
  8
0
100
AcDbLine
 62
7
  6
CONTINUOUS
 10
11.5624834891
 20
8.786122141
 11
11.4874834891
 21
8.786122141
  0
LINE
  5
29F
100
AcDbEntity
  8
0
100
AcDbLine
 62
7
  6
CONTINUOUS
 10
11.5624834891
 20
8.7995474772
 11
11.4874834891
 21
8.7995474772
  0
LINE
  5
2A0
100
AcDbEntity
  8
0
100
AcDbLine
 62
7
  6
CONTINUOUS
 10
10.5874834891
 20
10.034891804
 11
10.5874834891
 21
7.984891804
  0
LINE
  5
2A1
100
AcDbEntity
  8
0
100
AcDbLine
 62
7
  6
CONTINUOUS
 10
10.6104834891
 20
6.452391804
 11
10.6104834891
 21
7.227391804
  0
LINE
  5
2A2
100
AcDbEntity
  8
0
100
AcDbLine
 62
9
  6
CONTINUOUS
 10
10.6344885196
 20
6.4221913007
 11
10.6344885196
 21
7.2575923074
  0
LINE
  5
2A3
100
AcDbEntity
  8
0
100
AcDbLine
 62
7
  6
CONTINUOUS
 10
10.6874834891
 20
9.959891804
 11
10.6874834891
 21
8.059891804
  0
LINE
  5
2A4
100
AcDbEntity
  8
0
100
AcDbLine
 62
7
  6
CONTINUOUS
 10
11.7624834891
 20
10.209891804
 11
11.8124834891
 21
10.259891804
  0
LINE
  5
2A5
100
AcDbEntity
  8
0
100
AcDbLine
 62
7
  6
CONTINUOUS
 10
9.7135491381
 20
8.5997664694
 11
9.7195220065
 21
8.6034521655
  0
LINE
  5
2A6
100
AcDbEntity
  8
0
100
AcDbLine
 62
7
  6
CONTINUOUS
 10
9.7194641782
 20
8.6034213413
 11
9.7258369922
 21
8.6063174215
  0
LINE
  5
2A7
100
AcDbEntity
  8
0
100
AcDbLine
 62
7
  6
CONTINUOUS
 10
10.0874834891
 20
8.809891804
 11
10.0574834891
 21
8.809891804
  0
LINE
  5
2A8
100
AcDbEntity
  8
0
100
AcDbLine
 62
7
  6
CONTINUOUS
 10
11.4874834891
 20
8.8167093193
 11
11.5624834891
 21
8.8167093193
  0
LINE
  5
2A9
100
AcDbEntity
  8
0
100
AcDbLine
 62
7
  6
CONTINUOUS
 10
11.5624834891
 20
8.8291781275
 11
11.4874834891
 21
8.8291781275
  0
LINE
  5
2AA
100
AcDbEntity
  8
0
100
AcDbLine
 62
7
  6
CONTINUOUS
 10
11.5624834891
 20
8.8426779012
 11
11.4874834891
 21
8.8426779012
  0
LINE
  5
2AB
100
AcDbEntity
  8
0
100
AcDbLine
 62
7
  6
CONTINUOUS
 10
11.4874834891
 20
8.8593941336
 11
11.5624834891
 21
8.8593941336
  0
LINE
  5
2AC
100
AcDbEntity
  8
0
100
AcDbLine
 62
7
  6
CONTINUOUS
 10
11.5624834891
 20
8.8724542857
 11
11.4874834891
 21
8.8724542857
  0
LINE
  5
2AD
100
AcDbEntity
  8
0
100
AcDbLine
 62
7
  6
CONTINUOUS
 10
11.5624834891
 20
8.8860120494
 11
11.4874834891
 21
8.8860120494
  0
LINE
  5
2AE
100
AcDbEntity
  8
0
100
AcDbLine
 62
7
  6
CONTINUOUS
 10
11.4874834891
 20
8.9022623061
 11
11.5624834891
 21
8.9022623061
  0
LINE
  5
2AF
100
AcDbEntity
  8
0
100
AcDbLine
 62
7
  6
CONTINUOUS
 10
11.5624834891
 20
8.9158978904
 11
11.4874834891
 21
8.9158978904
  0
LINE
  5
2B0
100
AcDbEntity
  8
0
100
AcDbLine
 62
7
  6
CONTINUOUS
 10
11.5624834891
 20
8.9294971261
 11
11.4874834891
 21
8.9294971261
  0
LINE
  5
2B1
100
AcDbEntity
  8
0
100
AcDbLine
 62
7
  6
CONTINUOUS
 10
11.4874834891
 20
8.9452616085
 11
11.5624834891
 21
8.9452616085
  0
LINE
  5
2B2
100
AcDbEntity
  8
0
100
AcDbLine
 62
7
  6
CONTINUOUS
 10
11.5624834891
 20
8.9594560122
 11
11.4874834891
 21
8.9594560122
  0
LINE
  5
2B3
100
AcDbEntity
  8
0
100
AcDbLine
 62
7
  6
CONTINUOUS
 10
11.5624834891
 20
8.9730801513
 11
11.4874834891
 21
8.9730801513
  0
LINE
  5
2B4
100
AcDbEntity
  8
0
100
AcDbLine
 62
7
  6
CONTINUOUS
 10
11.4874834891
 20
8.9883396529
 11
11.5624834891
 21
8.9883396529
  0
LINE
  5
2B5
100
AcDbEntity
  8
0
100
AcDbLine
 62
7
  6
CONTINUOUS
 10
11.5624834891
 20
9.0030755822
 11
11.4874834891
 21
9.0030755822
  0
LINE
  5
2B6
100
AcDbEntity
  8
0
100
AcDbLine
 62
7
  6
CONTINUOUS
 10
11.5624834891
 20
9.0167080259
 11
11.4874834891
 21
9.0167080259
  0
LINE
  5
2B7
100
AcDbEntity
  8
0
100
AcDbLine
 62
7
  6
CONTINUOUS
 10
11.4874834891
 20
9.0314439552
 11
11.5624834891
 21
9.0314439552
  0
LINE
  5
2B8
100
AcDbEntity
  8
0
100
AcDbLine
 62
7
  6
CONTINUOUS
 10
11.7624834891
 20
7.809891804
 11
11.8124834891
 21
7.759891804
  0
LINE
  5
2B9
100
AcDbEntity
  8
0
100
AcDbLine
 62
7
  6
CONTINUOUS
 10
10.7624834891
 20
9.884891804
 11
10.7624834891
 21
8.134891804
  0
LINE
  5
2BA
100
AcDbEntity
  8
0
100
AcDbLine
 62
9
  6
CONTINUOUS
 10
10.7704885196
 20
6.3906913007
 11
10.7704885196
 21
7.2890923074
  0
LINE
  5
2BB
100
AcDbEntity
  8
0
100
AcDbLine
 62
9
  6
CONTINUOUS
 10
10.7774834891
 20
6.389891804
 11
10.7774834891
 21
7.289891804
  0
LINE
  5
2BC
100
AcDbEntity
  8
0
100
AcDbLine
 62
9
  6
CONTINUOUS
 10
10.8674834891
 20
6.389891804
 11
10.8674834891
 21
7.289891804
  0
LINE
  5
2BD
100
AcDbEntity
  8
0
100
AcDbLine
 62
9
  6
CONTINUOUS
 10
10.8894974482
 20
6.3990655445
 11
10.8894974482
 21
7.2807180636
  0
LWPOLYLINE
  5
2BE
100
AcDbEntity
  8
0
100
AcDbPolyline
 62
7
  6
CONTINUOUS
 90
3
 70
0
 10
9.7257892835
 20
8.6062992767
 10
9.7324279301
 20
8.6083569561
 10
9.739279433
 20
8.6095616782
  0
LINE
  5
2BF
100
AcDbEntity
  8
0
100
AcDbLine
 62
7
  6
CONTINUOUS
 10
11.5624834891
 20
9.0467034567
 11
11.4874834891
 21
9.0467034567
  0
LINE
  5
2C0
100
AcDbEntity
  8
0
100
AcDbLine
 62
7
  6
CONTINUOUS
 10
11.5624834891
 20
9.0603275959
 11
11.4874834891
 21
9.0603275959
  0
LINE
  5
2C1
100
AcDbEntity
  8
0
100
AcDbLine
 62
7
  6
CONTINUOUS
 10
11.4874834891
 20
9.0745219996
 11
11.5624834891
 21
9.0745219996
  0
LINE
  5
2C2
100
AcDbEntity
  8
0
100
AcDbLine
 62
7
  6
CONTINUOUS
 10
11.5624834891
 20
9.090286482
 11
11.4874834891
 21
9.090286482
  0
LINE
  5
2C3
100
AcDbEntity
  8
0
100
AcDbLine
 62
7
  6
CONTINUOUS
 10
11.5624834891
 20
9.1038857177
 11
11.4874834891
 21
9.1038857177
  0
LINE
  5
2C4
100
AcDbEntity
  8
0
100
AcDbLine
 62
7
  6
CONTINUOUS
 10
11.4874834891
 20
9.117521302
 11
11.5624834891
 21
9.117521302
  0
LINE
  5
2C5
100
AcDbEntity
  8
0
100
AcDbLine
 62
7
  6
CONTINUOUS
 10
11.5624834891
 20
9.1337715587
 11
11.4874834891
 21
9.1337715587
  0
LINE
  5
2C6
100
AcDbEntity
  8
0
100
AcDbLine
 62
7
  6
CONTINUOUS
 10
11.5624834891
 20
9.1473293224
 11
11.4874834891
 21
9.1473293224
  0
LINE
  5
2C7
100
AcDbEntity
  8
0
100
AcDbLine
 62
7
  6
CONTINUOUS
 10
11.4874834891
 20
9.1603894745
 11
11.5624834891
 21
9.1603894745
  0
LINE
  5
2C8
100
AcDbEntity
  8
0
100
AcDbLine
 62
7
  6
CONTINUOUS
 10
11.5624834891
 20
9.1771057069
 11
11.4874834891
 21
9.1771057069
  0
LINE
  5
2C9
100
AcDbEntity
  8
0
100
AcDbLine
 62
7
  6
CONTINUOUS
 10
11.5624834891
 20
9.1906054806
 11
11.4874834891
 21
9.1906054806
  0
LINE
  5
2CA
100
AcDbEntity
  8
0
100
AcDbLine
 62
7
  6
CONTINUOUS
 10
11.4874834891
 20
9.2030742888
 11
11.5624834891
 21
9.2030742888
  0
LINE
  5
2CB
100
AcDbEntity
  8
0
100
AcDbLine
 62
7
  6
CONTINUOUS
 10
10.0874834891
 20
9.209891804
 11
10.0574834891
 21
9.209891804
  0
LINE
  5
2CC
100
AcDbEntity
  8
0
100
AcDbLine
 62
7
  6
CONTINUOUS
 10
11.5624834891
 20
9.2202361308
 11
11.4874834891
 21
9.2202361308
  0
LINE
  5
2CD
100
AcDbEntity
  8
0
100
AcDbLine
 62
7
  6
CONTINUOUS
 10
11.5624834891
 20
9.2336614671
 11
11.4874834891
 21
9.2336614671
  0
LINE
  5
2CE
100
AcDbEntity
  8
0
100
AcDbLine
 62
7
  6
CONTINUOUS
 10
11.4874834891
 20
9.2455237399
 11
11.5624834891
 21
9.2455237399
  0
LINE
  5
2CF
100
AcDbEntity
  8
0
100
AcDbLine
 62
7
  6
CONTINUOUS
 10
11.5624834891
 20
9.2631102826
 11
11.4874834891
 21
9.2631102826
  0
LINE
  5
2D0
100
AcDbEntity
  8
0
100
AcDbLine
 62
7
  6
CONTINUOUS
 10
9.1744834891
 20
9.272391804
 11
9.1444834891
 21
9.272391804
  0
LINE
  5
2D1
100
AcDbEntity
  8
0
100
AcDbLine
 62
7
  6
CONTINUOUS
 10
11.5624834891
 20
9.2764448247
 11
11.4874834891
 21
9.2764448247
  0
LINE
  5
2D2
100
AcDbEntity
  8
0
100
AcDbLine
 62
7
  6
CONTINUOUS
 10
11.1034834891
 20
6.6148924084
 11
11.1034834891
 21
7.0648911997
  0
LINE
  5
2D3
100
AcDbEntity
  8
0
100
AcDbLine
 62
7
  6
CONTINUOUS
 10
11.4874834891
 20
9.2876861098
 11
11.5624834891
 21
9.2876861098
  0
LINE
  5
2D4
100
AcDbEntity
  8
0
100
AcDbLine
 62
7
  6
CONTINUOUS
 10
11.5624834891
 20
9.3056759266
 11
11.4874834891
 21
9.3056759266
  0
LINE
  5
2D5
100
AcDbEntity
  8
0
100
AcDbLine
 62
7
  6
CONTINUOUS
 10
11.5624834891
 20
9.3189034285
 11
11.4874834891
 21
9.3189034285
  0
LINE
  5
2D6
100
AcDbEntity
  8
0
100
AcDbLine
 62
7
  6
CONTINUOUS
 10
10.0574834891
 20
9.322391804
 11
9.7644834891
 21
9.322391804
  0
LINE
  5
2D7
100
AcDbEntity
  8
0
100
AcDbLine
 62
7
  6
CONTINUOUS
 10
11.4874834891
 20
9.3295100302
 11
11.5624834891
 21
9.3295100302
  0
LINE
  5
2D8
100
AcDbEntity
  8
0
100
AcDbLine
 62
7
  6
CONTINUOUS
 10
11.5624834891
 20
9.3478812033
 11
11.4874834891
 21
9.3478812033
  0
LINE
  5
2D9
100
AcDbEntity
  8
0
100
AcDbLine
 62
7
  6
CONTINUOUS
 10
11.5624834891
 20
9.3609855492
 11
11.4874834891
 21
9.3609855492
  0
LINE
  5
2DA
100
AcDbEntity
  8
0
100
AcDbLine
 62
7
  6
CONTINUOUS
 10
11.4874834891
 20
9.370944545
 11
11.5624834891
 21
9.370944545
  0
LINE
  5
2DB
100
AcDbEntity
  8
0
100
AcDbLine
 62
7
  6
CONTINUOUS
 10
11.5624834891
 20
9.3896746919
 11
11.4874834891
 21
9.3896746919
  0
LINE
  5
2DC
100
AcDbEntity
  8
0
100
AcDbLine
 62
7
  6
CONTINUOUS
 10
11.5624834891
 20
9.4026399163
 11
11.4874834891
 21
9.4026399163
  0
LINE
  5
2DD
100
AcDbEntity
  8
0
100
AcDbLine
 62
7
  6
CONTINUOUS
 10
9.7444834891
 20
9.409891804
 11
9.2694834891
 21
9.409891804
  0
LINE
  5
2DE
100
AcDbEntity
  8
0
100
AcDbLine
 62
7
  6
CONTINUOUS
 10
10.0874834891
 20
9.409891804
 11
10.1874834891
 21
9.409891804
  0
LINE
  5
2DF
100
AcDbEntity
  8
0
100
AcDbLine
 62
7
  6
CONTINUOUS
 10
11.4874834891
 20
9.4119391726
 11
11.5624834891
 21
9.4119391726
  0
LINE
  5
2E0
100
AcDbEntity
  8
0
100
AcDbLine
 62
7
  6
CONTINUOUS
 10
11.5624834891
 20
9.4310054736
 11
11.4874834891
 21
9.4310054736
  0
LINE
  5
2E1
100
AcDbEntity
  8
0
100
AcDbLine
 62
7
  6
CONTINUOUS
 10
11.5624834891
 20
9.4438157803
 11
11.4874834891
 21
9.4438157803
  0
LINE
  5
2E2
100
AcDbEntity
  8
0
100
AcDbLine
 62
7
  6
CONTINUOUS
 10
11.4874834891
 20
9.4524439675
 11
11.5624834891
 21
9.4524439675
  0
LINE
  5
2E3
100
AcDbEntity
  8
0
100
AcDbLine
 62
7
  6
CONTINUOUS
 10
11.5624834891
 20
9.4718231931
 11
11.4874834891
 21
9.4718231931
  0
LINE
  5
2E4
100
AcDbEntity
  8
0
100
AcDbLine
 62
7
  6
CONTINUOUS
 10
11.5624834891
 20
9.4844629748
 11
11.4874834891
 21
9.4844629748
  0
LINE
  5
2E5
100
AcDbEntity
  8
0
100
AcDbLine
 62
7
  6
CONTINUOUS
 10
11.4874834891
 20
9.4924095807
 11
11.5624834891
 21
9.4924095807
  0
LINE
  5
2E6
100
AcDbEntity
  8
0
100
AcDbLine
 62
7
  6
CONTINUOUS
 10
11.5624834891
 20
9.5120781204
 11
11.4874834891
 21
9.5120781204
  0
LINE
  5
2E7
100
AcDbEntity
  8
0
100
AcDbLine
 62
7
  6
CONTINUOUS
 10
11.2874834891
 20
8.084891804
 11
11.2874834891
 21
9.934891804
  0
LINE
  5
2E8
100
AcDbEntity
  8
0
100
AcDbLine
 62
7
  6
CONTINUOUS
 10
11.3874834891
 20
7.934891804
 11
11.3874834891
 21
10.084891804
  0
LINE
  5
2E9
100
AcDbEntity
  8
0
100
AcDbLine
 62
7
  6
CONTINUOUS
 10
10.6874834891
 20
8.059891804
 11
10.7624834891
 21
8.134891804
  0
LINE
  5
2EA
100
AcDbEntity
  8
0
100
AcDbLine
 62
7
  6
CONTINUOUS
 10
11.5624834891
 20
9.5245319774
 11
11.4874834891
 21
9.5245319774
  0
LINE
  5
2EB
100
AcDbEntity
  8
0
100
AcDbLine
 62
7
  6
CONTINUOUS
 10
11.4874834891
 20
9.5317873203
 11
11.5624834891
 21
9.5317873203
  0
LINE
  5
2EC
100
AcDbEntity
  8
0
100
AcDbLine
 62
7
  6
CONTINUOUS
 10
11.5624834891
 20
9.551721211
 11
11.4874834891
 21
9.551721211
  0
LINE
  5
2ED
100
AcDbEntity
  8
0
100
AcDbLine
 62
7
  6
CONTINUOUS
 10
11.5624834891
 20
9.5639739702
 11
11.4874834891
 21
9.5639739702
  0
LINE
  5
2EE
100
AcDbEntity
  8
0
100
AcDbLine
 62
7
  6
CONTINUOUS
 10
11.4874834891
 20
9.5705292106
 11
11.5624834891
 21
9.5705292106
  0
LINE
  5
2EF
100
AcDbEntity
  8
0
100
AcDbLine
 62
7
  6
CONTINUOUS
 10
11.5624834891
 20
9.590704166
 11
11.4874834891
 21
9.590704166
  0
LINE
  5
2F0
100
AcDbEntity
  8
0
100
AcDbLine
 62
7
  6
CONTINUOUS
 10
11.5624834891
 20
9.6027408993
 11
11.4874834891
 21
9.6027408993
  0
LINE
  5
2F1
100
AcDbEntity
  8
0
100
AcDbLine
 62
7
  6
CONTINUOUS
 10
11.4874834891
 20
9.6085880506
 11
11.5624834891
 21
9.6085880506
  0
LINE
  5
2F2
100
AcDbEntity
  8
0
100
AcDbLine
 62
7
  6
CONTINUOUS
 10
11.5624834891
 20
9.6289794905
 11
11.4874834891
 21
9.6289794905
  0
LINE
  5
2F3
100
AcDbEntity
  8
0
100
AcDbLine
 62
7
  6
CONTINUOUS
 10
11.5624834891
 20
9.6407855331
 11
11.4874834891
 21
9.6407855331
  0
LINE
  5
2F4
100
AcDbEntity
  8
0
100
AcDbLine
 62
7
  6
CONTINUOUS
 10
11.4874834891
 20
9.6459174715
 11
11.5624834891
 21
9.6459174715
  0
LINE
  5
2F5
100
AcDbEntity
  8
0
100
AcDbLine
 62
7
  6
CONTINUOUS
 10
11.5624834891
 20
9.6665005521
 11
11.4874834891
 21
9.6665005521
  0
LINE
  5
2F6
100
AcDbEntity
  8
0
100
AcDbLine
 62
7
  6
CONTINUOUS
 10
11.5624834891
 20
9.67806152
 11
11.4874834891
 21
9.67806152
  0
LINE
  5
2F7
100
AcDbEntity
  8
0
100
AcDbLine
 62
7
  6
CONTINUOUS
 10
11.4874834891
 20
9.682471993
 11
11.5624834891
 21
9.682471993
  0
LINE
  5
2F8
100
AcDbEntity
  8
0
100
AcDbLine
 62
7
  6
CONTINUOUS
 10
11.5624834891
 20
9.7032216371
 11
11.4874834891
 21
9.7032216371
  0
LINE
  5
2F9
100
AcDbEntity
  8
0
100
AcDbLine
 62
7
  6
CONTINUOUS
 10
11.5624834891
 20
9.7145234451
 11
11.4874834891
 21
9.7145234451
  0
LINE
  5
2FA
100
AcDbEntity
  8
0
100
AcDbLine
 62
7
  6
CONTINUOUS
 10
11.4874834891
 20
9.7182070792
 11
11.5624834891
 21
9.7182070792
  0
LINE
  5
2FB
100
AcDbEntity
  8
0
100
AcDbLine
 62
7
  6
CONTINUOUS
 10
11.5624834891
 20
9.7390980064
 11
11.4874834891
 21
9.7390980064
  0
LINE
  5
2FC
100
AcDbEntity
  8
0
100
AcDbLine
 62
7
  6
CONTINUOUS
 10
11.5624834891
 20
9.750126885
 11
11.4874834891
 21
9.750126885
  0
LINE
  5
2FD
100
AcDbEntity
  8
0
100
AcDbLine
 62
7
  6
CONTINUOUS
 10
11.4874834891
 20
9.7530791923
 11
11.5624834891
 21
9.7530791923
  0
LINE
  5
2FE
100
AcDbEntity
  8
0
100
AcDbLine
 62
7
  6
CONTINUOUS
 10
10.1874834891
 20
9.759891804
 11
10.2374834891
 21
9.759891804
  0
LINE
  5
2FF
100
AcDbEntity
  8
0
100
AcDbLine
 62
7
  6
CONTINUOUS
 10
10.6874834891
 20
9.959891804
 11
10.7624834891
 21
9.884891804
  0
LINE
  5
300
100
AcDbEntity
  8
0
100
AcDbLine
 62
7
  6
CONTINUOUS
 10
11.4874834891
 20
7.7599103885
 11
11.4874834891
 21
10.2598732196
  0
LINE
  5
301
100
AcDbEntity
  8
0
100
AcDbLine
 62
7
  6
CONTINUOUS
 10
11.5624834891
 20
10.2598732196
 11
11.5624834891
 21
7.7599103885
  0
LINE
  5
302
100
AcDbEntity
  8
0
100
AcDbLine
 62
7
  6
CONTINUOUS
 10
11.6824834891
 20
6.6158921448
 11
11.6824834891
 21
7.0638914633
  0
LINE
  5
303
100
AcDbEntity
  8
0
100
AcDbLine
 62
9
  6
CONTINUOUS
 10
11.6944834891
 20
6.603891804
 11
11.6944834891
 21
7.075891804
  0
LINE
  5
304
100
AcDbEntity
  8
0
100
AcDbLine
 62
7
  6
CONTINUOUS
 10
11.5624834891
 20
9.7740859503
 11
11.4874834891
 21
9.7740859503
  0
LINE
  5
305
100
AcDbEntity
  8
0
100
AcDbLine
 62
7
  6
CONTINUOUS
 10
11.5624834891
 20
9.7848284626
 11
11.4874834891
 21
9.7848284626
  0
LINE
  5
306
100
AcDbEntity
  8
0
100
AcDbLine
 62
7
  6
CONTINUOUS
 10
11.4874834891
 20
9.7870458461
 11
11.5624834891
 21
9.7870458461
  0
LINE
  5
307
100
AcDbEntity
  8
0
100
AcDbLine
 62
7
  6
CONTINUOUS
 10
11.5624834891
 20
9.8081428414
 11
11.4874834891
 21
9.8081428414
  0
LINE
  5
308
100
AcDbEntity
  8
0
100
AcDbLine
 62
7
  6
CONTINUOUS
 10
11.5624834891
 20
9.8185858991
 11
11.4874834891
 21
9.8185858991
  0
LINE
  5
309
100
AcDbEntity
  8
0
100
AcDbLine
 62
7
  6
CONTINUOUS
 10
11.4874834891
 20
9.8200656574
 11
11.5624834891
 21
9.8200656574
  0
LINE
  5
30A
100
AcDbEntity
  8
0
100
AcDbLine
 62
7
  6
CONTINUOUS
 10
11.5624834891
 20
9.8412271865
 11
11.4874834891
 21
9.8412271865
  0
LINE
  5
30B
100
AcDbEntity
  8
0
100
AcDbLine
 62
7
  6
CONTINUOUS
 10
11.5624834891
 20
9.8513580665
 11
11.4874834891
 21
9.8513580665
  0
LINE
  5
30C
100
AcDbEntity
  8
0
100
AcDbLine
 62
7
  6
CONTINUOUS
 10
11.4874834891
 20
9.8520983967
 11
11.5624834891
 21
9.8520983967
  0
LINE
  5
30D
100
AcDbEntity
  8
0
100
AcDbLine
 62
7
  6
CONTINUOUS
 10
11.5624834891
 20
9.8732986776
 11
11.4874834891
 21
9.8732986776
  0
LINE
  5
30E
100
AcDbEntity
  8
0
100
AcDbLine
 62
7
  6
CONTINUOUS
 10
11.5624834891
 20
9.8831050369
 11
11.4874834891
 21
9.8831050369
  0
LINE
  5
30F
100
AcDbEntity
  8
0
100
AcDbLine
 62
7
  6
CONTINUOUS
 10
10.7624834891
 20
9.884891804
 11
11.2874834891
 21
9.884891804
  0
LINE
  5
310
100
AcDbEntity
  8
0
100
AcDbLine
 62
7
  6
CONTINUOUS
 10
11.5624834891
 20
9.9043182403
 11
11.4874834891
 21
9.9043182403
  0
LINE
  5
311
100
AcDbEntity
  8
0
100
AcDbLine
 62
7
  6
CONTINUOUS
 10
11.5624834891
 20
9.9137881315
 11
11.4874834891
 21
9.9137881315
  0
LINE
  5
312
100
AcDbEntity
  8
0
100
AcDbLine
 62
7
  6
CONTINUOUS
 10
11.5624834891
 20
9.9342480823
 11
11.4874834891
 21
9.9342480823
  0
LINE
  5
313
100
AcDbEntity
  8
0
100
AcDbLine
 62
7
  6
CONTINUOUS
 10
11.5624834891
 20
9.9433699676
 11
11.4874834891
 21
9.9433699676
  0
LINE
  5
314
100
AcDbEntity
  8
0
100
AcDbLine
 62
7
  6
CONTINUOUS
 10
10.3374834891
 20
9.959891804
 11
10.3874834891
 21
9.959891804
  0
LINE
  5
315
100
AcDbEntity
  8
0
100
AcDbLine
 62
7
  6
CONTINUOUS
 10
10.5874834891
 20
9.959891804
 11
10.6874834891
 21
9.959891804
  0
LINE
  5
316
100
AcDbEntity
  8
0
100
AcDbLine
 62
7
  6
CONTINUOUS
 10
11.5624834891
 20
9.9630517385
 11
11.4874834891
 21
9.9630517385
  0
LINE
  5
317
100
AcDbEntity
  8
0
100
AcDbLine
 62
7
  6
CONTINUOUS
 10
11.5624834891
 20
9.9718145043
 11
11.4874834891
 21
9.9718145043
  0
LINE
  5
318
100
AcDbEntity
  8
0
100
AcDbLine
 62
7
  6
CONTINUOUS
 10
11.5624834891
 20
9.9906941161
 11
11.4874834891
 21
9.9906941161
  0
LINE
  5
319
100
AcDbEntity
  8
0
100
AcDbLine
 62
7
  6
CONTINUOUS
 10
11.5624834891
 20
9.9990870865
 11
11.4874834891
 21
9.9990870865
  0
LINE
  5
31A
100
AcDbEntity
  8
0
100
AcDbLine
 62
7
  6
CONTINUOUS
 10
11.7624834891
 20
7.809891804
 11
11.7624834891
 21
10.209891804
  0
LINE
  5
31B
100
AcDbEntity
  8
0
100
AcDbLine
 62
7
  6
CONTINUOUS
 10
11.8124834891
 20
7.759891804
 11
11.8124834891
 21
10.259891804
  0
LINE
  5
31C
100
AcDbEntity
  8
0
100
AcDbLine
 62
7
  6
CONTINUOUS
 10
11.8674834891
 20
7.119891804
 11
11.8674834891
 21
6.559891804
  0
LINE
  5
31D
100
AcDbEntity
  8
0
100
AcDbLine
 62
7
  6
CONTINUOUS
 10
11.5624834891
 20
10.0171415372
 11
11.4874834891
 21
10.0171415372
  0
LINE
  5
31E
100
AcDbEntity
  8
0
100
AcDbLine
 62
7
  6
CONTINUOUS
 10
11.5624834891
 20
10.0251544865
 11
11.4874834891
 21
10.0251544865
  0
LINE
  5
31F
100
AcDbEntity
  8
0
100
AcDbLine
 62
7
  6
CONTINUOUS
 10
10.3874834891
 20
10.034891804
 11
10.5874834891
 21
10.034891804
  0
LINE
  5
320
100
AcDbEntity
  8
0
100
AcDbLine
 62
7
  6
CONTINUOUS
 10
11.5624834891
 20
10.0423617796
 11
11.4874834891
 21
10.0423617796
  0
LINE
  5
321
100
AcDbEntity
  8
0
100
AcDbLine
 62
7
  6
CONTINUOUS
 10
11.5624834891
 20
10.0499849454
 11
11.4874834891
 21
10.0499849454
  0
LINE
  5
322
100
AcDbEntity
  8
0
100
AcDbLine
 62
7
  6
CONTINUOUS
 10
11.5624834891
 20
10.0663241164
 11
11.4874834891
 21
10.0663241164
  0
LINE
  5
323
100
AcDbEntity
  8
0
100
AcDbLine
 62
7
  6
CONTINUOUS
 10
11.5624834891
 20
10.073548211
 11
11.4874834891
 21
10.073548211
  0
LINE
  5
324
100
AcDbEntity
  8
0
100
AcDbLine
 62
7
  6
CONTINUOUS
 10
11.5624834891
 20
10.0889993532
 11
11.4874834891
 21
10.0889993532
  0
LINE
  5
325
100
AcDbEntity
  8
0
100
AcDbLine
 62
7
  6
CONTINUOUS
 10
11.5624834891
 20
10.0958155751
 11
11.4874834891
 21
10.0958155751
  0
LINE
  5
326
100
AcDbEntity
  8
0
100
AcDbLine
 62
7
  6
CONTINUOUS
 10
11.5624834891
 20
10.1103598637
 11
11.4874834891
 21
10.1103598637
  0
LINE
  5
327
100
AcDbEntity
  8
0
100
AcDbLine
 62
7
  6
CONTINUOUS
 10
11.5624834891
 20
10.1167599083
 11
11.4874834891
 21
10.1167599083
  0
LINE
  5
328
100
AcDbEntity
  8
0
100
AcDbLine
 62
7
  6
CONTINUOUS
 10
11.5624834891
 20
10.1303796233
 11
11.4874834891
 21
10.1303796233
  0
LINE
  5
329
100
AcDbEntity
  8
0
100
AcDbLine
 62
7
  6
CONTINUOUS
 10
11.5624834891
 20
10.1363556933
 11
11.4874834891
 21
10.1363556933
  0
LINE
  5
32A
100
AcDbEntity
  8
0
100
AcDbLine
 62
7
  6
CONTINUOUS
 10
11.5624834891
 20
10.1490342411
 11
11.4874834891
 21
10.1490342411
  0
LINE
  5
32B
100
AcDbEntity
  8
0
100
AcDbLine
 62
7
  6
CONTINUOUS
 10
11.5624834891
 20
10.1545790555
 11
11.4874834891
 21
10.1545790555
  0
LINE
  5
32C
100
AcDbEntity
  8
0
100
AcDbLine
 62
7
  6
CONTINUOUS
 10
11.5624834891
 20
10.1663009894
 11
11.4874834891
 21
10.1663009894
  0
LINE
  5
32D
100
AcDbEntity
  8
0
100
AcDbLine
 62
7
  6
CONTINUOUS
 10
11.5624834891
 20
10.1714077927
 11
11.4874834891
 21
10.1714077927
  0
LINE
  5
32E
100
AcDbEntity
  8
0
100
AcDbLine
 62
7
  6
CONTINUOUS
 10
11.5624834891
 20
10.1821588311
 11
11.4874834891
 21
10.1821588311
  0
LINE
  5
32F
100
AcDbEntity
  8
0
100
AcDbLine
 62
7
  6
CONTINUOUS
 10
11.5624834891
 20
10.1868214015
 11
11.4874834891
 21
10.1868214015
  0
LINE
  5
330
100
AcDbEntity
  8
0
100
AcDbLine
 62
7
  6
CONTINUOUS
 10
11.5624834891
 20
10.1965884461
 11
11.4874834891
 21
10.1965884461
  0
LINE
  5
331
100
AcDbEntity
  8
0
100
AcDbLine
 62
7
  6
CONTINUOUS
 10
11.5624834891
 20
10.2008011029
 11
11.4874834891
 21
10.2008011029
  0
LINE
  5
332
100
AcDbEntity
  8
0
100
AcDbLine
 62
7
  6
CONTINUOUS
 10
11.5624834891
 20
10.209572254
 11
11.4874834891
 21
10.209572254
  0
LINE
  5
333
100
AcDbEntity
  8
0
100
AcDbLine
 62
7
  6
CONTINUOUS
 10
11.5624834891
 20
10.209891804
 11
11.7624834891
 21
10.209891804
  0
LINE
  5
334
100
AcDbEntity
  8
0
100
AcDbLine
 62
7
  6
CONTINUOUS
 10
11.5624834891
 20
10.2133298648
 11
11.4874834891
 21
10.2133298648
  0
LINE
  5
335
100
AcDbEntity
  8
0
100
AcDbLine
 62
7
  6
CONTINUOUS
 10
11.5624834891
 20
10.2210944361
 11
11.4874834891
 21
10.2210944361
  0
LINE
  5
336
100
AcDbEntity
  8
0
100
AcDbLine
 62
7
  6
CONTINUOUS
 10
11.5624834891
 20
10.2243924227
 11
11.4874834891
 21
10.2243924227
  0
LINE
  5
337
100
AcDbEntity
  8
0
100
AcDbLine
 62
7
  6
CONTINUOUS
 10
11.5624834891
 20
10.2311409544
 11
11.4874834891
 21
10.2311409544
  0
LINE
  5
338
100
AcDbEntity
  8
0
100
AcDbLine
 62
7
  6
CONTINUOUS
 10
11.5624834891
 20
10.2339752988
 11
11.4874834891
 21
10.2339752988
  0
LINE
  5
339
100
AcDbEntity
  8
0
100
AcDbLine
 62
7
  6
CONTINUOUS
 10
11.5624834891
 20
10.2396995687
 11
11.4874834891
 21
10.2396995687
  0
LINE
  5
33A
100
AcDbEntity
  8
0
100
AcDbLine
 62
7
  6
CONTINUOUS
 10
11.5624834891
 20
10.2420668177
 11
11.4874834891
 21
10.2420668177
  0
LINE
  5
33B
100
AcDbEntity
  8
0
100
AcDbLine
 62
7
  6
CONTINUOUS
 10
11.9624834891
 20
5.9270483143
 11
11.9624834891
 21
12.0927352938
  0
LINE
  5
33C
100
AcDbEntity
  8
0
100
AcDbLine
 62
9
  6
CONTINUOUS
 10
12.0044204988
 20
5.8676736527
 11
12.0044204988
 21
12.1521099554
  0
LINE
  5
33D
100
AcDbEntity
  8
0
100
AcDbLine
 62
9
  6
CONTINUOUS
 10
12.0780011388
 20
5.7983401197
 11
12.0780011388
 21
12.2214434884
  0
LINE
  5
33E
100
AcDbEntity
  8
0
100
AcDbLine
 62
9
  6
CONTINUOUS
 10
12.1360202288
 20
5.759891804
 11
12.1360202288
 21
12.259891804
  0
LINE
  5
33F
100
AcDbEntity
  8
0
100
AcDbLine
 62
7
  6
CONTINUOUS
 10
11.5624834891
 20
10.2467598516
 11
11.4874834891
 21
10.2467598516
  0
LINE
  5
340
100
AcDbEntity
  8
0
100
AcDbLine
 62
7
  6
CONTINUOUS
 10
11.5624834891
 20
10.2486571211
 11
11.4874834891
 21
10.2486571211
  0
LINE
  5
341
100
AcDbEntity
  8
0
100
AcDbLine
 62
7
  6
CONTINUOUS
 10
11.5624834891
 20
10.2523132014
 11
11.4874834891
 21
10.2523132014
  0
LINE
  5
342
100
AcDbEntity
  8
0
100
AcDbLine
 62
7
  6
CONTINUOUS
 10
11.5624834891
 20
10.2537381798
 11
11.4874834891
 21
10.2537381798
  0
LINE
  5
343
100
AcDbEntity
  8
0
100
AcDbLine
 62
7
  6
CONTINUOUS
 10
11.5624834891
 20
10.2563528521
 11
11.4874834891
 21
10.2563528521
  0
LINE
  5
344
100
AcDbEntity
  8
0
100
AcDbLine
 62
7
  6
CONTINUOUS
 10
11.5624834891
 20
10.2573038033
 11
11.4874834891
 21
10.2573038033
  0
LINE
  5
345
100
AcDbEntity
  8
0
100
AcDbLine
 62
7
  6
CONTINUOUS
 10
11.5624834891
 20
10.2588738819
 11
11.4874834891
 21
10.2588738819
  0
LINE
  5
346
100
AcDbEntity
  8
0
100
AcDbLine
 62
7
  6
CONTINUOUS
 10
11.5624834891
 20
10.2593496474
 11
11.4874834891
 21
10.2593496474
  0
LINE
  5
347
100
AcDbEntity
  8
0
100
AcDbLine
 62
7
  6
CONTINUOUS
 10
11.5624834891
 20
10.2598732196
 11
11.4874834891
 21
10.2598732196
  0
LINE
  5
348
100
AcDbEntity
  8
0
100
AcDbLine
 62
7
  6
CONTINUOUS
 10
11.8124834891
 20
10.259891804
 11
11.9624834891
 21
10.259891804
  0
LINE
  5
349
100
AcDbEntity
  8
0
100
AcDbLine
 62
7
  6
CONTINUOUS
 10
12.2754834891
 20
12.259891804
 11
12.2754834891
 21
5.759891804
  0
LINE
  5
34A
100
AcDbEntity
  8
0
100
AcDbLine
 62
7
  6
CONTINUOUS
 10
11.1034834891
 20
6.614891804
 11
10.8894974482
 21
6.3990655445
  0
LINE
  5
34B
100
AcDbEntity
  8
0
100
AcDbLine
 62
7
  6
CONTINUOUS
 10
12.2754834891
 20
12.259891804
 11
12.1360202288
 21
12.259891804
  0
ARC
  5
34C
100
AcDbEntity
  8
0
100
AcDbCircle
 62
7
  6
CONTINUOUS
 10
10.2374834891
 20
8.059891804
 40
0.1
100
AcDbArc
 50
0.0
 51
90.0
  0
ARC
  5
34D
100
AcDbEntity
  8
0
100
AcDbCircle
 62
7
  6
CONTINUOUS
 10
9.1944834891
 20
8.622391804
 40
0.075
100
AcDbArc
 50
0.0
 51
90.0
  0
ARC
  5
34E
100
AcDbEntity
  8
0
100
AcDbCircle
 62
7
  6
CONTINUOUS
 10
9.7453593086
 20
8.5548987744
 40
0.0549999908
100
AcDbArc
 50
90.9124159126
 51
180.2034586035
  0
ARC
  5
34F
100
AcDbEntity
  8
0
100
AcDbCircle
 62
7
  6
CONTINUOUS
 10
9.2716931844
 20
8.5548922656
 40
0.0549999442
100
AcDbArc
 50
358.2923845898
 51
90.0001879106
  0
ARC
  5
350
100
AcDbEntity
  8
0
100
AcDbCircle
 62
7
  6
CONTINUOUS
 10
9.6620624408
 20
6.199891804
 40
0.04
100
AcDbArc
 50
270.0
 51
0.0209867127
  0
ARC
  5
351
100
AcDbEntity
  8
0
100
AcDbCircle
 62
7
  6
CONTINUOUS
 10
9.2932244561
 20
6.199891804
 40
0.04
100
AcDbArc
 50
178.4751885051
 51
270.0
  0
ARC
  5
352
100
AcDbEntity
  8
0
100
AcDbCircle
 62
7
  6
CONTINUOUS
 10
10.6414834891
 20
7.227391804
 40
0.031
100
AcDbArc
 50
103.0407610339
 51
180.0
  0
ARC
  5
353
100
AcDbEntity
  8
0
100
AcDbCircle
 62
7
  6
CONTINUOUS
 10
10.6414834891
 20
6.452391804
 40
0.031
100
AcDbArc
 50
180.0
 51
256.9592389661
  0
ARC
  5
354
100
AcDbEntity
  8
0
100
AcDbCircle
 62
7
  6
CONTINUOUS
 10
9.1744834891
 20
8.727391804
 40
0.02
100
AcDbArc
 50
0.0000000032
 51
90.0
  0
ARC
  5
355
100
AcDbEntity
  8
0
100
AcDbCircle
 62
7
  6
CONTINUOUS
 10
9.7644834891
 20
8.677391804
 40
0.02
100
AcDbArc
 50
90.0
 51
179.999999998
  0
ARC
  5
356
100
AcDbEntity
  8
0
100
AcDbCircle
 62
7
  6
CONTINUOUS
 10
10.2374834891
 20
9.959891804
 40
0.1
100
AcDbArc
 50
270.0
 51
360.0
  0
ARC
  5
357
100
AcDbEntity
  8
0
100
AcDbCircle
 62
7
  6
CONTINUOUS
 10
9.1944834891
 20
9.397391804
 40
0.075
100
AcDbArc
 50
270.0
 51
360.0
  0
ARC
  5
358
100
AcDbEntity
  8
0
100
AcDbCircle
 62
7
  6
CONTINUOUS
 10
9.1744834891
 20
9.292391804
 40
0.02
100
AcDbArc
 50
270.0
 51
359.9999999968
  0
ARC
  5
359
100
AcDbEntity
  8
0
100
AcDbCircle
 62
7
  6
CONTINUOUS
 10
9.7644834891
 20
9.342391804
 40
0.02
100
AcDbArc
 50
180.000000002
 51
270.0
  0
ARC
  5
35A
100
AcDbEntity
  8
0
100
AcDbCircle
 62
7
  6
CONTINUOUS
 10
11.9624834891
 20
5.7494570214
 40
0.1254347826
100
AcDbArc
 50
22.9364108859
 51
70.4680059554
  0
ARC
  5
35B
100
AcDbEntity
  8
0
100
AcDbCircle
 62
7
  6
CONTINUOUS
 10
11.3874834891
 20
7.834891804
 40
0.1
100
AcDbArc
 50
1.5642350734
 51
90.0
  0
ARC
  5
35C
100
AcDbEntity
  8
0
100
AcDbCircle
 62
7
  6
CONTINUOUS
 10
11.2874834891
 20
7.984891804
 40
0.1
100
AcDbArc
 50
0.0
 51
90.0
  0
ARC
  5
35D
100
AcDbEntity
  8
0
100
AcDbCircle
 62
7
  6
CONTINUOUS
 10
11.9624834891
 20
6.559891804
 40
0.095
100
AcDbArc
 50
180.0
 51
270.0
  0
ARC
  5
35E
100
AcDbEntity
  8
0
100
AcDbCircle
 62
7
  6
CONTINUOUS
 10
11.9624834891
 20
7.119891804
 40
0.095
100
AcDbArc
 50
90.0
 51
180.0
  0
ARC
  5
35F
100
AcDbEntity
  8
0
100
AcDbCircle
 62
7
  6
CONTINUOUS
 10
12.0254834891
 20
5.9270483143
 40
0.063
100
AcDbArc
 50
180.0
 51
250.4680059544
  0
ARC
  5
360
100
AcDbEntity
  8
0
100
AcDbCircle
 62
7
  6
CONTINUOUS
 10
12.1360202288
 20
5.822891804
 40
0.063
100
AcDbArc
 50
202.9364108859
 51
270.0
  0
ARC
  5
361
100
AcDbEntity
  8
0
100
AcDbCircle
 62
7
  6
CONTINUOUS
 10
10.8674834891
 20
7.258891804
 40
0.031
100
AcDbArc
 50
44.7546926505
 51
90.0
  0
ARC
  5
362
100
AcDbEntity
  8
0
100
AcDbCircle
 62
7
  6
CONTINUOUS
 10
10.7774834891
 20
7.258891804
 40
0.031
100
AcDbArc
 50
90.0
 51
103.0407610339
  0
ARC
  5
363
100
AcDbEntity
  8
0
100
AcDbCircle
 62
7
  6
CONTINUOUS
 10
10.8674834891
 20
6.420891804
 40
0.031
100
AcDbArc
 50
270.0
 51
315.2453073495
  0
ARC
  5
364
100
AcDbEntity
  8
0
100
AcDbCircle
 62
7
  6
CONTINUOUS
 10
10.7774834891
 20
6.420891804
 40
0.031
100
AcDbArc
 50
256.9592389661
 51
270.0
  0
ARC
  5
365
100
AcDbEntity
  8
0
100
AcDbCircle
 62
7
  6
CONTINUOUS
 10
11.6944834891
 20
7.063891804
 40
0.012
100
AcDbArc
 50
90.0
 51
180.0
  0
ARC
  5
366
100
AcDbEntity
  8
0
100
AcDbCircle
 62
7
  6
CONTINUOUS
 10
11.6944834891
 20
6.615891804
 40
0.012
100
AcDbArc
 50
180.0
 51
270.0
  0
ARC
  5
367
100
AcDbEntity
  8
0
100
AcDbCircle
 62
9
  6
CONTINUOUS
 10
12.1671223867
 20
9.061245789
 40
2.5280319412
100
AcDbArc
 50
190.6763699836
 51
191.4617201154
  0
ARC
  5
368
100
AcDbEntity
  8
0
100
AcDbCircle
 62
9
  6
CONTINUOUS
 10
11.6323698503
 20
9.0600723201
 40
1.9399667892
100
AcDbArc
 50
191.099535224
 51
193.3061958671
  0
ARC
  5
369
100
AcDbEntity
  8
0
100
AcDbCircle
 62
7
  6
CONTINUOUS
 10
11.9624834891
 20
12.2703265867
 40
0.1254347826
100
AcDbArc
 50
289.5319940446
 51
337.0635891141
  0
ARC
  5
36A
100
AcDbEntity
  8
0
100
AcDbCircle
 62
7
  6
CONTINUOUS
 10
11.3874834891
 20
10.184891804
 40
0.1
100
AcDbArc
 50
270.0
 51
358.4357649266
  0
ARC
  5
36B
100
AcDbEntity
  8
0
100
AcDbCircle
 62
7
  6
CONTINUOUS
 10
11.2874834891
 20
10.034891804
 40
0.1
100
AcDbArc
 50
270.0
 51
360.0
  0
ARC
  5
36C
100
AcDbEntity
  8
0
100
AcDbCircle
 62
7
  6
CONTINUOUS
 10
12.0254834891
 20
12.0927352938
 40
0.063
100
AcDbArc
 50
109.5319940456
 51
180.0
  0
ARC
  5
36D
100
AcDbEntity
  8
0
100
AcDbCircle
 62
7
  6
CONTINUOUS
 10
12.1360202288
 20
12.196891804
 40
0.063
100
AcDbArc
 50
90.0
 51
157.0635891141
  0
SPLINE
  5
36E
100
AcDbEntity
  8
0
100
AcDbSpline
 62
9
  6
CONTINUOUS
 70
0
 71
3
 72
43
 73
39
 74
0
 42
0.0000001
 43
0.0000001
 44
0.0000000001
 40
0.0
 40
0.0
 40
0.0
 40
0.0
 40
0.116484218
 40
0.2265514531
 40
0.3299835835
 40
0.4265986832
 40
0.5162219359
 40
0.5986821923
 40
0.6738179928
 40
0.7414772728
 40
0.801522762
 40
0.8286500585
 40
0.8538281407
 40
0.8770437677
 40
0.8982837673
 40
0.9175365487
 40
0.9347919859
 40
0.9500400001
 40
0.963271242
 40
0.9691284999
 40
0.9744792149
 40
0.9793226616
 40
0.9836581143
 40
0.9874848476
 40
0.9908022337
 40
0.9936100298
 40
0.9959080886
 40
0.9968659204
 40
0.9976962625
 40
0.9983990964
 40
0.9989744035
 40
0.9994221656
 40
0.9995982114
 40
0.999742364
 40
0.9998546211
 40
0.9999349806
 40
0.9999834403
 40
1.0
 40
1.0
 40
1.0
 40
1.0
 10
9.290650676
 20
8.6866014977
 30
0.0
 10
9.2899742178
 20
8.6836086936
 30
0.0
 10
9.288645018
 20
8.6777910081
 30
0.0
 10
9.2866704768
 20
8.6693261549
 30
0.0
 10
9.2847806454
 20
8.6613790437
 30
0.0
 10
9.2829860818
 20
8.653962875
 30
0.0
 10
9.2812963518
 20
8.6470897517
 30
0.0
 10
9.2797195342
 20
8.6407715448
 30
0.0
 10
9.2782642186
 20
8.635019347
 30
0.0
 10
9.2769393503
 20
8.629843199
 30
0.0
 10
9.2759181592
 20
8.6258946928
 30
0.0
 10
9.2751722065
 20
8.6230308225
 30
0.0
 10
9.2746687399
 20
8.6211062945
 30
0.0
 10
9.2742027345
 20
8.6193322631
 30
0.0
 10
9.2737748606
 20
8.6177095889
 30
0.0
 10
9.2733857726
 20
8.6162390513
 30
0.0
 10
9.2730361125
 20
8.6149213475
 30
0.0
 10
9.2727264967
 20
8.6137571202
 30
0.0
 10
9.2724937987
 20
8.6128831117
 30
0.0
 10
9.2723280088
 20
8.6122610751
 30
0.0
 10
9.2722190377
 20
8.6118525499
 30
0.0
 10
9.2721203118
 20
8.6114827792
 30
0.0
 10
9.2720318486
 20
8.6111518176
 30
0.0
 10
9.2719536659
 20
8.6108597173
 30
0.0
 10
9.271885777
 20
8.6106065181
 30
0.0
 10
9.2718282178
 20
8.6103922382
 30
0.0
 10
9.2717867071
 20
8.6102380036
 30
0.0
 10
9.2717586887
 20
8.6101340791
 30
0.0
 10
9.2717415883
 20
8.6100707314
 30
0.0
 10
9.2717270981
 20
8.6100171149
 30
0.0
 10
9.2717152124
 20
8.6099732361
 30
0.0
 10
9.2717069553
 20
8.6099427444
 30
0.0
 10
9.2717016282
 20
8.6099232362
 30
0.0
 10
9.271698673
 20
8.6099122211
 30
0.0
 10
9.2716962317
 20
8.6099037275
 30
0.0
 10
9.2716947837
 20
8.6098974601
 30
0.0
 10
9.2716933497
 20
8.6098940236
 30
0.0
 10
9.2716933161
 20
8.6098921089
 30
0.0
 10
9.2716930041
 20
8.609891804
 30
0.0
  0
LINE
  5
36F
100
AcDbEntity
  8
0
100
AcDbLine
 62
9
  6
CONTINUOUS
 10
9.3351868997
 20
8.5914989636
 11
9.3266686584
 21
8.5532533181
  0
LINE
  5
370
100
AcDbEntity
  8
0
100
AcDbLine
 62
9
  6
CONTINUOUS
 10
9.702062501
 20
6.1999064556
 11
9.6844549565
 21
6.2000598139
  0
LINE
  5
371
100
AcDbEntity
  8
0
100
AcDbLine
 62
9
  6
CONTINUOUS
 10
9.6903596642
 20
8.5547037357
 11
9.6895047032
 21
8.5588924894
  0
SPLINE
  5
372
100
AcDbEntity
  8
0
100
AcDbSpline
 62
9
  6
CONTINUOUS
 70
0
 71
3
 72
23
 73
19
 74
0
 42
0.0000001
 43
0.0000001
 44
0.0000000001
 40
0.0
 40
0.0
 40
0.0
 40
0.0
 40
0.1196175481
 40
0.1800660573
 40
0.2409179986
 40
0.3021611462
 40
0.3637886405
 40
0.4257971094
 40
0.4881874229
 40
0.5509585082
 40
0.6141029612
 40
0.6776216014
 40
0.709521641
 40
0.7415151224
 40
0.8057542407
 40
0.8703022911
 40
0.935102784
 40
1.0
 40
1.0
 40
1.0
 40
1.0
 10
9.7286888342
 20
8.6866014977
 30
0.0
 10
9.7253025705
 20
8.6854526904
 30
0.0
 10
9.7202431074
 20
8.6836081376
 30
0.0
 10
9.7135618461
 20
8.680918442
 30
0.0
 10
9.7085457182
 20
8.678768537
 30
0.0
 10
9.7035492329
 20
8.676487143
 30
0.0
 10
9.6985790644
 20
8.6740687134
 30
0.0
 10
9.6936423964
 20
8.6715071426
 30
0.0
 10
9.6887466883
 20
8.6687967051
 30
0.0
 10
9.683901124
 20
8.665930015
 30
0.0
 10
9.6791212163
 20
8.6628914605
 30
0.0
 10
9.6752117106
 20
8.66020914
 30
0.0
 10
9.672132965
 20
8.6579663293
 30
0.0
 10
9.6690811639
 20
8.6556512188
 30
0.0
 10
9.6653439913
 20
8.6526260215
 30
0.0
 10
9.6610328337
 20
8.6487612046
 30
0.0
 10
9.6569325716
 20
8.6446450717
 30
0.0
 10
9.654374045
 20
8.6417269037
 30
0.0
 10
9.653151638
 20
8.6402204429
 30
0.0
  0
SPLINE
  5
373
100
AcDbEntity
  8
0
100
AcDbSpline
 62
9
  6
CONTINUOUS
 70
0
 71
3
 72
22
 73
18
 74
0
 42
0.0000001
 43
0.0000001
 44
0.0000000001
 40
0.0
 40
0.0
 40
0.0
 40
0.0
 40
0.1080177321
 40
0.1634981957
 40
0.219965866
 40
0.2774661783
 40
0.3360463871
 40
0.3957540619
 40
0.4566488803
 40
0.5188423704
 40
0.5824555889
 40
0.6475686593
 40
0.7143003147
 40
0.7828457753
 40
0.8533080285
 40
0.9257221448
 40
1.0
 40
1.0
 40
1.0
 40
1.0
 10
9.7286914573
 20
8.6866025517
 30
0.0
 10
9.7269093657
 20
8.6845295141
 30
0.0
 10
9.7242549559
 20
8.6813542998
 30
0.0
 10
9.7207789994
 20
8.6770056969
 30
0.0
 10
9.7181518838
 20
8.6736159373
 30
0.0
 10
9.7155268002
 20
8.6701259651
 30
0.0
 10
9.7129024265
 20
8.6665333757
 30
0.0
 10
9.710283996
 20
8.6628306707
 30
0.0
 10
9.7076762102
 20
8.6590091893
 30
0.0
 10
9.7050808241
 20
8.6550604345
 30
0.0
 10
9.7024987549
 20
8.6509760224
 30
0.0
 10
9.6999423463
 20
8.6467406123
 30
0.0
 10
9.697423453
 20
8.6423383081
 30
0.0
 10
9.6949465684
 20
8.6377576099
 30
0.0
 10
9.6925370296
 20
8.6329791164
 30
0.0
 10
9.6902296877
 20
8.6279899592
 30
0.0
 10
9.6887991297
 20
8.6245627726
 30
0.0
 10
9.6881135127
 20
8.6228124189
 30
0.0
  0
SPLINE
  5
374
100
AcDbEntity
  8
0
100
AcDbSpline
 62
9
  6
CONTINUOUS
 70
0
 71
3
 72
17
 73
13
 74
0
 42
0.0000001
 43
0.0000001
 44
0.0000000001
 40
0.0
 40
0.0
 40
0.0
 40
0.0
 40
0.0264252463
 40
0.0592097426
 40
0.0981327236
 40
0.1429467558
 40
0.2490270145
 40
0.3746463466
 40
0.5164745595
 40
0.6707469177
 40
0.8333573633
 40
1.0
 40
1.0
 40
1.0
 40
1.0
 10
9.6881129104
 20
8.6228126947
 30
0.0
 10
9.6878193182
 20
8.6229921553
 30
0.0
 10
9.6871543108
 20
8.6233825039
 30
0.0
 10
9.6860400101
 20
8.6240080322
 30
0.0
 10
9.6847069263
 20
8.6247327161
 30
0.0
 10
9.682523542
 20
8.6258912963
 30
0.0
 10
9.6793227245
 20
8.6275405712
 30
0.0
 10
9.6749766704
 20
8.6297245514
 30
0.0
 10
9.6700507173
 20
8.6321517578
 30
0.0
 10
9.664675866
 20
8.6347574103
 30
0.0
 10
9.6589948537
 20
8.6374720006
 30
0.0
 10
9.6551167798
 20
8.6393001954
 30
0.0
 10
9.653151638
 20
8.6402204408
 30
0.0
  0
SPLINE
  5
375
100
AcDbEntity
  8
0
100
AcDbSpline
 62
9
  6
CONTINUOUS
 70
0
 71
3
 72
11
 73
7
 74
0
 42
0.0000001
 43
0.0000001
 44
0.0000000001
 40
0.0
 40
0.0
 40
0.0
 40
0.0
 40
0.2500101482
 40
0.5000089886
 40
0.7500033272
 40
1.0
 40
1.0
 40
1.0
 40
1.0
 10
9.653151638
 20
8.6402204429
 30
0.0
 10
9.6514707685
 20
8.6366347363
 30
0.0
 10
9.6485137825
 20
8.6292663131
 30
0.0
 10
9.6453268964
 20
8.6177979077
 30
0.0
 10
9.6434121779
 20
8.6060505287
 30
0.0
 10
9.6429881559
 20
8.5981239661
 30
0.0
 10
9.6429902957
 20
8.594164052
 30
0.0
  0
SPLINE
  5
376
100
AcDbEntity
  8
0
100
AcDbSpline
 62
9
  6
CONTINUOUS
 70
0
 71
3
 72
11
 73
7
 74
0
 42
0.0000001
 43
0.0000001
 44
0.0000000001
 40
0.0
 40
0.0
 40
0.0
 40
0.0
 40
0.2500755919
 40
0.5000139327
 40
0.7499559729
 40
1.0
 40
1.0
 40
1.0
 40
1.0
 10
9.6881129104
 20
8.6228126947
 30
0.0
 10
9.6871839456
 20
8.6204411351
 30
0.0
 10
9.6855740272
 20
8.6155986309
 30
0.0
 10
9.6838942992
 20
8.6081353472
 30
0.0
 10
9.6829462482
 20
8.6005449101
 30
0.0
 10
9.682802516
 20
8.5954453878
 30
0.0
 10
9.6828529775
 20
8.5928991973
 30
0.0
  0
SPLINE
  5
377
100
AcDbEntity
  8
0
100
AcDbSpline
 62
9
  6
CONTINUOUS
 70
0
 71
3
 72
25
 73
21
 74
0
 42
0.0000001
 43
0.0000001
 44
0.0000000001
 40
0.0
 40
0.0
 40
0.0
 40
0.0
 40
0.0071893892
 40
0.0163313027
 40
0.0274381816
 40
0.0405021298
 40
0.0554935835
 40
0.0723800444
 40
0.1116987622
 40
0.1581490447
 40
0.2113622738
 40
0.2709156918
 40
0.3363338665
 40
0.4070935141
 40
0.482628936
 40
0.6455643659
 40
0.7316491881
 40
0.8198883568
 40
0.9095912683
 40
1.0
 40
1.0
 40
1.0
 40
1.0
 10
9.6844553563
 20
6.2000599164
 30
0.0
 10
9.6843634171
 20
6.2000842519
 30
0.0
 10
9.6841513244
 20
6.200126876
 30
0.0
 10
9.6837923916
 20
6.200180797
 30
0.0
 10
9.6833551437
 20
6.2002359993
 30
0.0
 10
9.6828405755
 20
6.2002960441
 30
0.0
 10
9.6822493131
 20
6.2003583294
 30
0.0
 10
9.681311577
 20
6.2004462641
 30
0.0
 10
9.6799574199
 20
6.2005494103
 30
0.0
 10
9.6781223043
 20
6.2006621847
 30
0.0
 10
9.676018615
 20
6.2007662416
 30
0.0
 10
9.6736632726
 20
6.2008588648
 30
0.0
 10
9.6710752987
 20
6.2009406594
 30
0.0
 10
9.6682755518
 20
6.2010128717
 30
0.0
 10
9.664185823
 20
6.2011013716
 30
0.0
 10
9.6598931422
 20
6.2011813
 30
0.0
 10
9.6554322116
 20
6.2012504979
 30
0.0
 10
9.6519397399
 20
6.2012920403
 30
0.0
 10
9.648389839
 20
6.2013088797
 30
0.0
 10
9.6460072102
 20
6.2013010324
 30
0.0
 10
9.6448112489
 20
6.2012944497
 30
0.0
  0
SPLINE
  5
378
100
AcDbEntity
  8
0
100
AcDbSpline
 62
9
  6
CONTINUOUS
 70
0
 71
3
 72
14
 73
10
 74
0
 42
0.0000001
 43
0.0000001
 44
0.0000000001
 40
0.0
 40
0.0
 40
0.0
 40
0.0
 40
0.124999998
 40
0.2499984641
 40
0.3749962965
 40
0.4999943022
 40
0.6249931206
 40
0.74999337
 40
1.0
 40
1.0
 40
1.0
 40
1.0
 10
9.6828527307
 20
8.5928991974
 30
0.0
 10
9.6829015592
 20
8.4931975439
 30
0.0
 10
9.6830481518
 20
8.2937954821
 30
0.0
 10
9.6833568773
 20
7.9946935932
 30
0.0
 10
9.6836945448
 20
7.6955933255
 30
0.0
 10
9.684008338
 20
7.3964927505
 30
0.0
 10
9.6842716716
 20
7.0973901959
 30
0.0
 10
9.6845136595
 20
6.6985790548
 30
0.0
 10
9.6845365137
 20
6.3994685212
 30
0.0
 10
9.6844553297
 20
6.2000599154
 30
0.0
  0
SPLINE
  5
379
100
AcDbEntity
  8
0
100
AcDbSpline
 62
9
  6
CONTINUOUS
 70
0
 71
3
 72
23
 73
19
 74
0
 42
0.0000001
 43
0.0000001
 44
0.0000000001
 40
0.0
 40
0.0
 40
0.0
 40
0.0
 40
0.0051987844
 40
0.0124680984
 40
0.0218262267
 40
0.0332697664
 40
0.0467805794
 40
0.0623356538
 40
0.0994549691
 40
0.1443228406
 40
0.1965598231
 40
0.2557220356
 40
0.321301581
 40
0.3927338579
 40
0.4694048738
 40
0.6357798404
 40
0.8146934658
 40
1.0
 40
1.0
 40
1.0
 40
1.0
 10
9.6828527307
 20
8.5928991974
 30
0.0
 10
9.6827889812
 20
8.5929260372
 30
0.0
 10
9.6826295447
 20
8.5929740671
 30
0.0
 10
9.6823459041
 20
8.5930361671
 30
0.0
 10
9.6819774536
 20
8.5930982825
 30
0.0
 10
9.6815251324
 20
8.593160218
 30
0.0
 10
9.6809896212
 20
8.5932215748
 30
0.0
 10
9.6801132087
 20
8.5933074537
 30
0.0
 10
9.6788192692
 20
8.5934087239
 30
0.0
 10
9.6770368537
 20
8.5935198191
 30
0.0
 10
9.6749603608
 20
8.5936249543
 30
0.0
 10
9.6726077061
 20
8.5937231251
 30
0.0
 10
9.6699991758
 20
8.5938133093
 30
0.0
 10
9.6671573036
 20
8.5938946756
 30
0.0
 10
9.6629743528
 20
8.5939930438
 30
0.0
 10
9.6573609438
 20
8.5940865938
 30
0.0
 10
9.6503017014
 20
8.5941524309
 30
0.0
 10
9.6454557749
 20
8.5941653832
 30
0.0
 10
9.6429902957
 20
8.5941640518
 30
0.0
  0
SPLINE
  5
37A
100
AcDbEntity
  8
0
100
AcDbSpline
 62
9
  6
CONTINUOUS
 70
0
 71
3
 72
15
 73
11
 74
0
 42
0.0000001
 43
0.0000001
 44
0.0000000001
 40
0.0
 40
0.0
 40
0.0
 40
0.0
 40
0.124999994
 40
0.2499999941
 40
0.3749999985
 40
0.4999999984
 40
0.6249999941
 40
0.7499999949
 40
0.8750000003
 40
1.0
 40
1.0
 40
1.0
 40
1.0
 10
9.6429902957
 20
8.594164052
 30
0.0
 10
9.6430440552
 20
8.4944611317
 30
0.0
 10
9.6432053202
 20
8.2950553144
 30
0.0
 10
9.6435474889
 20
7.9959466909
 30
0.0
 10
9.6439277694
 20
7.6968381102
 30
0.0
 10
9.6442883377
 20
7.397729508
 30
0.0
 10
9.644593227
 20
7.0986208443
 30
0.0
 10
9.6448015478
 20
6.7995120891
 30
0.0
 10
9.6448851207
 20
6.5004032679
 30
0.0
 10
9.6448458867
 20
6.3009973781
 30
0.0
 10
9.6447991803
 20
6.2012944497
 30
0.0
  0
SPLINE
  5
37B
100
AcDbEntity
  8
0
100
AcDbSpline
 62
9
  6
CONTINUOUS
 70
0
 71
3
 72
22
 73
18
 74
0
 42
0.0000001
 43
0.0000001
 44
0.0000000001
 40
0.0
 40
0.0
 40
0.0
 40
0.0
 40
0.1076624015
 40
0.1630177693
 40
0.2193924753
 40
0.2768295031
 40
0.3353739282
 40
0.3950728066
 40
0.4559852984
 40
0.5182196452
 40
0.5818930308
 40
0.6470857721
 40
0.7139132228
 40
0.78255799
 40
0.8531226382
 40
0.9256378461
 40
1.0
 40
1.0
 40
1.0
 40
1.0
 10
9.2906506893
 20
8.6866025198
 30
0.0
 10
9.2923870155
 20
8.6845369683
 30
0.0
 10
9.2949730001
 20
8.6813727399
 30
0.0
 10
9.2983577758
 20
8.6770390267
 30
0.0
 10
9.3009169712
 20
8.6736583704
 30
0.0
 10
9.303474426
 20
8.6701767523
 30
0.0
 10
9.3060314978
 20
8.6665919852
 30
0.0
 10
9.3085829524
 20
8.6628968117
 30
0.0
 10
9.3111240605
 20
8.6590828383
 30
0.0
 10
9.3136532505
 20
8.6551420451
 30
0.0
 10
9.316169794
 20
8.6510664697
 30
0.0
 10
9.3186612788
 20
8.6468411776
 30
0.0
 10
9.3211159579
 20
8.6424510159
 30
0.0
 10
9.3235296535
 20
8.6378852164
 30
0.0
 10
9.3258780554
 20
8.6331256393
 30
0.0
 10
9.3281273928
 20
8.6281605142
 30
0.0
 10
9.3295220007
 20
8.6247523751
 30
0.0
 10
9.3301908111
 20
8.6230127352
 30
0.0
  0
SPLINE
  5
37C
100
AcDbEntity
  8
0
100
AcDbSpline
 62
9
  6
CONTINUOUS
 70
0
 71
3
 72
23
 73
19
 74
0
 42
0.0000001
 43
0.0000001
 44
0.0000000001
 40
0.0
 40
0.0
 40
0.0
 40
0.0
 40
0.1194483119
 40
0.1798354647
 40
0.240640976
 40
0.301851866
 40
0.3634604234
 40
0.4254624558
 40
0.4878581299
 40
0.5506453973
 40
0.6138161429
 40
0.6773699568
 40
0.7092903788
 40
0.7413058118
 40
0.8055932101
 40
0.87019411
 40
0.9350484746
 40
1.0
 40
1.0
 40
1.0
 40
1.0
 10
9.2906531921
 20
8.6866014977
 30
0.0
 10
9.2939936978
 20
8.6854486081
 30
0.0
 10
9.2989842334
 20
8.6835975211
 30
0.0
 10
9.3055729582
 20
8.6808996005
 30
0.0
 10
9.3105203079
 20
8.678743185
 30
0.0
 10
9.3154481701
 20
8.6764554021
 30
0.0
 10
9.3203498423
 20
8.6740309381
 30
0.0
 10
9.325218105
 20
8.6714639015
 30
0.0
 10
9.3300455096
 20
8.668748847
 30
0.0
 10
9.3348228151
 20
8.6658785468
 30
0.0
 10
9.3395345822
 20
8.6628379023
 30
0.0
 10
9.3433874601
 20
8.6601555916
 30
0.0
 10
9.3464210102
 20
8.657913869
 30
0.0
 10
9.3494276646
 20
8.6556004713
 30
0.0
 10
9.3531085537
 20
8.6525791651
 30
0.0
 10
9.3573544022
 20
8.6487245415
 30
0.0
 10
9.3613912997
 20
8.6446234876
 30
0.0
 10
9.3639089096
 20
8.641718724
 30
0.0
 10
9.3651120792
 20
8.6402204429
 30
0.0
  0
SPLINE
  5
37D
100
AcDbEntity
  8
0
100
AcDbSpline
 62
9
  6
CONTINUOUS
 70
0
 71
3
 72
17
 73
13
 74
0
 42
0.0000001
 43
0.0000001
 44
0.0000000001
 40
0.0
 40
0.0
 40
0.0
 40
0.0
 40
0.1658044074
 40
0.3276633176
 40
0.4813611475
 40
0.6228743662
 40
0.7485083136
 40
0.8549870137
 40
0.9001559642
 40
0.9395413616
 40
0.9728966851
 40
1.0
 40
1.0
 40
1.0
 40
1.0
 10
9.3651120792
 20
8.640220432
 30
0.0
 10
9.3631595266
 20
8.6393154087
 30
0.0
 10
9.3593054399
 20
8.6375170505
 30
0.0
 10
9.3536573343
 20
8.6348457076
 30
0.0
 10
9.3483085335
 20
8.6322791779
 30
0.0
 10
9.3433987552
 20
8.6298847946
 30
0.0
 10
9.3390564244
 20
8.6277254119
 30
0.0
 10
9.3358498506
 20
8.6260908471
 30
0.0
 10
9.3336540844
 20
8.6249389098
 30
0.0
 10
9.3323057755
 20
8.6242147447
 30
0.0
 10
9.3311721276
 20
8.6235867213
 30
0.0
 10
9.3304926659
 20
8.6231939181
 30
0.0
 10
9.3301910515
 20
8.623012844
 30
0.0
  0
SPLINE
  5
37E
100
AcDbEntity
  8
0
100
AcDbSpline
 62
9
  6
CONTINUOUS
 70
0
 71
3
 72
11
 73
7
 74
0
 42
0.0000001
 43
0.0000001
 44
0.0000000001
 40
0.0
 40
0.0
 40
0.0
 40
0.0
 40
0.2501102748
 40
0.5000527437
 40
0.7499798266
 40
1.0
 40
1.0
 40
1.0
 40
1.0
 10
9.3301910515
 20
8.623012844
 30
0.0
 10
9.3311519072
 20
8.6205134118
 30
0.0
 10
9.3327969697
 20
8.6154057855
 30
0.0
 10
9.3344476774
 20
8.607533894
 30
0.0
 10
9.3352881666
 20
8.5995361021
 30
0.0
 10
9.3353094994
 20
8.5941729511
 30
0.0
 10
9.3351859542
 20
8.591499007
 30
0.0
  0
SPLINE
  5
37F
100
AcDbEntity
  8
0
100
AcDbSpline
 62
9
  6
CONTINUOUS
 70
0
 71
3
 72
11
 73
7
 74
0
 42
0.0000001
 43
0.0000001
 44
0.0000000001
 40
0.0
 40
0.0
 40
0.0
 40
0.0
 40
0.2500071505
 40
0.500002388
 40
0.7499964414
 40
1.0
 40
1.0
 40
1.0
 40
1.0
 10
9.3651120792
 20
8.6402204429
 30
0.0
 10
9.3668629276
 20
8.6364468217
 30
0.0
 10
9.3699147146
 20
8.6286825054
 30
0.0
 10
9.3731105682
 20
8.6165913993
 30
0.0
 10
9.374894513
 20
8.604213455
 30
0.0
 10
9.3751434678
 20
8.595876538
 30
0.0
 10
9.3750317529
 20
8.5917180877
 30
0.0
  0
SPLINE
  5
380
100
AcDbEntity
  8
0
100
AcDbSpline
 62
9
  6
CONTINUOUS
 70
0
 71
3
 72
27
 73
23
 74
0
 42
0.0000001
 43
0.0000001
 44
0.0000000001
 40
0.0
 40
0.0
 40
0.0
 40
0.0
 40
0.0904337534
 40
0.1354352062
 40
0.1801556535
 40
0.2684066303
 40
0.3544975933
 40
0.4377304502
 40
0.517432506
 40
0.5929626834
 40
0.6637150226
 40
0.7291246126
 40
0.7886690013
 40
0.8418737858
 40
0.8883168205
 40
0.927629812
 40
0.9445141248
 40
0.959503827
 40
0.9725662891
 40
0.9836717468
 40
0.9928122024
 40
1.0
 40
1.0
 40
1.0
 40
1.0
 10
9.310479548
 20
6.2012944497
 30
0.0
 10
9.309284935
 20
6.2013320544
 30
0.0
 10
9.3074957655
 20
6.2013856462
 30
0.0
 10
9.3051154546
 20
6.2014433164
 30
0.0
 10
9.3027637377
 20
6.2014890027
 30
0.0
 10
9.2998687995
 20
6.2015295632
 30
0.0
 10
9.2964647826
 20
6.2015651034
 30
0.0
 10
9.2931736777
 20
6.2015922684
 30
0.0
 10
9.2900221061
 20
6.2016131291
 30
0.0
 10
9.2870354413
 20
6.2016269283
 30
0.0
 10
9.2842376324
 20
6.2016286614
 30
0.0
 10
9.2816511235
 20
6.2016152759
 30
0.0
 10
9.2792966797
 20
6.2015848311
 30
0.0
 10
9.2771932583
 20
6.2015359453
 30
0.0
 10
9.27535781
 20
6.2014710286
 30
0.0
 10
9.2740028845
 20
6.2014031454
 30
0.0
 10
9.2730641792
 20
6.2013396196
 30
0.0
 10
9.2724721186
 20
6.2012927476
 30
0.0
 10
9.2719566975
 20
6.2012461962
 30
0.0
 10
9.271518606
 20
6.2012026279
 30
0.0
 10
9.2711587449
 20
6.2011584365
 30
0.0
 10
9.2709458051
 20
6.2011216734
 30
0.0
 10
9.2708533349
 20
6.2010999111
 30
0.0
  0
SPLINE
  5
381
100
AcDbEntity
  8
0
100
AcDbSpline
 62
9
  6
CONTINUOUS
 70
0
 71
3
 72
15
 73
11
 74
0
 42
0.0000001
 43
0.0000001
 44
0.0000000001
 40
0.0
 40
0.0
 40
0.0
 40
0.0
 40
0.1249999941
 40
0.2499999956
 40
0.3750000019
 40
0.5000000035
 40
0.6250000003
 40
0.7500000008
 40
0.8750000042
 40
1.0
 40
1.0
 40
1.0
 40
1.0
 10
9.3750317529
 20
8.5917180877
 30
0.0
 10
9.3723639509
 20
8.4921165219
 30
0.0
 10
9.3669748971
 20
8.2929148153
 30
0.0
 10
9.358791633
 20
7.9941149724
 30
0.0
 10
9.3505705349
 20
7.6953161636
 30
0.0
 10
9.3423691391
 20
7.3965168165
 30
0.0
 10
9.3342232646
 20
7.0977159528
 30
0.0
 10
9.3261736377
 20
6.7989124752
 30
0.0
 10
9.3182482854
 20
6.5001056743
 30
0.0
 10
9.3130592586
 20
6.3008986516
 30
0.0
 10
9.3104917096
 20
6.2012944497
 30
0.0
  0
SPLINE
  5
382
100
AcDbEntity
  8
0
100
AcDbSpline
 62
9
  6
CONTINUOUS
 70
0
 71
3
 72
23
 73
19
 74
0
 42
0.0000001
 43
0.0000001
 44
0.0000000001
 40
0.0
 40
0.0
 40
0.0
 40
0.0
 40
0.1853482007
 40
0.3642781949
 40
0.5306512686
 40
0.6073167349
 40
0.6787415591
 40
0.7443125748
 40
0.8034659559
 40
0.8556945145
 40
0.9005549977
 40
0.9376685026
 40
0.9532214075
 40
0.9667306026
 40
0.9781731124
 40
0.9875308308
 40
0.9948003688
 40
1.0
 40
1.0
 40
1.0
 40
1.0
 10
9.3750317529
 20
8.5917180874
 30
0.0
 10
9.3725688773
 20
8.5917839777
 30
0.0
 10
9.3677279779
 20
8.5918979418
 30
0.0
 10
9.3606752066
 20
8.5920170654
 30
0.0
 10
9.3550663394
 20
8.5920706551
 30
0.0
 10
9.3508863089
 20
8.592081973
 30
0.0
 10
9.3480461916
 20
8.592075149
 30
0.0
 10
9.3454389333
 20
8.5920534104
 30
0.0
 10
9.3430870302
 20
8.5920169969
 30
0.0
 10
9.3410107412
 20
8.5919663974
 30
0.0
 10
9.3392279608
 20
8.5919021453
 30
0.0
 10
9.3379332117
 20
8.5918349105
 30
0.0
 10
9.3370557868
 20
8.5917721096
 30
0.0
 10
9.3365194104
 20
8.5917248662
 30
0.0
 10
9.3360660798
 20
8.5916748657
 30
0.0
 10
9.3356964844
 20
8.5916224879
 30
0.0
 10
9.3354115659
 20
8.5915679034
 30
0.0
 10
9.3352510577
 20
8.5915241169
 30
0.0
 10
9.3351866716
 20
8.5914989868
 30
0.0
  0
SPLINE
  5
383
100
AcDbEntity
  8
0
100
AcDbSpline
 62
9
  6
CONTINUOUS
 70
0
 71
3
 72
14
 73
10
 74
0
 42
0.0000001
 43
0.0000001
 44
0.0000000001
 40
0.0
 40
0.0
 40
0.0
 40
0.0
 40
0.1249999934
 40
0.249998463
 40
0.3749963027
 40
0.4999943162
 40
0.6249931402
 40
0.7499933902
 40
1.0
 40
1.0
 40
1.0
 40
1.0
 10
9.3351866716
 20
8.5914989868
 30
0.0
 10
9.3325238367
 20
8.4918985472
 30
0.0
 10
9.3271495482
 20
8.2927001825
 30
0.0
 10
9.3189998629
 20
7.993906148
 30
0.0
 10
9.310821517
 20
7.6951144763
 30
0.0
 10
9.3026670142
 20
7.3963218699
 30
0.0
 10
9.2945627659
 20
7.0975259712
 30
0.0
 10
9.2838656058
 20
6.699120886
 30
0.0
 10
9.276000674
 20
6.4003107579
 30
0.0
 10
9.2708533616
 20
6.2010999094
 30
0.0
  0
SPLINE
  5
384
100
AcDbEntity
  8
0
100
AcDbSpline
 62
9
  6
CONTINUOUS
 70
0
 71
3
 72
22
 73
18
 74
0
 42
0.0000001
 43
0.0000001
 44
0.0000000001
 40
0.0
 40
0.0
 40
0.0
 40
0.0
 40
0.0622419148
 40
0.1245008638
 40
0.1867556813
 40
0.2490469975
 40
0.3113810642
 40
0.3737646057
 40
0.4361981412
 40
0.4986804566
 40
0.5612134933
 40
0.6238003358
 40
0.6864381008
 40
0.7491212345
 40
0.8118428364
 40
0.8745899822
 40
1.0
 40
1.0
 40
1.0
 40
1.0
 10
9.6448112489
 20
6.159891804
 30
0.0
 10
9.6461118654
 20
6.159891804
 30
0.0
 10
9.6487152925
 20
6.1600212095
 30
0.0
 10
9.6525806347
 20
6.1606010259
 30
0.0
 10
9.6563707532
 20
6.1615618274
 30
0.0
 10
9.6600485545
 20
6.162893446
 30
0.0
 10
9.6635790684
 20
6.1645834502
 30
0.0
 10
9.6669280413
 20
6.1666152177
 30
0.0
 10
9.6700628706
 20
6.1689691073
 30
0.0
 10
9.6729528793
 20
6.1716224534
 30
0.0
 10
9.675569976
 20
6.1745496
 30
0.0
 10
9.6778892148
 20
6.1777219359
 30
0.0
 10
9.6798883003
 20
6.1811088517
 30
0.0
 10
9.6815476719
 20
6.1846774151
 30
0.0
 10
9.682851313
 20
6.1883938972
 30
0.0
 10
9.6840968034
 20
6.1934918747
 30
0.0
 10
9.6844681092
 20
6.1974393606
 30
0.0
 10
9.6844553563
 20
6.2000599164
 30
0.0
  0
SPLINE
  5
385
100
AcDbEntity
  8
0
100
AcDbSpline
 62
9
  6
CONTINUOUS
 70
0
 71
3
 72
22
 73
18
 74
0
 42
0.0000001
 43
0.0000001
 44
0.0000000001
 40
0.0
 40
0.0
 40
0.0
 40
0.0
 40
0.0622375016
 40
0.1244930515
 40
0.1867445277
 40
0.249033602
 40
0.3113665775
 40
0.3737503076
 40
0.4361852934
 40
0.4986701328
 40
0.5612064681
 40
0.6237971276
 40
0.6864388521
 40
0.7491256499
 40
0.8118501034
 40
0.8745986133
 40
1.0
 40
1.0
 40
1.0
 40
1.0
 10
9.310479548
 20
6.159891804
 30
0.0
 10
9.3091574798
 20
6.159891804
 30
0.0
 10
9.3065110298
 20
6.1600255264
 30
0.0
 10
9.3025831455
 20
6.1606245923
 30
0.0
 10
9.2987342488
 20
6.1616170982
 30
0.0
 10
9.2950032695
 20
6.1629921941
 30
0.0
 10
9.2914268731
 20
6.1647366154
 30
0.0
 10
9.2880409081
 20
6.166832635
 30
0.0
 10
9.2848794271
 20
6.169259313
 30
0.0
 10
9.2819743973
 20
6.1719925016
 30
0.0
 10
9.2793550074
 20
6.1750048979
 30
0.0
 10
9.277047044
 20
6.1782660808
 30
0.0
 10
9.2750734249
 20
6.181743537
 30
0.0
 10
9.2734540985
 20
6.1854023279
 30
0.0
 10
9.2722052338
 20
6.1892067206
 30
0.0
 10
9.2710521777
 20
6.1944155636
 30
0.0
 10
9.2707716439
 20
6.1984373491
 30
0.0
 10
9.2708533349
 20
6.2010999111
 30
0.0
  0
LINE
  5
386
100
AcDbEntity
  8
0
100
AcDbLine
 62
9
  6
CONTINUOUS
 10
9.2708537316
 20
6.2010997992
 11
9.2532385575
 21
6.2009561993
  0
SPLINE
  5
387
100
AcDbEntity
  8
0
100
AcDbSpline
 62
9
  6
CONTINUOUS
 70
0
 71
3
 72
23
 73
19
 74
0
 42
0.0000001
 43
0.0000001
 44
0.0000000001
 40
0.0
 40
0.0
 40
0.0
 40
0.0
 40
0.0627081025
 40
0.1254357497
 40
0.188157634
 40
0.2508715947
 40
0.3135630203
 40
0.3762225755
 40
0.4388410514
 40
0.5014109427
 40
0.5639266694
 40
0.6263847178
 40
0.6887837088
 40
0.7511243938
 40
0.813410846
 40
0.8756448555
 40
0.9378428632
 40
1.0
 40
1.0
 40
1.0
 40
1.0
 10
9.7444834891
 20
8.6135797215
 30
0.0
 10
9.7426851656
 20
8.6135728651
 30
0.0
 10
9.739086183
 20
8.6133838661
 30
0.0
 10
9.7337425464
 20
8.6125780006
 30
0.0
 10
9.7285017155
 20
8.6112570182
 30
0.0
 10
9.7234149147
 20
8.6094340926
 30
0.0
 10
9.7185308011
 20
8.6071264385
 30
0.0
 10
9.7138964792
 20
8.6043563611
 30
0.0
 10
9.7095565329
 20
8.6011504714
 30
0.0
 10
9.7055527319
 20
8.5975396342
 30
0.0
 10
9.7019236145
 20
8.593558588
 30
0.0
 10
9.6987041363
 20
8.5892456211
 30
0.0
 10
9.6959253415
 20
8.5846422261
 30
0.0
 10
9.6936139766
 20
8.579792686
 30
0.0
 10
9.6917924331
 20
8.5747437846
 30
0.0
 10
9.6904779563
 20
8.5695438375
 30
0.0
 10
9.6896836932
 20
8.5642437289
 30
0.0
 10
9.689505763
 20
8.5606750273
 30
0.0
 10
9.6895052532
 20
8.5588924913
 30
0.0
  0
ENDSEC
  0
SECTION
  2
OBJECTS
  0
DICTIONARY
  5
C
100
AcDbDictionary
280
0
281
1
  3
ACAD_GROUP
350
D
  3
ACAD_MLINESTYLE
350
17
  3
ACAD_LAYOUT
350
1A
  3
ACAD_PLOTSETTINGS
350
19
  3
ACAD_PLOTSTYLENAME
350
E
  0
DICTIONARY
  5
D
102
{ACAD_REACTORS
330
C
102
}
100
AcDbDictionary
280
0
281
1
  0
ACDBDICTIONARYWDFLT
  5
E
102
{ACAD_REACTORS
330
C
102
}
100
AcDbDictionary
281
1
  3
Normal
350
F
100
AcDbDictionaryWithDefault
340
F
  0
DICTIONARY
  5
17
102
{ACAD_REACTORS
330
C
102
}
100
AcDbDictionary
280
0
281
1
  3
Standard
350
18
  0
DICTIONARY
  5
19
102
{ACAD_REACTORS
330
C
102
}
100
AcDbDictionary
281
1
  0
DICTIONARY
  5
1A
102
{ACAD_REACTORS
330
C
102
}
100
AcDbDictionary
281
1
  3
Model
350
388
  3
Layout1
350
389
  0
ACDBPLACEHOLDER
  5
F
102
{ACAD_REACTORS
330
E
102
}
  0
MLINESTYLE
  5
18
102
{ACAD_REACTORS
330
17
102
}
100
AcDbMlineStyle
  2
STANDARD
 70
0
  3

 62
256
 51
90.0
 52
90.0
 71
2
 49
0.5
 62
256
  6
BYLAYER
 49
-0.5
 62
256
  6
BYLAYER
  0
LAYOUT
  5
388
102
{ACAD_REACTORS
330
1A
102
}
100
AcDbPlotSettings
  1

  2
none_device
  4
ANSI_C_(22.00_x_17.00_Inches)
  6

 40
0.0
 41
0.0
 42
0.0
 43
0.0
 44
558.8
 45
431.8
 46
0.0
 47
0.0
 48
0.0
 49
0.0
140
0.0
141
0.0
142
1.0
143
1.0
 70
1024
 72
0
 73
0
 74
0
  7

 75
0
147
1.0
148
0.0
149
0.0
100
AcDbLayout
  1
Model
 70
0
 71
0
 10
0.0
 20
0.0
 11
22.0
 21
17.0
 12
0.0
 22
0.0
 32
0.0
 14
0.0
 24
0.0
 34
0.0
 15
0.0
 25
0.0
 35
0.0
146
0.0
 13
0.0
 23
0.0
 33
0.0
 16
1.0
 26
0.0
 36
0.0
 17
0.0
 27
1.0
 37
0.0
 76
0
330
205
345
0
346
0
  0
LAYOUT
  5
389
102
{ACAD_REACTORS
330
1A
102
}
100
AcDbPlotSettings
  1

  2
none_device
  4
ANSI_C_(22.00_x_17.00_Inches)
  6

 40
0.0
 41
0.0
 42
0.0
 43
0.0
 44
558.8
 45
431.8
 46
0.0
 47
0.0
 48
0.0
 49
0.0
140
0.0
141
0.0
142
1.0
143
1.0
 70
0
 72
0
 73
0
 74
0
  7

 75
0
147
1.0
148
0.0
149
0.0
100
AcDbLayout
  1
Layout1
 70
0
 71
1
 10
0.0
 20
0.0
 11
22.0
 21
17.0
 12
0.0
 22
0.0
 32
0.0
 14
0.0
 24
0.0
 34
0.0
 15
0.0
 25
0.0
 35
0.0
146
0.0
 13
0.0
 23
0.0
 33
0.0
 16
1.0
 26
0.0
 36
0.0
 17
0.0
 27
1.0
 37
0.0
 76
0
330
206
345
0
346
0
  0
ENDSEC
  0
EOF
