999
DXF file: E:\BT Custom\CADOUTPUT\_TOP.dxf
999
Pro/ENGINEER 2018400 by Parametric Technology Corporation
  0
SECTION
  2
HEADER
  9
$ACADVER
  1
AC1018
  9
$DWGCODEPAGE
  3
ANSI_1252
  9
$EXTMAX
 10
22.0
 20
17.0
 30
0.0
  9
$EXTMIN
 10
0.0
 20
0.0
 30
0.0
  9
$LIMMIN
 10
0.0
 20
0.0
  9
$LIMMAX
 10
22.0
 20
17.0
  9
$VIEWCTR
 10
11.0
 20
8.5
  9
$VIEWSIZE
 40
17.0
  9
$CLAYER
  8
0
  9
$LTSCALE
 40
1.21
  9
$CELTYPE
  6
BYLAYER
  9
$DIMSCALE
 40
1.0
  9
$DIMASZ
 40
0.1
  9
$DIMEXO
 40
0.0625
  9
$DIMDLI
 40
0.836
  9
$DIMEXE
 40
0.125
  9
$DIMCEN
 40
0.198
  9
$DIMLFAC
 40
1.0
  9
$DIMBLK
  1
_FILLED
  9
$DIMALT
 70
1
  9
$DIMALTD
 70
2
  9
$DIMALTTD
 70
2
  9
$DIMALTF
 40
25.4
  9
$DIMTXT
 40
0.08
  9
$DIMTOL
 70
1
  9
$DIMLIM
 70
0
  9
$DIMTFAC
 40
1.0
  9
$DIMTP
 40
0.001
  9
$DIMTM
 40
0.001
  9
$DIMGAP
 40
0.09
  9
$DIMDSEP
 70
46
  9
$AUNITS
 70
0
  9
$PDMODE
 70
3
  9
$PDSIZE
 40
0.06
  9
$HANDSEED
  5
28B
  9
$TILEMODE
 70
1
  9
$MEASUREMENT
 70
0
  9
$INSUNITS
 70
1
  0
ENDSEC
  0
SECTION
  2
CLASSES
  0
CLASS
  1
ACDBDICTIONARYWDFLT
  2
AcDbDictionaryWithDefault
  3
AutoCAD 2000
 90
0
 91
1
280
0
281
0
  0
CLASS
  1
ACDBPLACEHOLDER
  2
AcDbPlaceHolder
  3
AutoCAD 2000
 90
0
 91
1
280
0
281
0
  0
CLASS
  1
LAYOUT
  2
AcDbLayout
  3
AutoCAD 2000
 90
0
 91
0
280
0
281
0
  0
ENDSEC
  0
SECTION
  2
TABLES
  0
TABLE
  2
VPORT
  5
8
100
AcDbSymbolTable
 70
2
  0
VPORT
  5
1F4
100
AcDbSymbolTableRecord
100
AcDbViewportTableRecord
  2
*ACTIVE
 70
0
 10
0.0
 20
0.0
 11
1.0
 21
1.0
 12
11.0
 22
8.5
 13
0.0
 23
0.0
 14
1.0
 24
1.0
 15
0.0
 25
0.0
 16
0.0
 26
0.0
 36
1.0
 17
0.0
 27
0.0
 37
0.0
 40
17.0
 41
1.2941176471
 42
50.0
 43
0.0
 44
0.0
 50
0.0
 51
0.0
 71
0
 72
100
 73
1
 74
1
 75
0
 76
0
 77
0
 78
0
  0
ENDTAB
  0
TABLE
  2
LTYPE
  5
5
100
AcDbSymbolTable
 70
6
  0
LTYPE
  5
14
100
AcDbSymbolTableRecord
100
AcDbLinetypeTableRecord
  2
BYBLOCK
 70
0
  3

 72
65
 73
0
 40
0.0
  0
LTYPE
  5
15
100
AcDbSymbolTableRecord
100
AcDbLinetypeTableRecord
  2
BYLAYER
 70
0
  3

 72
65
 73
0
 40
0.0
  0
LTYPE
  5
16
100
AcDbSymbolTableRecord
100
AcDbLinetypeTableRecord
  2
CONTINUOUS
 70
64
  3
Solid line
 72
65
 73
0
 40
0.0
  0
LTYPE
  5
1F5
100
AcDbSymbolTableRecord
100
AcDbLinetypeTableRecord
  2
CENTER
 70
64
  3
____ _ ____ _ ____ _ ____ _ ____ _ ____ _ ____
 72
65
 73
4
 40
0.6
 49
0.375
 74
0
 49
-0.075
 74
0
 49
0.075
 74
0
 49
-0.075
 74
0
  0
LTYPE
  5
1F6
100
AcDbSymbolTableRecord
100
AcDbLinetypeTableRecord
  2
HIDDEN
 70
64
  3
- - - - - - - - - - - - - - - - - - - -
 72
65
 73
2
 40
0.2
 49
0.1
 74
0
 49
-0.1
 74
0
  0
LTYPE
  5
1F7
100
AcDbSymbolTableRecord
100
AcDbLinetypeTableRecord
  2
PHANTOM
 70
64
  3
_____ _ _ _____ _ _ _____ _ _ _____
 72
65
 73
6
 40
0.8
 49
0.45
 74
0
 49
-0.05
 74
0
 49
0.1
 74
0
 49
-0.05
 74
0
 49
0.1
 74
0
 49
-0.05
 74
0
  0
LTYPE
  5
1F8
100
AcDbSymbolTableRecord
100
AcDbLinetypeTableRecord
  2
DOT
 70
64
  3
. . . . . . . . . . . . . . . . . . . .
 72
65
 73
2
 40
0.2
 49
0.1
 74
0
 49
-0.1
 74
0
  0
LTYPE
  5
1F9
100
AcDbSymbolTableRecord
100
AcDbLinetypeTableRecord
  2
DASHED
 70
64
  3
- - - - - - - - - - - - - - - - - - - -
 72
65
 73
2
 40
0.2
 49
0.1
 74
0
 49
-0.1
 74
0
  0
ENDTAB
  0
TABLE
  2
LAYER
  5
2
100
AcDbSymbolTable
 70
36
  0
LAYER
  5
10
100
AcDbSymbolTableRecord
100
AcDbLayerTableRecord
  2
0
 70
0
 62
7
  6
CONTINUOUS
370
-3
390
F
  0
LAYER
  5
1FA
100
AcDbSymbolTableRecord
100
AcDbLayerTableRecord
  2
DEFAULT_1
 70
0
 62
7
  6
CENTER
370
-3
390
F
  0
LAYER
  5
1FB
100
AcDbSymbolTableRecord
100
AcDbLayerTableRecord
  2
DEFAULT_2
 70
0
 62
8
  6
HIDDEN
370
-3
390
F
  0
LAYER
  5
1FC
100
AcDbSymbolTableRecord
100
AcDbLayerTableRecord
  2
DEFAULT_3
 70
0
 62
7
  6
PHANTOM
370
-3
390
F
  0
LAYER
  5
1FD
100
AcDbSymbolTableRecord
100
AcDbLayerTableRecord
  2
ALL_FEATURES
 70
0
 62
7
  6
CONTINUOUS
370
-3
390
F
  0
LAYER
  5
1FE
100
AcDbSymbolTableRecord
100
AcDbLayerTableRecord
  2
AXES_FEATURES
 70
0
 62
7
  6
CONTINUOUS
370
-3
390
F
  0
LAYER
  5
1FF
100
AcDbSymbolTableRecord
100
AcDbLayerTableRecord
  2
DEFAULT_COORDINATE_SYSTEM
 70
0
 62
7
  6
CONTINUOUS
370
-3
390
F
  0
LAYER
  5
200
100
AcDbSymbolTableRecord
100
AcDbLayerTableRecord
  2
DEFAULT_DATUM_AXES
 70
0
 62
7
  6
CONTINUOUS
370
-3
390
F
  0
LAYER
  5
201
100
AcDbSymbolTableRecord
100
AcDbLayerTableRecord
  2
DEFAULT_DATUM_PLANES
 70
0
 62
7
  6
CONTINUOUS
370
-3
390
F
  0
LAYER
  5
202
100
AcDbSymbolTableRecord
100
AcDbLayerTableRecord
  2
DIMENSIONS
 70
0
 62
7
  6
CONTINUOUS
370
-3
390
F
  0
ENDTAB
  0
TABLE
  2
STYLE
  5
3
100
AcDbSymbolTable
 70
1
  0
STYLE
  5
11
100
AcDbSymbolTableRecord
100
AcDbTextStyleTableRecord
  2
STANDARD
 70
0
 40
0.0
 41
0.8
 50
0.0
 71
0
 42
0.2
  3
txt
  4

  0
STYLE
  5
203
100
AcDbSymbolTableRecord
100
AcDbTextStyleTableRecord
  2
TEXTSTYLE_1
 70
0
 40
0.0
 41
0.8
 50
0.0
 71
0
 42
0.2
  3
gdt
  4

  0
ENDTAB
  0
TABLE
  2
VIEW
  5
6
100
AcDbSymbolTable
 70
0
  0
ENDTAB
  0
TABLE
  2
UCS
  5
7
100
AcDbSymbolTable
 70
0
  0
ENDTAB
  0
TABLE
  2
APPID
  5
9
100
AcDbSymbolTable
 70
1
  0
APPID
  5
204
100
AcDbSymbolTableRecord
100
AcDbRegAppTableRecord
  2
ACAD
 70
0
  0
ENDTAB
  0
TABLE
  2
BLOCK_RECORD
  5
1
100
AcDbSymbolTable
 70
0
  0
BLOCK_RECORD
  5
205
100
AcDbSymbolTableRecord
100
AcDbBlockTableRecord
  2
*Model_Space
  0
BLOCK_RECORD
  5
206
100
AcDbSymbolTableRecord
100
AcDbBlockTableRecord
  2
*Paper_Space
  0
BLOCK_RECORD
  5
207
100
AcDbSymbolTableRecord
100
AcDbBlockTableRecord
  2
_FILLED
  0
ENDTAB
  0
TABLE
  2
DIMSTYLE
  5
A
100
AcDbSymbolTable
 70
1
100
AcDbDimStyleTable
 71
0
  0
DIMSTYLE
105
208
100
AcDbSymbolTableRecord
100
AcDbDimStyleTableRecord
  2
STANDARD
 70
0
  3

  4

 40
1.0
 41
0.1
 42
0.0625
 43
0.38
 44
0.125
 45
0.0
 46
0.0
 47
0.001
 48
0.001
140
0.08
141
0.09
142
0.0
143
25.4
144
1.0
145
0.0
146
1.0
147
0.09
 71
1.0
 72
0.0
 73
1
 74
1
 75
0
 76
0
 77
0
 78
4
 79
1
170
1
171
2
172
0
173
0
174
0
175
0
176
0
177
0
178
0
270
2
179
3
271
3
272
3
273
2
274
2
275
0
280
0
281
0
282
0
283
1
284
4
285
0
286
0
287
3
288
0
340
11
278
46
341
207
342
207
343
207
344
207
  0
ENDTAB
  0
ENDSEC
  0
SECTION
  2
BLOCKS
  0
BLOCK
  5
20
100
AcDbEntity
  8
0
100
AcDbBlockBegin
  2
*Model_Space
 70
0
 10
0.0
 20
0.0
 30
0.0
  3
*Model_Space
  1

  0
ENDBLK
  5
21
100
AcDbEntity
  8
0
100
AcDbBlockEnd
  0
BLOCK
  5
1C
100
AcDbEntity
  8
0
100
AcDbBlockBegin
  2
*Paper_Space
 70
0
 10
0.0
 20
0.0
 30
0.0
  3
*Paper_Space
  1

  0
ENDBLK
  5
1D
100
AcDbEntity
  8
0
100
AcDbBlockEnd
  0
BLOCK
  5
209
100
AcDbEntity
  8
0
100
AcDbBlockBegin
  2
_FILLED
 70
64
 10
0.0
 20
0.0
  3
_FILLED
  1

  0
SOLID
  5
20A
100
AcDbEntity
  8
0
  6
BYBLOCK
 62
0
100
AcDbTrace
 10
0.0
 20
0.0
 11
-1.0
 21
0.2
 12
-1.0
 22
-0.2
 13
-1.0
 23
-0.2
  0
ENDBLK
  5
20B
100
AcDbEntity
  8
0
  6
BYBLOCK
 62
0
100
AcDbBlockEnd
  0
ENDSEC
  0
SECTION
  2
ENTITIES
  0
LINE
  5
20C
100
AcDbEntity
  8
0
100
AcDbLine
 62
9
  6
CONTINUOUS
 10
10.6521736817
 20
5.9215225672
 11
11.4424629948
 21
5.9215225672
  0
LINE
  5
20D
100
AcDbEntity
  8
0
100
AcDbLine
 62
7
  6
CONTINUOUS
 10
10.5473183384
 20
5.9453318604
 11
11.5473183382
 21
5.9453318604
  0
LINE
  5
20E
100
AcDbEntity
  8
0
100
AcDbLine
 62
7
  6
CONTINUOUS
 10
10.7265204315
 20
6.0453318604
 11
10.5516385834
 21
6.0453318604
  0
LINE
  5
20F
100
AcDbEntity
  8
0
100
AcDbLine
 62
7
  6
CONTINUOUS
 10
11.3681162699
 20
6.0453318604
 11
11.5429980931
 21
6.0453318604
  0
LINE
  5
210
100
AcDbEntity
  8
0
100
AcDbLine
 62
7
  6
CONTINUOUS
 10
10.7265204306
 20
6.3453318604
 11
10.5516385834
 21
6.3453318604
  0
LINE
  5
211
100
AcDbEntity
  8
0
100
AcDbLine
 62
7
  6
CONTINUOUS
 10
11.3681162669
 20
6.3453318604
 11
11.5429980931
 21
6.3453318604
  0
LINE
  5
212
100
AcDbEntity
  8
0
100
AcDbLine
 62
7
  6
CONTINUOUS
 10
9.9973183383
 20
7.7653318604
 11
9.9973183383
 21
7.8653318604
  0
LINE
  5
213
100
AcDbEntity
  8
0
100
AcDbLine
 62
7
  6
CONTINUOUS
 10
10.5473183383
 20
6.4453318604
 11
11.5473183383
 21
6.4453318604
  0
LINE
  5
214
100
AcDbEntity
  8
0
100
AcDbLine
 62
7
  6
CONTINUOUS
 10
10.7348183383
 20
6.5535850359
 11
11.3598183383
 21
6.5535850359
  0
LINE
  5
215
100
AcDbEntity
  8
0
100
AcDbLine
 62
7
  6
CONTINUOUS
 10
10.5098183383
 20
7.0653318604
 11
10.5098183383
 21
7.1153318604
  0
LINE
  5
216
100
AcDbEntity
  8
0
100
AcDbLine
 62
7
  6
CONTINUOUS
 10
10.6598183383
 20
6.8083318604
 11
10.7348183383
 21
6.8083318604
  0
LINE
  5
217
100
AcDbEntity
  8
0
100
AcDbLine
 62
7
  6
CONTINUOUS
 10
11.3598183383
 20
6.8083318604
 11
11.4348183383
 21
6.8083318604
  0
LINE
  5
218
100
AcDbEntity
  8
0
100
AcDbLine
 62
9
  6
CONTINUOUS
 10
10.629617835
 20
6.8323368909
 11
10.7348183383
 21
6.8323368909
  0
LINE
  5
219
100
AcDbEntity
  8
0
100
AcDbLine
 62
9
  6
CONTINUOUS
 10
11.3598183383
 20
6.8323368909
 11
11.4650188416
 21
6.8323368909
  0
LINE
  5
21A
100
AcDbEntity
  8
0
100
AcDbLine
 62
7
  6
CONTINUOUS
 10
10.7348183859
 20
6.9453318604
 11
11.3598182907
 21
6.9453318604
  0
LINE
  5
21B
100
AcDbEntity
  8
0
100
AcDbLine
 62
7
  6
CONTINUOUS
 10
11.5473183383
 20
6.4453318604
 11
11.3598183383
 21
6.5535850359
  0
LINE
  5
21C
100
AcDbEntity
  8
0
100
AcDbLine
 62
7
  6
CONTINUOUS
 10
10.629617835
 20
6.8323368909
 11
10.598117835
 21
6.9683368909
  0
LINE
  5
21D
100
AcDbEntity
  8
0
100
AcDbLine
 62
7
  6
CONTINUOUS
 10
10.5473183383
 20
5.9453318604
 11
10.5473183383
 21
6.0450508704
  0
LINE
  5
21E
100
AcDbEntity
  8
0
100
AcDbLine
 62
7
  6
CONTINUOUS
 10
10.5473183383
 20
6.3455845293
 11
10.5473183383
 21
6.4453318604
  0
LINE
  5
21F
100
AcDbEntity
  8
0
100
AcDbLine
 62
7
  6
CONTINUOUS
 10
10.5973183383
 20
6.9753318604
 11
10.5973183383
 21
7.0653318604
  0
LINE
  5
220
100
AcDbEntity
  8
0
100
AcDbLine
 62
7
  6
CONTINUOUS
 10
10.6098183383
 20
6.9653318604
 11
10.6098183383
 21
7.0653318604
  0
LINE
  5
221
100
AcDbEntity
  8
0
100
AcDbLine
 62
7
  6
CONTINUOUS
 10
10.7348183383
 20
6.5535850359
 11
10.7348183383
 21
6.9453318604
  0
LINE
  5
222
100
AcDbEntity
  8
0
100
AcDbLine
 62
7
  6
CONTINUOUS
 10
11.4848183383
 20
6.9653318604
 11
10.6098183383
 21
6.9653318604
  0
LINE
  5
223
100
AcDbEntity
  8
0
100
AcDbLine
 62
9
  6
CONTINUOUS
 10
10.598117835
 20
6.9683368909
 11
10.6098183383
 21
6.9683368909
  0
LINE
  5
224
100
AcDbEntity
  8
0
100
AcDbLine
 62
9
  6
CONTINUOUS
 10
11.4848183383
 20
6.9683368909
 11
11.4965188416
 21
6.9683368909
  0
LINE
  5
225
100
AcDbEntity
  8
0
100
AcDbLine
 62
9
  6
CONTINUOUS
 10
10.5973183383
 20
6.9753318604
 11
10.6098183383
 21
6.9753318604
  0
LINE
  5
226
100
AcDbEntity
  8
0
100
AcDbLine
 62
9
  6
CONTINUOUS
 10
11.4848183383
 20
6.9753318604
 11
11.4973183383
 21
6.9753318604
  0
LINE
  5
227
100
AcDbEntity
  8
0
100
AcDbLine
 62
7
  6
CONTINUOUS
 10
11.5848183383
 20
7.0653318604
 11
10.5098183383
 21
7.0653318604
  0
LINE
  5
228
100
AcDbEntity
  8
0
100
AcDbLine
 62
7
  6
CONTINUOUS
 10
11.6848183383
 20
7.1153318604
 11
10.4098183383
 21
7.1153318604
  0
LINE
  5
229
100
AcDbEntity
  8
0
100
AcDbLine
 62
7
  6
CONTINUOUS
 10
10.8473183383
 20
6.9653318604
 11
10.8473183383
 21
6.9453318604
  0
LINE
  5
22A
100
AcDbEntity
  8
0
100
AcDbLine
 62
7
  6
CONTINUOUS
 10
11.2473183383
 20
6.9653318604
 11
11.2473183383
 21
6.9453318604
  0
LINE
  5
22B
100
AcDbEntity
  8
0
100
AcDbLine
 62
7
  6
CONTINUOUS
 10
11.3598183383
 20
6.5535850359
 11
11.3598183383
 21
6.9453318604
  0
LINE
  5
22C
100
AcDbEntity
  8
0
100
AcDbLine
 62
7
  6
CONTINUOUS
 10
12.0973183383
 20
7.7653318604
 11
9.9973183383
 21
7.7653318604
  0
LINE
  5
22D
100
AcDbEntity
  8
0
100
AcDbLine
 62
7
  6
CONTINUOUS
 10
11.4848183383
 20
6.9653318604
 11
11.4848183383
 21
7.0653318604
  0
LINE
  5
22E
100
AcDbEntity
  8
0
100
AcDbLine
 62
7
  6
CONTINUOUS
 10
11.4973183383
 20
6.9753318604
 11
11.4973183383
 21
7.0653318604
  0
LINE
  5
22F
100
AcDbEntity
  8
0
100
AcDbLine
 62
7
  6
CONTINUOUS
 10
11.5473183383
 20
5.9453318604
 11
11.5473183383
 21
6.0450791915
  0
LINE
  5
230
100
AcDbEntity
  8
0
100
AcDbLine
 62
7
  6
CONTINUOUS
 10
11.5473183383
 20
6.3456128504
 11
11.5473183383
 21
6.4453318604
  0
LINE
  5
231
100
AcDbEntity
  8
0
100
AcDbLine
 62
7
  6
CONTINUOUS
 10
11.5848183383
 20
7.0653318604
 11
11.5848183383
 21
7.1153318604
  0
LINE
  5
232
100
AcDbEntity
  8
0
100
AcDbLine
 62
7
  6
CONTINUOUS
 10
11.4650188416
 20
6.8323368909
 11
11.4965188416
 21
6.9683368909
  0
LINE
  5
233
100
AcDbEntity
  8
0
100
AcDbLine
 62
7
  6
CONTINUOUS
 10
9.9223183383
 20
7.8653318604
 11
12.1723183383
 21
7.8653318604
  0
LINE
  5
234
100
AcDbEntity
  8
0
100
AcDbLine
 62
9
  6
CONTINUOUS
 10
9.9118292299
 20
8.0097901431
 11
12.1828074467
 21
8.0097901431
  0
LINE
  5
235
100
AcDbEntity
  8
0
100
AcDbLine
 62
7
  6
CONTINUOUS
 10
10.5473183383
 20
6.4453318604
 11
10.7348183383
 21
6.5535850359
  0
LINE
  5
236
100
AcDbEntity
  8
0
100
AcDbLine
 62
7
  6
CONTINUOUS
 10
9.7848183383
 20
8.2403318604
 11
12.3098183383
 21
8.2403318604
  0
LINE
  5
237
100
AcDbEntity
  8
0
100
AcDbLine
 62
7
  6
CONTINUOUS
 10
13.800896524
 20
8.3403318604
 11
8.2937401526
 21
8.3403318604
  0
LINE
  5
238
100
AcDbEntity
  8
0
100
AcDbLine
 62
7
  6
CONTINUOUS
 10
12.0973183383
 20
7.7653318604
 11
12.0973183383
 21
7.8653318604
  0
LINE
  5
239
100
AcDbEntity
  8
0
100
AcDbLine
 62
9
  6
CONTINUOUS
 10
14.0191074311
 20
8.4683318604
 11
8.0755292454
 21
8.4683318604
  0
LINE
  5
23A
100
AcDbEntity
  8
0
100
AcDbLine
 62
7
  6
CONTINUOUS
 10
7.8541822079
 20
8.5963220252
 11
14.2404544687
 21
8.5963220252
  0
LINE
  5
23B
100
AcDbEntity
  8
0
100
AcDbLine
 62
9
  6
CONTINUOUS
 10
14.4563911441
 20
8.7203296653
 11
7.6382455324
 21
8.7203296653
  0
LINE
  5
23C
100
AcDbEntity
  8
0
100
AcDbLine
 62
7
  6
CONTINUOUS
 10
14.6723183383
 20
8.8443318604
 11
7.4223183383
 21
8.8443318604
  0
LINE
  5
23D
100
AcDbEntity
  8
0
100
AcDbLine
 62
7
  6
CONTINUOUS
 10
14.9223183383
 20
9.0943318604
 11
7.1723183383
 21
9.0943318604
  0
ARC
  5
23E
100
AcDbEntity
  8
0
100
AcDbCircle
 62
7
  6
CONTINUOUS
 10
9.6914471262
 20
7.1153318604
 40
0.7183712121
100
AcDbArc
 50
0.0
 51
64.7996803478
  0
ARC
  5
23F
100
AcDbEntity
  8
0
100
AcDbCircle
 62
7
  6
CONTINUOUS
 10
10.2256179528
 20
5.9475739882
 40
0.4977666518
100
AcDbArc
 50
74.8068535953
 51
105.1931464047
  0
ARC
  5
240
100
AcDbEntity
  8
0
100
AcDbCircle
 62
7
  6
CONTINUOUS
 10
10.2256179528
 20
6.4430897358
 40
0.4977666518
100
AcDbArc
 50
254.8068536896
 51
285.1931463104
  0
ARC
  5
241
100
AcDbEntity
  8
0
100
AcDbCircle
 62
7
  6
CONTINUOUS
 10
10.730297534
 20
6.1228541386
 40
0.0841517324
100
AcDbArc
 50
247.143028459
 51
257.2630077636
  0
ARC
  5
242
100
AcDbEntity
  8
0
100
AcDbCircle
 62
7
  6
CONTINUOUS
 10
10.730297534
 20
6.2678095824
 40
0.0841517323
100
AcDbArc
 50
102.7369919032
 51
112.8569715454
  0
ARC
  5
243
100
AcDbEntity
  8
0
100
AcDbCircle
 62
7
  6
CONTINUOUS
 10
10.6598183383
 20
6.8393318604
 40
0.031
100
AcDbArc
 50
193.0407610339
 51
270.0
  0
ARC
  5
244
100
AcDbEntity
  8
0
100
AcDbCircle
 62
7
  6
CONTINUOUS
 10
10.6283183383
 20
6.9753318604
 40
0.031
100
AcDbArc
 50
180.0
 51
193.0407610339
  0
ARC
  5
245
100
AcDbEntity
  8
0
100
AcDbCircle
 62
7
  6
CONTINUOUS
 10
10.6598183383
 20
5.9505322074
 40
0.03
100
AcDbArc
 50
189.9890162981
 51
255.2369687319
  0
ARC
  5
246
100
AcDbEntity
  8
0
100
AcDbCircle
 62
7
  6
CONTINUOUS
 10
8.9223183383
 20
7.8653318604
 40
1.0
100
AcDbArc
 50
0.0
 51
8.3059108051
  0
ARC
  5
247
100
AcDbEntity
  8
0
100
AcDbCircle
 62
7
  6
CONTINUOUS
 10
9.5407626455
 20
7.9556182871
 40
0.375
100
AcDbArc
 50
8.3059108051
 51
49.3969087652
  0
ARC
  5
248
100
AcDbEntity
  8
0
100
AcDbCircle
 62
7
  6
CONTINUOUS
 10
7.8541822079
 20
8.8463330026
 40
0.2500109774
100
AcDbArc
 50
210.2644101313
 51
270.0
  0
ARC
  5
249
100
AcDbEntity
  8
0
100
AcDbCircle
 62
7
  6
CONTINUOUS
 10
7.4223183383
 20
9.0943318604
 40
0.25
100
AcDbArc
 50
180.0
 51
270.0
  0
ARC
  5
24A
100
AcDbEntity
  8
0
100
AcDbCircle
 62
7
  6
CONTINUOUS
 10
7.4223183383
 20
8.5943318604
 40
0.25
100
AcDbArc
 50
30.2644101313
 51
90.0
  0
ARC
  5
24B
100
AcDbEntity
  8
0
100
AcDbCircle
 62
7
  6
CONTINUOUS
 10
8.2937401526
 20
8.5903318604
 40
0.25
100
AcDbArc
 50
209.2092119338
 51
270.0
  0
ARC
  5
24C
100
AcDbEntity
  8
0
100
AcDbCircle
 62
7
  6
CONTINUOUS
 10
7.8573183383
 20
8.3463318604
 40
0.25
100
AcDbArc
 50
29.2092119338
 51
89.9405177291
  0
ARC
  5
24D
100
AcDbEntity
  8
0
100
AcDbCircle
 62
7
  6
CONTINUOUS
 10
9.7848183383
 20
8.2903318604
 40
0.05
100
AcDbArc
 50
90.0
 51
270.0
  0
ARC
  5
24E
100
AcDbEntity
  8
0
100
AcDbCircle
 62
7
  6
CONTINUOUS
 10
11.0473183383
 20
7.4210018759
 40
1.5506700155
100
AcDbArc
 50
255.2369687319
 51
284.7630312681
  0
ARC
  5
24F
100
AcDbEntity
  8
0
100
AcDbCircle
 62
7
  6
CONTINUOUS
 10
12.4031895504
 20
7.1153318604
 40
0.7183712121
100
AcDbArc
 50
115.2003196522
 51
180.0
  0
ARC
  5
250
100
AcDbEntity
  8
0
100
AcDbCircle
 62
7
  6
CONTINUOUS
 10
11.8690187238
 20
5.9475739882
 40
0.4977666518
100
AcDbArc
 50
74.8068535953
 51
105.1931464047
  0
ARC
  5
251
100
AcDbEntity
  8
0
100
AcDbCircle
 62
7
  6
CONTINUOUS
 10
11.8690187238
 20
6.4430897358
 40
0.4977666518
100
AcDbArc
 50
254.8068536896
 51
285.1931463104
  0
ARC
  5
252
100
AcDbEntity
  8
0
100
AcDbCircle
 62
7
  6
CONTINUOUS
 10
11.3643391459
 20
6.2678095918
 40
0.0841517223
100
AcDbArc
 50
67.1430280471
 51
77.2630392731
  0
ARC
  5
253
100
AcDbEntity
  8
0
100
AcDbCircle
 62
7
  6
CONTINUOUS
 10
11.3643391463
 20
6.122854128
 40
0.0841517212
100
AcDbArc
 50
282.7369575593
 51
292.8569719942
  0
ARC
  5
254
100
AcDbEntity
  8
0
100
AcDbCircle
 62
7
  6
CONTINUOUS
 10
11.4348183383
 20
6.8393318604
 40
0.031
100
AcDbArc
 50
270.0
 51
346.9592389661
  0
ARC
  5
255
100
AcDbEntity
  8
0
100
AcDbCircle
 62
7
  6
CONTINUOUS
 10
11.4663183383
 20
6.9753318604
 40
0.031
100
AcDbArc
 50
346.9592389661
 51
360.0
  0
ARC
  5
256
100
AcDbEntity
  8
0
100
AcDbCircle
 62
7
  6
CONTINUOUS
 10
11.4348183383
 20
5.9505322074
 40
0.03
100
AcDbArc
 50
284.7630312681
 51
350.0109837019
  0
ARC
  5
257
100
AcDbEntity
  8
0
100
AcDbCircle
 62
7
  6
CONTINUOUS
 10
13.1723183383
 20
7.8653318604
 40
1.0
100
AcDbArc
 50
171.6940891949
 51
180.0
  0
ARC
  5
258
100
AcDbEntity
  8
0
100
AcDbCircle
 62
7
  6
CONTINUOUS
 10
12.553874031
 20
7.9556182871
 40
0.375
100
AcDbArc
 50
130.6030912348
 51
171.6940891949
  0
ARC
  5
259
100
AcDbEntity
  8
0
100
AcDbCircle
 62
7
  6
CONTINUOUS
 10
14.2404544687
 20
8.8463330026
 40
0.2500109774
100
AcDbArc
 50
270.0
 51
329.7355898687
  0
ARC
  5
25A
100
AcDbEntity
  8
0
100
AcDbCircle
 62
7
  6
CONTINUOUS
 10
14.6723183383
 20
9.0943318604
 40
0.25
100
AcDbArc
 50
270.0
 51
360.0
  0
ARC
  5
25B
100
AcDbEntity
  8
0
100
AcDbCircle
 62
7
  6
CONTINUOUS
 10
14.6723183383
 20
8.5943318604
 40
0.25
100
AcDbArc
 50
90.0
 51
149.7355898687
  0
ARC
  5
25C
100
AcDbEntity
  8
0
100
AcDbCircle
 62
7
  6
CONTINUOUS
 10
13.800896524
 20
8.5903318604
 40
0.25
100
AcDbArc
 50
270.0
 51
330.7907880662
  0
ARC
  5
25D
100
AcDbEntity
  8
0
100
AcDbCircle
 62
7
  6
CONTINUOUS
 10
14.2373183383
 20
8.3463318604
 40
0.25
100
AcDbArc
 50
90.0594822709
 51
150.7907880662
  0
ARC
  5
25E
100
AcDbEntity
  8
0
100
AcDbCircle
 62
7
  6
CONTINUOUS
 10
12.3098183383
 20
8.2903318604
 40
0.05
100
AcDbArc
 50
270.0
 51
90.0
  0
SPLINE
  5
25F
100
AcDbEntity
  8
0
100
AcDbSpline
 62
7
  6
CONTINUOUS
 70
0
 71
3
 72
24
 73
20
 74
0
 42
0.0000001
 43
0.0000001
 44
0.0000000001
 40
0.0
 40
0.0
 40
0.0
 40
0.0
 40
0.0815854943
 40
0.1626021176
 40
0.2427939723
 40
0.3218732877
 40
0.3994142887
 40
0.4749443871
 40
0.5479855486
 40
0.6180486042
 40
0.6846255346
 40
0.747160583
 40
0.8575994163
 40
0.9041361966
 40
0.9249127622
 40
0.9439168914
 40
0.9762429674
 40
0.9892839543
 40
1.0
 40
1.0
 40
1.0
 40
1.0
 10
11.5429980931
 20
6.3453318604
 30
0.0
 10
11.5455068319
 20
6.3453318604
 30
0.0
 10
11.550507481
 20
6.3454398525
 30
0.0
 10
11.5579600167
 20
6.3459205926
 30
0.0
 10
11.5653086803
 20
6.3467118257
 30
0.0
 10
11.5725103735
 20
6.3478049569
 30
0.0
 10
11.5795180709
 20
6.3491769433
 30
0.0
 10
11.5862800337
 20
6.3508046204
 30
0.0
 10
11.592743248
 20
6.3526630344
 30
0.0
 10
11.5988594907
 20
6.3547097457
 30
0.0
 10
11.6045792061
 20
6.3569056102
 30
0.0
 10
11.6113359444
 20
6.3598430657
 30
0.0
 10
11.6173554832
 20
6.3629198483
 30
0.0
 10
11.6220419765
 20
6.3657358475
 30
0.0
 10
11.6242685851
 20
6.3671810121
 30
0.0
 10
11.6261015502
 20
6.3684288162
 30
0.0
 10
11.627702388
 20
6.3695943787
 30
0.0
 10
11.6290602397
 20
6.3706576998
 30
0.0
 10
11.6296256333
 20
6.3711204145
 30
0.0
 10
11.6298779352
 20
6.3713323692
 30
0.0
  0
SPLINE
  5
260
100
AcDbEntity
  8
0
100
AcDbSpline
 62
7
  6
CONTINUOUS
 70
0
 71
3
 72
25
 73
21
 74
0
 42
0.0000001
 43
0.0000001
 44
0.0000000001
 40
0.0
 40
0.0
 40
0.0
 40
0.0
 40
0.0107815117
 40
0.0238114494
 40
0.0560625261
 40
0.0958436938
 40
0.1423999393
 40
0.1679814984
 40
0.1949744341
 40
0.252852577
 40
0.3153850164
 40
0.3819671072
 40
0.4520300338
 40
0.5250586428
 40
0.6005770214
 40
0.6781204884
 40
0.7572242322
 40
0.8374424597
 40
0.9184531185
 40
1.0
 40
1.0
 40
1.0
 40
1.0
 10
11.6298779352
 20
6.0193313516
 30
0.0
 10
11.6296240847
 20
6.0195446073
 30
0.0
 10
11.62905749
 20
6.0200085267
 30
0.0
 10
11.6277001058
 20
6.0210715209
 30
0.0
 10
11.6255841214
 20
6.0226109002
 30
0.0
 10
11.6225435185
 20
6.0246261089
 30
0.0
 10
11.6195928307
 20
6.0263998932
 30
0.0
 10
11.6169316014
 20
6.0278869754
 30
0.0
 10
11.6139301812
 20
6.029477375
 30
0.0
 10
11.6098548113
 20
6.0314652544
 30
0.0
 10
11.6045794964
 20
6.0337578178
 30
0.0
 10
11.5988597772
 20
6.0359537956
 30
0.0
 10
11.5927437561
 20
6.0380012757
 30
0.0
 10
11.5862806693
 20
6.0398579746
 30
0.0
 10
11.579519771
 20
6.041488023
 30
0.0
 10
11.5725111187
 20
6.0428588607
 30
0.0
 10
11.5653075267
 20
6.0439515549
 30
0.0
 10
11.5579573578
 20
6.0447436762
 30
0.0
 10
11.5505051327
 20
6.045224021
 30
0.0
 10
11.545505716
 20
6.0453318604
 30
0.0
 10
11.5429980931
 20
6.0453318604
 30
0.0
  0
SPLINE
  5
261
100
AcDbEntity
  8
0
100
AcDbSpline
 62
7
  6
CONTINUOUS
 70
0
 71
3
 72
11
 73
7
 74
0
 42
0.0000001
 43
0.0000001
 44
0.0000000001
 40
0.0
 40
0.0
 40
0.0
 40
0.0
 40
0.2504447787
 40
0.5006353506
 40
0.7505057084
 40
1.0
 40
1.0
 40
1.0
 40
1.0
 10
11.7385693744
 20
6.4279344486
 30
0.0
 10
11.7286276002
 20
6.4252216997
 30
0.0
 10
11.7090239892
 20
6.4187467553
 30
0.0
 10
11.680842361
 20
6.4059799987
 30
0.0
 10
11.6542276002
 20
6.3902794717
 30
0.0
 10
11.6377384322
 20
6.3779358467
 30
0.0
 10
11.6298779352
 20
6.3713323692
 30
0.0
  0
SPLINE
  5
262
100
AcDbEntity
  8
0
100
AcDbSpline
 62
7
  6
CONTINUOUS
 70
0
 71
3
 72
25
 73
21
 74
0
 42
0.0000001
 43
0.0000001
 44
0.0000000001
 40
0.0
 40
0.0
 40
0.0
 40
0.0
 40
0.0318271228
 40
0.0636069283
 40
0.0953000754
 40
0.1268857773
 40
0.1897039162
 40
0.2521574641
 40
0.3143852035
 40
0.3765095497
 40
0.4386137099
 40
0.50074811
 40
0.5629372283
 40
0.6251946678
 40
0.6875191454
 40
0.7499107816
 40
0.8123629541
 40
0.8748649955
 40
0.9374147846
 40
1.0
 40
1.0
 40
1.0
 40
1.0
 10
12.1960129133
 20
6.1953318604
 30
0.0
 10
12.1960129133
 20
6.1987953644
 30
0.0
 10
12.1958317364
 20
6.2057185965
 30
0.0
 10
12.1950202962
 20
6.2160619766
 30
0.0
 10
12.193680327
 20
6.2263241328
 30
0.0
 10
12.1912161988
 20
6.239828142
 30
0.0
 10
12.1869072959
 20
6.2563752544
 30
0.0
 10
12.1799174641
 20
6.2755744989
 30
0.0
 10
12.1712690137
 20
6.2940006476
 30
0.0
 10
12.1610963853
 20
6.3115844441
 30
0.0
 10
12.1495197698
 20
6.3282630406
 30
0.0
 10
12.1366509319
 20
6.3439735099
 30
0.0
 10
12.122596113
 20
6.3586542488
 30
0.0
 10
12.1074589231
 20
6.3722460086
 30
0.0
 10
12.0913405237
 20
6.3846934416
 30
0.0
 10
12.0743413401
 20
6.3959456712
 30
0.0
 10
12.056561207
 20
6.4059566874
 30
0.0
 10
12.0380990588
 20
6.4146861242
 30
0.0
 10
12.0190555673
 20
6.4220981986
 30
0.0
 10
12.0060385371
 20
6.4261416077
 30
0.0
 10
11.9994680731
 20
6.4279344486
 30
0.0
  0
SPLINE
  5
263
100
AcDbEntity
  8
0
100
AcDbSpline
 62
7
  6
CONTINUOUS
 70
0
 71
3
 72
11
 73
7
 74
0
 42
0.0000001
 43
0.0000001
 44
0.0000000001
 40
0.0
 40
0.0
 40
0.0
 40
0.0
 40
0.2494947078
 40
0.4993637396
 40
0.7495542456
 40
1.0
 40
1.0
 40
1.0
 40
1.0
 10
11.6298779352
 20
6.0193313516
 30
0.0
 10
11.6377384454
 20
6.012727863
 30
0.0
 10
11.6542275747
 20
6.000384248
 30
0.0
 10
11.6808423097
 20
5.9846837557
 30
0.0
 10
11.7090239165
 20
5.9719169953
 30
0.0
 10
11.7286275614
 20
5.9654420317
 30
0.0
 10
11.7385693744
 20
5.9627292722
 30
0.0
  0
SPLINE
  5
264
100
AcDbEntity
  8
0
100
AcDbSpline
 62
7
  6
CONTINUOUS
 70
0
 71
3
 72
25
 73
21
 74
0
 42
0.0000001
 43
0.0000001
 44
0.0000000001
 40
0.0
 40
0.0
 40
0.0
 40
0.0
 40
0.0625813947
 40
0.1251301598
 40
0.1876307872
 40
0.25008324
 40
0.3124755069
 40
0.3748015549
 40
0.4370604519
 40
0.4992513098
 40
0.5613877834
 40
0.6234933844
 40
0.6856198516
 40
0.747847575
 40
0.8103017936
 40
0.873119057
 40
0.9047040906
 40
0.9363960976
 40
0.9681746209
 40
1.0
 40
1.0
 40
1.0
 40
1.0
 10
11.9994680731
 20
5.9627292722
 30
0.0
 10
12.0060381359
 20
5.9645220036
 30
0.0
 10
12.019054659
 20
5.9685652566
 30
0.0
 10
12.0380975748
 20
5.97597693
 30
0.0
 10
12.0565595389
 20
5.9847062083
 30
0.0
 10
12.0743396877
 20
5.9947170779
 30
0.0
 10
12.0913392112
 20
6.0059692883
 30
0.0
 10
12.1074579434
 20
6.0184169422
 30
0.0
 10
12.1225956286
 20
6.0320089274
 30
0.0
 10
12.1366508313
 20
6.0466900978
 30
0.0
 10
12.1495200322
 20
6.0624010082
 30
0.0
 10
12.161096968
 20
6.0790801316
 30
0.0
 10
12.1712696887
 20
6.0966643237
 30
0.0
 10
12.1799181304
 20
6.11509081
 30
0.0
 10
12.186907799
 20
6.1342900892
 30
0.0
 10
12.191216541
 20
6.1508371442
 30
0.0
 10
12.1936805168
 20
6.1643408839
 30
0.0
 10
12.1950203849
 20
6.1746027134
 30
0.0
 10
12.1958317561
 20
6.1849456436
 30
0.0
 10
12.1960129133
 20
6.1918685461
 30
0.0
 10
12.1960129133
 20
6.1953318604
 30
0.0
  0
SPLINE
  5
265
100
AcDbEntity
  8
0
100
AcDbSpline
 62
7
  6
CONTINUOUS
 70
0
 71
3
 72
25
 73
21
 74
0
 42
0.0000001
 43
0.0000001
 44
0.0000000001
 40
0.0
 40
0.0
 40
0.0
 40
0.0
 40
0.0107815117
 40
0.0238114494
 40
0.0560625261
 40
0.0958436938
 40
0.1423999393
 40
0.1679814984
 40
0.1949744341
 40
0.252852577
 40
0.3153850164
 40
0.3819671072
 40
0.4520300338
 40
0.5250586428
 40
0.6005770214
 40
0.6781204884
 40
0.7572242322
 40
0.8374424597
 40
0.9184531185
 40
1.0
 40
1.0
 40
1.0
 40
1.0
 10
10.4647587413
 20
6.3713323692
 30
0.0
 10
10.4650125918
 20
6.3711191135
 30
0.0
 10
10.4655791866
 20
6.3706551941
 30
0.0
 10
10.4669365708
 20
6.3695921999
 30
0.0
 10
10.4690525552
 20
6.3680528206
 30
0.0
 10
10.4720931581
 20
6.3660376119
 30
0.0
 10
10.4750438458
 20
6.3642638276
 30
0.0
 10
10.4777050752
 20
6.3627767454
 30
0.0
 10
10.4807064953
 20
6.3611863458
 30
0.0
 10
10.4847818653
 20
6.3591984664
 30
0.0
 10
10.4900571801
 20
6.356905903
 30
0.0
 10
10.4957768994
 20
6.3547099253
 30
0.0
 10
10.5018929205
 20
6.3526624451
 30
0.0
 10
10.5083560073
 20
6.3508057462
 30
0.0
 10
10.5151169056
 20
6.3491756978
 30
0.0
 10
10.5221255578
 20
6.3478048601
 30
0.0
 10
10.5293291498
 20
6.346712166
 30
0.0
 10
10.5366793188
 20
6.3459200446
 30
0.0
 10
10.5441315438
 20
6.3454396998
 30
0.0
 10
10.5491309606
 20
6.3453318604
 30
0.0
 10
10.5516385834
 20
6.3453318604
 30
0.0
  0
SPLINE
  5
266
100
AcDbEntity
  8
0
100
AcDbSpline
 62
7
  6
CONTINUOUS
 70
0
 71
3
 72
24
 73
20
 74
0
 42
0.0000001
 43
0.0000001
 44
0.0000000001
 40
0.0
 40
0.0
 40
0.0
 40
0.0
 40
0.0815854943
 40
0.1626021176
 40
0.2427939723
 40
0.3218732877
 40
0.3994142887
 40
0.4749443871
 40
0.5479855486
 40
0.6180486042
 40
0.6846255346
 40
0.747160583
 40
0.8575994163
 40
0.9041361966
 40
0.9249127622
 40
0.9439168914
 40
0.9762429674
 40
0.9892839543
 40
1.0
 40
1.0
 40
1.0
 40
1.0
 10
10.5516385834
 20
6.0453318604
 30
0.0
 10
10.5491298446
 20
6.0453318604
 30
0.0
 10
10.5441291956
 20
6.0452238683
 30
0.0
 10
10.5366766598
 20
6.0447431282
 30
0.0
 10
10.5293279963
 20
6.0439518951
 30
0.0
 10
10.5221263031
 20
6.0428587639
 30
0.0
 10
10.5151186056
 20
6.0414867775
 30
0.0
 10
10.5083566429
 20
6.0398591004
 30
0.0
 10
10.5018934285
 20
6.0380006864
 30
0.0
 10
10.4957771858
 20
6.0359539751
 30
0.0
 10
10.4900574705
 20
6.0337581106
 30
0.0
 10
10.4833007321
 20
6.0308206551
 30
0.0
 10
10.4772811934
 20
6.0277438725
 30
0.0
 10
10.4725947001
 20
6.0249278733
 30
0.0
 10
10.4703680915
 20
6.0234827087
 30
0.0
 10
10.4685351263
 20
6.0222349046
 30
0.0
 10
10.4669342886
 20
6.0210693421
 30
0.0
 10
10.4655764369
 20
6.020006021
 30
0.0
 10
10.4650110432
 20
6.0195433063
 30
0.0
 10
10.4647587413
 20
6.0193313516
 30
0.0
  0
SPLINE
  5
267
100
AcDbEntity
  8
0
100
AcDbSpline
 62
7
  6
CONTINUOUS
 70
0
 71
3
 72
11
 73
7
 74
0
 42
0.0000001
 43
0.0000001
 44
0.0000000001
 40
0.0
 40
0.0
 40
0.0
 40
0.0
 40
0.2494947078
 40
0.4993637396
 40
0.7495542456
 40
1.0
 40
1.0
 40
1.0
 40
1.0
 10
10.4647587413
 20
6.3713323692
 30
0.0
 10
10.4568982312
 20
6.3779358578
 30
0.0
 10
10.4404091019
 20
6.3902794728
 30
0.0
 10
10.4137943669
 20
6.4059799651
 30
0.0
 10
10.3856127601
 20
6.4187467256
 30
0.0
 10
10.3660091152
 20
6.4252216891
 30
0.0
 10
10.3560673022
 20
6.4279344486
 30
0.0
  0
SPLINE
  5
268
100
AcDbEntity
  8
0
100
AcDbSpline
 62
7
  6
CONTINUOUS
 70
0
 71
3
 72
25
 73
21
 74
0
 42
0.0000001
 43
0.0000001
 44
0.0000000001
 40
0.0
 40
0.0
 40
0.0
 40
0.0
 40
0.0625813947
 40
0.1251301598
 40
0.1876307872
 40
0.25008324
 40
0.3124755069
 40
0.3748015549
 40
0.4370604519
 40
0.4992513098
 40
0.5613877834
 40
0.6234933844
 40
0.6856198516
 40
0.747847575
 40
0.8103017936
 40
0.873119057
 40
0.9047040906
 40
0.9363960976
 40
0.9681746209
 40
1.0
 40
1.0
 40
1.0
 40
1.0
 10
10.0951686034
 20
6.4279344486
 30
0.0
 10
10.0885985406
 20
6.4261417172
 30
0.0
 10
10.0755820176
 20
6.4220984642
 30
0.0
 10
10.0565391018
 20
6.4146867908
 30
0.0
 10
10.0380771376
 20
6.4059575125
 30
0.0
 10
10.0202969889
 20
6.3959466429
 30
0.0
 10
10.0032974654
 20
6.3846944326
 30
0.0
 10
9.9871787332
 20
6.3722467787
 30
0.0
 10
9.9720410479
 20
6.3586547934
 30
0.0
 10
9.9579858453
 20
6.343973623
 30
0.0
 10
9.9451166444
 20
6.3282627126
 30
0.0
 10
9.9335397085
 20
6.3115835892
 30
0.0
 10
9.9233669879
 20
6.2939993972
 30
0.0
 10
9.9147185462
 20
6.2755729108
 30
0.0
 10
9.9077288776
 20
6.2563736316
 30
0.0
 10
9.9034201356
 20
6.2398265766
 30
0.0
 10
9.9009561598
 20
6.2263228369
 30
0.0
 10
9.8996162917
 20
6.2160610074
 30
0.0
 10
9.8988049204
 20
6.2057180772
 30
0.0
 10
9.8986237632
 20
6.1987951747
 30
0.0
 10
9.8986237632
 20
6.1953318604
 30
0.0
  0
SPLINE
  5
269
100
AcDbEntity
  8
0
100
AcDbSpline
 62
7
  6
CONTINUOUS
 70
0
 71
3
 72
11
 73
7
 74
0
 42
0.0000001
 43
0.0000001
 44
0.0000000001
 40
0.0
 40
0.0
 40
0.0
 40
0.0
 40
0.2504447787
 40
0.5006353506
 40
0.7505057084
 40
1.0
 40
1.0
 40
1.0
 40
1.0
 10
10.3560673022
 20
5.9627292722
 30
0.0
 10
10.3660090764
 20
5.9654420212
 30
0.0
 10
10.3856126874
 20
5.9719169655
 30
0.0
 10
10.4137943156
 20
5.9846837221
 30
0.0
 10
10.4404090764
 20
6.0003842491
 30
0.0
 10
10.4568982444
 20
6.0127278741
 30
0.0
 10
10.4647587413
 20
6.0193313516
 30
0.0
  0
SPLINE
  5
26A
100
AcDbEntity
  8
0
100
AcDbSpline
 62
7
  6
CONTINUOUS
 70
0
 71
3
 72
25
 73
21
 74
0
 42
0.0000001
 43
0.0000001
 44
0.0000000001
 40
0.0
 40
0.0
 40
0.0
 40
0.0
 40
0.0318271228
 40
0.0636069283
 40
0.0953000754
 40
0.1268857773
 40
0.1897039162
 40
0.2521574641
 40
0.3143852035
 40
0.3765095497
 40
0.4386137099
 40
0.50074811
 40
0.5629372283
 40
0.6251946678
 40
0.6875191454
 40
0.7499107816
 40
0.8123629541
 40
0.8748649955
 40
0.9374147846
 40
1.0
 40
1.0
 40
1.0
 40
1.0
 10
9.8986237632
 20
6.1953318604
 30
0.0
 10
9.8986237632
 20
6.1918683564
 30
0.0
 10
9.8988049402
 20
6.1849451243
 30
0.0
 10
9.8996163803
 20
6.1746017442
 30
0.0
 10
9.9009563496
 20
6.164339588
 30
0.0
 10
9.9034204778
 20
6.1508355788
 30
0.0
 10
9.9077293807
 20
6.1342884664
 30
0.0
 10
9.9147192125
 20
6.115089222
 30
0.0
 10
9.9233676629
 20
6.0966630732
 30
0.0
 10
9.9335402913
 20
6.0790792767
 30
0.0
 10
9.9451169068
 20
6.0624006802
 30
0.0
 10
9.9579857447
 20
6.0466902109
 30
0.0
 10
9.9720405636
 20
6.032009472
 30
0.0
 10
9.9871777534
 20
6.0184177122
 30
0.0
 10
10.0032961529
 20
6.0059702792
 30
0.0
 10
10.0202953365
 20
5.9947180496
 30
0.0
 10
10.0380754696
 20
5.9847070334
 30
0.0
 10
10.0565376178
 20
5.9759775966
 30
0.0
 10
10.0755811092
 20
5.9685655222
 30
0.0
 10
10.0885981394
 20
5.9645221131
 30
0.0
 10
10.0951686034
 20
5.9627292722
 30
0.0
  0
SPLINE
  5
26B
100
AcDbEntity
  8
0
100
AcDbSpline
 62
7
  6
CONTINUOUS
 70
0
 71
3
 72
11
 73
7
 74
0
 42
0.0000001
 43
0.0000001
 44
0.0000000001
 40
0.0
 40
0.0
 40
0.0
 40
0.0
 40
0.2392369021
 40
0.4852243979
 40
0.7386713506
 40
1.0
 40
1.0
 40
1.0
 40
1.0
 10
11.4008717289
 20
6.0388318604
 30
0.0
 10
11.398006666
 20
6.0388318604
 30
0.0
 10
11.3921916009
 20
6.0391518315
 30
0.0
 10
11.3834416938
 20
6.0405457193
 30
0.0
 10
11.374612608
 20
6.042846162
 30
0.0
 10
11.368804066
 20
6.0449393912
 30
0.0
 10
11.3659070808
 20
6.0461234778
 30
0.0
  0
SPLINE
  5
26C
100
AcDbEntity
  8
0
100
AcDbSpline
 62
7
  6
CONTINUOUS
 70
0
 71
3
 72
35
 73
31
 74
0
 42
0.0000001
 43
0.0000001
 44
0.0000000001
 40
0.0
 40
0.0
 40
0.0
 40
0.0
 40
0.0547949543
 40
0.0834080998
 40
0.1127554372
 40
0.1427790087
 40
0.1734158453
 40
0.2046010981
 40
0.2362702528
 40
0.3007720449
 40
0.3335265114
 40
0.3665293756
 40
0.3997280989
 40
0.4330720754
 40
0.4665121299
 40
0.5000000001
 40
0.5334878702
 40
0.5669279248
 40
0.6002719013
 40
0.6334706246
 40
0.6664734888
 40
0.6992279552
 40
0.7637297474
 40
0.7953989021
 40
0.8265841549
 40
0.8572209914
 40
0.8872445629
 40
0.9165919003
 40
0.9452050458
 40
1.0
 40
1.0
 40
1.0
 40
1.0
 10
11.3659070808
 20
6.0461234778
 30
0.0
 10
11.3596186902
 20
6.0486937356
 30
0.0
 10
11.3503854238
 20
6.0534891578
 30
0.0
 10
11.3388101657
 20
6.0613402893
 30
0.0
 10
11.3302631433
 20
6.0681362301
 30
0.0
 10
11.3220534105
 20
6.0757080673
 30
0.0
 10
11.3142482667
 20
6.0840120087
 30
0.0
 10
11.3069158314
 20
6.0930018156
 30
0.0
 10
11.2978062444
 20
6.1059100552
 30
0.0
 10
11.2899793036
 20
6.1199187086
 30
0.0
 10
11.2836267266
 20
6.1347772105
 30
0.0
 10
11.2796194988
 20
6.1463847102
 30
0.0
 10
11.2764461685
 20
6.1583224267
 30
0.0
 10
11.2741476076
 20
6.1705146753
 30
0.0
 10
11.2727553692
 20
6.1828795785
 30
0.0
 10
11.2722890517
 20
6.1953318606
 30
0.0
 10
11.2727553692
 20
6.2077841427
 30
0.0
 10
11.2741476077
 20
6.2201490459
 30
0.0
 10
11.2764461686
 20
6.2323412945
 30
0.0
 10
11.2796194989
 20
6.2442790111
 30
0.0
 10
11.2836267268
 20
6.2558865107
 30
0.0
 10
11.2899793039
 20
6.2707450127
 30
0.0
 10
11.2978062447
 20
6.284753666
 30
0.0
 10
11.3069158317
 20
6.2976619056
 30
0.0
 10
11.314248267
 20
6.3066517125
 30
0.0
 10
11.3220534108
 20
6.3149556538
 30
0.0
 10
11.3302631436
 20
6.322527491
 30
0.0
 10
11.338810166
 20
6.3293234317
 30
0.0
 10
11.3503854242
 20
6.3371745633
 30
0.0
 10
11.3596186906
 20
6.3419699854
 30
0.0
 10
11.3659070812
 20
6.3445402432
 30
0.0
  0
SPLINE
  5
26D
100
AcDbEntity
  8
0
100
AcDbSpline
 62
7
  6
CONTINUOUS
 70
0
 71
3
 72
11
 73
7
 74
0
 42
0.0000001
 43
0.0000001
 44
0.0000000001
 40
0.0
 40
0.0
 40
0.0
 40
0.0
 40
0.2613286491
 40
0.5147756016
 40
0.7607630979
 40
1.0
 40
1.0
 40
1.0
 40
1.0
 10
11.3659070812
 20
6.3445402432
 30
0.0
 10
11.3688040664
 20
6.3457243298
 30
0.0
 10
11.3746126082
 20
6.3478175588
 30
0.0
 10
11.383441694
 20
6.3501180015
 30
0.0
 10
11.392191601
 20
6.3515118893
 30
0.0
 10
11.3980066661
 20
6.3518318604
 30
0.0
 10
11.4008717289
 20
6.3518318604
 30
0.0
  0
SPLINE
  5
26E
100
AcDbEntity
  8
0
100
AcDbSpline
 62
7
  6
CONTINUOUS
 70
0
 71
3
 72
11
 73
7
 74
0
 42
0.0000001
 43
0.0000001
 44
0.0000000001
 40
0.0
 40
0.0
 40
0.0
 40
0.0
 40
0.2392369025
 40
0.4852244045
 40
0.7386713537
 40
1.0
 40
1.0
 40
1.0
 40
1.0
 10
10.6937649477
 20
6.3518318604
 30
0.0
 10
10.6966300103
 20
6.3518318604
 30
0.0
 10
10.7024450749
 20
6.3515118894
 30
0.0
 10
10.7111949812
 20
6.3501180018
 30
0.0
 10
10.7200240663
 20
6.3478175595
 30
0.0
 10
10.7258326076
 20
6.3457243307
 30
0.0
 10
10.7287295926
 20
6.3445402443
 30
0.0
  0
SPLINE
  5
26F
100
AcDbEntity
  8
0
100
AcDbSpline
 62
7
  6
CONTINUOUS
 70
0
 71
3
 72
35
 73
31
 74
0
 42
0.0000001
 43
0.0000001
 44
0.0000000001
 40
0.0
 40
0.0
 40
0.0
 40
0.0
 40
0.0547949537
 40
0.0834080996
 40
0.1127554365
 40
0.1427790086
 40
0.1734158447
 40
0.2046010971
 40
0.2362702531
 40
0.3007720439
 40
0.3335265101
 40
0.3665293715
 40
0.3997280943
 40
0.4330720727
 40
0.4665121274
 40
0.5000000001
 40
0.5334878728
 40
0.5669279276
 40
0.6002719059
 40
0.6334706287
 40
0.6664734901
 40
0.6992279562
 40
0.7637297471
 40
0.795398903
 40
0.8265841555
 40
0.8572209915
 40
0.8872445636
 40
0.9165919004
 40
0.9452050464
 40
1.0
 40
1.0
 40
1.0
 40
1.0
 10
10.7287295926
 20
6.3445402443
 30
0.0
 10
10.7350179833
 20
6.3419699867
 30
0.0
 10
10.74425125
 20
6.3371745647
 30
0.0
 10
10.7558265085
 20
6.3293234333
 30
0.0
 10
10.7643735312
 20
6.3225274926
 30
0.0
 10
10.7725832642
 20
6.3149556553
 30
0.0
 10
10.7803884083
 20
6.306651714
 30
0.0
 10
10.7877208438
 20
6.2976619069
 30
0.0
 10
10.7968304312
 20
6.2847536673
 30
0.0
 10
10.8046573722
 20
6.2707450138
 30
0.0
 10
10.8110099492
 20
6.2558865121
 30
0.0
 10
10.8150171773
 20
6.2442790128
 30
0.0
 10
10.8181905075
 20
6.2323412961
 30
0.0
 10
10.8204890688
 20
6.2201490472
 30
0.0
 10
10.8218813073
 20
6.2077841431
 30
0.0
 10
10.8223476249
 20
6.1953318602
 30
0.0
 10
10.8218813072
 20
6.1828795772
 30
0.0
 10
10.8204890687
 20
6.1705146732
 30
0.0
 10
10.8181905074
 20
6.1583224242
 30
0.0
 10
10.8150171771
 20
6.1463847076
 30
0.0
 10
10.811009949
 20
6.1347772083
 30
0.0
 10
10.804657372
 20
6.1199187066
 30
0.0
 10
10.7968304309
 20
6.1059100532
 30
0.0
 10
10.7877208435
 20
6.0930018135
 30
0.0
 10
10.780388408
 20
6.0840120064
 30
0.0
 10
10.7725832638
 20
6.0757080652
 30
0.0
 10
10.7643735309
 20
6.068136228
 30
0.0
 10
10.7558265081
 20
6.0613402873
 30
0.0
 10
10.7442512497
 20
6.0534891559
 30
0.0
 10
10.7350179829
 20
6.048693734
 30
0.0
 10
10.7287295922
 20
6.0461234763
 30
0.0
  0
SPLINE
  5
270
100
AcDbEntity
  8
0
100
AcDbSpline
 62
7
  6
CONTINUOUS
 70
0
 71
3
 72
11
 73
7
 74
0
 42
0.0000001
 43
0.0000001
 44
0.0000000001
 40
0.0
 40
0.0
 40
0.0
 40
0.0
 40
0.2613286464
 40
0.5147755956
 40
0.7607630976
 40
1.0
 40
1.0
 40
1.0
 40
1.0
 10
10.7287295922
 20
6.0461234763
 30
0.0
 10
10.7258326073
 20
6.04493939
 30
0.0
 10
10.720024066
 20
6.0428461612
 30
0.0
 10
10.711194981
 20
6.040545719
 30
0.0
 10
10.7024450748
 20
6.0391518314
 30
0.0
 10
10.6966300102
 20
6.0388318604
 30
0.0
 10
10.6937649477
 20
6.0388318604
 30
0.0
  0
SPLINE
  5
271
100
AcDbEntity
  8
0
100
AcDbSpline
 62
9
  6
CONTINUOUS
 70
0
 71
3
 72
23
 73
19
 74
0
 42
0.0000001
 43
0.0000001
 44
0.0000000001
 40
0.0
 40
0.0
 40
0.0
 40
0.0
 40
0.1415953445
 40
0.2117734323
 40
0.281181816
 40
0.349587244
 40
0.4167763991
 40
0.4825614112
 40
0.5467852364
 40
0.6093272642
 40
0.6399476829
 40
0.6701221122
 40
0.7291125532
 40
0.7863336077
 40
0.8418642314
 40
0.8958432497
 40
0.9484697336
 40
1.0
 40
1.0
 40
1.0
 40
1.0
 10
11.6027954016
 20
6.1953318604
 30
0.0
 10
11.6027954016
 20
6.1817507793
 30
0.0
 10
11.604029558
 20
6.1614085996
 30
0.0
 10
11.6081522825
 20
6.1347439961
 30
0.0
 10
11.6124378228
 20
6.1152453196
 30
0.0
 10
11.6178934807
 20
6.0963401345
 30
0.0
 10
11.6244794482
 20
6.0781664907
 30
0.0
 10
11.6321476265
 20
6.0608589588
 30
0.0
 10
11.6408415934
 20
6.044546073
 30
0.0
 10
11.6489465013
 20
6.0317904979
 30
0.0
 10
11.6558895016
 20
6.0222086789
 30
0.0
 10
11.6630135027
 20
6.0131913097
 30
0.0
 10
11.6724148285
 20
6.0027364937
 30
0.0
 10
11.6845143188
 20
5.9915234243
 30
0.0
 10
11.6972599711
 20
5.9818209756
 30
0.0
 10
11.7105591574
 20
5.9737039782
 30
0.0
 10
11.7243114625
 20
5.9672366602
 30
0.0
 10
11.7338011766
 20
5.9640303258
 30
0.0
 10
11.7385693769
 20
5.9627292905
 30
0.0
  0
SPLINE
  5
272
100
AcDbEntity
  8
0
100
AcDbSpline
 62
9
  6
CONTINUOUS
 70
0
 71
3
 72
29
 73
25
 74
0
 42
0.0000001
 43
0.0000001
 44
0.0000000001
 40
0.0
 40
0.0
 40
0.0
 40
0.0
 40
0.0740033226
 40
0.1475590528
 40
0.2202376689
 40
0.2916330692
 40
0.361382295
 40
0.4291785305
 40
0.4947863709
 40
0.5580574462
 40
0.6189458731
 40
0.6775221355
 40
0.7060151501
 40
0.7340152365
 40
0.7615674629
 40
0.7887246486
 40
0.815546911
 40
0.8421006987
 40
0.8684577868
 40
0.8946940012
 40
0.9208876613
 40
0.9471179798
 40
0.9734634037
 40
1.0
 40
1.0
 40
1.0
 40
1.0
 10
11.8002253063
 20
6.1953318604
 30
0.0
 10
11.8002253063
 20
6.186649778
 30
0.0
 10
11.8008978979
 20
6.1693304841
 30
0.0
 10
11.8039157736
 20
6.1436434143
 30
0.0
 10
11.8089055055
 20
6.1185748081
 30
0.0
 10
11.815808238
 20
6.0944271355
 30
0.0
 10
11.8245422696
 20
6.0714894113
 30
0.0
 10
11.8350047847
 20
6.0500366245
 30
0.0
 10
11.8470730235
 20
6.0303262616
 30
0.0
 10
11.8606069517
 20
6.012595209
 30
0.0
 10
11.8754469119
 20
5.9970598974
 30
0.0
 10
11.8888881138
 20
5.9859975271
 30
0.0
 10
11.9001065109
 20
5.9784725755
 30
0.0
 10
11.9086511122
 20
5.9735360868
 30
0.0
 10
11.917376255
 20
5.9692718115
 30
0.0
 10
11.9262558442
 20
5.9656929006
 30
0.0
 10
11.9352627343
 20
5.9628105122
 30
0.0
 10
11.9443694969
 20
5.9606338678
 30
0.0
 10
11.9535482078
 20
5.9591699565
 30
0.0
 10
11.9627706388
 20
5.9584233067
 30
0.0
 10
11.9720083467
 20
5.958396468
 30
0.0
 10
11.9812330009
 20
5.9590895501
 30
0.0
 10
11.9904155444
 20
5.9604999939
 30
0.0
 10
11.9964645913
 20
5.9619097711
 30
0.0
 10
11.9994680706
 20
5.9627292905
 30
0.0
  0
SPLINE
  5
273
100
AcDbEntity
  8
0
100
AcDbSpline
 62
9
  6
CONTINUOUS
 70
0
 71
3
 72
39
 73
35
 74
0
 42
0.0000001
 43
0.0000001
 44
0.0000000001
 40
0.0
 40
0.0
 40
0.0
 40
0.0
 40
0.0724304091
 40
0.1082358507
 40
0.1435357992
 40
0.1781810933
 40
0.2120406293
 40
0.245005047
 40
0.2769918366
 40
0.3079500705
 40
0.3230421997
 40
0.3378750069
 40
0.3667731004
 40
0.394724281
 40
0.4218441758
 40
0.4482926105
 40
0.4742684412
 40
0.5
 40
0.5257315588
 40
0.5517073895
 40
0.5781558242
 40
0.605275719
 40
0.6332268996
 40
0.6621249931
 40
0.6769578003
 40
0.6920499295
 40
0.7230081634
 40
0.754994953
 40
0.7879593707
 40
0.8218189067
 40
0.8564642008
 40
0.8917641493
 40
0.9275695909
 40
1.0
 40
1.0
 40
1.0
 40
1.0
 10
12.0418598414
 20
6.1953318604
 30
0.0
 10
12.0418598414
 20
6.188357379
 30
0.0
 10
12.0425797007
 20
6.1779149632
 30
0.0
 10
12.0449860606
 20
6.1642964534
 30
0.0
 10
12.0474800423
 20
6.1544134455
 30
0.0
 10
12.050645839
 20
6.1449224102
 30
0.0
 10
12.0544536364
 20
6.1359129499
 30
0.0
 10
12.0588677302
 20
6.1274713092
 30
0.0
 10
12.0638462994
 20
6.119678645
 30
0.0
 10
12.0684667509
 20
6.1137366993
 30
0.0
 10
12.0724027831
 20
6.1093887929
 30
0.0
 10
12.0764156308
 20
6.1053883761
 30
0.0
 10
12.0816837858
 20
6.100905577
 30
0.0
 10
12.088411197
 20
6.0963873641
 30
0.0
 10
12.0954272339
 20
6.0928215867
 30
0.0
 10
12.1026641486
 20
6.0902461572
 30
0.0
 10
12.1100509776
 20
6.0886891358
 30
0.0
 10
12.1175136265
 20
6.0881681312
 30
0.0
 10
12.1249762753
 20
6.0886891358
 30
0.0
 10
12.1323631043
 20
6.0902461572
 30
0.0
 10
12.139600019
 20
6.0928215867
 30
0.0
 10
12.1466160559
 20
6.0963873641
 30
0.0
 10
12.1533434671
 20
6.100905577
 30
0.0
 10
12.1586116221
 20
6.1053883761
 30
0.0
 10
12.1626244698
 20
6.1093887929
 30
0.0
 10
12.166560502
 20
6.1137366993
 30
0.0
 10
12.1711809535
 20
6.119678645
 30
0.0
 10
12.1761595227
 20
6.1274713092
 30
0.0
 10
12.1805736165
 20
6.1359129499
 30
0.0
 10
12.1843814139
 20
6.1449224102
 30
0.0
 10
12.1875472106
 20
6.1544134455
 30
0.0
 10
12.1900411923
 20
6.1642964534
 30
0.0
 10
12.1924475522
 20
6.1779149632
 30
0.0
 10
12.1931674115
 20
6.188357379
 30
0.0
 10
12.1931674115
 20
6.1953318604
 30
0.0
  0
SPLINE
  5
274
100
AcDbEntity
  8
0
100
AcDbSpline
 62
9
  6
CONTINUOUS
 70
0
 71
3
 72
23
 73
19
 74
0
 42
0.0000001
 43
0.0000001
 44
0.0000000001
 40
0.0
 40
0.0
 40
0.0
 40
0.0
 40
0.0515302664
 40
0.1041567503
 40
0.1581357686
 40
0.2136663923
 40
0.2708874468
 40
0.3298778878
 40
0.3600523171
 40
0.3906727358
 40
0.4532147636
 40
0.5174385888
 40
0.5832236009
 40
0.650412756
 40
0.718818184
 40
0.7882265677
 40
0.8584046555
 40
1.0
 40
1.0
 40
1.0
 40
1.0
 10
10.3560672997
 20
5.9627292905
 30
0.0
 10
10.3608355
 20
5.9640303258
 30
0.0
 10
10.370325214
 20
5.9672366602
 30
0.0
 10
10.3840775192
 20
5.9737039782
 30
0.0
 10
10.3973767055
 20
5.9818209756
 30
0.0
 10
10.4101223578
 20
5.9915234243
 30
0.0
 10
10.4222218481
 20
6.0027364937
 30
0.0
 10
10.4316231739
 20
6.0131913097
 30
0.0
 10
10.438747175
 20
6.0222086789
 30
0.0
 10
10.4456901752
 20
6.0317904979
 30
0.0
 10
10.4537950832
 20
6.044546073
 30
0.0
 10
10.46248905
 20
6.0608589588
 30
0.0
 10
10.4701572284
 20
6.0781664907
 30
0.0
 10
10.4767431958
 20
6.0963401345
 30
0.0
 10
10.4821988538
 20
6.1152453196
 30
0.0
 10
10.4864843941
 20
6.1347439961
 30
0.0
 10
10.4906071186
 20
6.1614085996
 30
0.0
 10
10.491841275
 20
6.1817507793
 30
0.0
 10
10.491841275
 20
6.1953318604
 30
0.0
  0
SPLINE
  5
275
100
AcDbEntity
  8
0
100
AcDbSpline
 62
9
  6
CONTINUOUS
 70
0
 71
3
 72
25
 73
21
 74
0
 42
0.0000001
 43
0.0000001
 44
0.0000000001
 40
0.0
 40
0.0
 40
0.0
 40
0.0
 40
0.0257143237
 40
0.0514903844
 40
0.0773888388
 40
0.1034684153
 40
0.1297847725
 40
0.1563900079
 40
0.2106260058
 40
0.2665244624
 40
0.3243166179
 40
0.3841426752
 40
0.4460548382
 40
0.5100239718
 40
0.5759482404
 40
0.6436625848
 40
0.7129484532
 40
0.7835431848
 40
0.8551497529
 40
1.0
 40
1.0
 40
1.0
 40
1.0
 10
11.5429980931
 20
6.3453318282
 30
0.0
 10
11.5412622441
 20
6.3453318282
 30
0.0
 10
11.5377851707
 20
6.3452110496
 30
0.0
 10
11.5325853695
 20
6.3446678465
 30
0.0
 10
11.5274107018
 20
6.343764269
 30
0.0
 10
11.5222742241
 20
6.3425022736
 30
0.0
 10
11.5171880583
 20
6.3408852213
 30
0.0
 10
11.5104488117
 20
6.3382448467
 30
0.0
 10
11.5021961514
 20
6.3340511577
 30
0.0
 10
11.4927648625
 20
6.3277165825
 30
0.0
 10
11.4838258974
 20
6.3201105391
 30
0.0
 10
11.4754641657
 20
6.3113089019
 30
0.0
 10
11.4677571932
 20
6.3013974166
 30
0.0
 10
11.4607769031
 20
6.2904717537
 30
0.0
 10
11.4545884858
 20
6.2786367496
 30
0.0
 10
11.4492499453
 20
6.2660055191
 30
0.0
 10
11.4448115573
 20
6.252699173
 30
0.0
 10
11.4413149739
 20
6.2388432428
 30
0.0
 10
11.4379413446
 20
6.21975019
 30
0.0
 10
11.436932076
 20
6.2051099965
 30
0.0
 10
11.436932076
 20
6.1953318604
 30
0.0
  0
SPLINE
  5
276
100
AcDbEntity
  8
0
100
AcDbSpline
 62
9
  6
CONTINUOUS
 70
0
 71
3
 72
17
 73
13
 74
0
 42
0.0000001
 43
0.0000001
 44
0.0000000001
 40
0.0
 40
0.0
 40
0.0
 40
0.0
 40
0.1352421267
 40
0.2693587545
 40
0.4012792208
 40
0.5300231224
 40
0.6547576616
 40
0.7748485009
 40
0.8330496554
 40
0.889971234
 40
0.9456137516
 40
1.0
 40
1.0
 40
1.0
 40
1.0
 10
10.5355839625
 20
6.1953318604
 30
0.0
 10
10.5355839625
 20
6.2041428767
 30
0.0
 10
10.5347833987
 20
6.2217023004
 30
0.0
 10
10.531195391
 20
6.2476344404
 30
0.0
 10
10.5252803653
 20
6.2727059489
 30
0.0
 10
10.5171336551
 20
6.2965016057
 30
0.0
 10
10.5068880742
 20
6.3186276738
 30
0.0
 10
10.4966272101
 20
6.3355515024
 30
0.0
 10
10.4875115748
 20
6.34788012
 30
0.0
 10
10.4803397338
 20
6.3563959265
 30
0.0
 10
10.4727929515
 20
6.3642394134
 30
0.0
 10
10.4674717065
 20
6.3690532062
 30
0.0
 10
10.4647587289
 20
6.3713323396
 30
0.0
  0
SPLINE
  5
277
100
AcDbEntity
  8
0
100
AcDbSpline
 62
9
  6
CONTINUOUS
 70
0
 71
3
 72
25
 73
21
 74
0
 42
0.0000001
 43
0.0000001
 44
0.0000000001
 40
0.0
 40
0.0
 40
0.0
 40
0.0
 40
0.1448502471
 40
0.2164568152
 40
0.2870515468
 40
0.3563374152
 40
0.4240517596
 40
0.4899760282
 40
0.5539451618
 40
0.6158573248
 40
0.6756833821
 40
0.7334755376
 40
0.7893739942
 40
0.8436099921
 40
0.8702152275
 40
0.8965315847
 40
0.9226111612
 40
0.9485096156
 40
0.9742856763
 40
1.0
 40
1.0
 40
1.0
 40
1.0
 10
10.6577046006
 20
6.1953318604
 30
0.0
 10
10.6577046006
 20
6.2051099965
 30
0.0
 10
10.6566953319
 20
6.21975019
 30
0.0
 10
10.6533217026
 20
6.2388432428
 30
0.0
 10
10.6498251193
 20
6.252699173
 30
0.0
 10
10.6453867312
 20
6.2660055191
 30
0.0
 10
10.6400481908
 20
6.2786367496
 30
0.0
 10
10.6338597735
 20
6.2904717537
 30
0.0
 10
10.6268794833
 20
6.3013974166
 30
0.0
 10
10.6191725108
 20
6.3113089019
 30
0.0
 10
10.6108107791
 20
6.3201105391
 30
0.0
 10
10.601871814
 20
6.3277165825
 30
0.0
 10
10.5924405252
 20
6.3340511577
 30
0.0
 10
10.5841878649
 20
6.3382448467
 30
0.0
 10
10.5774486182
 20
6.3408852213
 30
0.0
 10
10.5723624524
 20
6.3425022736
 30
0.0
 10
10.5672259748
 20
6.343764269
 30
0.0
 10
10.5620513071
 20
6.3446678465
 30
0.0
 10
10.5568515059
 20
6.3452110496
 30
0.0
 10
10.5533744324
 20
6.3453318282
 30
0.0
 10
10.5516385834
 20
6.3453318282
 30
0.0
  0
SPLINE
  5
278
100
AcDbEntity
  8
0
100
AcDbSpline
 62
9
  6
CONTINUOUS
 70
0
 71
3
 72
39
 73
35
 74
0
 42
0.0000001
 43
0.0000001
 44
0.0000000001
 40
0.0
 40
0.0
 40
0.0
 40
0.0
 40
0.0724304091
 40
0.1082358507
 40
0.1435357992
 40
0.1781810933
 40
0.2120406293
 40
0.245005047
 40
0.2769918366
 40
0.3079500705
 40
0.3230421997
 40
0.3378750069
 40
0.3667731004
 40
0.394724281
 40
0.4218441758
 40
0.4482926105
 40
0.4742684412
 40
0.5
 40
0.5257315588
 40
0.5517073895
 40
0.5781558242
 40
0.605275719
 40
0.6332268996
 40
0.6621249931
 40
0.6769578003
 40
0.6920499295
 40
0.7230081634
 40
0.754994953
 40
0.7879593707
 40
0.8218189067
 40
0.8564642008
 40
0.8917641493
 40
0.9275695909
 40
1.0
 40
1.0
 40
1.0
 40
1.0
 10
9.9014692651
 20
6.1953318604
 30
0.0
 10
9.9014692651
 20
6.2023063418
 30
0.0
 10
9.9021891243
 20
6.2127487576
 30
0.0
 10
9.9045954843
 20
6.2263672674
 30
0.0
 10
9.907089466
 20
6.2362502753
 30
0.0
 10
9.9102552627
 20
6.2457413106
 30
0.0
 10
9.91406306
 20
6.2547507709
 30
0.0
 10
9.9184771539
 20
6.2631924116
 30
0.0
 10
9.923455723
 20
6.2709850758
 30
0.0
 10
9.9280761746
 20
6.2769270215
 30
0.0
 10
9.9320122068
 20
6.281274928
 30
0.0
 10
9.9360250544
 20
6.2852753447
 30
0.0
 10
9.9412932094
 20
6.2897581438
 30
0.0
 10
9.9480206207
 20
6.2942763567
 30
0.0
 10
9.9550366575
 20
6.2978421341
 30
0.0
 10
9.9622735722
 20
6.3004175636
 30
0.0
 10
9.9696604013
 20
6.301974585
 30
0.0
 10
9.9771230501
 20
6.3024955896
 30
0.0
 10
9.984585699
 20
6.301974585
 30
0.0
 10
9.991972528
 20
6.3004175636
 30
0.0
 10
9.9992094427
 20
6.2978421341
 30
0.0
 10
10.0062254796
 20
6.2942763567
 30
0.0
 10
10.0129528908
 20
6.2897581438
 30
0.0
 10
10.0182210458
 20
6.2852753447
 30
0.0
 10
10.0222338934
 20
6.281274928
 30
0.0
 10
10.0261699256
 20
6.2769270215
 30
0.0
 10
10.0307903772
 20
6.2709850758
 30
0.0
 10
10.0357689464
 20
6.2631924116
 30
0.0
 10
10.0401830402
 20
6.2547507709
 30
0.0
 10
10.0439908375
 20
6.2457413106
 30
0.0
 10
10.0471566342
 20
6.2362502753
 30
0.0
 10
10.0496506159
 20
6.2263672674
 30
0.0
 10
10.0520569759
 20
6.2127487576
 30
0.0
 10
10.0527768351
 20
6.2023063418
 30
0.0
 10
10.0527768351
 20
6.1953318604
 30
0.0
  0
SPLINE
  5
279
100
AcDbEntity
  8
0
100
AcDbSpline
 62
9
  6
CONTINUOUS
 70
0
 71
3
 72
17
 73
13
 74
0
 42
0.0000001
 43
0.0000001
 44
0.0000000001
 40
0.0
 40
0.0
 40
0.0
 40
0.0
 40
0.0543862484
 40
0.1100287661
 40
0.1669503447
 40
0.2251514993
 40
0.3452423387
 40
0.4699768779
 40
0.5987207796
 40
0.7306412464
 40
0.8647578744
 40
1.0
 40
1.0
 40
1.0
 40
1.0
 10
11.6298779477
 20
6.3713323396
 30
0.0
 10
11.62716497
 20
6.3690532062
 30
0.0
 10
11.6218437251
 20
6.3642394134
 30
0.0
 10
11.6142969427
 20
6.3563959265
 30
0.0
 10
11.6071251017
 20
6.34788012
 30
0.0
 10
11.5980094664
 20
6.3355515024
 30
0.0
 10
11.5877486023
 20
6.3186276737
 30
0.0
 10
11.5775030214
 20
6.2965016056
 30
0.0
 10
11.5693563112
 20
6.2727059488
 30
0.0
 10
11.5634412856
 20
6.2476344403
 30
0.0
 10
11.5598532778
 20
6.2217023002
 30
0.0
 10
11.5590527141
 20
6.2041428766
 30
0.0
 10
11.5590527141
 20
6.1953318604
 30
0.0
  0
SPLINE
  5
27A
100
AcDbEntity
  8
0
100
AcDbSpline
 62
9
  6
CONTINUOUS
 70
0
 71
3
 72
39
 73
35
 74
0
 42
0.0000001
 43
0.0000001
 44
0.0000000001
 40
0.0
 40
0.0
 40
0.0
 40
0.0
 40
0.0724304091
 40
0.1082358507
 40
0.1435357992
 40
0.1781810933
 40
0.2120406293
 40
0.245005047
 40
0.2769918366
 40
0.3079500705
 40
0.3230421997
 40
0.3378750069
 40
0.3667731004
 40
0.394724281
 40
0.4218441758
 40
0.4482926105
 40
0.4742684412
 40
0.5
 40
0.5257315588
 40
0.5517073895
 40
0.5781558242
 40
0.605275719
 40
0.6332268996
 40
0.6621249931
 40
0.6769578003
 40
0.6920499295
 40
0.7230081634
 40
0.754994953
 40
0.7879593707
 40
0.8218189067
 40
0.8564642008
 40
0.8917641493
 40
0.9275695909
 40
1.0
 40
1.0
 40
1.0
 40
1.0
 10
9.9014692651
 20
6.1953318604
 30
0.0
 10
9.9014692651
 20
6.188357379
 30
0.0
 10
9.9021891243
 20
6.1779149632
 30
0.0
 10
9.9045954843
 20
6.1642964534
 30
0.0
 10
9.907089466
 20
6.1544134455
 30
0.0
 10
9.9102552627
 20
6.1449224102
 30
0.0
 10
9.91406306
 20
6.1359129499
 30
0.0
 10
9.9184771539
 20
6.1274713092
 30
0.0
 10
9.923455723
 20
6.119678645
 30
0.0
 10
9.9280761746
 20
6.1137366993
 30
0.0
 10
9.9320122068
 20
6.1093887929
 30
0.0
 10
9.9360250544
 20
6.1053883761
 30
0.0
 10
9.9412932094
 20
6.100905577
 30
0.0
 10
9.9480206207
 20
6.0963873641
 30
0.0
 10
9.9550366575
 20
6.0928215867
 30
0.0
 10
9.9622735722
 20
6.0902461572
 30
0.0
 10
9.9696604013
 20
6.0886891358
 30
0.0
 10
9.9771230501
 20
6.0881681312
 30
0.0
 10
9.984585699
 20
6.0886891358
 30
0.0
 10
9.991972528
 20
6.0902461572
 30
0.0
 10
9.9992094427
 20
6.0928215867
 30
0.0
 10
10.0062254796
 20
6.0963873641
 30
0.0
 10
10.0129528908
 20
6.100905577
 30
0.0
 10
10.0182210458
 20
6.1053883761
 30
0.0
 10
10.0222338934
 20
6.1093887929
 30
0.0
 10
10.0261699256
 20
6.1137366993
 30
0.0
 10
10.0307903772
 20
6.119678645
 30
0.0
 10
10.0357689464
 20
6.1274713092
 30
0.0
 10
10.0401830402
 20
6.1359129499
 30
0.0
 10
10.0439908375
 20
6.1449224102
 30
0.0
 10
10.0471566342
 20
6.1544134455
 30
0.0
 10
10.0496506159
 20
6.1642964534
 30
0.0
 10
10.0520569759
 20
6.1779149632
 30
0.0
 10
10.0527768351
 20
6.188357379
 30
0.0
 10
10.0527768351
 20
6.1953318604
 30
0.0
  0
SPLINE
  5
27B
100
AcDbEntity
  8
0
100
AcDbSpline
 62
9
  6
CONTINUOUS
 70
0
 71
3
 72
29
 73
25
 74
0
 42
0.0000001
 43
0.0000001
 44
0.0000000001
 40
0.0
 40
0.0
 40
0.0
 40
0.0
 40
0.0265365963
 40
0.0528820202
 40
0.0791123387
 40
0.1053059988
 40
0.1315422132
 40
0.1578993013
 40
0.184453089
 40
0.2112753514
 40
0.2384325371
 40
0.2659847635
 40
0.2939848499
 40
0.3224778645
 40
0.3810541269
 40
0.4419425538
 40
0.5052136291
 40
0.5708214695
 40
0.638617705
 40
0.7083669308
 40
0.7797623311
 40
0.8524409472
 40
0.9259966774
 40
1.0
 40
1.0
 40
1.0
 40
1.0
 10
10.0951686059
 20
5.9627292905
 30
0.0
 10
10.0981720852
 20
5.9619097711
 30
0.0
 10
10.1042211322
 20
5.9604999939
 30
0.0
 10
10.1134036757
 20
5.9590895501
 30
0.0
 10
10.1226283299
 20
5.958396468
 30
0.0
 10
10.1318660377
 20
5.9584233067
 30
0.0
 10
10.1410884688
 20
5.9591699565
 30
0.0
 10
10.1502671797
 20
5.9606338678
 30
0.0
 10
10.1593739423
 20
5.9628105122
 30
0.0
 10
10.1683808323
 20
5.9656929006
 30
0.0
 10
10.1772604216
 20
5.9692718115
 30
0.0
 10
10.1859855644
 20
5.9735360868
 30
0.0
 10
10.1945301656
 20
5.9784725755
 30
0.0
 10
10.2057485628
 20
5.9859975271
 30
0.0
 10
10.2191897647
 20
5.9970598974
 30
0.0
 10
10.2340297249
 20
6.012595209
 30
0.0
 10
10.2475636531
 20
6.0303262616
 30
0.0
 10
10.2596318918
 20
6.0500366245
 30
0.0
 10
10.2700944069
 20
6.0714894113
 30
0.0
 10
10.2788284386
 20
6.0944271355
 30
0.0
 10
10.2857311711
 20
6.1185748081
 30
0.0
 10
10.2907209029
 20
6.1436434143
 30
0.0
 10
10.2937387786
 20
6.1693304841
 30
0.0
 10
10.2944113702
 20
6.186649778
 30
0.0
 10
10.2944113702
 20
6.1953318604
 30
0.0
  0
SPLINE
  5
27C
100
AcDbEntity
  8
0
100
AcDbSpline
 62
9
  6
CONTINUOUS
 70
0
 71
3
 72
23
 73
19
 74
0
 42
0.0000001
 43
0.0000001
 44
0.0000000001
 40
0.0
 40
0.0
 40
0.0
 40
0.0
 40
0.0515302664
 40
0.1041567503
 40
0.1581357686
 40
0.2136663923
 40
0.2708874468
 40
0.3298778878
 40
0.3600523171
 40
0.3906727358
 40
0.4532147636
 40
0.5174385888
 40
0.5832236009
 40
0.650412756
 40
0.718818184
 40
0.7882265677
 40
0.8584046555
 40
1.0
 40
1.0
 40
1.0
 40
1.0
 10
10.3560672997
 20
6.4279344303
 30
0.0
 10
10.3608355
 20
6.426633395
 30
0.0
 10
10.370325214
 20
6.4234270606
 30
0.0
 10
10.3840775192
 20
6.4169597426
 30
0.0
 10
10.3973767055
 20
6.4088427452
 30
0.0
 10
10.4101223578
 20
6.3991402965
 30
0.0
 10
10.4222218481
 20
6.3879272271
 30
0.0
 10
10.4316231739
 20
6.3774724111
 30
0.0
 10
10.438747175
 20
6.3684550419
 30
0.0
 10
10.4456901752
 20
6.3588732229
 30
0.0
 10
10.4537950832
 20
6.3461176478
 30
0.0
 10
10.46248905
 20
6.3298047621
 30
0.0
 10
10.4701572284
 20
6.3124972301
 30
0.0
 10
10.4767431958
 20
6.2943235863
 30
0.0
 10
10.4821988538
 20
6.2754184013
 30
0.0
 10
10.4864843941
 20
6.2559197247
 30
0.0
 10
10.4906071186
 20
6.2292551213
 30
0.0
 10
10.491841275
 20
6.2089129415
 30
0.0
 10
10.491841275
 20
6.1953318604
 30
0.0
  0
SPLINE
  5
27D
100
AcDbEntity
  8
0
100
AcDbSpline
 62
9
  6
CONTINUOUS
 70
0
 71
3
 72
25
 73
21
 74
0
 42
0.0000001
 43
0.0000001
 44
0.0000000001
 40
0.0
 40
0.0
 40
0.0
 40
0.0
 40
0.0257143237
 40
0.0514903844
 40
0.0773888388
 40
0.1034684153
 40
0.1297847725
 40
0.1563900079
 40
0.2106260058
 40
0.2665244624
 40
0.3243166179
 40
0.3841426752
 40
0.4460548382
 40
0.5100239718
 40
0.5759482404
 40
0.6436625848
 40
0.7129484532
 40
0.7835431848
 40
0.8551497529
 40
1.0
 40
1.0
 40
1.0
 40
1.0
 10
10.5516385834
 20
6.0453318926
 30
0.0
 10
10.5533744324
 20
6.0453318926
 30
0.0
 10
10.5568515059
 20
6.0454526712
 30
0.0
 10
10.5620513071
 20
6.0459958743
 30
0.0
 10
10.5672259748
 20
6.0468994518
 30
0.0
 10
10.5723624524
 20
6.0481614473
 30
0.0
 10
10.5774486182
 20
6.0497784995
 30
0.0
 10
10.5841878649
 20
6.0524188741
 30
0.0
 10
10.5924405252
 20
6.0566125631
 30
0.0
 10
10.601871814
 20
6.0629471383
 30
0.0
 10
10.6108107791
 20
6.0705531817
 30
0.0
 10
10.6191725108
 20
6.0793548189
 30
0.0
 10
10.6268794833
 20
6.0892663042
 30
0.0
 10
10.6338597735
 20
6.1001919672
 30
0.0
 10
10.6400481908
 20
6.1120269712
 30
0.0
 10
10.6453867312
 20
6.1246582017
 30
0.0
 10
10.6498251193
 20
6.1379645478
 30
0.0
 10
10.6533217026
 20
6.151820478
 30
0.0
 10
10.6566953319
 20
6.1709135308
 30
0.0
 10
10.6577046006
 20
6.1855537243
 30
0.0
 10
10.6577046006
 20
6.1953318604
 30
0.0
  0
SPLINE
  5
27E
100
AcDbEntity
  8
0
100
AcDbSpline
 62
9
  6
CONTINUOUS
 70
0
 71
3
 72
29
 73
25
 74
0
 42
0.0000001
 43
0.0000001
 44
0.0000000001
 40
0.0
 40
0.0
 40
0.0
 40
0.0
 40
0.0265365963
 40
0.0528820202
 40
0.0791123387
 40
0.1053059988
 40
0.1315422132
 40
0.1578993013
 40
0.184453089
 40
0.2112753514
 40
0.2384325371
 40
0.2659847635
 40
0.2939848499
 40
0.3224778645
 40
0.3810541269
 40
0.4419425538
 40
0.5052136291
 40
0.5708214695
 40
0.638617705
 40
0.7083669308
 40
0.7797623311
 40
0.8524409472
 40
0.9259966774
 40
1.0
 40
1.0
 40
1.0
 40
1.0
 10
10.0951686059
 20
6.4279344303
 30
0.0
 10
10.0981720852
 20
6.4287539498
 30
0.0
 10
10.1042211322
 20
6.4301637269
 30
0.0
 10
10.1134036757
 20
6.4315741707
 30
0.0
 10
10.1226283299
 20
6.4322672528
 30
0.0
 10
10.1318660377
 20
6.4322404141
 30
0.0
 10
10.1410884688
 20
6.4314937643
 30
0.0
 10
10.1502671797
 20
6.4300298531
 30
0.0
 10
10.1593739423
 20
6.4278532086
 30
0.0
 10
10.1683808323
 20
6.4249708202
 30
0.0
 10
10.1772604216
 20
6.4213919093
 30
0.0
 10
10.1859855644
 20
6.417127634
 30
0.0
 10
10.1945301656
 20
6.4121911453
 30
0.0
 10
10.2057485628
 20
6.4046661937
 30
0.0
 10
10.2191897647
 20
6.3936038234
 30
0.0
 10
10.2340297249
 20
6.3780685118
 30
0.0
 10
10.2475636531
 20
6.3603374592
 30
0.0
 10
10.2596318918
 20
6.3406270963
 30
0.0
 10
10.2700944069
 20
6.3191743095
 30
0.0
 10
10.2788284386
 20
6.2962365853
 30
0.0
 10
10.2857311711
 20
6.2720889127
 30
0.0
 10
10.2907209029
 20
6.2470203065
 30
0.0
 10
10.2937387786
 20
6.2213332367
 30
0.0
 10
10.2944113702
 20
6.2040139428
 30
0.0
 10
10.2944113702
 20
6.1953318604
 30
0.0
  0
SPLINE
  5
27F
100
AcDbEntity
  8
0
100
AcDbSpline
 62
7
  6
CONTINUOUS
 70
0
 71
3
 72
11
 73
7
 74
0
 42
0.0000001
 43
0.0000001
 44
0.0000000001
 40
0.0
 40
0.0
 40
0.0
 40
0.0
 40
0.2550033649
 40
0.5055877888
 40
0.7533162723
 40
1.0
 40
1.0
 40
1.0
 40
1.0
 10
11.4008717289
 20
6.3518318604
 30
0.0
 10
11.4034961544
 20
6.3518318604
 30
0.0
 10
11.4087039066
 20
6.3515693351
 30
0.0
 10
11.4163765366
 20
6.3503591584
 30
0.0
 10
11.4237897132
 20
6.348344119
 30
0.0
 10
11.4285346186
 20
6.3464732889
 30
0.0
 10
11.4308421141
 20
6.3454145251
 30
0.0
  0
SPLINE
  5
280
100
AcDbEntity
  8
0
100
AcDbSpline
 62
7
  6
CONTINUOUS
 70
0
 71
3
 72
11
 73
7
 74
0
 42
0.0000001
 43
0.0000001
 44
0.0000000001
 40
0.0
 40
0.0
 40
0.0
 40
0.0
 40
0.2466837277
 40
0.494412211
 40
0.7449966351
 40
1.0
 40
1.0
 40
1.0
 40
1.0
 10
11.4308421165
 20
6.0452491969
 30
0.0
 10
11.4285346209
 20
6.0441904329
 30
0.0
 10
11.4237897151
 20
6.0423196025
 30
0.0
 10
11.4163765379
 20
6.0403045627
 30
0.0
 10
11.4087039072
 20
6.0390943857
 30
0.0
 10
11.4034961547
 20
6.0388318604
 30
0.0
 10
11.4008717289
 20
6.0388318604
 30
0.0
  0
SPLINE
  5
281
100
AcDbEntity
  8
0
100
AcDbSpline
 62
9
  6
CONTINUOUS
 70
0
 71
3
 72
17
 73
13
 74
0
 42
0.0000001
 43
0.0000001
 44
0.0000000001
 40
0.0
 40
0.0
 40
0.0
 40
0.0
 40
0.1352421267
 40
0.2693587545
 40
0.4012792208
 40
0.5300231224
 40
0.6547576616
 40
0.7748485009
 40
0.8330496554
 40
0.889971234
 40
0.9456137516
 40
1.0
 40
1.0
 40
1.0
 40
1.0
 10
11.5590527141
 20
6.1953318604
 30
0.0
 10
11.5590527141
 20
6.1865208441
 30
0.0
 10
11.5598532778
 20
6.1689614204
 30
0.0
 10
11.5634412856
 20
6.1430292804
 30
0.0
 10
11.5693563113
 20
6.1179577719
 30
0.0
 10
11.5775030215
 20
6.0941621151
 30
0.0
 10
11.5877486023
 20
6.072036047
 30
0.0
 10
11.5980094665
 20
6.0551122184
 30
0.0
 10
11.6071251018
 20
6.0427836008
 30
0.0
 10
11.6142969427
 20
6.0342677943
 30
0.0
 10
11.6218437251
 20
6.0264243075
 30
0.0
 10
11.62716497
 20
6.0216105146
 30
0.0
 10
11.6298779477
 20
6.0193313812
 30
0.0
  0
SPLINE
  5
282
100
AcDbEntity
  8
0
100
AcDbSpline
 62
9
  6
CONTINUOUS
 70
0
 71
3
 72
25
 73
21
 74
0
 42
0.0000001
 43
0.0000001
 44
0.0000000001
 40
0.0
 40
0.0
 40
0.0
 40
0.0
 40
0.1448502471
 40
0.2164568152
 40
0.2870515468
 40
0.3563374152
 40
0.4240517596
 40
0.4899760282
 40
0.5539451618
 40
0.6158573248
 40
0.6756833821
 40
0.7334755376
 40
0.7893739942
 40
0.8436099921
 40
0.8702152275
 40
0.8965315847
 40
0.9226111612
 40
0.9485096156
 40
0.9742856763
 40
1.0
 40
1.0
 40
1.0
 40
1.0
 10
11.436932076
 20
6.1953318604
 30
0.0
 10
11.436932076
 20
6.1855537243
 30
0.0
 10
11.4379413446
 20
6.1709135308
 30
0.0
 10
11.4413149739
 20
6.151820478
 30
0.0
 10
11.4448115573
 20
6.1379645478
 30
0.0
 10
11.4492499453
 20
6.1246582017
 30
0.0
 10
11.4545884858
 20
6.1120269712
 30
0.0
 10
11.4607769031
 20
6.1001919672
 30
0.0
 10
11.4677571932
 20
6.0892663042
 30
0.0
 10
11.4754641657
 20
6.0793548189
 30
0.0
 10
11.4838258974
 20
6.0705531817
 30
0.0
 10
11.4927648625
 20
6.0629471383
 30
0.0
 10
11.5021961514
 20
6.0566125631
 30
0.0
 10
11.5104488117
 20
6.0524188741
 30
0.0
 10
11.5171880583
 20
6.0497784995
 30
0.0
 10
11.5222742241
 20
6.0481614473
 30
0.0
 10
11.5274107018
 20
6.0468994518
 30
0.0
 10
11.5325853695
 20
6.0459958743
 30
0.0
 10
11.5377851707
 20
6.0454526712
 30
0.0
 10
11.5412622441
 20
6.0453318926
 30
0.0
 10
11.5429980931
 20
6.0453318926
 30
0.0
  0
SPLINE
  5
283
100
AcDbEntity
  8
0
100
AcDbSpline
 62
9
  6
CONTINUOUS
 70
0
 71
3
 72
23
 73
19
 74
0
 42
0.0000001
 43
0.0000001
 44
0.0000000001
 40
0.0
 40
0.0
 40
0.0
 40
0.0
 40
0.1415953445
 40
0.2117734323
 40
0.281181816
 40
0.349587244
 40
0.4167763991
 40
0.4825614112
 40
0.5467852364
 40
0.6093272642
 40
0.6399476829
 40
0.6701221122
 40
0.7291125532
 40
0.7863336077
 40
0.8418642314
 40
0.8958432497
 40
0.9484697336
 40
1.0
 40
1.0
 40
1.0
 40
1.0
 10
11.6027954016
 20
6.1953318604
 30
0.0
 10
11.6027954016
 20
6.2089129415
 30
0.0
 10
11.604029558
 20
6.2292551213
 30
0.0
 10
11.6081522825
 20
6.2559197247
 30
0.0
 10
11.6124378228
 20
6.2754184013
 30
0.0
 10
11.6178934807
 20
6.2943235863
 30
0.0
 10
11.6244794482
 20
6.3124972301
 30
0.0
 10
11.6321476265
 20
6.3298047621
 30
0.0
 10
11.6408415934
 20
6.3461176478
 30
0.0
 10
11.6489465013
 20
6.3588732229
 30
0.0
 10
11.6558895016
 20
6.3684550419
 30
0.0
 10
11.6630135027
 20
6.3774724111
 30
0.0
 10
11.6724148285
 20
6.3879272271
 30
0.0
 10
11.6845143188
 20
6.3991402965
 30
0.0
 10
11.6972599711
 20
6.4088427452
 30
0.0
 10
11.7105591574
 20
6.4169597426
 30
0.0
 10
11.7243114625
 20
6.4234270606
 30
0.0
 10
11.7338011766
 20
6.426633395
 30
0.0
 10
11.7385693769
 20
6.4279344303
 30
0.0
  0
SPLINE
  5
284
100
AcDbEntity
  8
0
100
AcDbSpline
 62
9
  6
CONTINUOUS
 70
0
 71
3
 72
29
 73
25
 74
0
 42
0.0000001
 43
0.0000001
 44
0.0000000001
 40
0.0
 40
0.0
 40
0.0
 40
0.0
 40
0.0740033226
 40
0.1475590528
 40
0.2202376689
 40
0.2916330692
 40
0.361382295
 40
0.4291785305
 40
0.4947863709
 40
0.5580574462
 40
0.6189458731
 40
0.6775221355
 40
0.7060151501
 40
0.7340152365
 40
0.7615674629
 40
0.7887246486
 40
0.815546911
 40
0.8421006987
 40
0.8684577868
 40
0.8946940012
 40
0.9208876613
 40
0.9471179798
 40
0.9734634037
 40
1.0
 40
1.0
 40
1.0
 40
1.0
 10
11.8002253063
 20
6.1953318604
 30
0.0
 10
11.8002253063
 20
6.2040139428
 30
0.0
 10
11.8008978979
 20
6.2213332367
 30
0.0
 10
11.8039157736
 20
6.2470203065
 30
0.0
 10
11.8089055055
 20
6.2720889127
 30
0.0
 10
11.815808238
 20
6.2962365853
 30
0.0
 10
11.8245422696
 20
6.3191743095
 30
0.0
 10
11.8350047847
 20
6.3406270963
 30
0.0
 10
11.8470730235
 20
6.3603374592
 30
0.0
 10
11.8606069517
 20
6.3780685118
 30
0.0
 10
11.8754469119
 20
6.3936038234
 30
0.0
 10
11.8888881138
 20
6.4046661937
 30
0.0
 10
11.9001065109
 20
6.4121911453
 30
0.0
 10
11.9086511122
 20
6.417127634
 30
0.0
 10
11.917376255
 20
6.4213919093
 30
0.0
 10
11.9262558442
 20
6.4249708202
 30
0.0
 10
11.9352627343
 20
6.4278532086
 30
0.0
 10
11.9443694969
 20
6.4300298531
 30
0.0
 10
11.9535482078
 20
6.4314937643
 30
0.0
 10
11.9627706388
 20
6.4322404141
 30
0.0
 10
11.9720083467
 20
6.4322672528
 30
0.0
 10
11.9812330009
 20
6.4315741707
 30
0.0
 10
11.9904155444
 20
6.4301637269
 30
0.0
 10
11.9964645913
 20
6.4287539498
 30
0.0
 10
11.9994680706
 20
6.4279344303
 30
0.0
  0
SPLINE
  5
285
100
AcDbEntity
  8
0
100
AcDbSpline
 62
9
  6
CONTINUOUS
 70
0
 71
3
 72
17
 73
13
 74
0
 42
0.0000001
 43
0.0000001
 44
0.0000000001
 40
0.0
 40
0.0
 40
0.0
 40
0.0
 40
0.0543862484
 40
0.1100287661
 40
0.1669503447
 40
0.2251514993
 40
0.3452423387
 40
0.4699768779
 40
0.5987207796
 40
0.7306412464
 40
0.8647578744
 40
1.0
 40
1.0
 40
1.0
 40
1.0
 10
10.4647587289
 20
6.0193313812
 30
0.0
 10
10.4674717065
 20
6.0216105146
 30
0.0
 10
10.4727929515
 20
6.0264243075
 30
0.0
 10
10.4803397339
 20
6.0342677943
 30
0.0
 10
10.4875115748
 20
6.0427836008
 30
0.0
 10
10.4966272101
 20
6.0551122184
 30
0.0
 10
10.5068880743
 20
6.0720360471
 30
0.0
 10
10.5171336551
 20
6.0941621152
 30
0.0
 10
10.5252803653
 20
6.117957772
 30
0.0
 10
10.531195391
 20
6.1430292805
 30
0.0
 10
10.5347833987
 20
6.1689614206
 30
0.0
 10
10.5355839625
 20
6.1865208442
 30
0.0
 10
10.5355839625
 20
6.1953318604
 30
0.0
  0
SPLINE
  5
286
100
AcDbEntity
  8
0
100
AcDbSpline
 62
7
  6
CONTINUOUS
 70
0
 71
3
 72
11
 73
7
 74
0
 42
0.0000001
 43
0.0000001
 44
0.0000000001
 40
0.0
 40
0.0
 40
0.0
 40
0.0
 40
0.255003365
 40
0.5055877927
 40
0.7533162748
 40
1.0
 40
1.0
 40
1.0
 40
1.0
 10
10.6937649477
 20
6.0388318604
 30
0.0
 10
10.6911405207
 20
6.0388318604
 30
0.0
 10
10.6859327656
 20
6.039094386
 30
0.0
 10
10.6782601314
 20
6.0403045642
 30
0.0
 10
10.6708469509
 20
6.0423196058
 30
0.0
 10
10.6661020432
 20
6.044190438
 30
0.0
 10
10.6637945468
 20
6.045249203
 30
0.0
  0
SPLINE
  5
287
100
AcDbEntity
  8
0
100
AcDbSpline
 62
7
  6
CONTINUOUS
 70
0
 71
3
 72
11
 73
7
 74
0
 42
0.0000001
 43
0.0000001
 44
0.0000000001
 40
0.0
 40
0.0
 40
0.0
 40
0.0
 40
0.2466837256
 40
0.4944122076
 40
0.7449966351
 40
1.0
 40
1.0
 40
1.0
 40
1.0
 10
10.6637945455
 20
6.3454145173
 30
0.0
 10
10.6661020421
 20
6.3464732823
 30
0.0
 10
10.6708469499
 20
6.3483441147
 30
0.0
 10
10.6782601307
 20
6.3503591565
 30
0.0
 10
10.6859327652
 20
6.3515693348
 30
0.0
 10
10.6911405206
 20
6.3518318604
 30
0.0
 10
10.6937649477
 20
6.3518318604
 30
0.0
  0
SPLINE
  5
288
100
AcDbEntity
  8
0
100
AcDbSpline
 62
9
  6
CONTINUOUS
 70
0
 71
3
 72
39
 73
35
 74
0
 42
0.0000001
 43
0.0000001
 44
0.0000000001
 40
0.0
 40
0.0
 40
0.0
 40
0.0
 40
0.0724304091
 40
0.1082358507
 40
0.1435357992
 40
0.1781810933
 40
0.2120406293
 40
0.245005047
 40
0.2769918366
 40
0.3079500705
 40
0.3230421997
 40
0.3378750069
 40
0.3667731004
 40
0.394724281
 40
0.4218441758
 40
0.4482926105
 40
0.4742684412
 40
0.5
 40
0.5257315588
 40
0.5517073895
 40
0.5781558242
 40
0.605275719
 40
0.6332268996
 40
0.6621249931
 40
0.6769578003
 40
0.6920499295
 40
0.7230081634
 40
0.754994953
 40
0.7879593707
 40
0.8218189067
 40
0.8564642008
 40
0.8917641493
 40
0.9275695909
 40
1.0
 40
1.0
 40
1.0
 40
1.0
 10
12.0418598414
 20
6.1953318604
 30
0.0
 10
12.0418598414
 20
6.2023063418
 30
0.0
 10
12.0425797007
 20
6.2127487576
 30
0.0
 10
12.0449860606
 20
6.2263672674
 30
0.0
 10
12.0474800423
 20
6.2362502753
 30
0.0
 10
12.050645839
 20
6.2457413106
 30
0.0
 10
12.0544536364
 20
6.2547507709
 30
0.0
 10
12.0588677302
 20
6.2631924116
 30
0.0
 10
12.0638462994
 20
6.2709850758
 30
0.0
 10
12.0684667509
 20
6.2769270215
 30
0.0
 10
12.0724027831
 20
6.281274928
 30
0.0
 10
12.0764156308
 20
6.2852753447
 30
0.0
 10
12.0816837858
 20
6.2897581438
 30
0.0
 10
12.088411197
 20
6.2942763567
 30
0.0
 10
12.0954272339
 20
6.2978421341
 30
0.0
 10
12.1026641486
 20
6.3004175636
 30
0.0
 10
12.1100509776
 20
6.301974585
 30
0.0
 10
12.1175136265
 20
6.3024955896
 30
0.0
 10
12.1249762753
 20
6.301974585
 30
0.0
 10
12.1323631043
 20
6.3004175636
 30
0.0
 10
12.139600019
 20
6.2978421341
 30
0.0
 10
12.1466160559
 20
6.2942763567
 30
0.0
 10
12.1533434671
 20
6.2897581438
 30
0.0
 10
12.1586116221
 20
6.2852753447
 30
0.0
 10
12.1626244698
 20
6.281274928
 30
0.0
 10
12.166560502
 20
6.2769270215
 30
0.0
 10
12.1711809535
 20
6.2709850758
 30
0.0
 10
12.1761595227
 20
6.2631924116
 30
0.0
 10
12.1805736165
 20
6.2547507709
 30
0.0
 10
12.1843814139
 20
6.2457413106
 30
0.0
 10
12.1875472106
 20
6.2362502753
 30
0.0
 10
12.1900411923
 20
6.2263672674
 30
0.0
 10
12.1924475522
 20
6.2127487576
 30
0.0
 10
12.1931674115
 20
6.2023063418
 30
0.0
 10
12.1931674115
 20
6.1953318604
 30
0.0
  0
ENDSEC
  0
SECTION
  2
OBJECTS
  0
DICTIONARY
  5
C
100
AcDbDictionary
280
0
281
1
  3
ACAD_GROUP
350
D
  3
ACAD_MLINESTYLE
350
17
  3
ACAD_LAYOUT
350
1A
  3
ACAD_PLOTSETTINGS
350
19
  3
ACAD_PLOTSTYLENAME
350
E
  0
DICTIONARY
  5
D
102
{ACAD_REACTORS
330
C
102
}
100
AcDbDictionary
280
0
281
1
  0
ACDBDICTIONARYWDFLT
  5
E
102
{ACAD_REACTORS
330
C
102
}
100
AcDbDictionary
281
1
  3
Normal
350
F
100
AcDbDictionaryWithDefault
340
F
  0
DICTIONARY
  5
17
102
{ACAD_REACTORS
330
C
102
}
100
AcDbDictionary
280
0
281
1
  3
Standard
350
18
  0
DICTIONARY
  5
19
102
{ACAD_REACTORS
330
C
102
}
100
AcDbDictionary
281
1
  0
DICTIONARY
  5
1A
102
{ACAD_REACTORS
330
C
102
}
100
AcDbDictionary
281
1
  3
Model
350
289
  3
Layout1
350
28A
  0
ACDBPLACEHOLDER
  5
F
102
{ACAD_REACTORS
330
E
102
}
  0
MLINESTYLE
  5
18
102
{ACAD_REACTORS
330
17
102
}
100
AcDbMlineStyle
  2
STANDARD
 70
0
  3

 62
256
 51
90.0
 52
90.0
 71
2
 49
0.5
 62
256
  6
BYLAYER
 49
-0.5
 62
256
  6
BYLAYER
  0
LAYOUT
  5
289
102
{ACAD_REACTORS
330
1A
102
}
100
AcDbPlotSettings
  1

  2
none_device
  4
ANSI_C_(22.00_x_17.00_Inches)
  6

 40
0.0
 41
0.0
 42
0.0
 43
0.0
 44
558.8
 45
431.8
 46
0.0
 47
0.0
 48
0.0
 49
0.0
140
0.0
141
0.0
142
1.0
143
1.0
 70
1024
 72
0
 73
0
 74
0
  7

 75
0
147
1.0
148
0.0
149
0.0
100
AcDbLayout
  1
Model
 70
0
 71
0
 10
0.0
 20
0.0
 11
22.0
 21
17.0
 12
0.0
 22
0.0
 32
0.0
 14
0.0
 24
0.0
 34
0.0
 15
0.0
 25
0.0
 35
0.0
146
0.0
 13
0.0
 23
0.0
 33
0.0
 16
1.0
 26
0.0
 36
0.0
 17
0.0
 27
1.0
 37
0.0
 76
0
330
205
345
0
346
0
  0
LAYOUT
  5
28A
102
{ACAD_REACTORS
330
1A
102
}
100
AcDbPlotSettings
  1

  2
none_device
  4
ANSI_C_(22.00_x_17.00_Inches)
  6

 40
0.0
 41
0.0
 42
0.0
 43
0.0
 44
558.8
 45
431.8
 46
0.0
 47
0.0
 48
0.0
 49
0.0
140
0.0
141
0.0
142
1.0
143
1.0
 70
0
 72
0
 73
0
 74
0
  7

 75
0
147
1.0
148
0.0
149
0.0
100
AcDbLayout
  1
Layout1
 70
0
 71
1
 10
0.0
 20
0.0
 11
22.0
 21
17.0
 12
0.0
 22
0.0
 32
0.0
 14
0.0
 24
0.0
 34
0.0
 15
0.0
 25
0.0
 35
0.0
146
0.0
 13
0.0
 23
0.0
 33
0.0
 16
1.0
 26
0.0
 36
0.0
 17
0.0
 27
1.0
 37
0.0
 76
0
330
206
345
0
346
0
  0
ENDSEC
  0
EOF
