999
DXF file: E:\BT Custom\CADOUTPUT\_RIGHT.dxf
999
Pro/ENGINEER 2018400 by Parametric Technology Corporation
  0
SECTION
  2
HEADER
  9
$ACADVER
  1
AC1018
  9
$DWGCODEPAGE
  3
ANSI_1252
  9
$EXTMAX
 10
22.0
 20
17.0
 30
0.0
  9
$EXTMIN
 10
0.0
 20
0.0
 30
0.0
  9
$LIMMIN
 10
0.0
 20
0.0
  9
$LIMMAX
 10
22.0
 20
17.0
  9
$VIEWCTR
 10
11.0
 20
8.5
  9
$VIEWSIZE
 40
17.0
  9
$CLAYER
  8
0
  9
$LTSCALE
 40
1.21
  9
$CELTYPE
  6
BYLAYER
  9
$DIMSCALE
 40
1.0
  9
$DIMASZ
 40
0.1
  9
$DIMEXO
 40
0.0625
  9
$DIMDLI
 40
0.836
  9
$DIMEXE
 40
0.125
  9
$DIMCEN
 40
0.198
  9
$DIMLFAC
 40
1.0
  9
$DIMBLK
  1
_FILLED
  9
$DIMALT
 70
1
  9
$DIMALTD
 70
2
  9
$DIMALTTD
 70
2
  9
$DIMALTF
 40
25.4
  9
$DIMTXT
 40
0.08
  9
$DIMTOL
 70
1
  9
$DIMLIM
 70
0
  9
$DIMTFAC
 40
1.0
  9
$DIMTP
 40
0.001
  9
$DIMTM
 40
0.001
  9
$DIMGAP
 40
0.09
  9
$DIMDSEP
 70
46
  9
$AUNITS
 70
0
  9
$PDMODE
 70
3
  9
$PDSIZE
 40
0.06
  9
$HANDSEED
  5
28B
  9
$TILEMODE
 70
1
  9
$MEASUREMENT
 70
0
  9
$INSUNITS
 70
1
  0
ENDSEC
  0
SECTION
  2
CLASSES
  0
CLASS
  1
ACDBDICTIONARYWDFLT
  2
AcDbDictionaryWithDefault
  3
AutoCAD 2000
 90
0
 91
1
280
0
281
0
  0
CLASS
  1
ACDBPLACEHOLDER
  2
AcDbPlaceHolder
  3
AutoCAD 2000
 90
0
 91
1
280
0
281
0
  0
CLASS
  1
LAYOUT
  2
AcDbLayout
  3
AutoCAD 2000
 90
0
 91
0
280
0
281
0
  0
ENDSEC
  0
SECTION
  2
TABLES
  0
TABLE
  2
VPORT
  5
8
100
AcDbSymbolTable
 70
2
  0
VPORT
  5
1F4
100
AcDbSymbolTableRecord
100
AcDbViewportTableRecord
  2
*ACTIVE
 70
0
 10
0.0
 20
0.0
 11
1.0
 21
1.0
 12
11.0
 22
8.5
 13
0.0
 23
0.0
 14
1.0
 24
1.0
 15
0.0
 25
0.0
 16
0.0
 26
0.0
 36
1.0
 17
0.0
 27
0.0
 37
0.0
 40
17.0
 41
1.2941176471
 42
50.0
 43
0.0
 44
0.0
 50
0.0
 51
0.0
 71
0
 72
100
 73
1
 74
1
 75
0
 76
0
 77
0
 78
0
  0
ENDTAB
  0
TABLE
  2
LTYPE
  5
5
100
AcDbSymbolTable
 70
6
  0
LTYPE
  5
14
100
AcDbSymbolTableRecord
100
AcDbLinetypeTableRecord
  2
BYBLOCK
 70
0
  3

 72
65
 73
0
 40
0.0
  0
LTYPE
  5
15
100
AcDbSymbolTableRecord
100
AcDbLinetypeTableRecord
  2
BYLAYER
 70
0
  3

 72
65
 73
0
 40
0.0
  0
LTYPE
  5
16
100
AcDbSymbolTableRecord
100
AcDbLinetypeTableRecord
  2
CONTINUOUS
 70
64
  3
Solid line
 72
65
 73
0
 40
0.0
  0
LTYPE
  5
1F5
100
AcDbSymbolTableRecord
100
AcDbLinetypeTableRecord
  2
CENTER
 70
64
  3
____ _ ____ _ ____ _ ____ _ ____ _ ____ _ ____
 72
65
 73
4
 40
0.6
 49
0.375
 74
0
 49
-0.075
 74
0
 49
0.075
 74
0
 49
-0.075
 74
0
  0
LTYPE
  5
1F6
100
AcDbSymbolTableRecord
100
AcDbLinetypeTableRecord
  2
HIDDEN
 70
64
  3
- - - - - - - - - - - - - - - - - - - -
 72
65
 73
2
 40
0.2
 49
0.1
 74
0
 49
-0.1
 74
0
  0
LTYPE
  5
1F7
100
AcDbSymbolTableRecord
100
AcDbLinetypeTableRecord
  2
PHANTOM
 70
64
  3
_____ _ _ _____ _ _ _____ _ _ _____
 72
65
 73
6
 40
0.8
 49
0.45
 74
0
 49
-0.05
 74
0
 49
0.1
 74
0
 49
-0.05
 74
0
 49
0.1
 74
0
 49
-0.05
 74
0
  0
LTYPE
  5
1F8
100
AcDbSymbolTableRecord
100
AcDbLinetypeTableRecord
  2
DOT
 70
64
  3
. . . . . . . . . . . . . . . . . . . .
 72
65
 73
2
 40
0.2
 49
0.1
 74
0
 49
-0.1
 74
0
  0
LTYPE
  5
1F9
100
AcDbSymbolTableRecord
100
AcDbLinetypeTableRecord
  2
DASHED
 70
64
  3
- - - - - - - - - - - - - - - - - - - -
 72
65
 73
2
 40
0.2
 49
0.1
 74
0
 49
-0.1
 74
0
  0
ENDTAB
  0
TABLE
  2
LAYER
  5
2
100
AcDbSymbolTable
 70
36
  0
LAYER
  5
10
100
AcDbSymbolTableRecord
100
AcDbLayerTableRecord
  2
0
 70
0
 62
7
  6
CONTINUOUS
370
-3
390
F
  0
LAYER
  5
1FA
100
AcDbSymbolTableRecord
100
AcDbLayerTableRecord
  2
DEFAULT_1
 70
0
 62
7
  6
CENTER
370
-3
390
F
  0
LAYER
  5
1FB
100
AcDbSymbolTableRecord
100
AcDbLayerTableRecord
  2
DEFAULT_2
 70
0
 62
8
  6
HIDDEN
370
-3
390
F
  0
LAYER
  5
1FC
100
AcDbSymbolTableRecord
100
AcDbLayerTableRecord
  2
DEFAULT_3
 70
0
 62
7
  6
PHANTOM
370
-3
390
F
  0
LAYER
  5
1FD
100
AcDbSymbolTableRecord
100
AcDbLayerTableRecord
  2
ALL_FEATURES
 70
0
 62
7
  6
CONTINUOUS
370
-3
390
F
  0
LAYER
  5
1FE
100
AcDbSymbolTableRecord
100
AcDbLayerTableRecord
  2
AXES_FEATURES
 70
0
 62
7
  6
CONTINUOUS
370
-3
390
F
  0
LAYER
  5
1FF
100
AcDbSymbolTableRecord
100
AcDbLayerTableRecord
  2
DEFAULT_COORDINATE_SYSTEM
 70
0
 62
7
  6
CONTINUOUS
370
-3
390
F
  0
LAYER
  5
200
100
AcDbSymbolTableRecord
100
AcDbLayerTableRecord
  2
DEFAULT_DATUM_AXES
 70
0
 62
7
  6
CONTINUOUS
370
-3
390
F
  0
LAYER
  5
201
100
AcDbSymbolTableRecord
100
AcDbLayerTableRecord
  2
DEFAULT_DATUM_PLANES
 70
0
 62
7
  6
CONTINUOUS
370
-3
390
F
  0
LAYER
  5
202
100
AcDbSymbolTableRecord
100
AcDbLayerTableRecord
  2
DIMENSIONS
 70
0
 62
7
  6
CONTINUOUS
370
-3
390
F
  0
ENDTAB
  0
TABLE
  2
STYLE
  5
3
100
AcDbSymbolTable
 70
1
  0
STYLE
  5
11
100
AcDbSymbolTableRecord
100
AcDbTextStyleTableRecord
  2
STANDARD
 70
0
 40
0.0
 41
0.8
 50
0.0
 71
0
 42
0.2
  3
txt
  4

  0
STYLE
  5
203
100
AcDbSymbolTableRecord
100
AcDbTextStyleTableRecord
  2
TEXTSTYLE_1
 70
0
 40
0.0
 41
0.8
 50
0.0
 71
0
 42
0.2
  3
gdt
  4

  0
ENDTAB
  0
TABLE
  2
VIEW
  5
6
100
AcDbSymbolTable
 70
0
  0
ENDTAB
  0
TABLE
  2
UCS
  5
7
100
AcDbSymbolTable
 70
0
  0
ENDTAB
  0
TABLE
  2
APPID
  5
9
100
AcDbSymbolTable
 70
1
  0
APPID
  5
204
100
AcDbSymbolTableRecord
100
AcDbRegAppTableRecord
  2
ACAD
 70
0
  0
ENDTAB
  0
TABLE
  2
BLOCK_RECORD
  5
1
100
AcDbSymbolTable
 70
0
  0
BLOCK_RECORD
  5
205
100
AcDbSymbolTableRecord
100
AcDbBlockTableRecord
  2
*Model_Space
  0
BLOCK_RECORD
  5
206
100
AcDbSymbolTableRecord
100
AcDbBlockTableRecord
  2
*Paper_Space
  0
BLOCK_RECORD
  5
207
100
AcDbSymbolTableRecord
100
AcDbBlockTableRecord
  2
_FILLED
  0
ENDTAB
  0
TABLE
  2
DIMSTYLE
  5
A
100
AcDbSymbolTable
 70
1
100
AcDbDimStyleTable
 71
0
  0
DIMSTYLE
105
208
100
AcDbSymbolTableRecord
100
AcDbDimStyleTableRecord
  2
STANDARD
 70
0
  3

  4

 40
1.0
 41
0.1
 42
0.0625
 43
0.38
 44
0.125
 45
0.0
 46
0.0
 47
0.001
 48
0.001
140
0.08
141
0.09
142
0.0
143
25.4
144
1.0
145
0.0
146
1.0
147
0.09
 71
1.0
 72
0.0
 73
1
 74
1
 75
0
 76
0
 77
0
 78
4
 79
1
170
1
171
2
172
0
173
0
174
0
175
0
176
0
177
0
178
0
270
2
179
3
271
3
272
3
273
2
274
2
275
0
280
0
281
0
282
0
283
1
284
4
285
0
286
0
287
3
288
0
340
11
278
46
341
207
342
207
343
207
344
207
  0
ENDTAB
  0
ENDSEC
  0
SECTION
  2
BLOCKS
  0
BLOCK
  5
20
100
AcDbEntity
  8
0
100
AcDbBlockBegin
  2
*Model_Space
 70
0
 10
0.0
 20
0.0
 30
0.0
  3
*Model_Space
  1

  0
ENDBLK
  5
21
100
AcDbEntity
  8
0
100
AcDbBlockEnd
  0
BLOCK
  5
1C
100
AcDbEntity
  8
0
100
AcDbBlockBegin
  2
*Paper_Space
 70
0
 10
0.0
 20
0.0
 30
0.0
  3
*Paper_Space
  1

  0
ENDBLK
  5
1D
100
AcDbEntity
  8
0
100
AcDbBlockEnd
  0
BLOCK
  5
209
100
AcDbEntity
  8
0
100
AcDbBlockBegin
  2
_FILLED
 70
64
 10
0.0
 20
0.0
  3
_FILLED
  1

  0
SOLID
  5
20A
100
AcDbEntity
  8
0
  6
BYBLOCK
 62
0
100
AcDbTrace
 10
0.0
 20
0.0
 11
-1.0
 21
0.2
 12
-1.0
 22
-0.2
 13
-1.0
 23
-0.2
  0
ENDBLK
  5
20B
100
AcDbEntity
  8
0
  6
BYBLOCK
 62
0
100
AcDbBlockEnd
  0
ENDSEC
  0
SECTION
  2
ENTITIES
  0
LINE
  5
20C
100
AcDbEntity
  8
0
100
AcDbLine
 62
7
  6
CONTINUOUS
 10
8.4480355998
 20
8.0065906431
 11
8.4480355998
 21
8.1715906462
  0
LINE
  5
20D
100
AcDbEntity
  8
0
100
AcDbLine
 62
7
  6
CONTINUOUS
 10
11.2855355998
 20
6.7315906462
 11
11.1955355998
 21
6.7315906462
  0
LINE
  5
20E
100
AcDbEntity
  8
0
100
AcDbLine
 62
7
  6
CONTINUOUS
 10
8.8355355998
 20
5.2315906462
 11
8.7105355998
 21
8.0065906462
  0
LINE
  5
20F
100
AcDbEntity
  8
0
100
AcDbLine
 62
7
  6
CONTINUOUS
 10
8.5155355998
 20
8.4355906462
 11
8.5155355998
 21
8.9015906462
  0
LINE
  5
210
100
AcDbEntity
  8
0
100
AcDbLine
 62
7
  6
CONTINUOUS
 10
8.5024604168
 20
5.2315906462
 11
8.5249200698
 21
8.0065906462
  0
LINE
  5
211
100
AcDbEntity
  8
0
100
AcDbLine
 62
7
  6
CONTINUOUS
 10
8.5855355998
 20
5.2315906462
 11
8.7105355998
 21
8.0065906462
  0
LINE
  5
212
100
AcDbEntity
  8
0
100
AcDbLine
 62
7
  6
CONTINUOUS
 10
8.2854313784
 20
5.128185371
 11
8.4480355998
 21
8.0065906462
  0
LINE
  5
213
100
AcDbEntity
  8
0
100
AcDbLine
 62
7
  6
CONTINUOUS
 10
8.3256837215
 20
5.2315906462
 11
8.5249200698
 21
8.0065906462
  0
LINE
  5
214
100
AcDbEntity
  8
0
100
AcDbLine
 62
7
  6
CONTINUOUS
 10
12.2855355998
 20
6.9455906462
 11
12.1125355998
 21
6.9455906462
  0
LINE
  5
215
100
AcDbEntity
  8
0
100
AcDbLine
 62
7
  6
CONTINUOUS
 10
11.5215355998
 20
7.0045906462
 11
12.1005355998
 21
7.0045906462
  0
LINE
  5
216
100
AcDbEntity
  8
0
100
AcDbLine
 62
7
  6
CONTINUOUS
 10
11.1885406303
 20
6.7323901429
 11
11.0525406303
 21
6.7638901429
  0
LINE
  5
217
100
AcDbEntity
  8
0
100
AcDbLine
 62
7
  6
CONTINUOUS
 10
9.0953874781
 20
5.2315906462
 11
8.8961511299
 21
8.0065906462
  0
LINE
  5
218
100
AcDbEntity
  8
0
100
AcDbLine
 62
7
  6
CONTINUOUS
 10
9.1356398212
 20
5.128185371
 11
8.9730355998
 21
8.0065906462
  0
LINE
  5
219
100
AcDbEntity
  8
0
100
AcDbLine
 62
7
  6
CONTINUOUS
 10
8.9186107828
 20
5.2315906462
 11
8.8961511299
 21
8.0065906462
  0
LINE
  5
21A
100
AcDbEntity
  8
0
100
AcDbLine
 62
7
  6
CONTINUOUS
 10
8.9055355998
 20
8.4355906462
 11
8.9055355998
 21
8.9015906462
  0
LINE
  5
21B
100
AcDbEntity
  8
0
100
AcDbLine
 62
7
  6
CONTINUOUS
 10
8.9730355998
 20
8.0065906428
 11
8.9730355998
 21
8.1715906462
  0
LINE
  5
21C
100
AcDbEntity
  8
0
100
AcDbLine
 62
7
  6
CONTINUOUS
 10
11.5215355998
 20
7.3585906462
 11
12.1005355998
 21
7.3585906462
  0
LINE
  5
21D
100
AcDbEntity
  8
0
100
AcDbLine
 62
7
  6
CONTINUOUS
 10
12.2855355998
 20
7.4175906462
 11
12.1125355998
 21
7.4175906462
  0
LINE
  5
21E
100
AcDbEntity
  8
0
100
AcDbLine
 62
9
  6
CONTINUOUS
 10
9.1605355998
 20
9.5465906462
 11
9.1605355998
 21
9.1565906462
  0
LINE
  5
21F
100
AcDbEntity
  8
0
100
AcDbLine
 62
7
  6
CONTINUOUS
 10
9.3755355998
 20
9.6040906462
 11
9.3755355998
 21
9.0990906462
  0
LINE
  5
220
100
AcDbEntity
  8
0
100
AcDbLine
 62
7
  6
CONTINUOUS
 10
11.1885406303
 20
7.6307911495
 11
11.0525406303
 21
7.5992911495
  0
LINE
  5
221
100
AcDbEntity
  8
0
100
AcDbLine
 62
7
  6
CONTINUOUS
 10
11.2855355998
 20
7.6315906462
 11
11.1955355998
 21
7.6315906462
  0
LINE
  5
222
100
AcDbEntity
  8
0
100
AcDbLine
 62
9
  6
CONTINUOUS
 10
9.4954182977
 20
9.6078406462
 11
9.4954182977
 21
9.0953406462
  0
LINE
  5
223
100
AcDbEntity
  8
0
100
AcDbLine
 62
9
  6
CONTINUOUS
 10
9.515379197
 20
9.5890906462
 11
9.515379197
 21
9.1140906462
  0
LINE
  5
224
100
AcDbEntity
  8
0
100
AcDbLine
 62
9
  6
CONTINUOUS
 10
9.565379197
 20
9.5890906462
 11
9.565379197
 21
9.1140906462
  0
LINE
  5
225
100
AcDbEntity
  8
0
100
AcDbLine
 62
9
  6
CONTINUOUS
 10
9.8445873508
 20
9.6668755374
 11
9.8445873508
 21
9.036305755
  0
LINE
  5
226
100
AcDbEntity
  8
0
100
AcDbLine
 62
7
  6
CONTINUOUS
 10
10.1755355998
 20
9.7040906462
 11
10.1155142079
 21
9.6520906462
  0
LINE
  5
227
100
AcDbEntity
  8
0
100
AcDbLine
 62
7
  6
CONTINUOUS
 10
8.9925355998
 20
8.1715906462
 11
8.4285355998
 21
8.1715906462
  0
LINE
  5
228
100
AcDbEntity
  8
0
100
AcDbLine
 62
9
  6
CONTINUOUS
 10
9.022426715
 20
8.2900480284
 11
8.3986444847
 21
8.2900480284
  0
LINE
  5
229
100
AcDbEntity
  8
0
100
AcDbLine
 62
7
  6
CONTINUOUS
 10
10.1155142079
 20
9.6520906462
 11
10.1155142079
 21
9.0510906462
  0
LINE
  5
22A
100
AcDbEntity
  8
0
100
AcDbLine
 62
7
  6
CONTINUOUS
 10
10.1755355998
 20
9.7040906462
 11
10.1755355998
 21
8.9990906462
  0
LINE
  5
22B
100
AcDbEntity
  8
0
100
AcDbLine
 62
7
  6
CONTINUOUS
 10
10.6255355998
 20
9.7610906462
 11
10.6055355998
 21
9.7410906462
  0
LINE
  5
22C
100
AcDbEntity
  8
0
100
AcDbLine
 62
9
  6
CONTINUOUS
 10
8.4852664802
 20
8.4261609749
 11
8.9358047194
 21
8.4261609749
  0
LINE
  5
22D
100
AcDbEntity
  8
0
100
AcDbLine
 62
7
  6
CONTINUOUS
 10
8.4952502032
 20
8.4355906462
 11
8.9258209964
 21
8.4355906462
  0
LINE
  5
22E
100
AcDbEntity
  8
0
100
AcDbLine
 62
7
  6
CONTINUOUS
 10
12.0055355998
 20
8.5390906462
 11
11.9185355998
 21
8.5390906462
  0
LINE
  5
22F
100
AcDbEntity
  8
0
100
AcDbLine
 62
7
  6
CONTINUOUS
 10
10.1755355998
 20
8.9990906462
 11
10.1155142079
 21
9.0510906462
  0
LINE
  5
230
100
AcDbEntity
  8
0
100
AcDbLine
 62
7
  6
CONTINUOUS
 10
11.5215355998
 20
7.4065906462
 11
11.3075495589
 21
7.6224169057
  0
LINE
  5
231
100
AcDbEntity
  8
0
100
AcDbLine
 62
7
  6
CONTINUOUS
 10
10.5755355998
 20
9.7040906462
 11
10.5755355998
 21
8.9990906462
  0
LINE
  5
232
100
AcDbEntity
  8
0
100
AcDbLine
 62
7
  6
CONTINUOUS
 10
10.6055355998
 20
8.9620906462
 11
10.6055355998
 21
9.7410906462
  0
LINE
  5
233
100
AcDbEntity
  8
0
100
AcDbLine
 62
7
  6
CONTINUOUS
 10
10.6255355998
 20
8.9420906462
 11
10.6255355998
 21
9.7610906462
  0
LINE
  5
234
100
AcDbEntity
  8
0
100
AcDbLine
 62
9
  6
CONTINUOUS
 10
8.5155355998
 20
8.9015906462
 11
8.9055355998
 21
8.9015906462
  0
LINE
  5
235
100
AcDbEntity
  8
0
100
AcDbLine
 62
7
  6
CONTINUOUS
 10
10.5755355998
 20
8.9990906462
 11
10.1755355998
 21
8.9990906462
  0
LINE
  5
236
100
AcDbEntity
  8
0
100
AcDbLine
 62
7
  6
CONTINUOUS
 10
10.6255355998
 20
8.9420906462
 11
10.6055355998
 21
8.9620906462
  0
LINE
  5
237
100
AcDbEntity
  8
0
100
AcDbLine
 62
7
  6
CONTINUOUS
 10
11.0285355998
 20
6.7940909595
 11
11.0285355998
 21
7.5690903329
  0
LINE
  5
238
100
AcDbEntity
  8
0
100
AcDbLine
 62
9
  6
CONTINUOUS
 10
11.0525406303
 20
6.7638901429
 11
11.0525406303
 21
7.5992911495
  0
LINE
  5
239
100
AcDbEntity
  8
0
100
AcDbLine
 62
7
  6
CONTINUOUS
 10
9.565379197
 20
9.1140906462
 11
9.515379197
 21
9.1140906462
  0
LINE
  5
23A
100
AcDbEntity
  8
0
100
AcDbLine
 62
7
  6
CONTINUOUS
 10
10.6055355998
 20
9.1515906462
 11
10.5755355998
 21
9.1515906462
  0
LINE
  5
23B
100
AcDbEntity
  8
0
100
AcDbLine
 62
7
  6
CONTINUOUS
 10
9.1605355998
 20
9.1565906462
 11
9.3755355998
 21
9.1565906462
  0
LINE
  5
23C
100
AcDbEntity
  8
0
100
AcDbLine
 62
9
  6
CONTINUOUS
 10
11.1885406303
 20
6.7323901429
 11
11.1885406303
 21
7.6307911495
  0
LINE
  5
23D
100
AcDbEntity
  8
0
100
AcDbLine
 62
9
  6
CONTINUOUS
 10
11.1955355998
 20
6.7315906462
 11
11.1955355998
 21
7.6315906462
  0
LINE
  5
23E
100
AcDbEntity
  8
0
100
AcDbLine
 62
9
  6
CONTINUOUS
 10
11.2855355998
 20
6.7315906462
 11
11.2855355998
 21
7.6315906462
  0
LINE
  5
23F
100
AcDbEntity
  8
0
100
AcDbLine
 62
9
  6
CONTINUOUS
 10
11.3075495589
 20
6.7407643867
 11
11.3075495589
 21
7.6224169057
  0
LINE
  5
240
100
AcDbEntity
  8
0
100
AcDbLine
 62
7
  6
CONTINUOUS
 10
9.1605355998
 20
9.5465906462
 11
9.3755355998
 21
9.5465906462
  0
LINE
  5
241
100
AcDbEntity
  8
0
100
AcDbLine
 62
7
  6
CONTINUOUS
 10
10.6055355998
 20
9.5515906462
 11
10.5755355998
 21
9.5515906462
  0
LINE
  5
242
100
AcDbEntity
  8
0
100
AcDbLine
 62
7
  6
CONTINUOUS
 10
9.565379197
 20
9.5890906462
 11
9.515379197
 21
9.5890906462
  0
LINE
  5
243
100
AcDbEntity
  8
0
100
AcDbLine
 62
7
  6
CONTINUOUS
 10
11.5215355998
 20
6.9565906462
 11
11.5215355998
 21
7.4065906462
  0
LINE
  5
244
100
AcDbEntity
  8
0
100
AcDbLine
 62
7
  6
CONTINUOUS
 10
10.5755355998
 20
9.7040906462
 11
10.1755355998
 21
9.7040906462
  0
LINE
  5
245
100
AcDbEntity
  8
0
100
AcDbLine
 62
7
  6
CONTINUOUS
 10
11.9185355998
 20
8.5390906462
 11
11.9185355998
 21
10.1640906462
  0
LINE
  5
246
100
AcDbEntity
  8
0
100
AcDbLine
 62
7
  6
CONTINUOUS
 10
12.0055355998
 20
8.5385879724
 11
12.0055355998
 21
10.16459332
  0
LINE
  5
247
100
AcDbEntity
  8
0
100
AcDbLine
 62
7
  6
CONTINUOUS
 10
12.0055355998
 20
10.1640906462
 11
11.9185355998
 21
10.1640906462
  0
LINE
  5
248
100
AcDbEntity
  8
0
100
AcDbLine
 62
7
  6
CONTINUOUS
 10
12.1005355998
 20
6.9575906462
 11
12.1005355998
 21
7.4055906462
  0
LINE
  5
249
100
AcDbEntity
  8
0
100
AcDbLine
 62
9
  6
CONTINUOUS
 10
12.1125355998
 20
6.9455906462
 11
12.1125355998
 21
7.4175906462
  0
LINE
  5
24A
100
AcDbEntity
  8
0
100
AcDbLine
 62
7
  6
CONTINUOUS
 10
12.1935355998
 20
8.3515906462
 11
12.1935355998
 21
10.3515906462
  0
LINE
  5
24B
100
AcDbEntity
  8
0
100
AcDbLine
 62
7
  6
CONTINUOUS
 10
12.2855355998
 20
6.9015906462
 11
12.2855355998
 21
7.4615906462
  0
LINE
  5
24C
100
AcDbEntity
  8
0
100
AcDbLine
 62
7
  6
CONTINUOUS
 10
12.3805355998
 20
12.1051688319
 11
12.3805355998
 21
6.5980127721
  0
LINE
  5
24D
100
AcDbEntity
  8
0
100
AcDbLine
 62
9
  6
CONTINUOUS
 10
12.5085355998
 20
6.3798015534
 11
12.5085355998
 21
12.3233797391
  0
LINE
  5
24E
100
AcDbEntity
  8
0
100
AcDbLine
 62
7
  6
CONTINUOUS
 10
12.6365257646
 20
12.5447267766
 11
12.6365257646
 21
6.1584545158
  0
LINE
  5
24F
100
AcDbEntity
  8
0
100
AcDbLine
 62
9
  6
CONTINUOUS
 10
12.7605334047
 20
5.9425178404
 11
12.7605334047
 21
12.7606634521
  0
LINE
  5
250
100
AcDbEntity
  8
0
100
AcDbLine
 62
7
  6
CONTINUOUS
 10
12.8845355998
 20
12.9765906462
 11
12.8845355998
 21
5.7265906462
  0
LINE
  5
251
100
AcDbEntity
  8
0
100
AcDbLine
 62
7
  6
CONTINUOUS
 10
11.5215355998
 20
6.9565906462
 11
11.3075495589
 21
6.7407643867
  0
LINE
  5
252
100
AcDbEntity
  8
0
100
AcDbLine
 62
7
  6
CONTINUOUS
 10
13.1345355998
 20
5.476591582
 11
13.1345355998
 21
13.2265897104
  0
ARC
  5
253
100
AcDbEntity
  8
0
100
AcDbCircle
 62
7
  6
CONTINUOUS
 10
10.4023940767
 20
5.950400846
 40
3.0
100
AcDbArc
 50
59.6433854291
 51
85.7343714095
  0
ARC
  5
254
100
AcDbEntity
  8
0
100
AcDbCircle
 62
7
  6
CONTINUOUS
 10
9.1605355998
 20
8.9015906462
 40
0.645
100
AcDbArc
 50
90.0
 51
180.0
  0
ARC
  5
255
100
AcDbEntity
  8
0
100
AcDbCircle
 62
7
  6
CONTINUOUS
 10
9.565379197
 20
8.5740906462
 40
0.54
100
AcDbArc
 50
58.8652784311
 51
90.0
  0
ARC
  5
256
100
AcDbEntity
  8
0
100
AcDbCircle
 62
7
  6
CONTINUOUS
 10
8.7105355998
 20
5.2315906462
 40
0.4375
100
AcDbArc
 50
193.6715038208
 51
346.3284961792
  0
ARC
  5
257
100
AcDbEntity
  8
0
100
AcDbCircle
 62
7
  6
CONTINUOUS
 10
9.1605355998
 20
8.9015906462
 40
0.255
100
AcDbArc
 50
90.0
 51
180.0
  0
ARC
  5
258
100
AcDbEntity
  8
0
100
AcDbCircle
 62
7
  6
CONTINUOUS
 10
9.1008730998
 20
8.4355906462
 40
0.1653375
100
AcDbArc
 50
183.2695165906
 51
241.6756638894
  0
ARC
  5
259
100
AcDbEntity
  8
0
100
AcDbCircle
 62
7
  6
CONTINUOUS
 10
8.3201980998
 20
8.4355906462
 40
0.1653375
100
AcDbArc
 50
298.3243361106
 51
356.7304834094
  0
ARC
  5
25A
100
AcDbEntity
  8
0
100
AcDbCircle
 62
7
  6
CONTINUOUS
 10
8.4285355998
 20
8.2345906462
 40
0.063
100
AcDbArc
 50
118.3243361106
 51
270.0
  0
ARC
  5
25B
100
AcDbEntity
  8
0
100
AcDbCircle
 62
7
  6
CONTINUOUS
 10
8.9925355998
 20
8.2345906462
 40
0.063
100
AcDbArc
 50
270.0
 51
61.6756638894
  0
ARC
  5
25C
100
AcDbEntity
  8
0
100
AcDbCircle
 62
7
  6
CONTINUOUS
 10
9.4355355998
 20
9.0990906462
 40
0.06
100
AcDbArc
 50
180.0
 51
356.4166783015
  0
ARC
  5
25D
100
AcDbEntity
  8
0
100
AcDbCircle
 62
7
  6
CONTINUOUS
 10
9.515379197
 20
9.0940906462
 40
0.02
100
AcDbArc
 50
90.0
 51
176.4166783015
  0
ARC
  5
25E
100
AcDbEntity
  8
0
100
AcDbCircle
 62
7
  6
CONTINUOUS
 10
8.9258209964
 20
8.4255906462
 40
0.01
100
AcDbArc
 50
3.2695165963
 51
90.0
  0
ARC
  5
25F
100
AcDbEntity
  8
0
100
AcDbCircle
 62
7
  6
CONTINUOUS
 10
8.4952502032
 20
8.4255906462
 40
0.01
100
AcDbArc
 50
90.0
 51
176.7304834037
  0
ARC
  5
260
100
AcDbEntity
  8
0
100
AcDbCircle
 62
7
  6
CONTINUOUS
 10
10.4023940767
 20
12.7527804464
 40
3.0
100
AcDbArc
 50
274.2656285905
 51
300.3566145709
  0
ARC
  5
261
100
AcDbEntity
  8
0
100
AcDbCircle
 62
7
  6
CONTINUOUS
 10
9.565379197
 20
10.1290906462
 40
0.54
100
AcDbArc
 50
270.0
 51
301.1347215689
  0
ARC
  5
262
100
AcDbEntity
  8
0
100
AcDbCircle
 62
7
  6
CONTINUOUS
 10
9.9691969157
 20
9.2425906462
 40
0.241
100
AcDbArc
 50
238.8652784311
 51
307.3819608307
  0
ARC
  5
263
100
AcDbEntity
  8
0
100
AcDbCircle
 62
7
  6
CONTINUOUS
 10
9.9691969157
 20
9.4605906462
 40
0.241
100
AcDbArc
 50
52.6180391693
 51
121.1347215689
  0
ARC
  5
264
100
AcDbEntity
  8
0
100
AcDbCircle
 62
7
  6
CONTINUOUS
 10
9.4355355998
 20
9.6040906462
 40
0.06
100
AcDbArc
 50
3.5833216985
 51
180.0
  0
ARC
  5
265
100
AcDbEntity
  8
0
100
AcDbCircle
 62
7
  6
CONTINUOUS
 10
9.515379197
 20
9.6090906462
 40
0.02
100
AcDbArc
 50
183.5833216985
 51
270.0
  0
ARC
  5
266
100
AcDbEntity
  8
0
100
AcDbCircle
 62
7
  6
CONTINUOUS
 10
12.8865367421
 20
6.1584545158
 40
0.2500109774
100
AcDbArc
 50
180.0
 51
239.7355898687
  0
ARC
  5
267
100
AcDbEntity
  8
0
100
AcDbCircle
 62
7
  6
CONTINUOUS
 10
12.6305355998
 20
6.5980124605
 40
0.25
100
AcDbArc
 50
180.0
 51
240.7907880662
  0
ARC
  5
268
100
AcDbEntity
  8
0
100
AcDbCircle
 62
7
  6
CONTINUOUS
 10
12.3865355998
 20
6.1615906462
 40
0.25
100
AcDbArc
 50
0.0594822709
 51
60.7907880662
  0
ARC
  5
269
100
AcDbEntity
  8
0
100
AcDbCircle
 62
7
  6
CONTINUOUS
 10
12.6345355998
 20
5.7265906462
 40
0.25
100
AcDbArc
 50
0.0
 51
59.7355898687
  0
ARC
  5
26A
100
AcDbEntity
  8
0
100
AcDbCircle
 62
7
  6
CONTINUOUS
 10
13.1345355998
 20
5.7265906462
 40
0.25
100
AcDbArc
 50
180.0
 51
270.0
  0
ARC
  5
26B
100
AcDbEntity
  8
0
100
AcDbCircle
 62
7
  6
CONTINUOUS
 10
12.3805355998
 20
8.3587267573
 40
0.1871361111
100
AcDbArc
 50
182.1854050713
 51
270.0
  0
ARC
  5
26C
100
AcDbEntity
  8
0
100
AcDbCircle
 62
7
  6
CONTINUOUS
 10
12.1925355998
 20
8.5385879724
 40
0.187
100
AcDbArc
 50
180.0
 51
270.3063960032
  0
ARC
  5
26D
100
AcDbEntity
  8
0
100
AcDbCircle
 62
7
  6
CONTINUOUS
 10
12.3805355998
 20
6.9015906462
 40
0.095
100
AcDbArc
 50
180.0
 51
270.0
  0
ARC
  5
26E
100
AcDbEntity
  8
0
100
AcDbCircle
 62
7
  6
CONTINUOUS
 10
12.3805355998
 20
7.4615906462
 40
0.095
100
AcDbArc
 50
90.0
 51
180.0
  0
ARC
  5
26F
100
AcDbEntity
  8
0
100
AcDbCircle
 62
7
  6
CONTINUOUS
 10
11.2855355998
 20
7.6005906462
 40
0.031
100
AcDbArc
 50
44.7546926505
 51
90.0
  0
ARC
  5
270
100
AcDbEntity
  8
0
100
AcDbCircle
 62
7
  6
CONTINUOUS
 10
11.1955355998
 20
7.6005906462
 40
0.031
100
AcDbArc
 50
90.0
 51
103.0407610339
  0
ARC
  5
271
100
AcDbEntity
  8
0
100
AcDbCircle
 62
7
  6
CONTINUOUS
 10
11.2855355998
 20
6.7625906462
 40
0.031
100
AcDbArc
 50
270.0
 51
315.2453073495
  0
ARC
  5
272
100
AcDbEntity
  8
0
100
AcDbCircle
 62
7
  6
CONTINUOUS
 10
11.1955355998
 20
6.7625906462
 40
0.031
100
AcDbArc
 50
256.9592389661
 51
270.0
  0
ARC
  5
273
100
AcDbEntity
  8
0
100
AcDbCircle
 62
7
  6
CONTINUOUS
 10
11.0595355998
 20
7.5690906462
 40
0.031
100
AcDbArc
 50
103.0407610339
 51
180.0
  0
ARC
  5
274
100
AcDbEntity
  8
0
100
AcDbCircle
 62
7
  6
CONTINUOUS
 10
11.0595355998
 20
6.7940906462
 40
0.031
100
AcDbArc
 50
180.0
 51
256.9592389661
  0
ARC
  5
275
100
AcDbEntity
  8
0
100
AcDbCircle
 62
7
  6
CONTINUOUS
 10
12.1125355998
 20
7.4055906462
 40
0.012
100
AcDbArc
 50
90.0
 51
180.0
  0
ARC
  5
276
100
AcDbEntity
  8
0
100
AcDbCircle
 62
7
  6
CONTINUOUS
 10
12.1125355998
 20
6.9575906462
 40
0.012
100
AcDbArc
 50
180.0
 51
270.0
  0
ARC
  5
277
100
AcDbEntity
  8
0
100
AcDbCircle
 62
7
  6
CONTINUOUS
 10
12.8865367421
 20
12.5447267766
 40
0.2500109774
100
AcDbArc
 50
120.2644101313
 51
180.0
  0
ARC
  5
278
100
AcDbEntity
  8
0
100
AcDbCircle
 62
7
  6
CONTINUOUS
 10
12.6305355998
 20
12.1051688319
 40
0.25
100
AcDbArc
 50
119.2092119338
 51
180.0
  0
ARC
  5
279
100
AcDbEntity
  8
0
100
AcDbCircle
 62
7
  6
CONTINUOUS
 10
12.3865355998
 20
12.5415906462
 40
0.25
100
AcDbArc
 50
299.2092119338
 51
359.9405177291
  0
ARC
  5
27A
100
AcDbEntity
  8
0
100
AcDbCircle
 62
7
  6
CONTINUOUS
 10
12.6345355998
 20
12.9765906462
 40
0.25
100
AcDbArc
 50
300.2644101313
 51
360.0
  0
ARC
  5
27B
100
AcDbEntity
  8
0
100
AcDbCircle
 62
7
  6
CONTINUOUS
 10
13.1345355998
 20
12.9765906462
 40
0.25
100
AcDbArc
 50
90.0
 51
180.0
  0
ARC
  5
27C
100
AcDbEntity
  8
0
100
AcDbCircle
 62
7
  6
CONTINUOUS
 10
12.3805355998
 20
10.3444545351
 40
0.1871361111
100
AcDbArc
 50
90.0
 51
177.8145949287
  0
ARC
  5
27D
100
AcDbEntity
  8
0
100
AcDbCircle
 62
7
  6
CONTINUOUS
 10
12.1925355998
 20
10.16459332
 40
0.187
100
AcDbArc
 50
89.6936039968
 51
180.0
  0
SPLINE
  5
27E
100
AcDbEntity
  8
0
100
AcDbSpline
 62
7
  6
CONTINUOUS
 70
0
 71
3
 72
38
 73
34
 74
0
 42
0.0000001
 43
0.0000001
 44
0.0000000001
 40
0.0
 40
0.0
 40
0.0
 40
0.0
 40
0.0722893611
 40
0.1075767902
 40
0.14214113
 40
0.1758955995
 40
0.2087732312
 40
0.2407285209
 40
0.2717406998
 40
0.3018165455
 40
0.3309928541
 40
0.359337867
 40
0.3869520047
 40
0.413966336
 40
0.4405392357
 40
0.4668505168
 40
0.4930931481
 40
0.5194637069
 40
0.5461521808
 40
0.5733325761
 40
0.6011555564
 40
0.6297431506
 40
0.6591860209
 40
0.6742518705
 40
0.6895508397
 40
0.720849098
 40
0.7530870043
 40
0.7862360116
 40
0.8202437123
 40
0.8550368438
 40
0.8905245844
 40
0.9266001199
 40
1.0
 40
1.0
 40
1.0
 40
1.0
 10
9.0953874781
 20
5.2315906462
 30
0.0
 10
9.0947198666
 20
5.2244910491
 30
0.0
 10
9.0930696904
 20
5.2139686459
 30
0.0
 10
9.089520686
 20
5.2003958597
 30
0.0
 10
9.0862570644
 20
5.1907012818
 30
0.0
 10
9.0823950229
 20
5.1814864997
 30
0.0
 10
9.0779626421
 20
5.1728191448
 30
0.0
 10
9.0729922261
 20
5.1647639476
 30
0.0
 10
9.0675199047
 20
5.1573809797
 30
0.0
 10
9.0615854044
 20
5.1507256603
 30
0.0
 10
9.0552318506
 20
5.1448483562
 30
0.0
 10
9.0485055876
 20
5.1397941264
 30
0.0
 10
9.041456095
 20
5.1356024031
 30
0.0
 10
9.0341358842
 20
5.1323065825
 30
0.0
 10
9.0266003515
 20
5.1299334918
 30
0.0
 10
9.0189074311
 20
5.1285027539
 30
0.0
 10
9.0111169613
 20
5.1280261624
 30
0.0
 10
9.0032897912
 20
5.1285073277
 30
0.0
 10
8.9954867684
 20
5.1299416215
 30
0.0
 10
8.9877678812
 20
5.1323165243
 30
0.0
 10
8.9801914868
 20
5.1356122379
 30
0.0
 10
8.9728144704
 20
5.1398018748
 30
0.0
 10
8.9669225188
 20
5.14397954
 30
0.0
 10
8.9623598758
 20
5.147722346
 30
0.0
 10
8.9578369134
 20
5.151792361
 30
0.0
 10
8.952410329
 20
5.1573773711
 30
0.0
 10
8.9463511102
 20
5.1647558115
 30
0.0
 10
8.9407387127
 20
5.172807075
 30
0.0
 10
8.9356146349
 20
5.1814708574
 30
0.0
 10
8.931016433
 20
5.1906825958
 30
0.0
 10
8.926977792
 20
5.2003746334
 30
0.0
 10
8.9223538271
 20
5.2139136007
 30
0.0
 10
8.9198514592
 20
5.2244572715
 30
0.0
 10
8.9186107828
 20
5.2315906462
 30
0.0
  0
SPLINE
  5
27F
100
AcDbEntity
  8
0
100
AcDbSpline
 62
7
  6
CONTINUOUS
 70
0
 71
3
 72
39
 73
35
 74
0
 42
0.0000001
 43
0.0000001
 44
0.0000000001
 40
0.0
 40
0.0
 40
0.0
 40
0.0
 40
0.0312242019
 40
0.0624517635
 40
0.093681128
 40
0.1249143345
 40
0.1561511136
 40
0.1873919694
 40
0.2186370409
 40
0.249886331
 40
0.2811397349
 40
0.312397116
 40
0.3436580838
 40
0.374922303
 40
0.406189229
 40
0.4374582562
 40
0.4687287692
 40
0.5
 40
0.5312712308
 40
0.5625417438
 40
0.593810771
 40
0.625077697
 40
0.6563419162
 40
0.687602884
 40
0.7188602651
 40
0.750113669
 40
0.7813629591
 40
0.8126080306
 40
0.8438488864
 40
0.8750856655
 40
0.906318872
 40
0.9375482365
 40
0.9687757981
 40
1.0
 40
1.0
 40
1.0
 40
1.0
 10
8.8355355998
 20
5.2315906462
 30
0.0
 10
8.8348540623
 20
5.2279937025
 30
0.0
 10
8.8331782662
 20
5.22085464
 30
0.0
 10
8.8297484763
 20
5.2104062763
 30
0.0
 10
8.8254271476
 20
5.2002919522
 30
0.0
 10
8.8202470744
 20
5.1905883951
 30
0.0
 10
8.8142467374
 20
5.1813678205
 30
0.0
 10
8.8074711219
 20
5.1726992455
 30
0.0
 10
8.7999708443
 20
5.1646474595
 30
0.0
 10
8.7918020061
 20
5.157272656
 30
0.0
 10
8.7830256764
 20
5.1506299655
 30
0.0
 10
8.7737074777
 20
5.1447690363
 30
0.0
 10
8.763917063
 20
5.1397336703
 30
0.0
 10
8.7537276254
 20
5.1355614966
 30
0.0
 10
8.7432153288
 20
5.1322836895
 30
0.0
 10
8.7324587514
 20
5.1299247423
 30
0.0
 10
8.7215382988
 20
5.1285022883
 30
0.0
 10
8.7105355998
 20
5.1280269491
 30
0.0
 10
8.6995329009
 20
5.1285022883
 30
0.0
 10
8.6886124483
 20
5.1299247423
 30
0.0
 10
8.6778558709
 20
5.1322836895
 30
0.0
 10
8.6673435743
 20
5.1355614966
 30
0.0
 10
8.6571541366
 20
5.1397336703
 30
0.0
 10
8.647363722
 20
5.1447690363
 30
0.0
 10
8.6380455232
 20
5.1506299655
 30
0.0
 10
8.6292691936
 20
5.157272656
 30
0.0
 10
8.6211003554
 20
5.1646474595
 30
0.0
 10
8.6136000778
 20
5.1726992455
 30
0.0
 10
8.6068244623
 20
5.1813678205
 30
0.0
 10
8.6008241253
 20
5.1905883951
 30
0.0
 10
8.595644052
 20
5.2002919522
 30
0.0
 10
8.5913227234
 20
5.2104062763
 30
0.0
 10
8.5878929335
 20
5.22085464
 30
0.0
 10
8.5862171374
 20
5.2279937025
 30
0.0
 10
8.5855355998
 20
5.2315906462
 30
0.0
  0
SPLINE
  5
280
100
AcDbEntity
  8
0
100
AcDbSpline
 62
7
  6
CONTINUOUS
 70
0
 71
3
 72
38
 73
34
 74
0
 42
0.0000001
 43
0.0000001
 44
0.0000000001
 40
0.0
 40
0.0
 40
0.0
 40
0.0
 40
0.0733998801
 40
0.1094754156
 40
0.1449631562
 40
0.1797562877
 40
0.2137639884
 40
0.2469129957
 40
0.279150902
 40
0.3104491603
 40
0.3257481295
 40
0.3408139791
 40
0.3702568494
 40
0.3988444436
 40
0.4266674239
 40
0.4538478192
 40
0.4805362931
 40
0.5069068519
 40
0.5331494832
 40
0.5594607643
 40
0.586033664
 40
0.6130479953
 40
0.640662133
 40
0.6690071459
 40
0.6981834545
 40
0.7282593002
 40
0.7592714791
 40
0.7912267688
 40
0.8241044005
 40
0.85785887
 40
0.8924232098
 40
0.9277106389
 40
1.0
 40
1.0
 40
1.0
 40
1.0
 10
8.5024604168
 20
5.2315906462
 30
0.0
 10
8.5012197405
 20
5.2244572715
 30
0.0
 10
8.4987173726
 20
5.2139136007
 30
0.0
 10
8.4940934077
 20
5.2003746334
 30
0.0
 10
8.4900547667
 20
5.1906825958
 30
0.0
 10
8.4854565647
 20
5.1814708574
 30
0.0
 10
8.480332487
 20
5.172807075
 30
0.0
 10
8.4747200895
 20
5.1647558115
 30
0.0
 10
8.4686608707
 20
5.1573773711
 30
0.0
 10
8.4632342863
 20
5.151792361
 30
0.0
 10
8.4587113238
 20
5.147722346
 30
0.0
 10
8.4541486809
 20
5.14397954
 30
0.0
 10
8.4482567293
 20
5.1398018748
 30
0.0
 10
8.4408797129
 20
5.1356122379
 30
0.0
 10
8.4333033185
 20
5.1323165243
 30
0.0
 10
8.4255844312
 20
5.1299416215
 30
0.0
 10
8.4177814085
 20
5.1285073277
 30
0.0
 10
8.4099542384
 20
5.1280261624
 30
0.0
 10
8.4021637686
 20
5.1285027539
 30
0.0
 10
8.3944708482
 20
5.1299334918
 30
0.0
 10
8.3869353155
 20
5.1323065825
 30
0.0
 10
8.3796151047
 20
5.1356024031
 30
0.0
 10
8.3725656121
 20
5.1397941264
 30
0.0
 10
8.3658393491
 20
5.1448483562
 30
0.0
 10
8.3594857953
 20
5.1507256603
 30
0.0
 10
8.3535512949
 20
5.1573809797
 30
0.0
 10
8.3480789736
 20
5.1647639476
 30
0.0
 10
8.3431085575
 20
5.1728191448
 30
0.0
 10
8.3386761768
 20
5.1814864997
 30
0.0
 10
8.3348141352
 20
5.1907012818
 30
0.0
 10
8.3315505137
 20
5.2003958597
 30
0.0
 10
8.3280015093
 20
5.2139686459
 30
0.0
 10
8.3263513331
 20
5.2244910491
 30
0.0
 10
8.3256837215
 20
5.2315906462
 30
0.0
  0
LINE
  5
281
100
AcDbEntity
  8
0
100
AcDbLine
 62
7
  6
CONTINUOUS
 10
8.3256837215
 20
5.2315906462
 11
8.2912728541
 21
5.2315906462
  0
LINE
  5
282
100
AcDbEntity
  8
0
100
AcDbLine
 62
7
  6
CONTINUOUS
 10
8.5855355998
 20
5.2315906462
 11
8.5024604168
 21
5.2315906462
  0
LINE
  5
283
100
AcDbEntity
  8
0
100
AcDbLine
 62
7
  6
CONTINUOUS
 10
8.9186107828
 20
5.2315906462
 11
8.8355355998
 21
5.2315906462
  0
LINE
  5
284
100
AcDbEntity
  8
0
100
AcDbLine
 62
7
  6
CONTINUOUS
 10
9.1297983456
 20
5.2315906462
 11
9.0953874781
 21
5.2315906462
  0
SPLINE
  5
285
100
AcDbEntity
  8
0
100
AcDbSpline
 62
7
  6
CONTINUOUS
 70
0
 71
3
 72
48
 73
44
 74
0
 42
0.0000001
 43
0.0000001
 44
0.0000000001
 40
0.0
 40
0.0
 40
0.0
 40
0.0
 40
0.1155189885
 40
0.1710211737
 40
0.2249639508
 40
0.2773140014
 40
0.3280413899
 40
0.4245110945
 40
0.5141460365
 40
0.596731471
 40
0.6353183493
 40
0.6720682688
 40
0.7069578602
 40
0.7399653868
 40
0.8002644804
 40
0.8528333861
 40
0.8761741194
 40
0.8975315623
 40
0.9168912717
 40
0.9342424376
 40
0.9495772019
 40
0.9628889553
 40
0.9687849005
 40
0.9741737088
 40
0.979054967
 40
0.9834281914
 40
0.9872928417
 40
0.9906483396
 40
0.9934938289
 40
0.9947248691
 40
0.9958277854
 40
0.9968023068
 40
0.997648133
 40
0.9983649343
 40
0.9989523518
 40
0.9994099977
 40
0.9995900277
 40
0.9997374564
 40
0.9998522271
 40
0.9999342816
 40
0.9999630216
 40
0.9999835599
 40
1.0
 40
1.0
 40
1.0
 40
1.0
 10
8.5249200698
 20
8.0065906425
 30
0.0
 10
8.5219587957
 20
8.0065906425
 30
0.0
 10
8.5175747577
 20
8.0065577576
 30
0.0
 10
8.5118083688
 20
8.006486456
 30
0.0
 10
8.5076611725
 20
8.006433022
 30
0.0
 10
8.5036363225
 20
8.0063847575
 30
0.0
 10
8.4985212735
 20
8.006334076
 30
0.0
 10
8.4924501768
 20
8.0063077936
 30
0.0
 10
8.4855624051
 20
8.0063422676
 30
0.0
 10
8.480158981
 20
8.0064205295
 30
0.0
 10
8.4761113444
 20
8.0064914414
 30
0.0
 10
8.4732861833
 20
8.00654141
 30
0.0
 10
8.4706038658
 20
8.0065793075
 30
0.0
 10
8.4673176211
 20
8.0066008866
 30
0.0
 10
8.4635781386
 20
8.0065549001
 30
0.0
 10
8.4600877377
 20
8.0064614958
 30
0.0
 10
8.4575952506
 20
8.0063942388
 30
0.0
 10
8.4559536489
 20
8.006353857
 30
0.0
 10
8.4544653174
 20
8.0063271431
 30
0.0
 10
8.4531311669
 20
8.0063164988
 30
0.0
 10
8.4519520138
 20
8.0063216439
 30
0.0
 10
8.4510666666
 20
8.0063402515
 30
0.0
 10
8.4504365833
 20
8.0063640264
 30
0.0
 10
8.4500226578
 20
8.0063841999
 30
0.0
 10
8.4496479588
 20
8.0064068511
 30
0.0
 10
8.4493125407
 20
8.0064313584
 30
0.0
 10
8.4490164547
 20
8.0064570799
 30
0.0
 10
8.4487597649
 20
8.0064834398
 30
0.0
 10
8.4485706049
 20
8.0065062254
 30
0.0
 10
8.4484390108
 20
8.0065238872
 30
0.0
 10
8.448355053
 20
8.0065358965
 30
0.0
 10
8.4482809649
 20
8.0065471458
 30
0.0
 10
8.4482167481
 20
8.0065574601
 30
0.0
 10
8.4481624075
 20
8.0065666661
 30
0.0
 10
8.4481179388
 20
8.0065745842
 30
0.0
 10
8.448087076
 20
8.0065803579
 30
0.0
 10
8.4480673053
 20
8.0065841777
 30
0.0
 10
8.4480562118
 20
8.0065864033
 30
0.0
 10
8.4480474941
 20
8.0065881001
 30
0.0
 10
8.448041974
 20
8.006589386
 30
0.0
 10
8.4480384881
 20
8.006589925
 30
0.0
 10
8.4480371762
 20
8.006590546
 30
0.0
 10
8.4480355998
 20
8.0065902216
 30
0.0
 10
8.4480355998
 20
8.0065906431
 30
0.0
  0
SPLINE
  5
286
100
AcDbEntity
  8
0
100
AcDbSpline
 62
7
  6
CONTINUOUS
 70
0
 71
3
 72
29
 73
25
 74
0
 42
0.0000001
 43
0.0000001
 44
0.0000000001
 40
0.0
 40
0.0
 40
0.0
 40
0.0
 40
0.0693878061
 40
0.1040346223
 40
0.1386172925
 40
0.2075069762
 40
0.241774654
 40
0.2758973267
 40
0.3267637262
 40
0.3771868475
 40
0.4270990069
 40
0.4764327266
 40
0.5008615034
 40
0.52512037
 40
0.5492011212
 40
0.5730958225
 40
0.620295412
 40
0.6666546181
 40
0.7121099446
 40
0.7566001185
 40
0.8424446459
 40
0.9237257711
 40
0.9625185745
 40
1.0
 40
1.0
 40
1.0
 40
1.0
 10
8.7105356124
 20
8.0065906424
 30
0.0
 10
8.7062423733
 20
8.0065906388
 30
0.0
 10
8.6998054433
 20
8.0065561938
 30
0.0
 10
8.6912290614
 20
8.0064857276
 30
0.0
 10
8.6826834942
 20
8.0064146537
 30
0.0
 10
8.6741612932
 20
8.0063534953
 30
0.0
 10
8.6656673968
 20
8.0063225941
 30
0.0
 10
8.6582886078
 20
8.0063152849
 30
0.0
 10
8.6499102311
 20
8.0063335656
 30
0.0
 10
8.6405550689
 20
8.006390096
 30
0.0
 10
8.6312948912
 20
8.0064656813
 30
0.0
 10
8.6236430373
 20
8.0065316209
 30
0.0
 10
8.6175782747
 20
8.006570913
 30
0.0
 10
8.6130759001
 20
8.0065894483
 30
0.0
 10
8.6086065286
 20
8.0065925383
 30
0.0
 10
8.60271777
 20
8.0065740893
 30
0.0
 10
8.5954507332
 20
8.0065206167
 30
0.0
 10
8.5868498748
 20
8.0064405593
 30
0.0
 10
8.578416575
 20
8.0063690816
 30
0.0
 10
8.567540056
 20
8.0063082898
 30
0.0
 10
8.5544464937
 20
8.0063220143
 30
0.0
 10
8.5417063093
 20
8.0064562453
 30
0.0
 10
8.5319584787
 20
8.0065636612
 30
0.0
 10
8.527239162
 20
8.0065906425
 30
0.0
 10
8.5249200698
 20
8.0065906425
 30
0.0
  0
SPLINE
  5
287
100
AcDbEntity
  8
0
100
AcDbSpline
 62
7
  6
CONTINUOUS
 70
0
 71
3
 72
28
 73
24
 74
0
 42
0.0000001
 43
0.0000001
 44
0.0000000001
 40
0.0
 40
0.0
 40
0.0
 40
0.0
 40
0.0502696003
 40
0.0762741432
 40
0.1028341569
 40
0.1575553125
 40
0.1856851755
 40
0.2143059647
 40
0.2581191689
 40
0.302937818
 40
0.3487012869
 40
0.3953478467
 40
0.4428131171
 40
0.4668327199
 40
0.4910331172
 40
0.539943573
 40
0.5894776342
 40
0.6395675905
 40
0.6901460979
 40
0.7411447658
 40
0.7924931964
 40
0.8959655304
 40
1.0
 40
1.0
 40
1.0
 40
1.0
 10
8.8961511413
 20
8.0065906424
 30
0.0
 10
8.8930408053
 20
8.0065906376
 30
0.0
 10
8.8883215201
 20
8.0065547492
 30
0.0
 10
8.8819592507
 20
8.0064851186
 30
0.0
 10
8.8753215379
 20
8.0064132422
 30
0.0
 10
8.8685521842
 20
8.0063527327
 30
0.0
 10
8.861655131
 20
8.0063224435
 30
0.0
 10
8.8554329287
 20
8.0063152914
 30
0.0
 10
8.8481781422
 20
8.0063342033
 30
0.0
 10
8.8398628675
 20
8.006391165
 30
0.0
 10
8.8313724412
 20
8.0064669403
 30
0.0
 10
8.8227182824
 20
8.0065455828
 30
0.0
 10
8.8154092127
 20
8.0065885433
 30
0.0
 10
8.8094888549
 20
8.0065925012
 30
0.0
 10
8.8034791101
 20
8.0065737348
 30
0.0
 10
8.7958908653
 20
8.0065194289
 30
0.0
 10
8.7867009301
 20
8.0064393441
 30
0.0
 10
8.7774077013
 20
8.0063681159
 30
0.0
 10
8.7680236762
 20
8.0063225412
 30
0.0
 10
8.758561676
 20
8.0063139955
 30
0.0
 10
8.745827
 20
8.0063521378
 30
0.0
 10
8.7298114149
 20
8.0064869812
 30
0.0
 10
8.7169725476
 20
8.0065906478
 30
0.0
 10
8.7105356124
 20
8.0065906424
 30
0.0
  0
SPLINE
  5
288
100
AcDbEntity
  8
0
100
AcDbSpline
 62
7
  6
CONTINUOUS
 70
0
 71
3
 72
48
 73
44
 74
0
 42
0.0000001
 43
0.0000001
 44
0.0000000001
 40
0.0
 40
0.0
 40
0.0
 40
0.0
 40
0.0000164401
 40
0.0000369784
 40
0.0000657184
 40
0.0001477729
 40
0.0002625436
 40
0.0004099722
 40
0.0005900022
 40
0.0010476481
 40
0.0016350656
 40
0.0023518667
 40
0.0031976929
 40
0.0041722142
 40
0.0052751305
 40
0.0065061706
 40
0.0093516597
 40
0.0127071576
 40
0.0165718077
 40
0.0209450321
 40
0.0258262902
 40
0.0312150984
 40
0.0371110434
 40
0.0504227966
 40
0.0657575606
 40
0.0831087261
 40
0.1024684353
 40
0.1238258779
 40
0.1471666107
 40
0.1997355156
 40
0.2600346078
 40
0.2930421343
 40
0.3279317255
 40
0.3646816447
 40
0.4032685224
 40
0.4858539562
 40
0.5754889001
 40
0.6719586067
 40
0.7226859958
 40
0.7750360468
 40
0.8289788246
 40
0.8844810106
 40
1.0
 40
1.0
 40
1.0
 40
1.0
 10
8.9730355998
 20
8.0065906428
 30
0.0
 10
8.9730355998
 20
8.0065902214
 30
0.0
 10
8.9730340235
 20
8.0065905458
 30
0.0
 10
8.9730327116
 20
8.0065899247
 30
0.0
 10
8.9730292256
 20
8.0065893858
 30
0.0
 10
8.9730237055
 20
8.0065880998
 30
0.0
 10
8.9730149878
 20
8.006586403
 30
0.0
 10
8.9730038944
 20
8.0065841774
 30
0.0
 10
8.9729841237
 20
8.0065803576
 30
0.0
 10
8.9729532609
 20
8.0065745839
 30
0.0
 10
8.9729087922
 20
8.0065666659
 30
0.0
 10
8.9728544516
 20
8.0065574599
 30
0.0
 10
8.9727902349
 20
8.0065471456
 30
0.0
 10
8.9727161468
 20
8.0065358964
 30
0.0
 10
8.9726321889
 20
8.0065238871
 30
0.0
 10
8.9725005949
 20
8.0065062253
 30
0.0
 10
8.9723114349
 20
8.0064834398
 30
0.0
 10
8.9720547452
 20
8.0064570799
 30
0.0
 10
8.9717586591
 20
8.0064313584
 30
0.0
 10
8.9714232411
 20
8.0064068511
 30
0.0
 10
8.9710485423
 20
8.0063841999
 30
0.0
 10
8.9706346168
 20
8.0063640263
 30
0.0
 10
8.9700045336
 20
8.0063402514
 30
0.0
 10
8.9691191866
 20
8.006321644
 30
0.0
 10
8.9679400337
 20
8.0063164988
 30
0.0
 10
8.9666058833
 20
8.0063271431
 30
0.0
 10
8.9651175521
 20
8.006353857
 30
0.0
 10
8.9634759507
 20
8.0063942385
 30
0.0
 10
8.960983464
 20
8.0064614952
 30
0.0
 10
8.9574930638
 20
8.0065549017
 30
0.0
 10
8.9537535819
 20
8.0066008871
 30
0.0
 10
8.9504673376
 20
8.0065793061
 30
0.0
 10
8.9477850206
 20
8.006541409
 30
0.0
 10
8.9449598599
 20
8.0064914414
 30
0.0
 10
8.940912224
 20
8.0064205302
 30
0.0
 10
8.9355088006
 20
8.0063422672
 30
0.0
 10
8.9286210299
 20
8.0063077942
 30
0.0
 10
8.9225499339
 20
8.006334076
 30
0.0
 10
8.9174348857
 20
8.0063847565
 30
0.0
 10
8.9134100362
 20
8.0064330207
 30
0.0
 10
8.9092628405
 20
8.006486456
 30
0.0
 10
8.9034964525
 20
8.0065577617
 30
0.0
 10
8.8991124151
 20
8.006590647
 30
0.0
 10
8.8961511413
 20
8.0065906424
 30
0.0
  0
ENDSEC
  0
SECTION
  2
OBJECTS
  0
DICTIONARY
  5
C
100
AcDbDictionary
280
0
281
1
  3
ACAD_GROUP
350
D
  3
ACAD_MLINESTYLE
350
17
  3
ACAD_LAYOUT
350
1A
  3
ACAD_PLOTSETTINGS
350
19
  3
ACAD_PLOTSTYLENAME
350
E
  0
DICTIONARY
  5
D
102
{ACAD_REACTORS
330
C
102
}
100
AcDbDictionary
280
0
281
1
  0
ACDBDICTIONARYWDFLT
  5
E
102
{ACAD_REACTORS
330
C
102
}
100
AcDbDictionary
281
1
  3
Normal
350
F
100
AcDbDictionaryWithDefault
340
F
  0
DICTIONARY
  5
17
102
{ACAD_REACTORS
330
C
102
}
100
AcDbDictionary
280
0
281
1
  3
Standard
350
18
  0
DICTIONARY
  5
19
102
{ACAD_REACTORS
330
C
102
}
100
AcDbDictionary
281
1
  0
DICTIONARY
  5
1A
102
{ACAD_REACTORS
330
C
102
}
100
AcDbDictionary
281
1
  3
Model
350
289
  3
Layout1
350
28A
  0
ACDBPLACEHOLDER
  5
F
102
{ACAD_REACTORS
330
E
102
}
  0
MLINESTYLE
  5
18
102
{ACAD_REACTORS
330
17
102
}
100
AcDbMlineStyle
  2
STANDARD
 70
0
  3

 62
256
 51
90.0
 52
90.0
 71
2
 49
0.5
 62
256
  6
BYLAYER
 49
-0.5
 62
256
  6
BYLAYER
  0
LAYOUT
  5
289
102
{ACAD_REACTORS
330
1A
102
}
100
AcDbPlotSettings
  1

  2
none_device
  4
ANSI_C_(22.00_x_17.00_Inches)
  6

 40
0.0
 41
0.0
 42
0.0
 43
0.0
 44
558.8
 45
431.8
 46
0.0
 47
0.0
 48
0.0
 49
0.0
140
0.0
141
0.0
142
1.0
143
1.0
 70
1024
 72
0
 73
0
 74
0
  7

 75
0
147
1.0
148
0.0
149
0.0
100
AcDbLayout
  1
Model
 70
0
 71
0
 10
0.0
 20
0.0
 11
22.0
 21
17.0
 12
0.0
 22
0.0
 32
0.0
 14
0.0
 24
0.0
 34
0.0
 15
0.0
 25
0.0
 35
0.0
146
0.0
 13
0.0
 23
0.0
 33
0.0
 16
1.0
 26
0.0
 36
0.0
 17
0.0
 27
1.0
 37
0.0
 76
0
330
205
345
0
346
0
  0
LAYOUT
  5
28A
102
{ACAD_REACTORS
330
1A
102
}
100
AcDbPlotSettings
  1

  2
none_device
  4
ANSI_C_(22.00_x_17.00_Inches)
  6

 40
0.0
 41
0.0
 42
0.0
 43
0.0
 44
558.8
 45
431.8
 46
0.0
 47
0.0
 48
0.0
 49
0.0
140
0.0
141
0.0
142
1.0
143
1.0
 70
0
 72
0
 73
0
 74
0
  7

 75
0
147
1.0
148
0.0
149
0.0
100
AcDbLayout
  1
Layout1
 70
0
 71
1
 10
0.0
 20
0.0
 11
22.0
 21
17.0
 12
0.0
 22
0.0
 32
0.0
 14
0.0
 24
0.0
 34
0.0
 15
0.0
 25
0.0
 35
0.0
146
0.0
 13
0.0
 23
0.0
 33
0.0
 16
1.0
 26
0.0
 36
0.0
 17
0.0
 27
1.0
 37
0.0
 76
0
330
206
345
0
346
0
  0
ENDSEC
  0
EOF
