999
DXF file: E:\BT Custom\CADOUTPUT\_FRONT.dxf
999
Pro/ENGINEER 2018400 by Parametric Technology Corporation
  0
SECTION
  2
HEADER
  9
$ACADVER
  1
AC1018
  9
$DWGCODEPAGE
  3
ANSI_1252
  9
$EXTMAX
 10
22.0
 20
17.0
 30
0.0
  9
$EXTMIN
 10
0.0
 20
0.0
 30
0.0
  9
$LIMMIN
 10
0.0
 20
0.0
  9
$LIMMAX
 10
22.0
 20
17.0
  9
$VIEWCTR
 10
11.0
 20
8.5
  9
$VIEWSIZE
 40
17.0
  9
$CLAYER
  8
0
  9
$LTSCALE
 40
1.21
  9
$CELTYPE
  6
BYLAYER
  9
$DIMSCALE
 40
1.0
  9
$DIMASZ
 40
0.1
  9
$DIMEXO
 40
0.0625
  9
$DIMDLI
 40
0.836
  9
$DIMEXE
 40
0.125
  9
$DIMCEN
 40
0.198
  9
$DIMLFAC
 40
1.0
  9
$DIMBLK
  1
_FILLED
  9
$DIMALT
 70
1
  9
$DIMALTD
 70
2
  9
$DIMALTTD
 70
2
  9
$DIMALTF
 40
25.4
  9
$DIMTXT
 40
0.08
  9
$DIMTOL
 70
1
  9
$DIMLIM
 70
0
  9
$DIMTFAC
 40
1.0
  9
$DIMTP
 40
0.001
  9
$DIMTM
 40
0.001
  9
$DIMGAP
 40
0.09
  9
$DIMDSEP
 70
46
  9
$AUNITS
 70
0
  9
$PDMODE
 70
3
  9
$PDSIZE
 40
0.06
  9
$HANDSEED
  5
325
  9
$TILEMODE
 70
1
  9
$MEASUREMENT
 70
0
  9
$INSUNITS
 70
1
  0
ENDSEC
  0
SECTION
  2
CLASSES
  0
CLASS
  1
ACDBDICTIONARYWDFLT
  2
AcDbDictionaryWithDefault
  3
AutoCAD 2000
 90
0
 91
1
280
0
281
0
  0
CLASS
  1
ACDBPLACEHOLDER
  2
AcDbPlaceHolder
  3
AutoCAD 2000
 90
0
 91
1
280
0
281
0
  0
CLASS
  1
LAYOUT
  2
AcDbLayout
  3
AutoCAD 2000
 90
0
 91
0
280
0
281
0
  0
ENDSEC
  0
SECTION
  2
TABLES
  0
TABLE
  2
VPORT
  5
8
100
AcDbSymbolTable
 70
2
  0
VPORT
  5
1F4
100
AcDbSymbolTableRecord
100
AcDbViewportTableRecord
  2
*ACTIVE
 70
0
 10
0.0
 20
0.0
 11
1.0
 21
1.0
 12
11.0
 22
8.5
 13
0.0
 23
0.0
 14
1.0
 24
1.0
 15
0.0
 25
0.0
 16
0.0
 26
0.0
 36
1.0
 17
0.0
 27
0.0
 37
0.0
 40
17.0
 41
1.2941176471
 42
50.0
 43
0.0
 44
0.0
 50
0.0
 51
0.0
 71
0
 72
100
 73
1
 74
1
 75
0
 76
0
 77
0
 78
0
  0
ENDTAB
  0
TABLE
  2
LTYPE
  5
5
100
AcDbSymbolTable
 70
6
  0
LTYPE
  5
14
100
AcDbSymbolTableRecord
100
AcDbLinetypeTableRecord
  2
BYBLOCK
 70
0
  3

 72
65
 73
0
 40
0.0
  0
LTYPE
  5
15
100
AcDbSymbolTableRecord
100
AcDbLinetypeTableRecord
  2
BYLAYER
 70
0
  3

 72
65
 73
0
 40
0.0
  0
LTYPE
  5
16
100
AcDbSymbolTableRecord
100
AcDbLinetypeTableRecord
  2
CONTINUOUS
 70
64
  3
Solid line
 72
65
 73
0
 40
0.0
  0
LTYPE
  5
1F5
100
AcDbSymbolTableRecord
100
AcDbLinetypeTableRecord
  2
CENTER
 70
64
  3
____ _ ____ _ ____ _ ____ _ ____ _ ____ _ ____
 72
65
 73
4
 40
0.6
 49
0.375
 74
0
 49
-0.075
 74
0
 49
0.075
 74
0
 49
-0.075
 74
0
  0
LTYPE
  5
1F6
100
AcDbSymbolTableRecord
100
AcDbLinetypeTableRecord
  2
HIDDEN
 70
64
  3
- - - - - - - - - - - - - - - - - - - -
 72
65
 73
2
 40
0.2
 49
0.1
 74
0
 49
-0.1
 74
0
  0
LTYPE
  5
1F7
100
AcDbSymbolTableRecord
100
AcDbLinetypeTableRecord
  2
PHANTOM
 70
64
  3
_____ _ _ _____ _ _ _____ _ _ _____
 72
65
 73
6
 40
0.8
 49
0.45
 74
0
 49
-0.05
 74
0
 49
0.1
 74
0
 49
-0.05
 74
0
 49
0.1
 74
0
 49
-0.05
 74
0
  0
LTYPE
  5
1F8
100
AcDbSymbolTableRecord
100
AcDbLinetypeTableRecord
  2
DOT
 70
64
  3
. . . . . . . . . . . . . . . . . . . .
 72
65
 73
2
 40
0.2
 49
0.1
 74
0
 49
-0.1
 74
0
  0
LTYPE
  5
1F9
100
AcDbSymbolTableRecord
100
AcDbLinetypeTableRecord
  2
DASHED
 70
64
  3
- - - - - - - - - - - - - - - - - - - -
 72
65
 73
2
 40
0.2
 49
0.1
 74
0
 49
-0.1
 74
0
  0
ENDTAB
  0
TABLE
  2
LAYER
  5
2
100
AcDbSymbolTable
 70
36
  0
LAYER
  5
10
100
AcDbSymbolTableRecord
100
AcDbLayerTableRecord
  2
0
 70
0
 62
7
  6
CONTINUOUS
370
-3
390
F
  0
LAYER
  5
1FA
100
AcDbSymbolTableRecord
100
AcDbLayerTableRecord
  2
DEFAULT_1
 70
0
 62
7
  6
CENTER
370
-3
390
F
  0
LAYER
  5
1FB
100
AcDbSymbolTableRecord
100
AcDbLayerTableRecord
  2
DEFAULT_2
 70
0
 62
8
  6
HIDDEN
370
-3
390
F
  0
LAYER
  5
1FC
100
AcDbSymbolTableRecord
100
AcDbLayerTableRecord
  2
DEFAULT_3
 70
0
 62
7
  6
PHANTOM
370
-3
390
F
  0
LAYER
  5
1FD
100
AcDbSymbolTableRecord
100
AcDbLayerTableRecord
  2
ALL_FEATURES
 70
0
 62
7
  6
CONTINUOUS
370
-3
390
F
  0
LAYER
  5
1FE
100
AcDbSymbolTableRecord
100
AcDbLayerTableRecord
  2
AXES_FEATURES
 70
0
 62
7
  6
CONTINUOUS
370
-3
390
F
  0
LAYER
  5
1FF
100
AcDbSymbolTableRecord
100
AcDbLayerTableRecord
  2
DEFAULT_COORDINATE_SYSTEM
 70
0
 62
7
  6
CONTINUOUS
370
-3
390
F
  0
LAYER
  5
200
100
AcDbSymbolTableRecord
100
AcDbLayerTableRecord
  2
DEFAULT_DATUM_AXES
 70
0
 62
7
  6
CONTINUOUS
370
-3
390
F
  0
LAYER
  5
201
100
AcDbSymbolTableRecord
100
AcDbLayerTableRecord
  2
DEFAULT_DATUM_PLANES
 70
0
 62
7
  6
CONTINUOUS
370
-3
390
F
  0
LAYER
  5
202
100
AcDbSymbolTableRecord
100
AcDbLayerTableRecord
  2
DIMENSIONS
 70
0
 62
7
  6
CONTINUOUS
370
-3
390
F
  0
ENDTAB
  0
TABLE
  2
STYLE
  5
3
100
AcDbSymbolTable
 70
1
  0
STYLE
  5
11
100
AcDbSymbolTableRecord
100
AcDbTextStyleTableRecord
  2
STANDARD
 70
0
 40
0.0
 41
0.8
 50
0.0
 71
0
 42
0.2
  3
txt
  4

  0
STYLE
  5
203
100
AcDbSymbolTableRecord
100
AcDbTextStyleTableRecord
  2
TEXTSTYLE_1
 70
0
 40
0.0
 41
0.8
 50
0.0
 71
0
 42
0.2
  3
gdt
  4

  0
ENDTAB
  0
TABLE
  2
VIEW
  5
6
100
AcDbSymbolTable
 70
0
  0
ENDTAB
  0
TABLE
  2
UCS
  5
7
100
AcDbSymbolTable
 70
0
  0
ENDTAB
  0
TABLE
  2
APPID
  5
9
100
AcDbSymbolTable
 70
1
  0
APPID
  5
204
100
AcDbSymbolTableRecord
100
AcDbRegAppTableRecord
  2
ACAD
 70
0
  0
ENDTAB
  0
TABLE
  2
BLOCK_RECORD
  5
1
100
AcDbSymbolTable
 70
0
  0
BLOCK_RECORD
  5
205
100
AcDbSymbolTableRecord
100
AcDbBlockTableRecord
  2
*Model_Space
  0
BLOCK_RECORD
  5
206
100
AcDbSymbolTableRecord
100
AcDbBlockTableRecord
  2
*Paper_Space
  0
BLOCK_RECORD
  5
207
100
AcDbSymbolTableRecord
100
AcDbBlockTableRecord
  2
_FILLED
  0
ENDTAB
  0
TABLE
  2
DIMSTYLE
  5
A
100
AcDbSymbolTable
 70
1
100
AcDbDimStyleTable
 71
0
  0
DIMSTYLE
105
208
100
AcDbSymbolTableRecord
100
AcDbDimStyleTableRecord
  2
STANDARD
 70
0
  3

  4

 40
1.0
 41
0.1
 42
0.0625
 43
0.38
 44
0.125
 45
0.0
 46
0.0
 47
0.001
 48
0.001
140
0.08
141
0.09
142
0.0
143
25.4
144
1.0
145
0.0
146
1.0
147
0.09
 71
1.0
 72
0.0
 73
1
 74
1
 75
0
 76
0
 77
0
 78
4
 79
1
170
1
171
2
172
0
173
0
174
0
175
0
176
0
177
0
178
0
270
2
179
3
271
3
272
3
273
2
274
2
275
0
280
0
281
0
282
0
283
1
284
4
285
0
286
0
287
3
288
0
340
11
278
46
341
207
342
207
343
207
344
207
  0
ENDTAB
  0
ENDSEC
  0
SECTION
  2
BLOCKS
  0
BLOCK
  5
20
100
AcDbEntity
  8
0
100
AcDbBlockBegin
  2
*Model_Space
 70
0
 10
0.0
 20
0.0
 30
0.0
  3
*Model_Space
  1

  0
ENDBLK
  5
21
100
AcDbEntity
  8
0
100
AcDbBlockEnd
  0
BLOCK
  5
1C
100
AcDbEntity
  8
0
100
AcDbBlockBegin
  2
*Paper_Space
 70
0
 10
0.0
 20
0.0
 30
0.0
  3
*Paper_Space
  1

  0
ENDBLK
  5
1D
100
AcDbEntity
  8
0
100
AcDbBlockEnd
  0
BLOCK
  5
209
100
AcDbEntity
  8
0
100
AcDbBlockBegin
  2
_FILLED
 70
64
 10
0.0
 20
0.0
  3
_FILLED
  1

  0
SOLID
  5
20A
100
AcDbEntity
  8
0
  6
BYBLOCK
 62
0
100
AcDbTrace
 10
0.0
 20
0.0
 11
-1.0
 21
0.2
 12
-1.0
 22
-0.2
 13
-1.0
 23
-0.2
  0
ENDBLK
  5
20B
100
AcDbEntity
  8
0
  6
BYBLOCK
 62
0
100
AcDbBlockEnd
  0
ENDSEC
  0
SECTION
  2
ENTITIES
  0
LINE
  5
20C
100
AcDbEntity
  8
0
100
AcDbLine
 62
7
  6
CONTINUOUS
 10
7.0626923427
 20
11.9876695021
 11
7.0626923427
 21
6.5476695021
  0
LINE
  5
20D
100
AcDbEntity
  8
0
100
AcDbLine
 62
9
  6
CONTINUOUS
 10
7.0926923427
 20
6.5176695021
 11
7.0926923427
 21
12.0176695021
  0
LINE
  5
20E
100
AcDbEntity
  8
0
100
AcDbLine
 62
7
  6
CONTINUOUS
 10
7.0926923427
 20
6.5176695021
 11
14.7826923427
 21
6.5176695021
  0
LINE
  5
20F
100
AcDbEntity
  8
0
100
AcDbLine
 62
9
  6
CONTINUOUS
 10
7.0626923427
 20
6.5476695021
 11
14.8126923427
 21
6.5476695021
  0
LINE
  5
210
100
AcDbEntity
  8
0
100
AcDbLine
 62
7
  6
CONTINUOUS
 10
8.7176923433
 20
10.1632038608
 11
8.7176923433
 21
10.157610518
  0
LINE
  5
211
100
AcDbEntity
  8
0
100
AcDbLine
 62
7
  6
CONTINUOUS
 10
8.7176923433
 20
9.872565408
 11
8.7176923433
 21
9.8646056576
  0
LINE
  5
212
100
AcDbEntity
  8
0
100
AcDbLine
 62
7
  6
CONTINUOUS
 10
8.7589969914
 20
10.0995258542
 11
8.7589969914
 21
9.9295744273
  0
LINE
  5
213
100
AcDbEntity
  8
0
100
AcDbLine
 62
7
  6
CONTINUOUS
 10
8.8177270444
 20
9.9295744273
 11
8.8177270444
 21
10.0130442386
  0
LINE
  5
214
100
AcDbEntity
  8
0
100
AcDbLine
 62
7
  6
CONTINUOUS
 10
8.8177270444
 20
10.034126822
 11
8.8177270444
 21
10.0995258542
  0
LINE
  5
215
100
AcDbEntity
  8
0
100
AcDbLine
 62
7
  6
CONTINUOUS
 10
8.8590316891
 20
9.8652510427
 11
8.8590316891
 21
9.8719200228
  0
LINE
  5
216
100
AcDbEntity
  8
0
100
AcDbLine
 62
7
  6
CONTINUOUS
 10
8.8590316891
 20
10.1563197395
 11
8.8590316891
 21
10.1625584623
  0
LINE
  5
217
100
AcDbEntity
  8
0
100
AcDbLine
 62
7
  6
CONTINUOUS
 10
8.938414069
 20
10.1619130822
 11
8.938414069
 21
10.1550289794
  0
LINE
  5
218
100
AcDbEntity
  8
0
100
AcDbLine
 62
7
  6
CONTINUOUS
 10
8.938414069
 20
9.8710595088
 11
8.938414069
 21
9.8652510427
  0
LINE
  5
219
100
AcDbEntity
  8
0
100
AcDbLine
 62
7
  6
CONTINUOUS
 10
8.9797187044
 20
10.0995258542
 11
8.9797187044
 21
10.034126822
  0
LINE
  5
21A
100
AcDbEntity
  8
0
100
AcDbLine
 62
7
  6
CONTINUOUS
 10
8.9797187044
 20
10.0130442386
 11
8.9797187044
 21
9.9295744273
  0
LINE
  5
21B
100
AcDbEntity
  8
0
100
AcDbLine
 62
7
  6
CONTINUOUS
 10
9.0384487482
 20
10.0995258542
 11
9.0384487482
 21
9.9115036435
  0
LINE
  5
21C
100
AcDbEntity
  8
0
100
AcDbLine
 62
7
  6
CONTINUOUS
 10
9.0797534021
 20
9.8661115562
 11
9.0797534021
 21
9.8729956645
  0
LINE
  5
21D
100
AcDbEntity
  8
0
100
AcDbLine
 62
7
  6
CONTINUOUS
 10
9.0797534021
 20
10.158901278
 11
9.0797534021
 21
10.1660005137
  0
LINE
  5
21E
100
AcDbEntity
  8
0
100
AcDbLine
 62
7
  6
CONTINUOUS
 10
9.3676923427
 20
10.3346695021
 11
9.3676923427
 21
9.7946695021
  0
LINE
  5
21F
100
AcDbEntity
  8
0
100
AcDbLine
 62
9
  6
CONTINUOUS
 10
9.3976923427
 20
9.7646695021
 11
9.3976923427
 21
10.3646695021
  0
LINE
  5
220
100
AcDbEntity
  8
0
100
AcDbLine
 62
7
  6
CONTINUOUS
 10
9.8876923427
 20
11.0496695021
 11
9.8876923427
 21
10.3646695021
  0
LINE
  5
221
100
AcDbEntity
  8
0
100
AcDbLine
 62
7
  6
CONTINUOUS
 10
9.8876923427
 20
9.7646695021
 11
9.8876923427
 21
9.0796695021
  0
LINE
  5
222
100
AcDbEntity
  8
0
100
AcDbLine
 62
9
  6
CONTINUOUS
 10
9.9176923427
 20
9.7646695021
 11
9.9176923427
 21
9.0496695021
  0
LINE
  5
223
100
AcDbEntity
  8
0
100
AcDbLine
 62
9
  6
CONTINUOUS
 10
9.9176923427
 20
10.3646695021
 11
9.9176923422
 21
11.0796695021
  0
LINE
  5
224
100
AcDbEntity
  8
0
100
AcDbLine
 62
7
  6
CONTINUOUS
 10
10.2676923427
 20
10.6146695021
 11
10.2676923427
 21
10.3646695021
  0
LINE
  5
225
100
AcDbEntity
  8
0
100
AcDbLine
 62
7
  6
CONTINUOUS
 10
10.2676923427
 20
9.7646695021
 11
10.2676923427
 21
9.5146695021
  0
LINE
  5
226
100
AcDbEntity
  8
0
100
AcDbLine
 62
9
  6
CONTINUOUS
 10
10.2976923427
 20
10.6446695021
 11
10.2976923427
 21
10.3646695021
  0
LINE
  5
227
100
AcDbEntity
  8
0
100
AcDbLine
 62
9
  6
CONTINUOUS
 10
10.2976923427
 20
9.7646695021
 11
10.2976923427
 21
9.4846695021
  0
LINE
  5
228
100
AcDbEntity
  8
0
100
AcDbLine
 62
7
  6
CONTINUOUS
 10
11.0331538396
 20
8.3829672097
 11
11.0405514627
 21
8.3829672097
  0
LINE
  5
229
100
AcDbEntity
  8
0
100
AcDbLine
 62
7
  6
CONTINUOUS
 10
11.2648262768
 20
8.3829672097
 11
11.2722238999
 21
8.3829672097
  0
LINE
  5
22A
100
AcDbEntity
  8
0
100
AcDbLine
 62
7
  6
CONTINUOUS
 10
11.2709608775
 20
8.4601913606
 11
11.2641045409
 21
8.4601913606
  0
LINE
  5
22B
100
AcDbEntity
  8
0
100
AcDbLine
 62
7
  6
CONTINUOUS
 10
11.0392884713
 20
8.4601913606
 11
11.0324321037
 21
8.4601913606
  0
LINE
  5
22C
100
AcDbEntity
  8
0
100
AcDbLine
 62
7
  6
CONTINUOUS
 10
11.0493925267
 20
8.4901427828
 11
11.0582336216
 21
8.4901427828
  0
LINE
  5
22D
100
AcDbEntity
  8
0
100
AcDbLine
 62
7
  6
CONTINUOUS
 10
11.2810649949
 20
8.4901427828
 11
11.2899060898
 21
8.4901427828
  0
LINE
  5
22E
100
AcDbEntity
  8
0
100
AcDbLine
 62
7
  6
CONTINUOUS
 10
10.6676923427
 20
8.4946695021
 11
11.2076923427
 21
8.4946695021
  0
LINE
  5
22F
100
AcDbEntity
  8
0
100
AcDbLine
 62
9
  6
CONTINUOUS
 10
10.6376923427
 20
8.5246695021
 11
11.2376923427
 21
8.5246695021
  0
LINE
  5
230
100
AcDbEntity
  8
0
100
AcDbLine
 62
9
  6
CONTINUOUS
 10
10.3876923427
 20
9.7946695021
 11
10.3876923426
 21
9.7646695021
  0
LINE
  5
231
100
AcDbEntity
  8
0
100
AcDbLine
 62
9
  6
CONTINUOUS
 10
10.3876923427
 20
10.3346695021
 11
10.3876923427
 21
10.3646695021
  0
LINE
  5
232
100
AcDbEntity
  8
0
100
AcDbLine
 62
7
  6
CONTINUOUS
 10
10.6376923427
 20
11.6046695021
 11
10.6376923427
 21
10.6146695021
  0
LINE
  5
233
100
AcDbEntity
  8
0
100
AcDbLine
 62
7
  6
CONTINUOUS
 10
10.6376923427
 20
9.5146695021
 11
10.6376923427
 21
8.5246695021
  0
LINE
  5
234
100
AcDbEntity
  8
0
100
AcDbLine
 62
9
  6
CONTINUOUS
 10
10.6676923427
 20
8.4946695021
 11
10.6676923427
 21
9.5146695021
  0
LINE
  5
235
100
AcDbEntity
  8
0
100
AcDbLine
 62
9
  6
CONTINUOUS
 10
10.6676923427
 20
10.6146695021
 11
10.6676923427
 21
11.6346695021
  0
LINE
  5
236
100
AcDbEntity
  8
0
100
AcDbLine
 62
7
  6
CONTINUOUS
 10
10.8909747701
 20
8.4903232168
 11
10.8909747701
 21
8.3477833103
  0
LINE
  5
237
100
AcDbEntity
  8
0
100
AcDbLine
 62
7
  6
CONTINUOUS
 10
10.9402322417
 20
8.3477833103
 11
10.9402322417
 21
8.415083801
  0
LINE
  5
238
100
AcDbEntity
  8
0
100
AcDbLine
 62
7
  6
CONTINUOUS
 10
10.9402322417
 20
8.4327659677
 11
10.9402322417
 21
8.4858124601
  0
LINE
  5
239
100
AcDbEntity
  8
0
100
AcDbLine
 62
7
  6
CONTINUOUS
 10
9.9176923427
 20
9.0496695021
 11
10.6376923427
 21
9.0496695021
  0
LINE
  5
23A
100
AcDbEntity
  8
0
100
AcDbLine
 62
7
  6
CONTINUOUS
 10
11.2376923427
 20
9.0496695021
 11
11.9576923427
 21
9.0496695021
  0
LINE
  5
23B
100
AcDbEntity
  8
0
100
AcDbLine
 62
9
  6
CONTINUOUS
 10
11.2376923427
 20
9.0796695021
 11
11.9876923427
 21
9.0796695021
  0
LINE
  5
23C
100
AcDbEntity
  8
0
100
AcDbLine
 62
9
  6
CONTINUOUS
 10
10.6376923427
 20
9.0796695021
 11
9.8876923427
 21
9.0796695016
  0
LINE
  5
23D
100
AcDbEntity
  8
0
100
AcDbLine
 62
7
  6
CONTINUOUS
 10
11.1226472073
 20
8.4903232168
 11
11.1226472073
 21
8.3477833103
  0
LINE
  5
23E
100
AcDbEntity
  8
0
100
AcDbLine
 62
7
  6
CONTINUOUS
 10
11.1719047099
 20
8.3477833103
 11
11.1719047099
 21
8.415083801
  0
LINE
  5
23F
100
AcDbEntity
  8
0
100
AcDbLine
 62
7
  6
CONTINUOUS
 10
11.1719047099
 20
8.4327659677
 11
11.1719047099
 21
8.4858124601
  0
LINE
  5
240
100
AcDbEntity
  8
0
100
AcDbLine
 62
7
  6
CONTINUOUS
 10
11.2065472918
 20
8.2947368165
 11
11.2065472918
 21
8.3019540264
  0
LINE
  5
241
100
AcDbEntity
  8
0
100
AcDbLine
 62
9
  6
CONTINUOUS
 10
11.2076923427
 20
8.4946695021
 11
11.2076923427
 21
9.5146695021
  0
LINE
  5
242
100
AcDbEntity
  8
0
100
AcDbLine
 62
9
  6
CONTINUOUS
 10
11.2076923427
 20
10.6146695021
 11
11.2076923427
 21
11.6346695021
  0
LINE
  5
243
100
AcDbEntity
  8
0
100
AcDbLine
 62
7
  6
CONTINUOUS
 10
11.2376923427
 20
8.5246695021
 11
11.2376923427
 21
9.5146695021
  0
LINE
  5
244
100
AcDbEntity
  8
0
100
AcDbLine
 62
7
  6
CONTINUOUS
 10
11.2376923427
 20
10.6146695021
 11
11.2376923427
 21
11.6046695021
  0
LINE
  5
245
100
AcDbEntity
  8
0
100
AcDbLine
 62
7
  6
CONTINUOUS
 10
11.2926125222
 20
8.4969991349
 11
11.2926125222
 21
8.5384980999
  0
LINE
  5
246
100
AcDbEntity
  8
0
100
AcDbLine
 62
7
  6
CONTINUOUS
 10
10.2976923427
 20
9.4846695021
 11
10.6376923427
 21
9.4846695021
  0
LINE
  5
247
100
AcDbEntity
  8
0
100
AcDbLine
 62
7
  6
CONTINUOUS
 10
11.2376923427
 20
9.4846695021
 11
11.5776923427
 21
9.4846695021
  0
LINE
  5
248
100
AcDbEntity
  8
0
100
AcDbLine
 62
9
  6
CONTINUOUS
 10
10.2676923427
 20
9.5146695021
 11
10.6676923427
 21
9.5146695021
  0
LINE
  5
249
100
AcDbEntity
  8
0
100
AcDbLine
 62
9
  6
CONTINUOUS
 10
11.2076923427
 20
9.5146695021
 11
11.6076923427
 21
9.5146695021
  0
LINE
  5
24A
100
AcDbEntity
  8
0
100
AcDbLine
 62
9
  6
CONTINUOUS
 10
11.4876923427
 20
9.7946695021
 11
11.4876923427
 21
9.7646695021
  0
LINE
  5
24B
100
AcDbEntity
  8
0
100
AcDbLine
 62
9
  6
CONTINUOUS
 10
11.4876923427
 20
10.3346695021
 11
11.4876923428
 21
10.3646695021
  0
LINE
  5
24C
100
AcDbEntity
  8
0
100
AcDbLine
 62
9
  6
CONTINUOUS
 10
11.5776923427
 20
9.4846695021
 11
11.5776923427
 21
9.7646695021
  0
LINE
  5
24D
100
AcDbEntity
  8
0
100
AcDbLine
 62
9
  6
CONTINUOUS
 10
11.5776923427
 20
10.3646695021
 11
11.5776923427
 21
10.6446695021
  0
LINE
  5
24E
100
AcDbEntity
  8
0
100
AcDbLine
 62
7
  6
CONTINUOUS
 10
11.6076923427
 20
9.5146695021
 11
11.6076923427
 21
9.7646695021
  0
LINE
  5
24F
100
AcDbEntity
  8
0
100
AcDbLine
 62
7
  6
CONTINUOUS
 10
11.6076923427
 20
10.3646695021
 11
11.6076923427
 21
10.6146695021
  0
LINE
  5
250
100
AcDbEntity
  8
0
100
AcDbLine
 62
7
  6
CONTINUOUS
 10
9.3976923427
 20
9.7646695021
 11
10.3876923427
 21
9.7646695021
  0
LINE
  5
251
100
AcDbEntity
  8
0
100
AcDbLine
 62
7
  6
CONTINUOUS
 10
11.4876923427
 20
9.7646695021
 11
12.4776923427
 21
9.7646695021
  0
LINE
  5
252
100
AcDbEntity
  8
0
100
AcDbLine
 62
9
  6
CONTINUOUS
 10
9.3676923427
 20
9.7946695021
 11
10.3876923427
 21
9.7946695021
  0
LINE
  5
253
100
AcDbEntity
  8
0
100
AcDbLine
 62
9
  6
CONTINUOUS
 10
11.4876923427
 20
9.7946695021
 11
12.5076923427
 21
9.7946695021
  0
LINE
  5
254
100
AcDbEntity
  8
0
100
AcDbLine
 62
7
  6
CONTINUOUS
 10
8.8177270444
 20
10.0130442386
 11
8.9797187044
 21
10.0130442386
  0
LINE
  5
255
100
AcDbEntity
  8
0
100
AcDbLine
 62
7
  6
CONTINUOUS
 10
8.9797187044
 20
10.034126822
 11
8.8177270444
 21
10.034126822
  0
LINE
  5
256
100
AcDbEntity
  8
0
100
AcDbLine
 62
9
  6
CONTINUOUS
 10
11.9576923432
 20
9.0496695021
 11
11.9576923427
 21
9.7646695021
  0
LINE
  5
257
100
AcDbEntity
  8
0
100
AcDbLine
 62
9
  6
CONTINUOUS
 10
11.9576923427
 20
10.3646695021
 11
11.9576923427
 21
11.0796695021
  0
LINE
  5
258
100
AcDbEntity
  8
0
100
AcDbLine
 62
7
  6
CONTINUOUS
 10
11.9876923427
 20
9.0796695021
 11
11.9876923427
 21
9.7646695021
  0
LINE
  5
259
100
AcDbEntity
  8
0
100
AcDbLine
 62
7
  6
CONTINUOUS
 10
11.9876923427
 20
10.3646695021
 11
11.9876923427
 21
11.0496695021
  0
LINE
  5
25A
100
AcDbEntity
  8
0
100
AcDbLine
 62
9
  6
CONTINUOUS
 10
9.3676923427
 20
10.3346695021
 11
10.3876923427
 21
10.3346695021
  0
LINE
  5
25B
100
AcDbEntity
  8
0
100
AcDbLine
 62
9
  6
CONTINUOUS
 10
11.4876923427
 20
10.3346695021
 11
12.5076923427
 21
10.3346695021
  0
LINE
  5
25C
100
AcDbEntity
  8
0
100
AcDbLine
 62
7
  6
CONTINUOUS
 10
12.4776923427
 20
10.3646695021
 11
11.4876923427
 21
10.3646695021
  0
LINE
  5
25D
100
AcDbEntity
  8
0
100
AcDbLine
 62
7
  6
CONTINUOUS
 10
10.3876923427
 20
10.3646695021
 11
9.3976923427
 21
10.3646695021
  0
LINE
  5
25E
100
AcDbEntity
  8
0
100
AcDbLine
 62
9
  6
CONTINUOUS
 10
12.4776923427
 20
9.7646695021
 11
12.4776923427
 21
10.3646695021
  0
LINE
  5
25F
100
AcDbEntity
  8
0
100
AcDbLine
 62
7
  6
CONTINUOUS
 10
12.5076923427
 20
9.7946695021
 11
12.5076923427
 21
10.3346695021
  0
LINE
  5
260
100
AcDbEntity
  8
0
100
AcDbLine
 62
9
  6
CONTINUOUS
 10
10.6676923427
 20
10.6146695021
 11
10.2676923427
 21
10.6146695021
  0
LINE
  5
261
100
AcDbEntity
  8
0
100
AcDbLine
 62
9
  6
CONTINUOUS
 10
11.2076923427
 20
10.6146695021
 11
11.6076923427
 21
10.6146695021
  0
LINE
  5
262
100
AcDbEntity
  8
0
100
AcDbLine
 62
7
  6
CONTINUOUS
 10
11.5776923427
 20
10.6446695021
 11
11.2376923427
 21
10.6446695021
  0
LINE
  5
263
100
AcDbEntity
  8
0
100
AcDbLine
 62
7
  6
CONTINUOUS
 10
10.6376923427
 20
10.6446695021
 11
10.2976923427
 21
10.6446695021
  0
LINE
  5
264
100
AcDbEntity
  8
0
100
AcDbLine
 62
9
  6
CONTINUOUS
 10
10.6376923427
 20
11.0496695021
 11
9.8876923427
 21
11.0496695021
  0
LINE
  5
265
100
AcDbEntity
  8
0
100
AcDbLine
 62
9
  6
CONTINUOUS
 10
11.2376923427
 20
11.0496695021
 11
11.9876923427
 21
11.0496695027
  0
LINE
  5
266
100
AcDbEntity
  8
0
100
AcDbLine
 62
7
  6
CONTINUOUS
 10
11.9576923427
 20
11.0796695021
 11
11.2376923427
 21
11.0796695021
  0
LINE
  5
267
100
AcDbEntity
  8
0
100
AcDbLine
 62
7
  6
CONTINUOUS
 10
10.6376923427
 20
11.0796695021
 11
9.9176923427
 21
11.0796695021
  0
LINE
  5
268
100
AcDbEntity
  8
0
100
AcDbLine
 62
9
  6
CONTINUOUS
 10
10.6376923427
 20
11.6046695021
 11
11.2376923427
 21
11.6046695021
  0
LINE
  5
269
100
AcDbEntity
  8
0
100
AcDbLine
 62
7
  6
CONTINUOUS
 10
11.2076923427
 20
11.6346695021
 11
10.6676923427
 21
11.6346695021
  0
LINE
  5
26A
100
AcDbEntity
  8
0
100
AcDbLine
 62
9
  6
CONTINUOUS
 10
7.0626923427
 20
11.9876695021
 11
14.8126923427
 21
11.9876695021
  0
LINE
  5
26B
100
AcDbEntity
  8
0
100
AcDbLine
 62
7
  6
CONTINUOUS
 10
14.7826923427
 20
12.0176695021
 11
7.0926923427
 21
12.0176695021
  0
LINE
  5
26C
100
AcDbEntity
  8
0
100
AcDbLine
 62
9
  6
CONTINUOUS
 10
14.7826923427
 20
6.5176695021
 11
14.7826923427
 21
12.0176695021
  0
LINE
  5
26D
100
AcDbEntity
  8
0
100
AcDbLine
 62
7
  6
CONTINUOUS
 10
14.8126923427
 20
6.5476695021
 11
14.8126923427
 21
11.9876695021
  0
ARC
  5
26E
100
AcDbEntity
  8
0
100
AcDbCircle
 62
7
  6
CONTINUOUS
 10
10.8263349329
 20
8.4903823055
 40
0.2963122803
100
AcDbArc
 50
359.9885744414
 51
0.8290203762
  0
ARC
  5
26F
100
AcDbEntity
  8
0
100
AcDbCircle
 62
7
  6
CONTINUOUS
 10
10.5946659141
 20
8.490382305
 40
0.2963088619
100
AcDbArc
 50
359.988574408
 51
0.8290300393
  0
ARC
  5
270
100
AcDbEntity
  8
0
100
AcDbCircle
 62
7
  6
CONTINUOUS
 10
10.6724108451
 20
8.4538818828
 40
0.0795949845
100
AcDbArc
 50
115.9246571828
 51
116.1294480961
  0
ARC
  5
271
100
AcDbEntity
  8
0
100
AcDbCircle
 62
7
  6
CONTINUOUS
 10
10.6676923427
 20
8.5246695021
 40
0.03
100
AcDbArc
 50
180.0
 51
270.0
  0
ARC
  5
272
100
AcDbEntity
  8
0
100
AcDbCircle
 62
7
  6
CONTINUOUS
 10
7.0926923427
 20
6.5476695021
 40
0.03
100
AcDbArc
 50
180.0
 51
270.0
  0
ARC
  5
273
100
AcDbEntity
  8
0
100
AcDbCircle
 62
7
  6
CONTINUOUS
 10
9.9176923427
 20
9.0796695021
 40
0.03
100
AcDbArc
 50
180.0
 51
270.0
  0
ARC
  5
274
100
AcDbEntity
  8
0
100
AcDbCircle
 62
7
  6
CONTINUOUS
 10
9.0124060534
 20
10.8204138808
 40
0.6539836517
100
AcDbArc
 50
266.3988262109
 51
269.9256768714
  0
ARC
  5
275
100
AcDbEntity
  8
0
100
AcDbCircle
 62
9
  6
CONTINUOUS
 10
10.3876923427
 20
10.6146695021
 40
0.28
100
AcDbArc
 50
270.0
 51
360.0
  0
ARC
  5
276
100
AcDbEntity
  8
0
100
AcDbCircle
 62
9
  6
CONTINUOUS
 10
10.3876923427
 20
9.5146695021
 40
0.28
100
AcDbArc
 50
0.0
 51
90.0
  0
ARC
  5
277
100
AcDbEntity
  8
0
100
AcDbCircle
 62
7
  6
CONTINUOUS
 10
10.3876923427
 20
9.5146695021
 40
0.25
100
AcDbArc
 50
0.0
 51
90.0
  0
ARC
  5
278
100
AcDbEntity
  8
0
100
AcDbCircle
 62
7
  6
CONTINUOUS
 10
10.3876923427
 20
10.6146695021
 40
0.25
100
AcDbArc
 50
270.0
 51
360.0
  0
ARC
  5
279
100
AcDbEntity
  8
0
100
AcDbCircle
 62
7
  6
CONTINUOUS
 10
9.3976923427
 20
10.3346695021
 40
0.03
100
AcDbArc
 50
90.0
 51
180.0
  0
ARC
  5
27A
100
AcDbEntity
  8
0
100
AcDbCircle
 62
7
  6
CONTINUOUS
 10
10.6676923427
 20
11.6046695021
 40
0.03
100
AcDbArc
 50
90.0
 51
180.0
  0
ARC
  5
27B
100
AcDbEntity
  8
0
100
AcDbCircle
 62
7
  6
CONTINUOUS
 10
9.3976923427
 20
9.7946695021
 40
0.03
100
AcDbArc
 50
180.0
 51
270.0
  0
ARC
  5
27C
100
AcDbEntity
  8
0
100
AcDbCircle
 62
7
  6
CONTINUOUS
 10
7.0926923427
 20
11.9876695021
 40
0.03
100
AcDbArc
 50
90.0
 51
180.0
  0
ARC
  5
27D
100
AcDbEntity
  8
0
100
AcDbCircle
 62
7
  6
CONTINUOUS
 10
10.2976923427
 20
9.5146695021
 40
0.03
100
AcDbArc
 50
180.0
 51
270.0
  0
ARC
  5
27E
100
AcDbEntity
  8
0
100
AcDbCircle
 62
7
  6
CONTINUOUS
 10
10.2976923427
 20
10.6146695021
 40
0.03
100
AcDbArc
 50
90.0
 51
180.0
  0
ARC
  5
27F
100
AcDbEntity
  8
0
100
AcDbCircle
 62
7
  6
CONTINUOUS
 10
9.9176923427
 20
11.0496695021
 40
0.03
100
AcDbArc
 50
90.0
 51
180.0
  0
CIRCLE
  5
280
100
AcDbEntity
  8
0
100
AcDbCircle
 62
7
  6
CONTINUOUS
 10
10.9376923427
 20
7.8946695021
 40
0.42
  0
ARC
  5
281
100
AcDbEntity
  8
0
100
AcDbCircle
 62
7
  6
CONTINUOUS
 10
10.9376923427
 20
7.8946695021
 40
0.42
100
AcDbArc
 50
270.0
 51
90.0
  0
CIRCLE
  5
282
100
AcDbEntity
  8
0
100
AcDbCircle
 62
9
  6
CONTINUOUS
 10
10.9376923427
 20
7.8946695021
 40
0.4
  0
ARC
  5
283
100
AcDbEntity
  8
0
100
AcDbCircle
 62
7
  6
CONTINUOUS
 10
11.5291378746
 20
8.4861104673
 40
0.357233289
100
AcDbArc
 50
178.6271044615
 51
180.0477966683
  0
ARC
  5
284
100
AcDbEntity
  8
0
100
AcDbCircle
 62
7
  6
CONTINUOUS
 10
11.2974591972
 20
8.486110462
 40
0.3572270798
100
AcDbArc
 50
178.6270797381
 51
180.0477966438
  0
ARC
  5
285
100
AcDbEntity
  8
0
100
AcDbCircle
 62
7
  6
CONTINUOUS
 10
10.9696053307
 20
8.4935757738
 40
0.0759981908
100
AcDbArc
 50
359.9963758093
 51
0.8250511807
  0
ARC
  5
286
100
AcDbEntity
  8
0
100
AcDbCircle
 62
7
  6
CONTINUOUS
 10
11.2076923427
 20
8.5246695021
 40
0.03
100
AcDbArc
 50
270.0
 51
360.0
  0
ARC
  5
287
100
AcDbEntity
  8
0
100
AcDbCircle
 62
7
  6
CONTINUOUS
 10
14.7826923427
 20
6.5476695021
 40
0.03
100
AcDbArc
 50
270.0
 51
360.0
  0
ARC
  5
288
100
AcDbEntity
  8
0
100
AcDbCircle
 62
7
  6
CONTINUOUS
 10
11.9576923427
 20
9.0796695021
 40
0.03
100
AcDbArc
 50
270.0
 51
360.0
  0
ARC
  5
289
100
AcDbEntity
  8
0
100
AcDbCircle
 62
9
  6
CONTINUOUS
 10
11.4876923427
 20
10.6146695021
 40
0.28
100
AcDbArc
 50
180.0
 51
270.0
  0
ARC
  5
28A
100
AcDbEntity
  8
0
100
AcDbCircle
 62
9
  6
CONTINUOUS
 10
11.4876923427
 20
9.5146695021
 40
0.28
100
AcDbArc
 50
90.0
 51
180.0
  0
ARC
  5
28B
100
AcDbEntity
  8
0
100
AcDbCircle
 62
7
  6
CONTINUOUS
 10
11.4876923427
 20
10.6146695021
 40
0.25
100
AcDbArc
 50
180.0
 51
270.0
  0
ARC
  5
28C
100
AcDbEntity
  8
0
100
AcDbCircle
 62
7
  6
CONTINUOUS
 10
11.4876923427
 20
9.5146695021
 40
0.25
100
AcDbArc
 50
90.0
 51
180.0
  0
ARC
  5
28D
100
AcDbEntity
  8
0
100
AcDbCircle
 62
7
  6
CONTINUOUS
 10
11.2076923427
 20
11.6046695021
 40
0.03
100
AcDbArc
 50
0.0
 51
90.0
  0
ARC
  5
28E
100
AcDbEntity
  8
0
100
AcDbCircle
 62
7
  6
CONTINUOUS
 10
12.4776923427
 20
10.3346695021
 40
0.03
100
AcDbArc
 50
0.0
 51
90.0
  0
ARC
  5
28F
100
AcDbEntity
  8
0
100
AcDbCircle
 62
7
  6
CONTINUOUS
 10
12.4776923427
 20
9.7946695021
 40
0.03
100
AcDbArc
 50
270.0
 51
360.0
  0
ARC
  5
290
100
AcDbEntity
  8
0
100
AcDbCircle
 62
7
  6
CONTINUOUS
 10
14.7826923427
 20
11.9876695021
 40
0.03
100
AcDbArc
 50
0.0
 51
90.0
  0
ARC
  5
291
100
AcDbEntity
  8
0
100
AcDbCircle
 62
7
  6
CONTINUOUS
 10
11.5776923427
 20
10.6146695021
 40
0.03
100
AcDbArc
 50
0.0
 51
90.0
  0
ARC
  5
292
100
AcDbEntity
  8
0
100
AcDbCircle
 62
7
  6
CONTINUOUS
 10
11.5776923427
 20
9.5146695021
 40
0.03
100
AcDbArc
 50
270.0
 51
360.0
  0
ARC
  5
293
100
AcDbEntity
  8
0
100
AcDbCircle
 62
7
  6
CONTINUOUS
 10
11.9576923427
 20
11.0496695021
 40
0.03
100
AcDbArc
 50
0.0
 51
90.0
  0
SPLINE
  5
294
100
AcDbEntity
  8
0
100
AcDbSpline
 62
7
  6
CONTINUOUS
 70
0
 71
3
 72
8
 73
4
 74
0
 42
0.0000001
 43
0.0000001
 44
0.0000000001
 40
0.0
 40
0.0
 40
0.0
 40
0.0
 40
1.0
 40
1.0
 40
1.0
 40
1.0
 10
8.8177270444
 20
10.0995258542
 30
0.0
 10
8.8177270444
 20
10.1197479155
 30
0.0
 10
8.8194480701
 20
10.1335161396
 30
0.0
 10
8.8231052508
 20
10.1404002444
 30
0.0
  0
SPLINE
  5
295
100
AcDbEntity
  8
0
100
AcDbSpline
 62
7
  6
CONTINUOUS
 70
0
 71
3
 72
8
 73
4
 74
0
 42
0.0000001
 43
0.0000001
 44
0.0000000001
 40
0.0
 40
0.0
 40
0.0
 40
0.0
 40
1.0
 40
1.0
 40
1.0
 40
1.0
 10
8.8231052508
 20
10.1404002444
 30
0.0
 10
8.8267624294
 20
10.1472843453
 30
0.0
 10
8.8364432128
 20
10.1507264152
 30
0.0
 10
8.8519324534
 20
10.1507264152
 30
0.0
  0
SPLINE
  5
296
100
AcDbEntity
  8
0
100
AcDbSpline
 62
7
  6
CONTINUOUS
 70
0
 71
3
 72
8
 73
4
 74
0
 42
0.0000001
 43
0.0000001
 44
0.0000000001
 40
0.0
 40
0.0
 40
0.0
 40
0.0
 40
1.0
 40
1.0
 40
1.0
 40
1.0
 10
8.8519324534
 20
10.1507264152
 30
0.0
 10
8.8566652741
 20
10.1507264152
 30
0.0
 10
8.8590316891
 20
10.1524474409
 30
0.0
 10
8.8590316891
 20
10.1563197395
 30
0.0
  0
SPLINE
  5
297
100
AcDbEntity
  8
0
100
AcDbSpline
 62
7
  6
CONTINUOUS
 70
0
 71
3
 72
8
 73
4
 74
0
 42
0.0000001
 43
0.0000001
 44
0.0000000001
 40
0.0
 40
0.0
 40
0.0
 40
0.0
 40
1.0
 40
1.0
 40
1.0
 40
1.0
 10
8.8590316891
 20
10.1625584623
 30
0.0
 10
8.8590316891
 20
10.166861045
 30
0.0
 10
8.8566652741
 20
10.1690123179
 30
0.0
 10
8.8519324534
 20
10.1690123179
 30
0.0
  0
SPLINE
  5
298
100
AcDbEntity
  8
0
100
AcDbSpline
 62
7
  6
CONTINUOUS
 70
0
 71
3
 72
8
 73
4
 74
0
 42
0.0000001
 43
0.0000001
 44
0.0000000001
 40
0.0
 40
0.0
 40
0.0
 40
0.0
 40
1.0
 40
1.0
 40
1.0
 40
1.0
 10
8.8519324534
 20
10.1690123179
 30
0.0
 10
8.8480601456
 20
10.1690123179
 30
0.0
 10
8.8403155207
 20
10.1685820707
 30
0.0
 10
8.8284834643
 20
10.1677215582
 30
0.0
  0
SPLINE
  5
299
100
AcDbEntity
  8
0
100
AcDbSpline
 62
7
  6
CONTINUOUS
 70
0
 71
3
 72
8
 73
4
 74
0
 42
0.0000001
 43
0.0000001
 44
0.0000000001
 40
0.0
 40
0.0
 40
0.0
 40
0.0
 40
1.0
 40
1.0
 40
1.0
 40
1.0
 10
8.8284834643
 20
10.1677215582
 30
0.0
 10
8.8166513987
 20
10.166861045
 30
0.0
 10
8.8052495988
 20
10.1664307793
 30
0.0
 10
8.7942780461
 20
10.1664307793
 30
0.0
  0
SPLINE
  5
29A
100
AcDbEntity
  8
0
100
AcDbSpline
 62
7
  6
CONTINUOUS
 70
0
 71
3
 72
8
 73
4
 74
0
 42
0.0000001
 43
0.0000001
 44
0.0000000001
 40
0.0
 40
0.0
 40
0.0
 40
0.0
 40
1.0
 40
1.0
 40
1.0
 40
1.0
 10
8.7942780461
 20
10.1664307793
 30
0.0
 10
8.7774980316
 20
10.1664307793
 30
0.0
 10
8.7630844321
 20
10.166861045
 30
0.0
 10
8.7512518177
 20
10.1677138454
 30
0.0
  0
SPLINE
  5
29B
100
AcDbEntity
  8
0
100
AcDbSpline
 62
7
  6
CONTINUOUS
 70
0
 71
3
 72
8
 73
4
 74
0
 42
0.0000001
 43
0.0000001
 44
0.0000000001
 40
0.0
 40
0.0
 40
0.0
 40
0.0
 40
1.0
 40
1.0
 40
1.0
 40
1.0
 10
8.7512518177
 20
10.1677138454
 30
0.0
 10
8.7392051819
 20
10.1685820707
 30
0.0
 10
8.7306000465
 20
10.1690123179
 30
0.0
 10
8.7254369647
 20
10.1690123179
 30
0.0
  0
SPLINE
  5
29C
100
AcDbEntity
  8
0
100
AcDbSpline
 62
7
  6
CONTINUOUS
 70
0
 71
3
 72
8
 73
4
 74
0
 42
0.0000001
 43
0.0000001
 44
0.0000000001
 40
0.0
 40
0.0
 40
0.0
 40
0.0
 40
1.0
 40
1.0
 40
1.0
 40
1.0
 10
8.7254369647
 20
10.1690123179
 30
0.0
 10
8.720273883
 20
10.1690123179
 30
0.0
 10
8.7176923433
 20
10.1670761594
 30
0.0
 10
8.7176923433
 20
10.1632038608
 30
0.0
  0
SPLINE
  5
29D
100
AcDbEntity
  8
0
100
AcDbSpline
 62
7
  6
CONTINUOUS
 70
0
 71
3
 72
8
 73
4
 74
0
 42
0.0000001
 43
0.0000001
 44
0.0000000001
 40
0.0
 40
0.0
 40
0.0
 40
0.0
 40
1.0
 40
1.0
 40
1.0
 40
1.0
 10
8.7176923433
 20
10.157610518
 30
0.0
 10
8.7176923433
 20
10.1528776881
 30
0.0
 10
8.7189831137
 20
10.1507264152
 30
0.0
 10
8.721994911
 20
10.1507264152
 30
0.0
  0
SPLINE
  5
29E
100
AcDbEntity
  8
0
100
AcDbSpline
 62
7
  6
CONTINUOUS
 70
0
 71
3
 72
8
 73
4
 74
0
 42
0.0000001
 43
0.0000001
 44
0.0000000001
 40
0.0
 40
0.0
 40
0.0
 40
0.0
 40
1.0
 40
1.0
 40
1.0
 40
1.0
 10
8.721994911
 20
10.1507264152
 30
0.0
 10
8.7376992821
 20
10.1507264152
 30
0.0
 10
8.7478103151
 20
10.1468540981
 30
0.0
 10
8.7522465388
 20
10.1390636553
 30
0.0
  0
SPLINE
  5
29F
100
AcDbEntity
  8
0
100
AcDbSpline
 62
7
  6
CONTINUOUS
 70
0
 71
3
 72
8
 73
4
 74
0
 42
0.0000001
 43
0.0000001
 44
0.0000000001
 40
0.0
 40
0.0
 40
0.0
 40
0.0
 40
1.0
 40
1.0
 40
1.0
 40
1.0
 10
8.7522465388
 20
10.1390636553
 30
0.0
 10
8.7566305811
 20
10.1313648483
 30
0.0
 10
8.7589969914
 20
10.1182420226
 30
0.0
 10
8.7589969914
 20
10.0995258542
 30
0.0
  0
SPLINE
  5
2A0
100
AcDbEntity
  8
0
100
AcDbSpline
 62
7
  6
CONTINUOUS
 70
0
 71
3
 72
8
 73
4
 74
0
 42
0.0000001
 43
0.0000001
 44
0.0000000001
 40
0.0
 40
0.0
 40
0.0
 40
0.0
 40
1.0
 40
1.0
 40
1.0
 40
1.0
 10
8.7589969914
 20
9.9295744273
 30
0.0
 10
8.7589969914
 20
9.9039741514
 30
0.0
 10
8.7566305811
 20
9.8891302931
 30
0.0
 10
8.7521128845
 20
9.884827726
 30
0.0
  0
SPLINE
  5
2A1
100
AcDbEntity
  8
0
100
AcDbSpline
 62
7
  6
CONTINUOUS
 70
0
 71
3
 72
8
 73
4
 74
0
 42
0.0000001
 43
0.0000001
 44
0.0000000001
 40
0.0
 40
0.0
 40
0.0
 40
0.0
 40
1.0
 40
1.0
 40
1.0
 40
1.0
 10
8.7521128845
 20
9.884827726
 30
0.0
 10
8.7475951869
 20
9.8805251577
 30
0.0
 10
8.738559795
 20
9.8783738744
 30
0.0
 10
8.7247915801
 20
9.8783738744
 30
0.0
  0
SPLINE
  5
2A2
100
AcDbEntity
  8
0
100
AcDbSpline
 62
7
  6
CONTINUOUS
 70
0
 71
3
 72
8
 73
4
 74
0
 42
0.0000001
 43
0.0000001
 44
0.0000000001
 40
0.0
 40
0.0
 40
0.0
 40
0.0
 40
1.0
 40
1.0
 40
1.0
 40
1.0
 10
8.7247915801
 20
9.8783738744
 30
0.0
 10
8.7200587548
 20
9.8783738744
 30
0.0
 10
8.7176923433
 20
9.8764377182
 30
0.0
 10
8.7176923433
 20
9.872565408
 30
0.0
  0
SPLINE
  5
2A3
100
AcDbEntity
  8
0
100
AcDbSpline
 62
7
  6
CONTINUOUS
 70
0
 71
3
 72
8
 73
4
 74
0
 42
0.0000001
 43
0.0000001
 44
0.0000000001
 40
0.0
 40
0.0
 40
0.0
 40
0.0
 40
1.0
 40
1.0
 40
1.0
 40
1.0
 10
8.7176923433
 20
9.8646056576
 30
0.0
 10
8.7176923433
 20
9.8615938602
 30
0.0
 10
8.720273883
 20
9.8600879616
 30
0.0
 10
8.7254369647
 20
9.8600879616
 30
0.0
  0
SPLINE
  5
2A4
100
AcDbEntity
  8
0
100
AcDbSpline
 62
7
  6
CONTINUOUS
 70
0
 71
3
 72
8
 73
4
 74
0
 42
0.0000001
 43
0.0000001
 44
0.0000000001
 40
0.0
 40
0.0
 40
0.0
 40
0.0
 40
1.0
 40
1.0
 40
1.0
 40
1.0
 10
8.7254369647
 20
9.8600879616
 30
0.0
 10
8.7306000465
 20
9.8600879616
 30
0.0
 10
8.7411413359
 20
9.8605182183
 30
0.0
 10
8.7570605188
 20
9.8613845683
 30
0.0
  0
SPLINE
  5
2A5
100
AcDbEntity
  8
0
100
AcDbSpline
 62
7
  6
CONTINUOUS
 70
0
 71
3
 72
8
 73
4
 74
0
 42
0.0000001
 43
0.0000001
 44
0.0000000001
 40
0.0
 40
0.0
 40
0.0
 40
0.0
 40
1.0
 40
1.0
 40
1.0
 40
1.0
 10
8.7570605188
 20
9.8613845683
 30
0.0
 10
8.7727652109
 20
9.8622392454
 30
0.0
 10
8.7873939433
 20
9.8626695021
 30
0.0
 10
8.8009470253
 20
9.8626695021
 30
0.0
  0
SPLINE
  5
2A6
100
AcDbEntity
  8
0
100
AcDbSpline
 62
7
  6
CONTINUOUS
 70
0
 71
3
 72
8
 73
4
 74
0
 42
0.0000001
 43
0.0000001
 44
0.0000000001
 40
0.0
 40
0.0
 40
0.0
 40
0.0
 40
1.0
 40
1.0
 40
1.0
 40
1.0
 10
8.8009470253
 20
9.8626695021
 30
0.0
 10
8.8089067738
 20
9.8626695021
 30
0.0
 10
8.8188026809
 20
9.8622392454
 30
0.0
 10
8.8304196136
 20
9.8613787318
 30
0.0
  0
SPLINE
  5
2A7
100
AcDbEntity
  8
0
100
AcDbSpline
 62
7
  6
CONTINUOUS
 70
0
 71
3
 72
8
 73
4
 74
0
 42
0.0000001
 43
0.0000001
 44
0.0000000001
 40
0.0
 40
0.0
 40
0.0
 40
0.0
 40
1.0
 40
1.0
 40
1.0
 40
1.0
 10
8.8304196136
 20
9.8613787318
 30
0.0
 10
8.8420365464
 20
9.8605182183
 30
0.0
 10
8.8495660384
 20
9.8600879616
 30
0.0
 10
8.8534383555
 20
9.8600879616
 30
0.0
  0
SPLINE
  5
2A8
100
AcDbEntity
  8
0
100
AcDbSpline
 62
7
  6
CONTINUOUS
 70
0
 71
3
 72
8
 73
4
 74
0
 42
0.0000001
 43
0.0000001
 44
0.0000000001
 40
0.0
 40
0.0
 40
0.0
 40
0.0
 40
1.0
 40
1.0
 40
1.0
 40
1.0
 10
8.8534383555
 20
9.8600879616
 30
0.0
 10
8.8570955398
 20
9.8600879616
 30
0.0
 10
8.8590316891
 20
9.8618089886
 30
0.0
 10
8.8590316891
 20
9.8652510427
 30
0.0
  0
SPLINE
  5
2A9
100
AcDbEntity
  8
0
100
AcDbSpline
 62
7
  6
CONTINUOUS
 70
0
 71
3
 72
8
 73
4
 74
0
 42
0.0000001
 43
0.0000001
 44
0.0000000001
 40
0.0
 40
0.0
 40
0.0
 40
0.0
 40
1.0
 40
1.0
 40
1.0
 40
1.0
 10
8.8590316891
 20
9.8719200228
 30
0.0
 10
8.8590316891
 20
9.87622259
 30
0.0
 10
8.8570955398
 20
9.8783738744
 30
0.0
 10
8.8534383555
 20
9.8783738744
 30
0.0
  0
SPLINE
  5
2AA
100
AcDbEntity
  8
0
100
AcDbSpline
 62
7
  6
CONTINUOUS
 70
0
 71
3
 72
8
 73
4
 74
0
 42
0.0000001
 43
0.0000001
 44
0.0000000001
 40
0.0
 40
0.0
 40
0.0
 40
0.0
 40
1.0
 40
1.0
 40
1.0
 40
1.0
 10
8.8534383555
 20
9.8783738744
 30
0.0
 10
8.8413911663
 20
9.8783738744
 30
0.0
 10
8.8325708957
 20
9.8803100295
 30
0.0
 10
8.8265473037
 20
9.8846125954
 30
0.0
  0
SPLINE
  5
2AB
100
AcDbEntity
  8
0
100
AcDbSpline
 62
7
  6
CONTINUOUS
 70
0
 71
3
 72
8
 73
4
 74
0
 42
0.0000001
 43
0.0000001
 44
0.0000000001
 40
0.0
 40
0.0
 40
0.0
 40
0.0
 40
1.0
 40
1.0
 40
1.0
 40
1.0
 10
8.8265473037
 20
9.8846125954
 30
0.0
 10
8.8205237066
 20
9.8889151649
 30
0.0
 10
8.8177270444
 20
9.9037590232
 30
0.0
 10
8.8177270444
 20
9.9295744273
 30
0.0
  0
SPLINE
  5
2AC
100
AcDbEntity
  8
0
100
AcDbSpline
 62
7
  6
CONTINUOUS
 70
0
 71
3
 72
8
 73
4
 74
0
 42
0.0000001
 43
0.0000001
 44
0.0000000001
 40
0.0
 40
0.0
 40
0.0
 40
0.0
 40
1.0
 40
1.0
 40
1.0
 40
1.0
 10
8.9797187044
 20
9.9295744273
 30
0.0
 10
8.9797187044
 20
9.904619536
 30
0.0
 10
8.9775674315
 20
9.8897756778
 30
0.0
 10
8.973474499
 20
9.8852629614
 30
0.0
  0
SPLINE
  5
2AD
100
AcDbEntity
  8
0
100
AcDbSpline
 62
7
  6
CONTINUOUS
 70
0
 71
3
 72
8
 73
4
 74
0
 42
0.0000001
 43
0.0000001
 44
0.0000000001
 40
0.0
 40
0.0
 40
0.0
 40
0.0
 40
1.0
 40
1.0
 40
1.0
 40
1.0
 10
8.973474499
 20
9.8852629614
 30
0.0
 10
8.9691774173
 20
9.8805251577
 30
0.0
 10
8.9594966431
 20
9.8783738744
 30
0.0
 10
8.9442225261
 20
9.8783738744
 30
0.0
  0
SPLINE
  5
2AE
100
AcDbEntity
  8
0
100
AcDbSpline
 62
7
  6
CONTINUOUS
 70
0
 71
3
 72
8
 73
4
 74
0
 42
0.0000001
 43
0.0000001
 44
0.0000000001
 40
0.0
 40
0.0
 40
0.0
 40
0.0
 40
1.0
 40
1.0
 40
1.0
 40
1.0
 10
8.9442225261
 20
9.8783738744
 30
0.0
 10
8.9403502275
 20
9.8783738744
 30
0.0
 10
8.938414069
 20
9.8757923335
 30
0.0
 10
8.938414069
 20
9.8710595088
 30
0.0
  0
SPLINE
  5
2AF
100
AcDbEntity
  8
0
100
AcDbSpline
 62
7
  6
CONTINUOUS
 70
0
 71
3
 72
8
 73
4
 74
0
 42
0.0000001
 43
0.0000001
 44
0.0000000001
 40
0.0
 40
0.0
 40
0.0
 40
0.0
 40
1.0
 40
1.0
 40
1.0
 40
1.0
 10
8.938414069
 20
9.8652510427
 30
0.0
 10
8.938414069
 20
9.8618089886
 30
0.0
 10
8.9409956076
 20
9.8600879616
 30
0.0
 10
8.9461586847
 20
9.8600879616
 30
0.0
  0
SPLINE
  5
2B0
100
AcDbEntity
  8
0
100
AcDbSpline
 62
7
  6
CONTINUOUS
 70
0
 71
3
 72
8
 73
4
 74
0
 42
0.0000001
 43
0.0000001
 44
0.0000000001
 40
0.0
 40
0.0
 40
0.0
 40
0.0
 40
1.0
 40
1.0
 40
1.0
 40
1.0
 10
8.9461586847
 20
9.8600879616
 30
0.0
 10
8.9513217618
 20
9.8600879616
 30
0.0
 10
8.9612176688
 20
9.8605182183
 30
0.0
 10
8.9756308837
 20
9.8613851786
 30
0.0
  0
SPLINE
  5
2B1
100
AcDbEntity
  8
0
100
AcDbSpline
 62
7
  6
CONTINUOUS
 70
0
 71
3
 72
8
 73
4
 74
0
 42
0.0000001
 43
0.0000001
 44
0.0000000001
 40
0.0
 40
0.0
 40
0.0
 40
0.0
 40
1.0
 40
1.0
 40
1.0
 40
1.0
 10
8.9756308837
 20
9.8613851786
 30
0.0
 10
8.9898297443
 20
9.8622392454
 30
0.0
 10
9.0031677027
 20
9.8626695021
 30
0.0
 10
9.015430034
 20
9.8626695021
 30
0.0
  0
SPLINE
  5
2B2
100
AcDbEntity
  8
0
100
AcDbSpline
 62
7
  6
CONTINUOUS
 70
0
 71
3
 72
8
 73
4
 74
0
 42
0.0000001
 43
0.0000001
 44
0.0000000001
 40
0.0
 40
0.0
 40
0.0
 40
0.0
 40
1.0
 40
1.0
 40
1.0
 40
1.0
 10
9.015430034
 20
9.8626695021
 30
0.0
 10
9.028767974
 20
9.8626695021
 30
0.0
 10
9.0403849252
 20
9.8622392454
 30
0.0
 10
9.0502808139
 20
9.8613787334
 30
0.0
  0
SPLINE
  5
2B3
100
AcDbEntity
  8
0
100
AcDbSpline
 62
7
  6
CONTINUOUS
 70
0
 71
3
 72
8
 73
4
 74
0
 42
0.0000001
 43
0.0000001
 44
0.0000000001
 40
0.0
 40
0.0
 40
0.0
 40
0.0
 40
1.0
 40
1.0
 40
1.0
 40
1.0
 10
9.0502808139
 20
9.8613787334
 30
0.0
 10
9.0601767393
 20
9.8605182183
 30
0.0
 10
9.0677062221
 20
9.8600879616
 30
0.0
 10
9.0726541849
 20
9.8600879616
 30
0.0
  0
SPLINE
  5
2B4
100
AcDbEntity
  8
0
100
AcDbSpline
 62
7
  6
CONTINUOUS
 70
0
 71
3
 72
8
 73
4
 74
0
 42
0.0000001
 43
0.0000001
 44
0.0000000001
 40
0.0
 40
0.0
 40
0.0
 40
0.0
 40
1.0
 40
1.0
 40
1.0
 40
1.0
 10
9.0726541849
 20
9.8600879616
 30
0.0
 10
9.0773869963
 20
9.8600879616
 30
0.0
 10
9.0797534021
 20
9.8622392454
 30
0.0
 10
9.0797534021
 20
9.8661115562
 30
0.0
  0
SPLINE
  5
2B5
100
AcDbEntity
  8
0
100
AcDbSpline
 62
7
  6
CONTINUOUS
 70
0
 71
3
 72
8
 73
4
 74
0
 42
0.0000001
 43
0.0000001
 44
0.0000000001
 40
0.0
 40
0.0
 40
0.0
 40
0.0
 40
1.0
 40
1.0
 40
1.0
 40
1.0
 10
9.0797534021
 20
9.8729956645
 30
0.0
 10
9.0797534021
 20
9.8764377182
 30
0.0
 10
9.077817262
 20
9.8783738744
 30
0.0
 10
9.0741600593
 20
9.8783738744
 30
0.0
  0
SPLINE
  5
2B6
100
AcDbEntity
  8
0
100
AcDbSpline
 62
7
  6
CONTINUOUS
 70
0
 71
3
 72
8
 73
4
 74
0
 42
0.0000001
 43
0.0000001
 44
0.0000000001
 40
0.0
 40
0.0
 40
0.0
 40
0.0
 40
1.0
 40
1.0
 40
1.0
 40
1.0
 10
9.0741600593
 20
9.8783738744
 30
0.0
 10
9.0603918536
 20
9.8783738744
 30
0.0
 10
9.0511413451
 20
9.8800949013
 30
0.0
 10
9.0459285741
 20
9.8836786837
 30
0.0
  0
SPLINE
  5
2B7
100
AcDbEntity
  8
0
100
AcDbSpline
 62
7
  6
CONTINUOUS
 70
0
 71
3
 72
8
 73
4
 74
0
 42
0.0000001
 43
0.0000001
 44
0.0000000001
 40
0.0
 40
0.0
 40
0.0
 40
0.0
 40
1.0
 40
1.0
 40
1.0
 40
1.0
 10
9.0459285741
 20
9.8836786837
 30
0.0
 10
9.0408151909
 20
9.8871941369
 30
0.0
 10
9.0384487482
 20
9.8964446593
 30
0.0
 10
9.0384487482
 20
9.9115036435
 30
0.0
  0
SPLINE
  5
2B8
100
AcDbEntity
  8
0
100
AcDbSpline
 62
7
  6
CONTINUOUS
 70
0
 71
3
 72
8
 73
4
 74
0
 42
0.0000001
 43
0.0000001
 44
0.0000000001
 40
0.0
 40
0.0
 40
0.0
 40
0.0
 40
1.0
 40
1.0
 40
1.0
 40
1.0
 10
9.0384487482
 20
10.0995258542
 30
0.0
 10
9.0384487482
 20
10.1193176683
 30
0.0
 10
9.0399546595
 20
10.1326556268
 30
0.0
 10
9.0432216509
 20
10.1399519249
 30
0.0
  0
SPLINE
  5
2B9
100
AcDbEntity
  8
0
100
AcDbSpline
 62
7
  6
CONTINUOUS
 70
0
 71
3
 72
8
 73
4
 74
0
 42
0.0000001
 43
0.0000001
 44
0.0000000001
 40
0.0
 40
0.0
 40
0.0
 40
0.0
 40
1.0
 40
1.0
 40
1.0
 40
1.0
 10
9.0432216509
 20
10.1399519249
 30
0.0
 10
9.0464084967
 20
10.1470692309
 30
0.0
 10
9.0567346879
 20
10.1507264152
 30
0.0
 10
9.0739449449
 20
10.1507264152
 30
0.0
  0
SPLINE
  5
2BA
100
AcDbEntity
  8
0
100
AcDbSpline
 62
7
  6
CONTINUOUS
 70
0
 71
3
 72
8
 73
4
 74
0
 42
0.0000001
 43
0.0000001
 44
0.0000000001
 40
0.0
 40
0.0
 40
0.0
 40
0.0
 40
1.0
 40
1.0
 40
1.0
 40
1.0
 10
9.0739449449
 20
10.1507264152
 30
0.0
 10
9.077817262
 20
10.1507264152
 30
0.0
 10
9.0797534021
 20
10.1533079537
 30
0.0
 10
9.0797534021
 20
10.158901278
 30
0.0
  0
SPLINE
  5
2BB
100
AcDbEntity
  8
0
100
AcDbSpline
 62
7
  6
CONTINUOUS
 70
0
 71
3
 72
8
 73
4
 74
0
 42
0.0000001
 43
0.0000001
 44
0.0000000001
 40
0.0
 40
0.0
 40
0.0
 40
0.0
 40
1.0
 40
1.0
 40
1.0
 40
1.0
 10
9.0797534021
 20
10.1660005137
 30
0.0
 10
9.0797534021
 20
10.1679366722
 30
0.0
 10
9.0782475277
 20
10.1690123179
 30
0.0
 10
9.075235705
 20
10.1690123179
 30
0.0
  0
SPLINE
  5
2BC
100
AcDbEntity
  8
0
100
AcDbSpline
 62
7
  6
CONTINUOUS
 70
0
 71
3
 72
8
 73
4
 74
0
 42
0.0000001
 43
0.0000001
 44
0.0000000001
 40
0.0
 40
0.0
 40
0.0
 40
0.0
 40
1.0
 40
1.0
 40
1.0
 40
1.0
 10
9.075235705
 20
10.1690123179
 30
0.0
 10
9.0713633879
 20
10.1690123179
 30
0.0
 10
9.062543145
 20
10.1685820707
 30
0.0
 10
9.0487749393
 20
10.167721559
 30
0.0
  0
SPLINE
  5
2BD
100
AcDbEntity
  8
0
100
AcDbSpline
 62
7
  6
CONTINUOUS
 70
0
 71
3
 72
8
 73
4
 74
0
 42
0.0000001
 43
0.0000001
 44
0.0000000001
 40
0.0
 40
0.0
 40
0.0
 40
0.0
 40
1.0
 40
1.0
 40
1.0
 40
1.0
 10
9.0487749393
 20
10.167721559
 30
0.0
 10
9.0350066968
 20
10.166861045
 30
0.0
 10
9.0225292512
 20
10.1664307793
 30
0.0
 10
9.0115577169
 20
10.1664307793
 30
0.0
  0
SPLINE
  5
2BE
100
AcDbEntity
  8
0
100
AcDbSpline
 62
7
  6
CONTINUOUS
 70
0
 71
3
 72
8
 73
4
 74
0
 42
0.0000001
 43
0.0000001
 44
0.0000000001
 40
0.0
 40
0.0
 40
0.0
 40
0.0
 40
1.0
 40
1.0
 40
1.0
 40
1.0
 10
8.9713287087
 20
10.1677215579
 30
0.0
 10
8.9573453702
 20
10.1685820707
 30
0.0
 10
8.9483099761
 20
10.1690123179
 30
0.0
 10
8.944437659
 20
10.1690123179
 30
0.0
  0
SPLINE
  5
2BF
100
AcDbEntity
  8
0
100
AcDbSpline
 62
7
  6
CONTINUOUS
 70
0
 71
3
 72
8
 73
4
 74
0
 42
0.0000001
 43
0.0000001
 44
0.0000000001
 40
0.0
 40
0.0
 40
0.0
 40
0.0
 40
1.0
 40
1.0
 40
1.0
 40
1.0
 10
8.944437659
 20
10.1690123179
 30
0.0
 10
8.9403502275
 20
10.1690123179
 30
0.0
 10
8.938414069
 20
10.1666459122
 30
0.0
 10
8.938414069
 20
10.1619130822
 30
0.0
  0
SPLINE
  5
2C0
100
AcDbEntity
  8
0
100
AcDbSpline
 62
7
  6
CONTINUOUS
 70
0
 71
3
 72
8
 73
4
 74
0
 42
0.0000001
 43
0.0000001
 44
0.0000000001
 40
0.0
 40
0.0
 40
0.0
 40
0.0
 40
1.0
 40
1.0
 40
1.0
 40
1.0
 10
8.938414069
 20
10.1550289794
 30
0.0
 10
8.938414069
 20
10.1520171752
 30
0.0
 10
8.9407804747
 20
10.1507264152
 30
0.0
 10
8.9459435518
 20
10.1507264152
 30
0.0
  0
SPLINE
  5
2C1
100
AcDbEntity
  8
0
100
AcDbSpline
 62
7
  6
CONTINUOUS
 70
0
 71
3
 72
8
 73
4
 74
0
 42
0.0000001
 43
0.0000001
 44
0.0000000001
 40
0.0
 40
0.0
 40
0.0
 40
0.0
 40
1.0
 40
1.0
 40
1.0
 40
1.0
 10
8.9459435518
 20
10.1507264152
 30
0.0
 10
8.9614328017
 20
10.1507264152
 30
0.0
 10
8.9711135759
 20
10.1470692309
 30
0.0
 10
8.974555631
 20
10.1401851115
 30
0.0
  0
SPLINE
  5
2C2
100
AcDbEntity
  8
0
100
AcDbSpline
 62
7
  6
CONTINUOUS
 70
0
 71
3
 72
8
 73
4
 74
0
 42
0.0000001
 43
0.0000001
 44
0.0000000001
 40
0.0
 40
0.0
 40
0.0
 40
0.0
 40
1.0
 40
1.0
 40
1.0
 40
1.0
 10
8.974555631
 20
10.1401851115
 30
0.0
 10
8.9779976787
 20
10.1333010068
 30
0.0
 10
8.9797187044
 20
10.1197479155
 30
0.0
 10
8.9797187044
 20
10.0995258542
 30
0.0
  0
SPLINE
  5
2C3
100
AcDbEntity
  8
0
100
AcDbSpline
 62
7
  6
CONTINUOUS
 70
0
 71
3
 72
8
 73
4
 74
0
 42
0.0000001
 43
0.0000001
 44
0.0000000001
 40
0.0
 40
0.0
 40
0.0
 40
0.0
 40
1.0
 40
1.0
 40
1.0
 40
1.0
 10
13.1089692378
 20
10.0831760916
 30
0.0
 10
13.1098297506
 20
10.0831760916
 30
0.0
 10
13.1139171821
 20
10.0840366044
 30
0.0
 10
13.121669283
 20
10.0857218494
 30
0.0
  0
SPLINE
  5
2C4
100
AcDbEntity
  8
0
100
AcDbSpline
 62
7
  6
CONTINUOUS
 70
0
 71
3
 72
8
 73
4
 74
0
 42
0.0000001
 43
0.0000001
 44
0.0000000001
 40
0.0
 40
0.0
 40
0.0
 40
0.0
 40
1.0
 40
1.0
 40
1.0
 40
1.0
 10
13.121669283
 20
10.0857218494
 30
0.0
 10
13.1238130891
 20
10.0861878958
 30
0.0
 10
13.1248887348
 20
10.0874786558
 30
0.0
 10
13.1248887348
 20
10.0891996815
 30
0.0
  0
LINE
  5
2C5
100
AcDbEntity
  8
0
100
AcDbLine
 62
7
  6
CONTINUOUS
 10
13.1248887348
 20
10.0891996815
 11
13.1165175434
 21
10.1457429929
  0
SPLINE
  5
2C6
100
AcDbEntity
  8
0
100
AcDbSpline
 62
7
  6
CONTINUOUS
 70
0
 71
3
 72
8
 73
4
 74
0
 42
0.0000001
 43
0.0000001
 44
0.0000000001
 40
0.0
 40
0.0
 40
0.0
 40
0.0
 40
1.0
 40
1.0
 40
1.0
 40
1.0
 10
13.1165175434
 20
10.1457429929
 30
0.0
 10
13.1160684734
 20
10.1487902566
 30
0.0
 10
13.1147776949
 20
10.1509415295
 30
0.0
 10
13.1130080482
 20
10.1521581687
 30
0.0
  0
SPLINE
  5
2C7
100
AcDbEntity
  8
0
100
AcDbSpline
 62
7
  6
CONTINUOUS
 70
0
 71
3
 72
8
 73
4
 74
0
 42
0.0000001
 43
0.0000001
 44
0.0000000001
 40
0.0
 40
0.0
 40
0.0
 40
0.0
 40
1.0
 40
1.0
 40
1.0
 40
1.0
 10
13.1130080482
 20
10.1521581687
 30
0.0
 10
13.1113356435
 20
10.1533079537
 30
0.0
 10
13.1096146178
 20
10.1541684666
 30
0.0
 10
13.1080996092
 20
10.1547916616
 30
0.0
  0
SPLINE
  5
2C8
100
AcDbEntity
  8
0
100
AcDbSpline
 62
7
  6
CONTINUOUS
 70
0
 71
3
 72
8
 73
4
 74
0
 42
0.0000001
 43
0.0000001
 44
0.0000000001
 40
0.0
 40
0.0
 40
0.0
 40
0.0
 40
1.0
 40
1.0
 40
1.0
 40
1.0
 10
13.1080996092
 20
10.1547916616
 30
0.0
 10
13.0792815166
 20
10.1666459122
 30
0.0
 10
13.0491635483
 20
10.1726695021
 30
0.0
 10
13.0175396686
 20
10.1726695021
 30
0.0
  0
SPLINE
  5
2C9
100
AcDbEntity
  8
0
100
AcDbSpline
 62
7
  6
CONTINUOUS
 70
0
 71
3
 72
8
 73
4
 74
0
 42
0.0000001
 43
0.0000001
 44
0.0000000001
 40
0.0
 40
0.0
 40
0.0
 40
0.0
 40
1.0
 40
1.0
 40
1.0
 40
1.0
 10
13.0175396686
 20
10.1726695021
 30
0.0
 10
12.9620365527
 20
10.1726695021
 30
0.0
 10
12.9183654838
 20
10.1571802523
 30
0.0
 10
12.8860962328
 20
10.1264168997
 30
0.0
  0
SPLINE
  5
2CA
100
AcDbEntity
  8
0
100
AcDbSpline
 62
7
  6
CONTINUOUS
 70
0
 71
3
 72
8
 73
4
 74
0
 42
0.0000001
 43
0.0000001
 44
0.0000000001
 40
0.0
 40
0.0
 40
0.0
 40
0.0
 40
1.0
 40
1.0
 40
1.0
 40
1.0
 10
12.8860962328
 20
10.1264168997
 30
0.0
 10
12.8538269714
 20
10.0956535372
 30
0.0
 10
12.8376923427
 20
10.0575758203
 30
0.0
 10
12.8376923427
 20
10.0121837258
 30
0.0
  0
SPLINE
  5
2CB
100
AcDbEntity
  8
0
100
AcDbSpline
 62
7
  6
CONTINUOUS
 70
0
 71
3
 72
8
 73
4
 74
0
 42
0.0000001
 43
0.0000001
 44
0.0000000001
 40
0.0
 40
0.0
 40
0.0
 40
0.0
 40
1.0
 40
1.0
 40
1.0
 40
1.0
 10
12.8376923427
 20
10.0121837258
 30
0.0
 10
12.8376923427
 20
9.9670067641
 30
0.0
 10
12.8536118432
 20
9.9297895555
 30
0.0
 10
12.8853971844
 20
9.9004740234
 30
0.0
  0
SPLINE
  5
2CC
100
AcDbEntity
  8
0
100
AcDbSpline
 62
7
  6
CONTINUOUS
 70
0
 71
3
 72
8
 73
4
 74
0
 42
0.0000001
 43
0.0000001
 44
0.0000000001
 40
0.0
 40
0.0
 40
0.0
 40
0.0
 40
1.0
 40
1.0
 40
1.0
 40
1.0
 10
12.8853971844
 20
9.9004740234
 30
0.0
 10
12.9172898474
 20
9.8710595088
 30
0.0
 10
12.9607457742
 20
9.8564307788
 30
0.0
 10
13.0153883958
 20
9.8564307788
 30
0.0
  0
SPLINE
  5
2CD
100
AcDbEntity
  8
0
100
AcDbSpline
 62
7
  6
CONTINUOUS
 70
0
 71
3
 72
8
 73
4
 74
0
 42
0.0000001
 43
0.0000001
 44
0.0000000001
 40
0.0
 40
0.0
 40
0.0
 40
0.0
 40
1.0
 40
1.0
 40
1.0
 40
1.0
 10
13.0153883958
 20
9.8564307788
 30
0.0
 10
13.0489484155
 20
9.8564307788
 30
0.0
 10
13.0799268967
 20
9.8618089886
 30
0.0
 10
13.1087371705
 20
9.8723958963
 30
0.0
  0
SPLINE
  5
2CE
100
AcDbEntity
  8
0
100
AcDbSpline
 62
7
  6
CONTINUOUS
 70
0
 71
3
 72
8
 73
4
 74
0
 42
0.0000001
 43
0.0000001
 44
0.0000000001
 40
0.0
 40
0.0
 40
0.0
 40
0.0
 40
1.0
 40
1.0
 40
1.0
 40
1.0
 10
13.1087371705
 20
9.8723958963
 30
0.0
 10
13.1156382078
 20
9.8749318195
 30
0.0
 10
13.1195105248
 20
9.8775133604
 30
0.0
 10
13.1203345311
 20
9.8805346981
 30
0.0
  0
LINE
  5
2CF
100
AcDbEntity
  8
0
100
AcDbLine
 62
7
  6
CONTINUOUS
 10
13.1203345311
 20
9.8805346981
 11
13.1340543272
 21
9.9323341679
  0
LINE
  5
2D0
100
AcDbEntity
  8
0
100
AcDbLine
 62
7
  6
CONTINUOUS
 10
13.1340543272
 20
9.9323341679
 11
13.135860269
 21
9.9396854625
  0
SPLINE
  5
2D1
100
AcDbEntity
  8
0
100
AcDbSpline
 62
7
  6
CONTINUOUS
 70
0
 71
3
 72
8
 73
4
 74
0
 42
0.0000001
 43
0.0000001
 44
0.0000000001
 40
0.0
 40
0.0
 40
0.0
 40
0.0
 40
1.0
 40
1.0
 40
1.0
 40
1.0
 10
13.135860269
 20
9.9396854625
 30
0.0
 10
13.135860269
 20
9.9409762364
 30
0.0
 10
13.134569509
 20
9.9420518729
 30
0.0
 10
13.1324155658
 20
9.9426882662
 30
0.0
  0
SPLINE
  5
2D2
100
AcDbEntity
  8
0
100
AcDbSpline
 62
7
  6
CONTINUOUS
 70
0
 71
3
 72
8
 73
4
 74
0
 42
0.0000001
 43
0.0000001
 44
0.0000000001
 40
0.0
 40
0.0
 40
0.0
 40
0.0
 40
1.0
 40
1.0
 40
1.0
 40
1.0
 10
13.1324155658
 20
9.9426882662
 30
0.0
 10
13.1251038676
 20
9.9448485442
 30
0.0
 10
13.1210164177
 20
9.9459241899
 30
0.0
 10
13.1199407905
 20
9.9459241899
 30
0.0
  0
SPLINE
  5
2D3
100
AcDbEntity
  8
0
100
AcDbSpline
 62
7
  6
CONTINUOUS
 70
0
 71
3
 72
8
 73
4
 74
0
 42
0.0000001
 43
0.0000001
 44
0.0000000001
 40
0.0
 40
0.0
 40
0.0
 40
0.0
 40
1.0
 40
1.0
 40
1.0
 40
1.0
 10
13.1199407905
 20
9.9459241899
 30
0.0
 10
13.1190802592
 20
9.9459241899
 30
0.0
 10
13.1182197463
 20
9.9450636771
 30
0.0
 10
13.1175252106
 20
9.9433627725
 30
0.0
  0
SPLINE
  5
2D4
100
AcDbEntity
  8
0
100
AcDbSpline
 62
7
  6
CONTINUOUS
 70
0
 71
3
 72
8
 73
4
 74
0
 42
0.0000001
 43
0.0000001
 44
0.0000000001
 40
0.0
 40
0.0
 40
0.0
 40
0.0
 40
1.0
 40
1.0
 40
1.0
 40
1.0
 10
13.1175252106
 20
9.9433627725
 30
0.0
 10
13.1076784593
 20
9.9192482684
 30
0.0
 10
13.0949858808
 20
9.9022531257
 30
0.0
 10
13.0798948556
 20
9.8924064988
 30
0.0
  0
SPLINE
  5
2D5
100
AcDbEntity
  8
0
100
AcDbSpline
 62
7
  6
CONTINUOUS
 70
0
 71
3
 72
8
 73
4
 74
0
 42
0.0000001
 43
0.0000001
 44
0.0000000001
 40
0.0
 40
0.0
 40
0.0
 40
0.0
 40
1.0
 40
1.0
 40
1.0
 40
1.0
 10
13.0798948556
 20
9.8924064988
 30
0.0
 10
13.0646527797
 20
9.8824613139
 30
0.0
 10
13.0459366113
 20
9.8775133604
 30
0.0
 10
13.0237783914
 20
9.8775133604
 30
0.0
  0
SPLINE
  5
2D6
100
AcDbEntity
  8
0
100
AcDbSpline
 62
7
  6
CONTINUOUS
 70
0
 71
3
 72
8
 73
4
 74
0
 42
0.0000001
 43
0.0000001
 44
0.0000000001
 40
0.0
 40
0.0
 40
0.0
 40
0.0
 40
1.0
 40
1.0
 40
1.0
 40
1.0
 10
13.0237783914
 20
9.8775133604
 30
0.0
 10
12.9854855418
 20
9.8775133604
 30
0.0
 10
12.9551524406
 20
9.8912815776
 30
0.0
 10
12.932779088
 20
9.9192482684
 30
0.0
  0
SPLINE
  5
2D7
100
AcDbEntity
  8
0
100
AcDbSpline
 62
7
  6
CONTINUOUS
 70
0
 71
3
 72
8
 73
4
 74
0
 42
0.0000001
 43
0.0000001
 44
0.0000000001
 40
0.0
 40
0.0
 40
0.0
 40
0.0
 40
1.0
 40
1.0
 40
1.0
 40
1.0
 10
12.932779088
 20
9.9192482684
 30
0.0
 10
12.9104057353
 20
9.9472149592
 30
0.0
 10
12.899219059
 20
9.9796993425
 30
0.0
 10
12.899219059
 20
10.0167014229
 30
0.0
  0
SPLINE
  5
2D8
100
AcDbEntity
  8
0
100
AcDbSpline
 62
7
  6
CONTINUOUS
 70
0
 71
3
 72
8
 73
4
 74
0
 42
0.0000001
 43
0.0000001
 44
0.0000000001
 40
0.0
 40
0.0
 40
0.0
 40
0.0
 40
1.0
 40
1.0
 40
1.0
 40
1.0
 10
12.899219059
 20
10.0167014229
 30
0.0
 10
12.899219059
 20
10.0545640161
 30
0.0
 10
12.9099754789
 20
10.0864030286
 30
0.0
 10
12.9314883142
 20
10.1124335508
 30
0.0
  0
SPLINE
  5
2D9
100
AcDbEntity
  8
0
100
AcDbSpline
 62
7
  6
CONTINUOUS
 70
0
 71
3
 72
8
 73
4
 74
0
 42
0.0000001
 43
0.0000001
 44
0.0000000001
 40
0.0
 40
0.0
 40
0.0
 40
0.0
 40
1.0
 40
1.0
 40
1.0
 40
1.0
 10
12.9314883142
 20
10.1124335508
 30
0.0
 10
12.9530011585
 20
10.1384640839
 30
0.0
 10
12.979892199
 20
10.151586928
 30
0.0
 10
13.0125917244
 20
10.151586928
 30
0.0
  0
SPLINE
  5
2DA
100
AcDbEntity
  8
0
100
AcDbSpline
 62
7
  6
CONTINUOUS
 70
0
 71
3
 72
8
 73
4
 74
0
 42
0.0000001
 43
0.0000001
 44
0.0000000001
 40
0.0
 40
0.0
 40
0.0
 40
0.0
 40
1.0
 40
1.0
 40
1.0
 40
1.0
 10
13.0125917244
 20
10.151586928
 30
0.0
 10
13.0302322471
 20
10.151586928
 30
0.0
 10
13.0472273898
 20
10.1468540981
 30
0.0
 10
13.0635771542
 20
10.1376035741
 30
0.0
  0
SPLINE
  5
2DB
100
AcDbEntity
  8
0
100
AcDbSpline
 62
7
  6
CONTINUOUS
 70
0
 71
3
 72
8
 73
4
 74
0
 42
0.0000001
 43
0.0000001
 44
0.0000000001
 40
0.0
 40
0.0
 40
0.0
 40
0.0
 40
1.0
 40
1.0
 40
1.0
 40
1.0
 10
13.0635771542
 20
10.1376035741
 30
0.0
 10
13.0799268967
 20
10.1283530625
 30
0.0
 10
13.094125368
 20
10.1107125213
 30
0.0
 10
13.1065350044
 20
10.0846523132
 30
0.0
  0
SPLINE
  5
2DC
100
AcDbEntity
  8
0
100
AcDbSpline
 62
7
  6
CONTINUOUS
 70
0
 71
3
 72
8
 73
4
 74
0
 42
0.0000001
 43
0.0000001
 44
0.0000000001
 40
0.0
 40
0.0
 40
0.0
 40
0.0
 40
1.0
 40
1.0
 40
1.0
 40
1.0
 10
13.1065350044
 20
10.0846523132
 30
0.0
 10
13.1070330792
 20
10.0836063572
 30
0.0
 10
13.1076784593
 20
10.0831760916
 30
0.0
 10
13.1089692378
 20
10.0831760916
 30
0.0
  0
SPLINE
  5
2DD
100
AcDbEntity
  8
0
100
AcDbSpline
 62
7
  6
CONTINUOUS
 70
0
 71
3
 72
8
 73
4
 74
0
 42
0.0000001
 43
0.0000001
 44
0.0000000001
 40
0.0
 40
0.0
 40
0.0
 40
0.0
 40
1.0
 40
1.0
 40
1.0
 40
1.0
 10
10.537692342
 20
8.4129186319
 30
0.0
 10
10.537692342
 20
8.3779151665
 30
0.0
 10
10.5517659015
 20
8.3479637404
 30
0.0
 10
10.5798682658
 20
8.3233741725
 30
0.0
  0
SPLINE
  5
2DE
100
AcDbEntity
  8
0
100
AcDbSpline
 62
7
  6
CONTINUOUS
 70
0
 71
3
 72
8
 73
4
 74
0
 42
0.0000001
 43
0.0000001
 44
0.0000000001
 40
0.0
 40
0.0
 40
0.0
 40
0.0
 40
1.0
 40
1.0
 40
1.0
 40
1.0
 10
10.5798682658
 20
8.3233741725
 30
0.0
 10
10.6080601417
 20
8.2987062819
 30
0.0
 10
10.6407180195
 20
8.2864370245
 30
0.0
 10
10.6782475143
 20
8.2864370245
 30
0.0
  0
SPLINE
  5
2DF
100
AcDbEntity
  8
0
100
AcDbSpline
 62
7
  6
CONTINUOUS
 70
0
 71
3
 72
8
 73
4
 74
0
 42
0.0000001
 43
0.0000001
 44
0.0000000001
 40
0.0
 40
0.0
 40
0.0
 40
0.0
 40
1.0
 40
1.0
 40
1.0
 40
1.0
 10
10.6782475143
 20
8.2864370245
 30
0.0
 10
10.7190247434
 20
8.2864370245
 30
0.0
 10
10.7542086428
 20
8.3005105845
 30
0.0
 10
10.7837561874
 20
8.3287027312
 30
0.0
  0
SPLINE
  5
2E0
100
AcDbEntity
  8
0
100
AcDbSpline
 62
7
  6
CONTINUOUS
 70
0
 71
3
 72
8
 73
4
 74
0
 42
0.0000001
 43
0.0000001
 44
0.0000000001
 40
0.0
 40
0.0
 40
0.0
 40
0.0
 40
1.0
 40
1.0
 40
1.0
 40
1.0
 10
10.7837561874
 20
8.3287027312
 30
0.0
 10
10.8132093482
 20
8.3568048238
 30
0.0
 10
10.8280046254
 20
8.3885605471
 30
0.0
 10
10.8280046254
 20
8.4242857407
 30
0.0
  0
SPLINE
  5
2E1
100
AcDbEntity
  8
0
100
AcDbSpline
 62
7
  6
CONTINUOUS
 70
0
 71
3
 72
8
 73
4
 74
0
 42
0.0000001
 43
0.0000001
 44
0.0000000001
 40
0.0
 40
0.0
 40
0.0
 40
0.0
 40
1.0
 40
1.0
 40
1.0
 40
1.0
 10
10.8280046254
 20
8.4242857407
 30
0.0
 10
10.8280046254
 20
8.4502227534
 30
0.0
 10
10.8199013414
 20
8.4737074524
 30
0.0
 10
10.8038394198
 20
8.4948013384
 30
0.0
  0
SPLINE
  5
2E2
100
AcDbEntity
  8
0
100
AcDbSpline
 62
7
  6
CONTINUOUS
 70
0
 71
3
 72
8
 73
4
 74
0
 42
0.0000001
 43
0.0000001
 44
0.0000000001
 40
0.0
 40
0.0
 40
0.0
 40
0.0
 40
1.0
 40
1.0
 40
1.0
 40
1.0
 10
10.6376376005
 20
8.5449068737
 30
0.0
 10
10.6156870039
 20
8.5381619318
 30
0.0
 10
10.5963369959
 20
8.5263780168
 30
0.0
 10
10.5795973024
 20
8.509584326
 30
0.0
  0
SPLINE
  5
2E3
100
AcDbEntity
  8
0
100
AcDbSpline
 62
7
  6
CONTINUOUS
 70
0
 71
3
 72
8
 73
4
 74
0
 42
0.0000001
 43
0.0000001
 44
0.0000000001
 40
0.0
 40
0.0
 40
0.0
 40
0.0
 40
1.0
 40
1.0
 40
1.0
 40
1.0
 10
10.5795973024
 20
8.509584326
 30
0.0
 10
10.5515854714
 20
8.4814821373
 30
0.0
 10
10.537692342
 20
8.4493655537
 30
0.0
 10
10.537692342
 20
8.4129186319
 30
0.0
  0
SPLINE
  5
2E4
100
AcDbEntity
  8
0
100
AcDbSpline
 62
7
  6
CONTINUOUS
 70
0
 71
3
 72
8
 73
4
 74
0
 42
0.0000001
 43
0.0000001
 44
0.0000000001
 40
0.0
 40
0.0
 40
0.0
 40
0.0
 40
1.0
 40
1.0
 40
1.0
 40
1.0
 10
11.0456035214
 20
8.4935709666
 30
0.0
 10
11.0456035214
 20
8.4912253712
 30
0.0
 10
11.0468665438
 20
8.4901427828
 30
0.0
 10
11.0493925267
 20
8.4901427828
 30
0.0
  0
SPLINE
  5
2E5
100
AcDbEntity
  8
0
100
AcDbSpline
 62
7
  6
CONTINUOUS
 70
0
 71
3
 72
8
 73
4
 74
0
 42
0.0000001
 43
0.0000001
 44
0.0000000001
 40
0.0
 40
0.0
 40
0.0
 40
0.0
 40
1.0
 40
1.0
 40
1.0
 40
1.0
 10
11.0582336216
 20
8.4901427828
 30
0.0
 10
11.059706826
 20
8.4901427828
 30
0.0
 10
11.060578621
 20
8.4915862086
 30
0.0
 10
11.0608489729
 20
8.4946694888
 30
0.0
  0
SPLINE
  5
2E6
100
AcDbEntity
  8
0
100
AcDbSpline
 62
7
  6
CONTINUOUS
 70
0
 71
3
 72
8
 73
4
 74
0
 42
0.0000001
 43
0.0000001
 44
0.0000000001
 40
0.0
 40
0.0
 40
0.0
 40
0.0
 40
1.0
 40
1.0
 40
1.0
 40
1.0
 10
10.8909747701
 20
8.3477833103
 30
0.0
 10
10.8909747701
 20
8.3304620077
 30
0.0
 10
10.8895313292
 20
8.3190949008
 30
0.0
 10
10.8866444476
 20
8.3133211332
 30
0.0
  0
SPLINE
  5
2E7
100
AcDbEntity
  8
0
100
AcDbSpline
 62
7
  6
CONTINUOUS
 70
0
 71
3
 72
8
 73
4
 74
0
 42
0.0000001
 43
0.0000001
 44
0.0000000001
 40
0.0
 40
0.0
 40
0.0
 40
0.0
 40
1.0
 40
1.0
 40
1.0
 40
1.0
 10
10.9451745891
 20
8.3143057795
 30
0.0
 10
10.9418796967
 20
8.3203127099
 30
0.0
 10
10.9402322417
 20
8.3315768374
 30
0.0
 10
10.9402322417
 20
8.3477833103
 30
0.0
  0
LINE
  5
2E8
100
AcDbEntity
  8
0
100
AcDbLine
 62
7
  6
CONTINUOUS
 10
10.968379355
 20
8.415083801
 11
10.9402322417
 21
8.415083801
  0
LINE
  5
2E9
100
AcDbEntity
  8
0
100
AcDbLine
 62
7
  6
CONTINUOUS
 10
10.9916548591
 20
8.415083801
 11
10.968379355
 21
8.415083801
  0
SPLINE
  5
2EA
100
AcDbEntity
  8
0
100
AcDbSpline
 62
7
  6
CONTINUOUS
 70
0
 71
3
 72
8
 73
4
 74
0
 42
0.0000001
 43
0.0000001
 44
0.0000000001
 40
0.0
 40
0.0
 40
0.0
 40
0.0
 40
1.0
 40
1.0
 40
1.0
 40
1.0
 10
10.9916548591
 20
8.415083801
 30
0.0
 10
11.0073522907
 20
8.415083801
 30
0.0
 10
11.0172759586
 20
8.4130990659
 30
0.0
 10
11.0213815126
 20
8.4090847444
 30
0.0
  0
SPLINE
  5
2EB
100
AcDbEntity
  8
0
100
AcDbSpline
 62
7
  6
CONTINUOUS
 70
0
 71
3
 72
8
 73
4
 74
0
 42
0.0000001
 43
0.0000001
 44
0.0000000001
 40
0.0
 40
0.0
 40
0.0
 40
0.0
 40
1.0
 40
1.0
 40
1.0
 40
1.0
 10
11.0213815126
 20
8.4090847444
 30
0.0
 10
11.0253953176
 20
8.4051601331
 30
0.0
 10
11.0279213624
 20
8.3979429208
 30
0.0
 10
11.0286071224
 20
8.387656204
 30
0.0
  0
SPLINE
  5
2EC
100
AcDbEntity
  8
0
100
AcDbSpline
 62
7
  6
CONTINUOUS
 70
0
 71
3
 72
8
 73
4
 74
0
 42
0.0000001
 43
0.0000001
 44
0.0000000001
 40
0.0
 40
0.0
 40
0.0
 40
0.0
 40
1.0
 40
1.0
 40
1.0
 40
1.0
 10
11.0286071224
 20
8.387656204
 30
0.0
 10
11.0288234859
 20
8.3844106506
 30
0.0
 10
11.0302669578
 20
8.3829672097
 30
0.0
 10
11.0331538396
 20
8.3829672097
 30
0.0
  0
SPLINE
  5
2ED
100
AcDbEntity
  8
0
100
AcDbSpline
 62
7
  6
CONTINUOUS
 70
0
 71
3
 72
8
 73
4
 74
0
 42
0.0000001
 43
0.0000001
 44
0.0000000001
 40
0.0
 40
0.0
 40
0.0
 40
0.0
 40
1.0
 40
1.0
 40
1.0
 40
1.0
 10
11.0405514627
 20
8.3829672097
 30
0.0
 10
11.0427166396
 20
8.3829672097
 30
0.0
 10
11.043979662
 20
8.3844106506
 30
0.0
 10
11.043979662
 20
8.3876584004
 30
0.0
  0
LINE
  5
2EE
100
AcDbEntity
  8
0
100
AcDbLine
 62
7
  6
CONTINUOUS
 10
11.043979662
 20
8.3876584004
 11
11.0427166241
 21
8.4057014262
  0
SPLINE
  5
2EF
100
AcDbEntity
  8
0
100
AcDbSpline
 62
7
  6
CONTINUOUS
 70
0
 71
3
 72
8
 73
4
 74
0
 42
0.0000001
 43
0.0000001
 44
0.0000000001
 40
0.0
 40
0.0
 40
0.0
 40
0.0
 40
1.0
 40
1.0
 40
1.0
 40
1.0
 10
11.0427166241
 20
8.4057014262
 30
0.0
 10
11.0419949036
 20
8.4158055215
 30
0.0
 10
11.0416340356
 20
8.4239248728
 30
0.0
 10
11.0416340356
 20
8.4304203724
 30
0.0
  0
SPLINE
  5
2F0
100
AcDbEntity
  8
0
100
AcDbSpline
 62
7
  6
CONTINUOUS
 70
0
 71
3
 72
8
 73
4
 74
0
 42
0.0000001
 43
0.0000001
 44
0.0000000001
 40
0.0
 40
0.0
 40
0.0
 40
0.0
 40
1.0
 40
1.0
 40
1.0
 40
1.0
 10
11.0416340356
 20
8.4304203724
 30
0.0
 10
11.0416340356
 20
8.4352919816
 30
0.0
 10
11.0419949036
 20
8.4403440403
 30
0.0
 10
11.0427166233
 20
8.4457569381
 30
0.0
  0
SPLINE
  5
2F1
100
AcDbEntity
  8
0
100
AcDbSpline
 62
7
  6
CONTINUOUS
 70
0
 71
3
 72
8
 73
4
 74
0
 42
0.0000001
 43
0.0000001
 44
0.0000000001
 40
0.0
 40
0.0
 40
0.0
 40
0.0
 40
1.0
 40
1.0
 40
1.0
 40
1.0
 10
11.0427166233
 20
8.4457569381
 30
0.0
 10
11.0434383445
 20
8.4511698471
 30
0.0
 10
11.043979662
 20
8.4547784494
 30
0.0
 10
11.043979662
 20
8.4565827583
 30
0.0
  0
SPLINE
  5
2F2
100
AcDbEntity
  8
0
100
AcDbSpline
 62
7
  6
CONTINUOUS
 70
0
 71
3
 72
8
 73
4
 74
0
 42
0.0000001
 43
0.0000001
 44
0.0000000001
 40
0.0
 40
0.0
 40
0.0
 40
0.0
 40
1.0
 40
1.0
 40
1.0
 40
1.0
 10
11.043979662
 20
8.4565827583
 30
0.0
 10
11.043979662
 20
8.4589283537
 30
0.0
 10
11.0423557716
 20
8.4601913606
 30
0.0
 10
11.0392884713
 20
8.4601913606
 30
0.0
  0
SPLINE
  5
2F3
100
AcDbEntity
  8
0
100
AcDbSpline
 62
7
  6
CONTINUOUS
 70
0
 71
3
 72
8
 73
4
 74
0
 42
0.0000001
 43
0.0000001
 44
0.0000000001
 40
0.0
 40
0.0
 40
0.0
 40
0.0
 40
1.0
 40
1.0
 40
1.0
 40
1.0
 10
11.0324321037
 20
8.4601913606
 30
0.0
 10
11.0300865083
 20
8.4601913606
 30
0.0
 10
11.0288234859
 20
8.4589283537
 30
0.0
 10
11.0285574155
 20
8.4565928281
 30
0.0
  0
SPLINE
  5
2F4
100
AcDbEntity
  8
0
100
AcDbSpline
 62
7
  6
CONTINUOUS
 70
0
 71
3
 72
8
 73
4
 74
0
 42
0.0000001
 43
0.0000001
 44
0.0000000001
 40
0.0
 40
0.0
 40
0.0
 40
0.0
 40
1.0
 40
1.0
 40
1.0
 40
1.0
 10
11.0285574155
 20
8.4565928281
 30
0.0
 10
11.0271996265
 20
8.444674363
 30
0.0
 10
11.0248540311
 20
8.4378180109
 30
0.0
 10
11.0212850592
 20
8.4357658463
 30
0.0
  0
SPLINE
  5
2F5
100
AcDbEntity
  8
0
100
AcDbSpline
 62
7
  6
CONTINUOUS
 70
0
 71
3
 72
8
 73
4
 74
0
 42
0.0000001
 43
0.0000001
 44
0.0000000001
 40
0.0
 40
0.0
 40
0.0
 40
0.0
 40
1.0
 40
1.0
 40
1.0
 40
1.0
 10
11.0212850592
 20
8.4357658463
 30
0.0
 10
11.0176368266
 20
8.4336681067
 30
0.0
 10
11.0075327402
 20
8.4327659677
 30
0.0
 10
10.9909331542
 20
8.4327659677
 30
0.0
  0
LINE
  5
2F6
100
AcDbEntity
  8
0
100
AcDbLine
 62
7
  6
CONTINUOUS
 10
10.9654924732
 20
8.4327659677
 11
10.9909331542
 21
8.4327659677
  0
LINE
  5
2F7
100
AcDbEntity
  8
0
100
AcDbLine
 62
7
  6
CONTINUOUS
 10
10.9402322417
 20
8.4327659677
 11
10.9654924732
 21
8.4327659677
  0
LINE
  5
2F8
100
AcDbEntity
  8
0
100
AcDbLine
 62
7
  6
CONTINUOUS
 10
11.2376970396
 20
8.52774308
 11
11.2379954363
 21
8.5277161274
  0
SPLINE
  5
2F9
100
AcDbEntity
  8
0
100
AcDbSpline
 62
7
  6
CONTINUOUS
 70
0
 71
3
 72
8
 73
4
 74
0
 42
0.0000001
 43
0.0000001
 44
0.0000000001
 40
0.0
 40
0.0
 40
0.0
 40
0.0
 40
1.0
 40
1.0
 40
1.0
 40
1.0
 10
11.2379954363
 20
8.5277161274
 30
0.0
 10
11.247345124
 20
8.5268646355
 30
0.0
 10
11.2550257321
 20
8.525506265
 30
0.0
 10
11.2610372711
 20
8.5237028059
 30
0.0
  0
SPLINE
  5
2FA
100
AcDbEntity
  8
0
100
AcDbSpline
 62
7
  6
CONTINUOUS
 70
0
 71
3
 72
8
 73
4
 74
0
 42
0.0000001
 43
0.0000001
 44
0.0000000001
 40
0.0
 40
0.0
 40
0.0
 40
0.0
 40
1.0
 40
1.0
 40
1.0
 40
1.0
 10
11.2610372711
 20
8.5237028059
 30
0.0
 10
11.2718630629
 20
8.520455073
 30
0.0
 10
11.2772759896
 20
8.5103509711
 30
0.0
 10
11.2772759896
 20
8.4935709666
 30
0.0
  0
SPLINE
  5
2FB
100
AcDbEntity
  8
0
100
AcDbSpline
 62
7
  6
CONTINUOUS
 70
0
 71
3
 72
8
 73
4
 74
0
 42
0.0000001
 43
0.0000001
 44
0.0000000001
 40
0.0
 40
0.0
 40
0.0
 40
0.0
 40
1.0
 40
1.0
 40
1.0
 40
1.0
 10
11.2772759896
 20
8.4935709666
 30
0.0
 10
11.2772759896
 20
8.4912253712
 30
0.0
 10
11.27853895
 20
8.4901427828
 30
0.0
 10
11.2810649949
 20
8.4901427828
 30
0.0
  0
SPLINE
  5
2FC
100
AcDbEntity
  8
0
100
AcDbSpline
 62
7
  6
CONTINUOUS
 70
0
 71
3
 72
8
 73
4
 74
0
 42
0.0000001
 43
0.0000001
 44
0.0000000001
 40
0.0
 40
0.0
 40
0.0
 40
0.0
 40
1.0
 40
1.0
 40
1.0
 40
1.0
 10
11.2899060898
 20
8.4901427828
 30
0.0
 10
11.2917103987
 20
8.4901427828
 30
0.0
 10
11.2926125222
 20
8.4923079442
 30
0.0
 10
11.2926125222
 20
8.4969991349
 30
0.0
  0
SPLINE
  5
2FD
100
AcDbEntity
  8
0
100
AcDbSpline
 62
7
  6
CONTINUOUS
 70
0
 71
3
 72
8
 73
4
 74
0
 42
0.0000001
 43
0.0000001
 44
0.0000000001
 40
0.0
 40
0.0
 40
0.0
 40
0.0
 40
1.0
 40
1.0
 40
1.0
 40
1.0
 10
11.2926125222
 20
8.5384980999
 30
0.0
 10
11.2926125222
 20
8.545174018
 30
0.0
 10
11.2897256403
 20
8.5486021863
 30
0.0
 10
11.2839518767
 20
8.5486021863
 30
0.0
  0
LINE
  5
2FE
100
AcDbEntity
  8
0
100
AcDbLine
 62
7
  6
CONTINUOUS
 10
11.2839518767
 20
8.5486021863
 11
11.2376923416
 21
8.547645498
  0
SPLINE
  5
2FF
100
AcDbEntity
  8
0
100
AcDbSpline
 62
7
  6
CONTINUOUS
 70
0
 71
3
 72
8
 73
4
 74
0
 42
0.0000001
 43
0.0000001
 44
0.0000000001
 40
0.0
 40
0.0
 40
0.0
 40
0.0
 40
1.0
 40
1.0
 40
1.0
 40
1.0
 10
11.1226472073
 20
8.3477833103
 30
0.0
 10
11.1226472073
 20
8.3304620077
 30
0.0
 10
11.1212037974
 20
8.3190949008
 30
0.0
 10
11.1183169158
 20
8.3133211332
 30
0.0
  0
SPLINE
  5
300
100
AcDbEntity
  8
0
100
AcDbSpline
 62
7
  6
CONTINUOUS
 70
0
 71
3
 72
8
 73
4
 74
0
 42
0.0000001
 43
0.0000001
 44
0.0000000001
 40
0.0
 40
0.0
 40
0.0
 40
0.0
 40
1.0
 40
1.0
 40
1.0
 40
1.0
 10
11.1183169158
 20
8.3133211332
 30
0.0
 10
11.1154300337
 20
8.3075473648
 30
0.0
 10
11.1067693882
 20
8.3048409111
 30
0.0
 10
11.0923349791
 20
8.3048409111
 30
0.0
  0
SPLINE
  5
301
100
AcDbEntity
  8
0
100
AcDbSpline
 62
7
  6
CONTINUOUS
 70
0
 71
3
 72
8
 73
4
 74
0
 42
0.0000001
 43
0.0000001
 44
0.0000000001
 40
0.0
 40
0.0
 40
0.0
 40
0.0
 40
1.0
 40
1.0
 40
1.0
 40
1.0
 10
11.0923349791
 20
8.3048409111
 30
0.0
 10
11.0894480973
 20
8.3048409111
 30
0.0
 10
11.0880046254
 20
8.3028561779
 30
0.0
 10
11.0880046254
 20
8.2988867125
 30
0.0
  0
LINE
  5
302
100
AcDbEntity
  8
0
100
AcDbLine
 62
7
  6
CONTINUOUS
 10
11.0880046254
 20
8.2931129441
 11
11.0880046254
 21
8.2988867125
  0
SPLINE
  5
303
100
AcDbEntity
  8
0
100
AcDbSpline
 62
7
  6
CONTINUOUS
 70
0
 71
3
 72
8
 73
4
 74
0
 42
0.0000001
 43
0.0000001
 44
0.0000000001
 40
0.0
 40
0.0
 40
0.0
 40
0.0
 40
1.0
 40
1.0
 40
1.0
 40
1.0
 10
11.0880046254
 20
8.2931129441
 30
0.0
 10
11.0880046254
 20
8.2907673508
 30
0.0
 10
11.0894480973
 20
8.2895043391
 30
0.0
 10
11.0923349791
 20
8.2895043391
 30
0.0
  0
LINE
  5
304
100
AcDbEntity
  8
0
100
AcDbLine
 62
7
  6
CONTINUOUS
 10
11.0923349791
 20
8.2895043391
 11
11.1157908708
 21
8.2905869188
  0
SPLINE
  5
305
100
AcDbEntity
  8
0
100
AcDbSpline
 62
7
  6
CONTINUOUS
 70
0
 71
3
 72
8
 73
4
 74
0
 42
0.0000001
 43
0.0000001
 44
0.0000000001
 40
0.0
 40
0.0
 40
0.0
 40
0.0
 40
1.0
 40
1.0
 40
1.0
 40
1.0
 10
11.1157908708
 20
8.2905869188
 30
0.0
 10
11.128421033
 20
8.2913086416
 30
0.0
 10
11.1387055378
 20
8.2916695021
 30
0.0
 10
11.1466444474
 20
8.2916695021
 30
0.0
  0
SPLINE
  5
306
100
AcDbEntity
  8
0
100
AcDbSpline
 62
7
  6
CONTINUOUS
 70
0
 71
3
 72
8
 73
4
 74
0
 42
0.0000001
 43
0.0000001
 44
0.0000000001
 40
0.0
 40
0.0
 40
0.0
 40
0.0
 40
1.0
 40
1.0
 40
1.0
 40
1.0
 10
11.1466444474
 20
8.2916695021
 30
0.0
 10
11.1540420704
 20
8.2916695021
 30
0.0
 10
11.1639657383
 20
8.2913086416
 30
0.0
 10
11.1764151434
 20
8.29058167
 30
0.0
  0
SPLINE
  5
307
100
AcDbEntity
  8
0
100
AcDbSpline
 62
7
  6
CONTINUOUS
 70
0
 71
3
 72
8
 73
4
 74
0
 42
0.0000001
 43
0.0000001
 44
0.0000000001
 40
0.0
 40
0.0
 40
0.0
 40
0.0
 40
1.0
 40
1.0
 40
1.0
 40
1.0
 10
11.1764151434
 20
8.29058167
 30
0.0
 10
11.1886847144
 20
8.2898651995
 30
0.0
 10
11.1971649104
 20
8.2895043391
 30
0.0
 10
11.2018561011
 20
8.2895043391
 30
0.0
  0
SPLINE
  5
308
100
AcDbEntity
  8
0
100
AcDbSpline
 62
7
  6
CONTINUOUS
 70
0
 71
3
 72
8
 73
4
 74
0
 42
0.0000001
 43
0.0000001
 44
0.0000000001
 40
0.0
 40
0.0
 40
0.0
 40
0.0
 40
1.0
 40
1.0
 40
1.0
 40
1.0
 10
11.2018561011
 20
8.2895043391
 30
0.0
 10
11.2049234324
 20
8.2895043391
 30
0.0
 10
11.2065472918
 20
8.2913086416
 30
0.0
 10
11.2065472918
 20
8.2947368165
 30
0.0
  0
SPLINE
  5
309
100
AcDbEntity
  8
0
100
AcDbSpline
 62
7
  6
CONTINUOUS
 70
0
 71
3
 72
8
 73
4
 74
0
 42
0.0000001
 43
0.0000001
 44
0.0000000001
 40
0.0
 40
0.0
 40
0.0
 40
0.0
 40
1.0
 40
1.0
 40
1.0
 40
1.0
 10
11.2065472918
 20
8.3019540264
 30
0.0
 10
11.2065472918
 20
8.3037583295
 30
0.0
 10
11.2042016964
 20
8.3048409111
 30
0.0
 10
11.1998714047
 20
8.3048409111
 30
0.0
  0
SPLINE
  5
30A
100
AcDbEntity
  8
0
100
AcDbSpline
 62
7
  6
CONTINUOUS
 70
0
 71
3
 72
8
 73
4
 74
0
 42
0.0000001
 43
0.0000001
 44
0.0000000001
 40
0.0
 40
0.0
 40
0.0
 40
0.0
 40
1.0
 40
1.0
 40
1.0
 40
1.0
 10
11.1998714047
 20
8.3048409111
 30
0.0
 10
11.1883238774
 20
8.3048409111
 30
0.0
 10
11.1809261923
 20
8.3077277949
 30
0.0
 10
11.1773175966
 20
8.3135015772
 30
0.0
  0
SPLINE
  5
30B
100
AcDbEntity
  8
0
100
AcDbSpline
 62
7
  6
CONTINUOUS
 70
0
 71
3
 72
8
 73
4
 74
0
 42
0.0000001
 43
0.0000001
 44
0.0000000001
 40
0.0
 40
0.0
 40
0.0
 40
0.0
 40
1.0
 40
1.0
 40
1.0
 40
1.0
 10
11.1773175966
 20
8.3135015772
 30
0.0
 10
11.1737090188
 20
8.3192753309
 30
0.0
 10
11.1719047099
 20
8.3308228679
 30
0.0
 10
11.1719047099
 20
8.3477833103
 30
0.0
  0
LINE
  5
30C
100
AcDbEntity
  8
0
100
AcDbLine
 62
7
  6
CONTINUOUS
 10
11.2000517922
 20
8.415083801
 11
11.1719047099
 21
8.415083801
  0
LINE
  5
30D
100
AcDbEntity
  8
0
100
AcDbLine
 62
7
  6
CONTINUOUS
 10
11.2233272963
 20
8.415083801
 11
11.2000517922
 21
8.415083801
  0
SPLINE
  5
30E
100
AcDbEntity
  8
0
100
AcDbSpline
 62
7
  6
CONTINUOUS
 70
0
 71
3
 72
8
 73
4
 74
0
 42
0.0000001
 43
0.0000001
 44
0.0000000001
 40
0.0
 40
0.0
 40
0.0
 40
0.0
 40
1.0
 40
1.0
 40
1.0
 40
1.0
 10
11.2233272963
 20
8.415083801
 30
0.0
 10
11.2390247279
 20
8.415083801
 30
0.0
 10
11.2489483958
 20
8.4130990659
 30
0.0
 10
11.2530539498
 20
8.4090847444
 30
0.0
  0
SPLINE
  5
30F
100
AcDbEntity
  8
0
100
AcDbSpline
 62
7
  6
CONTINUOUS
 70
0
 71
3
 72
8
 73
4
 74
0
 42
0.0000001
 43
0.0000001
 44
0.0000000001
 40
0.0
 40
0.0
 40
0.0
 40
0.0
 40
1.0
 40
1.0
 40
1.0
 40
1.0
 10
11.2530539498
 20
8.4090847444
 30
0.0
 10
11.2570677548
 20
8.4051601331
 30
0.0
 10
11.2595937996
 20
8.3979429208
 30
0.0
 10
11.2602795597
 20
8.3876562022
 30
0.0
  0
SPLINE
  5
310
100
AcDbEntity
  8
0
100
AcDbSpline
 62
7
  6
CONTINUOUS
 70
0
 71
3
 72
8
 73
4
 74
0
 42
0.0000001
 43
0.0000001
 44
0.0000000001
 40
0.0
 40
0.0
 40
0.0
 40
0.0
 40
1.0
 40
1.0
 40
1.0
 40
1.0
 10
11.2602795597
 20
8.3876562022
 30
0.0
 10
11.2604959231
 20
8.3844106506
 30
0.0
 10
11.261939395
 20
8.3829672097
 30
0.0
 10
11.2648262768
 20
8.3829672097
 30
0.0
  0
SPLINE
  5
311
100
AcDbEntity
  8
0
100
AcDbSpline
 62
7
  6
CONTINUOUS
 70
0
 71
3
 72
8
 73
4
 74
0
 42
0.0000001
 43
0.0000001
 44
0.0000000001
 40
0.0
 40
0.0
 40
0.0
 40
0.0
 40
1.0
 40
1.0
 40
1.0
 40
1.0
 10
11.2722238999
 20
8.3829672097
 30
0.0
 10
11.2743891078
 20
8.3829672097
 30
0.0
 10
11.2756520682
 20
8.3844106506
 30
0.0
 10
11.2756520682
 20
8.3876584004
 30
0.0
  0
LINE
  5
312
100
AcDbEntity
  8
0
100
AcDbLine
 62
7
  6
CONTINUOUS
 10
11.2756520682
 20
8.3876584004
 11
11.2743890769
 21
8.4057014251
  0
SPLINE
  5
313
100
AcDbEntity
  8
0
100
AcDbSpline
 62
7
  6
CONTINUOUS
 70
0
 71
3
 72
8
 73
4
 74
0
 42
0.0000001
 43
0.0000001
 44
0.0000000001
 40
0.0
 40
0.0
 40
0.0
 40
0.0
 40
1.0
 40
1.0
 40
1.0
 40
1.0
 10
11.2743890769
 20
8.4057014251
 30
0.0
 10
11.2736673718
 20
8.4158055215
 30
0.0
 10
11.2733064728
 20
8.4239248728
 30
0.0
 10
11.2733064728
 20
8.4304203724
 30
0.0
  0
SPLINE
  5
314
100
AcDbEntity
  8
0
100
AcDbSpline
 62
7
  6
CONTINUOUS
 70
0
 71
3
 72
8
 73
4
 74
0
 42
0.0000001
 43
0.0000001
 44
0.0000000001
 40
0.0
 40
0.0
 40
0.0
 40
0.0
 40
1.0
 40
1.0
 40
1.0
 40
1.0
 10
11.2733064728
 20
8.4304203724
 30
0.0
 10
11.2733064728
 20
8.4352919816
 30
0.0
 10
11.2736673718
 20
8.4403440403
 30
0.0
 10
11.2743890763
 20
8.4457569402
 30
0.0
  0
SPLINE
  5
315
100
AcDbEntity
  8
0
100
AcDbSpline
 62
7
  6
CONTINUOUS
 70
0
 71
3
 72
8
 73
4
 74
0
 42
0.0000001
 43
0.0000001
 44
0.0000000001
 40
0.0
 40
0.0
 40
0.0
 40
0.0
 40
1.0
 40
1.0
 40
1.0
 40
1.0
 10
11.2743890763
 20
8.4457569402
 30
0.0
 10
11.2751107817
 20
8.4511698471
 30
0.0
 10
11.2756520682
 20
8.4547784494
 30
0.0
 10
11.2756520682
 20
8.4565827583
 30
0.0
  0
SPLINE
  5
316
100
AcDbEntity
  8
0
100
AcDbSpline
 62
7
  6
CONTINUOUS
 70
0
 71
3
 72
8
 73
4
 74
0
 42
0.0000001
 43
0.0000001
 44
0.0000000001
 40
0.0
 40
0.0
 40
0.0
 40
0.0
 40
1.0
 40
1.0
 40
1.0
 40
1.0
 10
11.2756520682
 20
8.4565827583
 30
0.0
 10
11.2756520682
 20
8.4589283537
 30
0.0
 10
11.2740282088
 20
8.4601913606
 30
0.0
 10
11.2709608775
 20
8.4601913606
 30
0.0
  0
SPLINE
  5
317
100
AcDbEntity
  8
0
100
AcDbSpline
 62
7
  6
CONTINUOUS
 70
0
 71
3
 72
8
 73
4
 74
0
 42
0.0000001
 43
0.0000001
 44
0.0000000001
 40
0.0
 40
0.0
 40
0.0
 40
0.0
 40
1.0
 40
1.0
 40
1.0
 40
1.0
 10
11.2641045409
 20
8.4601913606
 30
0.0
 10
11.2617589455
 20
8.4601913606
 30
0.0
 10
11.2604959231
 20
8.4589283537
 30
0.0
 10
11.2602298531
 20
8.4565928318
 30
0.0
  0
SPLINE
  5
318
100
AcDbEntity
  8
0
100
AcDbSpline
 62
7
  6
CONTINUOUS
 70
0
 71
3
 72
8
 73
4
 74
0
 42
0.0000001
 43
0.0000001
 44
0.0000000001
 40
0.0
 40
0.0
 40
0.0
 40
0.0
 40
1.0
 40
1.0
 40
1.0
 40
1.0
 10
11.2602298531
 20
8.4565928318
 30
0.0
 10
11.2588720637
 20
8.444674363
 30
0.0
 10
11.2565264683
 20
8.4378180109
 30
0.0
 10
11.2529574774
 20
8.4357658266
 30
0.0
  0
SPLINE
  5
319
100
AcDbEntity
  8
0
100
AcDbSpline
 62
7
  6
CONTINUOUS
 70
0
 71
3
 72
8
 73
4
 74
0
 42
0.0000001
 43
0.0000001
 44
0.0000000001
 40
0.0
 40
0.0
 40
0.0
 40
0.0
 40
1.0
 40
1.0
 40
1.0
 40
1.0
 10
11.2529574774
 20
8.4357658266
 30
0.0
 10
11.2493092947
 20
8.4336681067
 30
0.0
 10
11.2392051774
 20
8.4327659677
 30
0.0
 10
11.2226056223
 20
8.4327659677
 30
0.0
  0
LINE
  5
31A
100
AcDbEntity
  8
0
100
AcDbLine
 62
7
  6
CONTINUOUS
 10
11.1971649104
 20
8.4327659677
 11
11.2226056223
 21
8.4327659677
  0
LINE
  5
31B
100
AcDbEntity
  8
0
100
AcDbLine
 62
7
  6
CONTINUOUS
 10
11.1719047099
 20
8.4327659677
 11
11.1971649104
 21
8.4327659677
  0
SPLINE
  5
31C
100
AcDbEntity
  8
0
100
AcDbSpline
 62
7
  6
CONTINUOUS
 70
0
 71
3
 72
8
 73
4
 74
0
 42
0.0000001
 43
0.0000001
 44
0.0000000001
 40
0.0
 40
0.0
 40
0.0
 40
0.0
 40
1.0
 40
1.0
 40
1.0
 40
1.0
 10
10.6158186438
 20
8.3476028822
 30
0.0
 10
10.5981364816
 20
8.3766521518
 30
0.0
 10
10.5892953943
 20
8.4069644343
 30
0.0
 10
10.5892953943
 20
8.4387201654
 30
0.0
  0
SPLINE
  5
31D
100
AcDbEntity
  8
0
100
AcDbSpline
 62
7
  6
CONTINUOUS
 70
0
 71
3
 72
8
 73
4
 74
0
 42
0.0000001
 43
0.0000001
 44
0.0000000001
 40
0.0
 40
0.0
 40
0.0
 40
0.0
 40
1.0
 40
1.0
 40
1.0
 40
1.0
 10
10.6887124687
 20
8.3041191897
 30
0.0
 10
10.657678458
 20
8.3041191897
 30
0.0
 10
10.6335008072
 20
8.3185536105
 30
0.0
 10
10.6158186438
 20
8.3476028822
 30
0.0
  0
SPLINE
  5
31E
100
AcDbEntity
  8
0
100
AcDbSpline
 62
7
  6
CONTINUOUS
 70
0
 71
3
 72
8
 73
4
 74
0
 42
0.0000001
 43
0.0000001
 44
0.0000000001
 40
0.0
 40
0.0
 40
0.0
 40
0.0
 40
1.0
 40
1.0
 40
1.0
 40
1.0
 10
10.75060004
 20
8.3308228684
 30
0.0
 10
10.733459168
 20
8.3129602731
 30
0.0
 10
10.7128901272
 20
8.3041191897
 30
0.0
 10
10.6887124687
 20
8.3041191897
 30
0.0
  0
SPLINE
  5
31F
100
AcDbEntity
  8
0
100
AcDbSpline
 62
7
  6
CONTINUOUS
 70
0
 71
3
 72
8
 73
4
 74
0
 42
0.0000001
 43
0.0000001
 44
0.0000000001
 40
0.0
 40
0.0
 40
0.0
 40
0.0
 40
1.0
 40
1.0
 40
1.0
 40
1.0
 10
10.7764015739
 20
8.4037166922
 30
0.0
 10
10.7764015739
 20
8.3730435495
 30
0.0
 10
10.767740913
 20
8.3486854647
 30
0.0
 10
10.75060004
 20
8.3308228684
 30
0.0
  0
SPLINE
  5
320
100
AcDbEntity
  8
0
100
AcDbSpline
 62
7
  6
CONTINUOUS
 70
0
 71
3
 72
8
 73
4
 74
0
 42
0.0000001
 43
0.0000001
 44
0.0000000001
 40
0.0
 40
0.0
 40
0.0
 40
0.0
 40
1.0
 40
1.0
 40
1.0
 40
1.0
 10
10.7499383462
 20
8.4947199375
 30
0.0
 10
10.7675558736
 20
8.4698087803
 30
0.0
 10
10.7764015739
 20
8.4394511338
 30
0.0
 10
10.7764015739
 20
8.4037166922
 30
0.0
  0
SPLINE
  5
321
100
AcDbEntity
  8
0
100
AcDbSpline
 62
7
  6
CONTINUOUS
 70
0
 71
3
 72
8
 73
4
 74
0
 42
0.0000001
 43
0.0000001
 44
0.0000000001
 40
0.0
 40
0.0
 40
0.0
 40
0.0
 40
1.0
 40
1.0
 40
1.0
 40
1.0
 10
10.6140143414
 20
8.5081858078
 30
0.0
 10
10.621019557
 20
8.5154194543
 30
0.0
 10
10.6287959764
 20
8.5211428279
 30
0.0
 10
10.6373571608
 20
8.5253423668
 30
0.0
  0
SPLINE
  5
322
100
AcDbEntity
  8
0
100
AcDbSpline
 62
7
  6
CONTINUOUS
 70
0
 71
3
 72
8
 73
4
 74
0
 42
0.0000001
 43
0.0000001
 44
0.0000000001
 40
0.0
 40
0.0
 40
0.0
 40
0.0
 40
1.0
 40
1.0
 40
1.0
 40
1.0
 10
10.5892953943
 20
8.4387201654
 30
0.0
 10
10.5892953943
 20
8.4679498671
 30
0.0
 10
10.5974147611
 20
8.4910449373
 30
0.0
 10
10.6140143414
 20
8.5081858078
 30
0.0
  0
ENDSEC
  0
SECTION
  2
OBJECTS
  0
DICTIONARY
  5
C
100
AcDbDictionary
280
0
281
1
  3
ACAD_GROUP
350
D
  3
ACAD_MLINESTYLE
350
17
  3
ACAD_LAYOUT
350
1A
  3
ACAD_PLOTSETTINGS
350
19
  3
ACAD_PLOTSTYLENAME
350
E
  0
DICTIONARY
  5
D
102
{ACAD_REACTORS
330
C
102
}
100
AcDbDictionary
280
0
281
1
  0
ACDBDICTIONARYWDFLT
  5
E
102
{ACAD_REACTORS
330
C
102
}
100
AcDbDictionary
281
1
  3
Normal
350
F
100
AcDbDictionaryWithDefault
340
F
  0
DICTIONARY
  5
17
102
{ACAD_REACTORS
330
C
102
}
100
AcDbDictionary
280
0
281
1
  3
Standard
350
18
  0
DICTIONARY
  5
19
102
{ACAD_REACTORS
330
C
102
}
100
AcDbDictionary
281
1
  0
DICTIONARY
  5
1A
102
{ACAD_REACTORS
330
C
102
}
100
AcDbDictionary
281
1
  3
Model
350
323
  3
Layout1
350
324
  0
ACDBPLACEHOLDER
  5
F
102
{ACAD_REACTORS
330
E
102
}
  0
MLINESTYLE
  5
18
102
{ACAD_REACTORS
330
17
102
}
100
AcDbMlineStyle
  2
STANDARD
 70
0
  3

 62
256
 51
90.0
 52
90.0
 71
2
 49
0.5
 62
256
  6
BYLAYER
 49
-0.5
 62
256
  6
BYLAYER
  0
LAYOUT
  5
323
102
{ACAD_REACTORS
330
1A
102
}
100
AcDbPlotSettings
  1

  2
none_device
  4
ANSI_C_(22.00_x_17.00_Inches)
  6

 40
0.0
 41
0.0
 42
0.0
 43
0.0
 44
558.8
 45
431.8
 46
0.0
 47
0.0
 48
0.0
 49
0.0
140
0.0
141
0.0
142
1.0
143
1.0
 70
1024
 72
0
 73
0
 74
0
  7

 75
0
147
1.0
148
0.0
149
0.0
100
AcDbLayout
  1
Model
 70
0
 71
0
 10
0.0
 20
0.0
 11
22.0
 21
17.0
 12
0.0
 22
0.0
 32
0.0
 14
0.0
 24
0.0
 34
0.0
 15
0.0
 25
0.0
 35
0.0
146
0.0
 13
0.0
 23
0.0
 33
0.0
 16
1.0
 26
0.0
 36
0.0
 17
0.0
 27
1.0
 37
0.0
 76
0
330
205
345
0
346
0
  0
LAYOUT
  5
324
102
{ACAD_REACTORS
330
1A
102
}
100
AcDbPlotSettings
  1

  2
none_device
  4
ANSI_C_(22.00_x_17.00_Inches)
  6

 40
0.0
 41
0.0
 42
0.0
 43
0.0
 44
558.8
 45
431.8
 46
0.0
 47
0.0
 48
0.0
 49
0.0
140
0.0
141
0.0
142
1.0
143
1.0
 70
0
 72
0
 73
0
 74
0
  7

 75
0
147
1.0
148
0.0
149
0.0
100
AcDbLayout
  1
Layout1
 70
0
 71
1
 10
0.0
 20
0.0
 11
22.0
 21
17.0
 12
0.0
 22
0.0
 32
0.0
 14
0.0
 24
0.0
 34
0.0
 15
0.0
 25
0.0
 35
0.0
146
0.0
 13
0.0
 23
0.0
 33
0.0
 16
1.0
 26
0.0
 36
0.0
 17
0.0
 27
1.0
 37
0.0
 76
0
330
206
345
0
346
0
  0
ENDSEC
  0
EOF
