999
DXF file: E:\BT Custom\CADOUTPUT\_FRONT.dxf
999
Pro/ENGINEER 2018400 by Parametric Technology Corporation
  0
SECTION
  2
HEADER
  9
$ACADVER
  1
AC1018
  9
$DWGCODEPAGE
  3
ANSI_1252
  9
$EXTMAX
 10
22.0
 20
17.0
 30
0.0
  9
$EXTMIN
 10
0.0
 20
0.0
 30
0.0
  9
$LIMMIN
 10
0.0
 20
0.0
  9
$LIMMAX
 10
22.0
 20
17.0
  9
$VIEWCTR
 10
11.0
 20
8.5
  9
$VIEWSIZE
 40
17.0
  9
$CLAYER
  8
0
  9
$LTSCALE
 40
1.21
  9
$CELTYPE
  6
BYLAYER
  9
$DIMSCALE
 40
1.0
  9
$DIMASZ
 40
0.1
  9
$DIMEXO
 40
0.0625
  9
$DIMDLI
 40
0.836
  9
$DIMEXE
 40
0.125
  9
$DIMCEN
 40
0.198
  9
$DIMLFAC
 40
1.0
  9
$DIMBLK
  1
_FILLED
  9
$DIMALT
 70
1
  9
$DIMALTD
 70
2
  9
$DIMALTTD
 70
2
  9
$DIMALTF
 40
25.4
  9
$DIMTXT
 40
0.08
  9
$DIMTOL
 70
1
  9
$DIMLIM
 70
0
  9
$DIMTFAC
 40
1.0
  9
$DIMTP
 40
0.001
  9
$DIMTM
 40
0.001
  9
$DIMGAP
 40
0.09
  9
$DIMDSEP
 70
46
  9
$AUNITS
 70
0
  9
$PDMODE
 70
3
  9
$PDSIZE
 40
0.06
  9
$HANDSEED
  5
27B
  9
$TILEMODE
 70
1
  9
$MEASUREMENT
 70
0
  9
$INSUNITS
 70
1
  0
ENDSEC
  0
SECTION
  2
CLASSES
  0
CLASS
  1
ACDBDICTIONARYWDFLT
  2
AcDbDictionaryWithDefault
  3
AutoCAD 2000
 90
0
 91
1
280
0
281
0
  0
CLASS
  1
ACDBPLACEHOLDER
  2
AcDbPlaceHolder
  3
AutoCAD 2000
 90
0
 91
1
280
0
281
0
  0
CLASS
  1
LAYOUT
  2
AcDbLayout
  3
AutoCAD 2000
 90
0
 91
0
280
0
281
0
  0
ENDSEC
  0
SECTION
  2
TABLES
  0
TABLE
  2
VPORT
  5
8
100
AcDbSymbolTable
 70
2
  0
VPORT
  5
1F4
100
AcDbSymbolTableRecord
100
AcDbViewportTableRecord
  2
*ACTIVE
 70
0
 10
0.0
 20
0.0
 11
1.0
 21
1.0
 12
11.0
 22
8.5
 13
0.0
 23
0.0
 14
1.0
 24
1.0
 15
0.0
 25
0.0
 16
0.0
 26
0.0
 36
1.0
 17
0.0
 27
0.0
 37
0.0
 40
17.0
 41
1.2941176471
 42
50.0
 43
0.0
 44
0.0
 50
0.0
 51
0.0
 71
0
 72
100
 73
1
 74
1
 75
0
 76
0
 77
0
 78
0
  0
ENDTAB
  0
TABLE
  2
LTYPE
  5
5
100
AcDbSymbolTable
 70
6
  0
LTYPE
  5
14
100
AcDbSymbolTableRecord
100
AcDbLinetypeTableRecord
  2
BYBLOCK
 70
0
  3

 72
65
 73
0
 40
0.0
  0
LTYPE
  5
15
100
AcDbSymbolTableRecord
100
AcDbLinetypeTableRecord
  2
BYLAYER
 70
0
  3

 72
65
 73
0
 40
0.0
  0
LTYPE
  5
16
100
AcDbSymbolTableRecord
100
AcDbLinetypeTableRecord
  2
CONTINUOUS
 70
64
  3
Solid line
 72
65
 73
0
 40
0.0
  0
LTYPE
  5
1F5
100
AcDbSymbolTableRecord
100
AcDbLinetypeTableRecord
  2
CENTER
 70
64
  3
____ _ ____ _ ____ _ ____ _ ____ _ ____ _ ____
 72
65
 73
4
 40
0.6
 49
0.375
 74
0
 49
-0.075
 74
0
 49
0.075
 74
0
 49
-0.075
 74
0
  0
LTYPE
  5
1F6
100
AcDbSymbolTableRecord
100
AcDbLinetypeTableRecord
  2
HIDDEN
 70
64
  3
- - - - - - - - - - - - - - - - - - - -
 72
65
 73
2
 40
0.2
 49
0.1
 74
0
 49
-0.1
 74
0
  0
LTYPE
  5
1F7
100
AcDbSymbolTableRecord
100
AcDbLinetypeTableRecord
  2
PHANTOM
 70
64
  3
_____ _ _ _____ _ _ _____ _ _ _____
 72
65
 73
6
 40
0.8
 49
0.45
 74
0
 49
-0.05
 74
0
 49
0.1
 74
0
 49
-0.05
 74
0
 49
0.1
 74
0
 49
-0.05
 74
0
  0
LTYPE
  5
1F8
100
AcDbSymbolTableRecord
100
AcDbLinetypeTableRecord
  2
DOT
 70
64
  3
. . . . . . . . . . . . . . . . . . . .
 72
65
 73
2
 40
0.2
 49
0.1
 74
0
 49
-0.1
 74
0
  0
LTYPE
  5
1F9
100
AcDbSymbolTableRecord
100
AcDbLinetypeTableRecord
  2
DASHED
 70
64
  3
- - - - - - - - - - - - - - - - - - - -
 72
65
 73
2
 40
0.2
 49
0.1
 74
0
 49
-0.1
 74
0
  0
ENDTAB
  0
TABLE
  2
LAYER
  5
2
100
AcDbSymbolTable
 70
36
  0
LAYER
  5
10
100
AcDbSymbolTableRecord
100
AcDbLayerTableRecord
  2
0
 70
0
 62
7
  6
CONTINUOUS
370
-3
390
F
  0
LAYER
  5
1FA
100
AcDbSymbolTableRecord
100
AcDbLayerTableRecord
  2
DEFAULT_1
 70
0
 62
7
  6
CENTER
370
-3
390
F
  0
LAYER
  5
1FB
100
AcDbSymbolTableRecord
100
AcDbLayerTableRecord
  2
DEFAULT_2
 70
0
 62
8
  6
HIDDEN
370
-3
390
F
  0
LAYER
  5
1FC
100
AcDbSymbolTableRecord
100
AcDbLayerTableRecord
  2
DEFAULT_3
 70
0
 62
7
  6
PHANTOM
370
-3
390
F
  0
LAYER
  5
1FD
100
AcDbSymbolTableRecord
100
AcDbLayerTableRecord
  2
ALL_FEATURES
 70
0
 62
7
  6
CONTINUOUS
370
-3
390
F
  0
LAYER
  5
1FE
100
AcDbSymbolTableRecord
100
AcDbLayerTableRecord
  2
AXES_FEATURES
 70
0
 62
7
  6
CONTINUOUS
370
-3
390
F
  0
LAYER
  5
1FF
100
AcDbSymbolTableRecord
100
AcDbLayerTableRecord
  2
DEFAULT_COORDINATE_SYSTEM
 70
0
 62
7
  6
CONTINUOUS
370
-3
390
F
  0
LAYER
  5
200
100
AcDbSymbolTableRecord
100
AcDbLayerTableRecord
  2
DEFAULT_DATUM_AXES
 70
0
 62
7
  6
CONTINUOUS
370
-3
390
F
  0
LAYER
  5
201
100
AcDbSymbolTableRecord
100
AcDbLayerTableRecord
  2
DEFAULT_DATUM_PLANES
 70
0
 62
7
  6
CONTINUOUS
370
-3
390
F
  0
LAYER
  5
202
100
AcDbSymbolTableRecord
100
AcDbLayerTableRecord
  2
DIMENSIONS
 70
0
 62
7
  6
CONTINUOUS
370
-3
390
F
  0
ENDTAB
  0
TABLE
  2
STYLE
  5
3
100
AcDbSymbolTable
 70
1
  0
STYLE
  5
11
100
AcDbSymbolTableRecord
100
AcDbTextStyleTableRecord
  2
STANDARD
 70
0
 40
0.0
 41
0.8
 50
0.0
 71
0
 42
0.2
  3
txt
  4

  0
STYLE
  5
203
100
AcDbSymbolTableRecord
100
AcDbTextStyleTableRecord
  2
TEXTSTYLE_1
 70
0
 40
0.0
 41
0.8
 50
0.0
 71
0
 42
0.2
  3
gdt
  4

  0
ENDTAB
  0
TABLE
  2
VIEW
  5
6
100
AcDbSymbolTable
 70
0
  0
ENDTAB
  0
TABLE
  2
UCS
  5
7
100
AcDbSymbolTable
 70
0
  0
ENDTAB
  0
TABLE
  2
APPID
  5
9
100
AcDbSymbolTable
 70
1
  0
APPID
  5
204
100
AcDbSymbolTableRecord
100
AcDbRegAppTableRecord
  2
ACAD
 70
0
  0
ENDTAB
  0
TABLE
  2
BLOCK_RECORD
  5
1
100
AcDbSymbolTable
 70
0
  0
BLOCK_RECORD
  5
205
100
AcDbSymbolTableRecord
100
AcDbBlockTableRecord
  2
*Model_Space
  0
BLOCK_RECORD
  5
206
100
AcDbSymbolTableRecord
100
AcDbBlockTableRecord
  2
*Paper_Space
  0
BLOCK_RECORD
  5
207
100
AcDbSymbolTableRecord
100
AcDbBlockTableRecord
  2
_FILLED
  0
ENDTAB
  0
TABLE
  2
DIMSTYLE
  5
A
100
AcDbSymbolTable
 70
1
100
AcDbDimStyleTable
 71
0
  0
DIMSTYLE
105
208
100
AcDbSymbolTableRecord
100
AcDbDimStyleTableRecord
  2
STANDARD
 70
0
  3

  4

 40
1.0
 41
0.1
 42
0.0625
 43
0.38
 44
0.125
 45
0.0
 46
0.0
 47
0.001
 48
0.001
140
0.08
141
0.09
142
0.0
143
25.4
144
1.0
145
0.0
146
1.0
147
0.09
 71
1.0
 72
0.0
 73
1
 74
1
 75
0
 76
0
 77
0
 78
4
 79
1
170
1
171
2
172
0
173
0
174
0
175
0
176
0
177
0
178
0
270
2
179
3
271
3
272
3
273
2
274
2
275
0
280
0
281
0
282
0
283
1
284
4
285
0
286
0
287
3
288
0
340
11
278
46
341
207
342
207
343
207
344
207
  0
ENDTAB
  0
ENDSEC
  0
SECTION
  2
BLOCKS
  0
BLOCK
  5
20
100
AcDbEntity
  8
0
100
AcDbBlockBegin
  2
*Model_Space
 70
0
 10
0.0
 20
0.0
 30
0.0
  3
*Model_Space
  1

  0
ENDBLK
  5
21
100
AcDbEntity
  8
0
100
AcDbBlockEnd
  0
BLOCK
  5
1C
100
AcDbEntity
  8
0
100
AcDbBlockBegin
  2
*Paper_Space
 70
0
 10
0.0
 20
0.0
 30
0.0
  3
*Paper_Space
  1

  0
ENDBLK
  5
1D
100
AcDbEntity
  8
0
100
AcDbBlockEnd
  0
BLOCK
  5
209
100
AcDbEntity
  8
0
100
AcDbBlockBegin
  2
_FILLED
 70
64
 10
0.0
 20
0.0
  3
_FILLED
  1

  0
SOLID
  5
20A
100
AcDbEntity
  8
0
  6
BYBLOCK
 62
0
100
AcDbTrace
 10
0.0
 20
0.0
 11
-1.0
 21
0.2
 12
-1.0
 22
-0.2
 13
-1.0
 23
-0.2
  0
ENDBLK
  5
20B
100
AcDbEntity
  8
0
  6
BYBLOCK
 62
0
100
AcDbBlockEnd
  0
ENDSEC
  0
SECTION
  2
ENTITIES
  0
LINE
  5
20C
100
AcDbEntity
  8
0
100
AcDbLine
 62
7
  6
CONTINUOUS
 10
11.1871966634
 20
5.9676695021
 11
10.6881880221
 21
5.9676695021
  0
LINE
  5
20D
100
AcDbEntity
  8
0
100
AcDbLine
 62
9
  6
CONTINUOUS
 10
11.2340239849
 20
5.9901568116
 11
10.6413607005
 21
5.9901568116
  0
LINE
  5
20E
100
AcDbEntity
  8
0
100
AcDbLine
 62
9
  6
CONTINUOUS
 10
11.3844095462
 20
6.087715309
 11
10.4909751393
 21
6.087715309
  0
LINE
  5
20F
100
AcDbEntity
  8
0
100
AcDbLine
 62
9
  6
CONTINUOUS
 10
11.4292423427
 20
6.1457666306
 11
10.4461423427
 21
6.1457666306
  0
LINE
  5
210
100
AcDbEntity
  8
0
100
AcDbLine
 62
9
  6
CONTINUOUS
 10
11.4292423427
 20
6.1676695021
 11
10.4461423427
 21
6.1676695021
  0
LINE
  5
211
100
AcDbEntity
  8
0
100
AcDbLine
 62
7
  6
CONTINUOUS
 10
11.3892423427
 20
6.2076695021
 11
10.4861423427
 21
6.2076695021
  0
LINE
  5
212
100
AcDbEntity
  8
0
100
AcDbLine
 62
7
  6
CONTINUOUS
 10
9.336826201
 20
9.3423151714
 11
9.336826201
 21
9.1834569037
  0
LINE
  5
213
100
AcDbEntity
  8
0
100
AcDbLine
 62
7
  6
CONTINUOUS
 10
9.4041096656
 20
9.1834569037
 11
9.4041096656
 21
9.2550710769
  0
LINE
  5
214
100
AcDbEntity
  8
0
100
AcDbLine
 62
7
  6
CONTINUOUS
 10
9.4041096656
 20
9.2728663525
 11
9.4041096656
 21
9.3423151714
  0
LINE
  5
215
100
AcDbEntity
  8
0
100
AcDbLine
 62
7
  6
CONTINUOUS
 10
9.4961175396
 20
9.3423151714
 11
9.4961175396
 21
9.2728663525
  0
LINE
  5
216
100
AcDbEntity
  8
0
100
AcDbLine
 62
7
  6
CONTINUOUS
 10
9.4961175396
 20
9.2550710769
 11
9.4961175396
 21
9.1834569037
  0
LINE
  5
217
100
AcDbEntity
  8
0
100
AcDbLine
 62
7
  6
CONTINUOUS
 10
9.5634010042
 20
9.1834569037
 11
9.5634010042
 21
9.3423151714
  0
LINE
  5
218
100
AcDbEntity
  8
0
100
AcDbLine
 62
7
  6
CONTINUOUS
 10
11.2166923427
 20
8.3826695021
 11
10.6586923427
 21
8.3826695021
  0
LINE
  5
219
100
AcDbEntity
  8
0
100
AcDbLine
 62
9
  6
CONTINUOUS
 10
11.2643963178
 20
8.4630448905
 11
10.6109883677
 21
8.4630448905
  0
LINE
  5
21A
100
AcDbEntity
  8
0
100
AcDbLine
 62
7
  6
CONTINUOUS
 10
10.4461423427
 20
6.1676695021
 11
10.4461423427
 21
6.1457666306
  0
LINE
  5
21B
100
AcDbEntity
  8
0
100
AcDbLine
 62
9
  6
CONTINUOUS
 10
11.2400720599
 20
8.7306672769
 11
10.6353126256
 21
8.7306672769
  0
LINE
  5
21C
100
AcDbEntity
  8
0
100
AcDbLine
 62
7
  6
CONTINUOUS
 10
11.2006897182
 20
8.7776695021
 11
10.6746949673
 21
8.7776695021
  0
LINE
  5
21D
100
AcDbEntity
  8
0
100
AcDbLine
 62
7
  6
CONTINUOUS
 10
10.7070423427
 20
8.8796695021
 11
11.1683423427
 21
8.8796695021
  0
LINE
  5
21E
100
AcDbEntity
  8
0
100
AcDbLine
 62
7
  6
CONTINUOUS
 10
10.7070423427
 20
8.8796695021
 11
10.7070423427
 21
8.7776695021
  0
LINE
  5
21F
100
AcDbEntity
  8
0
100
AcDbLine
 62
7
  6
CONTINUOUS
 10
9.4041096656
 20
9.2550710769
 11
9.4961175396
 21
9.2550710769
  0
LINE
  5
220
100
AcDbEntity
  8
0
100
AcDbLine
 62
7
  6
CONTINUOUS
 10
9.4961175396
 20
9.2728663525
 11
9.4041096656
 21
9.2728663525
  0
LINE
  5
221
100
AcDbEntity
  8
0
100
AcDbLine
 62
7
  6
CONTINUOUS
 10
11.1683423427
 20
8.8796695021
 11
11.1683423427
 21
8.7776695021
  0
LINE
  5
222
100
AcDbEntity
  8
0
100
AcDbLine
 62
7
  6
CONTINUOUS
 10
11.4292423427
 20
6.1676695021
 11
11.4292423427
 21
6.1457666306
  0
ARC
  5
223
100
AcDbEntity
  8
0
100
AcDbCircle
 62
7
  6
CONTINUOUS
 10
-30.5739948616
 20
4.1947746858
 40
42.0
100
AcDbArc
 50
2.7470136623
 51
5.7225738128
  0
ARC
  5
224
100
AcDbEntity
  8
0
100
AcDbCircle
 62
7
  6
CONTINUOUS
 10
10.4189309231
 20
5.8119715313
 40
0.285
100
AcDbArc
 50
38.6977133782
 51
75.3575223752
  0
ARC
  5
225
100
AcDbEntity
  8
0
100
AcDbCircle
 62
7
  6
CONTINUOUS
 10
10.6881880221
 20
6.0276695021
 40
0.06
100
AcDbArc
 50
218.6977133783
 51
270.0
  0
ARC
  5
226
100
AcDbEntity
  8
0
100
AcDbCircle
 62
7
  6
CONTINUOUS
 10
10.5061423427
 20
6.1457666306
 40
0.06
100
AcDbArc
 50
180.0
 51
255.3575223754
  0
ARC
  5
227
100
AcDbEntity
  8
0
100
AcDbCircle
 62
7
  6
CONTINUOUS
 10
10.4861423427
 20
6.1676695021
 40
0.04
100
AcDbArc
 50
90.0
 51
180.0
  0
ARC
  5
228
100
AcDbEntity
  8
0
100
AcDbCircle
 62
7
  6
CONTINUOUS
 10
10.1331877684
 20
8.6413889044
 40
0.51
100
AcDbArc
 50
339.5313912079
 51
10.0818955774
  0
ARC
  5
229
100
AcDbEntity
  8
0
100
AcDbCircle
 62
7
  6
CONTINUOUS
 10
10.6672002028
 20
8.4420632416
 40
0.06
100
AcDbArc
 50
159.5313909201
 51
261.848117056
  0
ARC
  5
22A
100
AcDbEntity
  8
0
100
AcDbCircle
 62
7
  6
CONTINUOUS
 10
10.6746949673
 20
8.7376695021
 40
0.04
100
AcDbArc
 50
90.0
 51
190.0818955775
  0
ARC
  5
22B
100
AcDbEntity
  8
0
100
AcDbCircle
 62
7
  6
CONTINUOUS
 10
52.449379547
 20
4.1947746858
 40
42.0
100
AcDbArc
 50
174.2774261872
 51
177.2529863377
  0
ARC
  5
22C
100
AcDbEntity
  8
0
100
AcDbCircle
 62
7
  6
CONTINUOUS
 10
11.4564537624
 20
5.8119715313
 40
0.285
100
AcDbArc
 50
104.6424776248
 51
141.3022866218
  0
ARC
  5
22D
100
AcDbEntity
  8
0
100
AcDbCircle
 62
7
  6
CONTINUOUS
 10
11.1871966634
 20
6.0276695021
 40
0.06
100
AcDbArc
 50
270.0
 51
321.3022866217
  0
ARC
  5
22E
100
AcDbEntity
  8
0
100
AcDbCircle
 62
7
  6
CONTINUOUS
 10
11.3692423427
 20
6.1457666306
 40
0.06
100
AcDbArc
 50
284.6424776246
 51
360.0
  0
ARC
  5
22F
100
AcDbEntity
  8
0
100
AcDbCircle
 62
7
  6
CONTINUOUS
 10
11.3892423427
 20
6.1676695021
 40
0.04
100
AcDbArc
 50
0.0
 51
90.0
  0
ARC
  5
230
100
AcDbEntity
  8
0
100
AcDbCircle
 62
7
  6
CONTINUOUS
 10
10.9376923427
 20
7.0976695021
 40
0.45
100
AcDbArc
 50
145.0729298017
 51
207.0065159577
  0
ARC
  5
231
100
AcDbEntity
  8
0
100
AcDbCircle
 62
7
  6
CONTINUOUS
 10
10.9376923427
 20
7.0976695021
 40
0.45
100
AcDbArc
 50
332.9934840423
 51
34.9270701983
  0
ARC
  5
232
100
AcDbEntity
  8
0
100
AcDbCircle
 62
9
  6
CONTINUOUS
 10
10.9376923427
 20
7.0976695021
 40
0.4492005033
100
AcDbArc
 50
145.2565096845
 51
206.8276468545
  0
ARC
  5
233
100
AcDbEntity
  8
0
100
AcDbCircle
 62
9
  6
CONTINUOUS
 10
10.9376923427
 20
7.0976695021
 40
0.4492005033
100
AcDbArc
 50
333.1723531455
 51
34.7434903155
  0
ARC
  5
234
100
AcDbEntity
  8
0
100
AcDbCircle
 62
9
  6
CONTINUOUS
 10
10.9376923427
 20
7.0976695021
 40
0.4177005033
100
AcDbArc
 50
153.8172985602
 51
198.4607051168
  0
ARC
  5
235
100
AcDbEntity
  8
0
100
AcDbCircle
 62
9
  6
CONTINUOUS
 10
10.9376923427
 20
7.0976695021
 40
0.4177005033
100
AcDbArc
 50
341.5392948832
 51
26.1827014398
  0
ARC
  5
236
100
AcDbEntity
  8
0
100
AcDbCircle
 62
9
  6
CONTINUOUS
 10
10.9376923427
 20
7.0976695021
 40
0.3875
100
AcDbArc
 50
171.5645198335
 51
180.0
  0
ARC
  5
237
100
AcDbEntity
  8
0
100
AcDbCircle
 62
9
  6
CONTINUOUS
 10
10.9376923427
 20
7.0976695021
 40
0.3875
100
AcDbArc
 50
0.0
 51
8.4354801665
  0
CIRCLE
  5
238
100
AcDbEntity
  8
0
100
AcDbCircle
 62
7
  6
CONTINUOUS
 10
10.9376923427
 20
9.2676695021
 40
3.75
  0
CIRCLE
  5
239
100
AcDbEntity
  8
0
100
AcDbCircle
 62
9
  6
CONTINUOUS
 10
10.9376923427
 20
9.2676695021
 40
3.6779700629
  0
CIRCLE
  5
23A
100
AcDbEntity
  8
0
100
AcDbCircle
 62
9
  6
CONTINUOUS
 10
10.9376923427
 20
9.2676695021
 40
3.3101977857
  0
ARC
  5
23B
100
AcDbEntity
  8
0
100
AcDbCircle
 62
9
  6
CONTINUOUS
 10
10.9376923427
 20
9.2676695021
 40
3.233
100
AcDbArc
 50
276.6235783415
 51
263.3764216585
  0
ARC
  5
23C
100
AcDbEntity
  8
0
100
AcDbCircle
 62
9
  6
CONTINUOUS
 10
10.9376923427
 20
9.2676695021
 40
1.7569831374
100
AcDbArc
 50
281.6072278175
 51
258.3927721646
  0
ARC
  5
23D
100
AcDbEntity
  8
0
100
AcDbCircle
 62
9
  6
CONTINUOUS
 10
10.9376923427
 20
9.2676695021
 40
1.7369899909
100
AcDbArc
 50
281.6881545853
 51
258.3118454147
  0
ARC
  5
23E
100
AcDbEntity
  8
0
100
AcDbCircle
 62
7
  6
CONTINUOUS
 10
10.9376923427
 20
9.2676695021
 40
1.7342267598
100
AcDbArc
 50
281.6994170301
 51
258.3005829699
  0
ARC
  5
23F
100
AcDbEntity
  8
0
100
AcDbCircle
 62
7
  6
CONTINUOUS
 10
10.9376923427
 20
9.2676695021
 40
1.1134351517
100
AcDbArc
 50
285.4540452307
 51
254.5459547693
  0
ARC
  5
240
100
AcDbEntity
  8
0
100
AcDbCircle
 62
9
  6
CONTINUOUS
 10
10.9376923427
 20
9.2676695021
 40
1.1032228352
100
AcDbArc
 50
285.5451708856
 51
254.4548290844
  0
ARC
  5
241
100
AcDbEntity
  8
0
100
AcDbCircle
 62
9
  6
CONTINUOUS
 10
10.9376923427
 20
9.2676695021
 40
0.9347230301
100
AcDbArc
 50
287.4109323359
 51
252.5890676496
  0
ARC
  5
242
100
AcDbEntity
  8
0
100
AcDbCircle
 62
7
  6
CONTINUOUS
 10
10.9376923427
 20
9.2676695021
 40
0.928
100
AcDbArc
 50
288.806548543
 51
251.1934514559
  0
ARC
  5
243
100
AcDbEntity
  8
0
100
AcDbCircle
 62
9
  6
CONTINUOUS
 10
10.9376923427
 20
9.2676695021
 40
0.9159658819
100
AcDbArc
 50
290.5358770088
 51
249.4641229908
  0
ARC
  5
244
100
AcDbEntity
  8
0
100
AcDbCircle
 62
9
  6
CONTINUOUS
 10
10.9376923427
 20
9.2676695021
 40
0.8160949729
100
AcDbArc
 50
292.4076254871
 51
247.5923745129
  0
ARC
  5
245
100
AcDbEntity
  8
0
100
AcDbCircle
 62
7
  6
CONTINUOUS
 10
10.9376923427
 20
9.2676695021
 40
0.7554637704
100
AcDbArc
 50
293.3307724843
 51
246.6692275157
  0
ARC
  5
246
100
AcDbEntity
  8
0
100
AcDbCircle
 62
7
  6
CONTINUOUS
 10
10.9376923427
 20
9.2676695021
 40
0.5181047788
100
AcDbArc
 50
296.4378876243
 51
243.5621123758
  0
ARC
  5
247
100
AcDbEntity
  8
0
100
AcDbCircle
 62
9
  6
CONTINUOUS
 10
10.9376923427
 20
9.2676695021
 40
0.4757780941
100
AcDbArc
 50
299.0033470653
 51
240.996652425
  0
ARC
  5
248
100
AcDbEntity
  8
0
100
AcDbCircle
 62
7
  6
CONTINUOUS
 10
10.9376923427
 20
9.2676695021
 40
0.451
100
AcDbArc
 50
300.6485451413
 51
239.3514548587
  0
CIRCLE
  5
249
100
AcDbEntity
  8
0
100
AcDbCircle
 62
9
  6
CONTINUOUS
 10
10.9376923427
 20
9.2676695021
 40
0.2988618956
  0
CIRCLE
  5
24A
100
AcDbEntity
  8
0
100
AcDbCircle
 62
9
  6
CONTINUOUS
 10
10.9376923427
 20
9.2676695021
 40
0.292235246
  0
CIRCLE
  5
24B
100
AcDbEntity
  8
0
100
AcDbCircle
 62
7
  6
CONTINUOUS
 10
10.9376923427
 20
9.2676695021
 40
0.28
  0
CIRCLE
  5
24C
100
AcDbEntity
  8
0
100
AcDbCircle
 62
9
  6
CONTINUOUS
 10
10.9376923427
 20
9.2676695021
 40
0.2258064516
  0
ARC
  5
24D
100
AcDbEntity
  8
0
100
AcDbCircle
 62
7
  6
CONTINUOUS
 10
11.2081844827
 20
8.4420632416
 40
0.06
100
AcDbArc
 50
278.1518829448
 51
20.4686090761
  0
ARC
  5
24E
100
AcDbEntity
  8
0
100
AcDbCircle
 62
7
  6
CONTINUOUS
 10
11.2006897182
 20
8.7376695021
 40
0.04
100
AcDbArc
 50
349.9181044225
 51
90.0
  0
ARC
  5
24F
100
AcDbEntity
  8
0
100
AcDbCircle
 62
7
  6
CONTINUOUS
 10
11.7421969171
 20
8.6413889044
 40
0.51
100
AcDbArc
 50
169.9181044226
 51
200.4686087921
  0
SPLINE
  5
250
100
AcDbEntity
  8
0
100
AcDbSpline
 62
7
  6
CONTINUOUS
 70
0
 71
3
 72
13
 73
9
 74
0
 42
0.0000001
 43
0.0000001
 44
0.0000000001
 40
0.0
 40
0.0
 40
0.0
 40
0.0
 40
0.2499911351
 40
0.3749963933
 40
0.5000016514
 40
0.6250069096
 40
0.7500121678
 40
1.0
 40
1.0
 40
1.0
 40
1.0
 10
9.3045033664
 20
9.1370002108
 30
0.0
 10
9.3155807721
 20
9.1370002108
 30
0.0
 10
9.3324463296
 20
9.137736593
 30
0.0
 10
9.3546909271
 20
9.1390290814
 30
0.0
 10
9.3705758988
 20
9.139241841
 30
0.0
 10
9.386207429
 20
9.1390290809
 30
0.0
 10
9.4069286974
 20
9.1377366044
 30
0.0
 10
9.4229766614
 20
9.1370002108
 30
0.0
 10
9.4341490357
 20
9.1370002108
 30
0.0
  0
SPLINE
  5
251
100
AcDbEntity
  8
0
100
AcDbSpline
 62
7
  6
CONTINUOUS
 70
0
 71
3
 72
15
 73
11
 74
0
 42
0.0000001
 43
0.0000001
 44
0.0000000001
 40
0.0
 40
0.0
 40
0.0
 40
0.0
 40
0.1364615832
 40
0.2729231665
 40
0.4092500728
 40
0.5455769791
 40
0.6591827343
 40
0.7727884895
 40
0.8863942448
 40
1.0
 40
1.0
 40
1.0
 40
1.0
 10
9.4341490357
 20
9.1370002108
 30
0.0
 10
9.4344475037
 20
9.1370008163
 30
0.0
 10
9.435035428
 20
9.1374494063
 30
0.0
 10
9.4359876122
 20
9.1398227326
 30
0.0
 10
9.4366971676
 20
9.1427778316
 30
0.0
 10
9.4369121684
 20
9.1448858393
 30
0.0
 10
9.4366964684
 20
9.1470036298
 30
0.0
 10
9.435956652
 20
9.1500388134
 30
0.0
 10
9.4349989818
 20
9.1526016132
 30
0.0
 10
9.4344081336
 20
9.1530638084
 30
0.0
 10
9.4341096656
 20
9.1530632029
 30
0.0
  0
SPLINE
  5
252
100
AcDbEntity
  8
0
100
AcDbSpline
 62
7
  6
CONTINUOUS
 70
0
 71
3
 72
8
 73
4
 74
0
 42
0.0000001
 43
0.0000001
 44
0.0000000001
 40
0.0
 40
0.0
 40
0.0
 40
0.0
 40
1.0
 40
1.0
 40
1.0
 40
1.0
 10
9.4341096656
 20
9.1530632029
 30
0.0
 10
9.4208628046
 20
9.1545150225
 30
0.0
 10
9.4125579769
 20
9.1575333926
 30
0.0
 10
9.4091884057
 20
9.162118321
 30
0.0
  0
SPLINE
  5
253
100
AcDbEntity
  8
0
100
AcDbSpline
 62
7
  6
CONTINUOUS
 70
0
 71
3
 72
8
 73
4
 74
0
 42
0.0000001
 43
0.0000001
 44
0.0000000001
 40
0.0
 40
0.0
 40
0.0
 40
0.0
 40
1.0
 40
1.0
 40
1.0
 40
1.0
 10
9.4091884057
 20
9.162118321
 30
0.0
 10
9.4058074775
 20
9.1666983216
 30
0.0
 10
9.4041143726
 20
9.1738157046
 30
0.0
 10
9.4041096656
 20
9.1834569037
 30
0.0
  0
SPLINE
  5
254
100
AcDbEntity
  8
0
100
AcDbSpline
 62
7
  6
CONTINUOUS
 70
0
 71
3
 72
8
 73
4
 74
0
 42
0.0000001
 43
0.0000001
 44
0.0000000001
 40
0.0
 40
0.0
 40
0.0
 40
0.0
 40
1.0
 40
1.0
 40
1.0
 40
1.0
 10
9.4961175396
 20
9.1834569037
 30
0.0
 10
9.4961162606
 20
9.1735868526
 30
0.0
 10
9.494389013
 20
9.1664577212
 30
0.0
 10
9.4909600593
 20
9.162118321
 30
0.0
  0
SPLINE
  5
255
100
AcDbEntity
  8
0
100
AcDbSpline
 62
7
  6
CONTINUOUS
 70
0
 71
3
 72
8
 73
4
 74
0
 42
0.0000001
 43
0.0000001
 44
0.0000000001
 40
0.0
 40
0.0
 40
0.0
 40
0.0
 40
1.0
 40
1.0
 40
1.0
 40
1.0
 10
9.4909600593
 20
9.162118321
 30
0.0
 10
9.4875287483
 20
9.1577759377
 30
0.0
 10
9.4793660435
 20
9.1547557567
 30
0.0
 10
9.4664718703
 20
9.1530632029
 30
0.0
  0
SPLINE
  5
256
100
AcDbEntity
  8
0
100
AcDbSpline
 62
7
  6
CONTINUOUS
 70
0
 71
3
 72
15
 73
11
 74
0
 42
0.0000001
 43
0.0000001
 44
0.0000000001
 40
0.0
 40
0.0
 40
0.0
 40
0.0
 40
0.1036344321
 40
0.2072688643
 40
0.3115755927
 40
0.4158823211
 40
0.5619117408
 40
0.7079411605
 40
0.8539705803
 40
1.0
 40
1.0
 40
1.0
 40
1.0
 10
9.4664718703
 20
9.1530632029
 30
0.0
 10
9.466109064
 20
9.1529407961
 30
0.0
 10
9.4654377422
 20
9.1523113607
 30
0.0
 10
9.4645285567
 20
9.1498339622
 30
0.0
 10
9.4638881617
 20
9.1469833377
 30
0.0
 10
9.4636971888
 20
9.1447364542
 30
0.0
 10
9.4639001325
 20
9.1424863145
 30
0.0
 10
9.4645293714
 20
9.1396301247
 30
0.0
 10
9.4654443828
 20
9.1374277095
 30
0.0
 10
9.4661123525
 20
9.137000059
 30
0.0
 10
9.4664718703
 20
9.1370002108
 30
0.0
  0
SPLINE
  5
257
100
AcDbEntity
  8
0
100
AcDbSpline
 62
7
  6
CONTINUOUS
 70
0
 71
3
 72
13
 73
9
 74
0
 42
0.0000001
 43
0.0000001
 44
0.0000000001
 40
0.0
 40
0.0
 40
0.0
 40
0.0
 40
0.2501060623
 40
0.3751705747
 40
0.5002350871
 40
0.6252184414
 40
0.7502017958
 40
1.0
 40
1.0
 40
1.0
 40
1.0
 10
9.4664718703
 20
9.1370002108
 30
0.0
 10
9.4775255659
 20
9.1370048787
 30
0.0
 10
9.4934362639
 20
9.1377353339
 30
0.0
 10
9.5140567331
 20
9.1390286551
 30
0.0
 10
9.5296533856
 20
9.1392410912
 30
0.0
 10
9.5455569541
 20
9.1390285513
 30
0.0
 10
9.5678798068
 20
9.1377364208
 30
0.0
 10
9.5848820627
 20
9.1370022076
 30
0.0
 10
9.5960781695
 20
9.1370002108
 30
0.0
  0
SPLINE
  5
258
100
AcDbEntity
  8
0
100
AcDbSpline
 62
7
  6
CONTINUOUS
 70
0
 71
3
 72
10
 73
6
 74
0
 42
0.0000001
 43
0.0000001
 44
0.0000000001
 40
0.0
 40
0.0
 40
0.0
 40
0.0
 40
0.25
 40
0.625
 40
1.0
 40
1.0
 40
1.0
 40
1.0
 10
9.5960781695
 20
9.1370002108
 30
0.0
 10
9.5964377308
 20
9.1370001467
 30
0.0
 10
9.5972769813
 20
9.1375456465
 30
0.0
 10
9.5984745075
 20
9.14136527
 30
0.0
 10
9.5987947049
 20
9.1439311883
 30
0.0
 10
9.5987947049
 20
9.1450317069
 30
0.0
  0
SPLINE
  5
259
100
AcDbEntity
  8
0
100
AcDbSpline
 62
7
  6
CONTINUOUS
 70
0
 71
3
 72
10
 73
6
 74
0
 42
0.0000001
 43
0.0000001
 44
0.0000000001
 40
0.0
 40
0.0
 40
0.0
 40
0.0
 40
0.25
 40
0.625
 40
1.0
 40
1.0
 40
1.0
 40
1.0
 10
9.5987947049
 20
9.1450317069
 30
0.0
 10
9.5987947049
 20
9.1456414573
 30
0.0
 10
9.598633399
 20
9.1473459654
 30
0.0
 10
9.5976196874
 20
9.1517792209
 30
0.0
 10
9.5966175115
 20
9.1530633953
 30
0.0
 10
9.5960781695
 20
9.1530632029
 30
0.0
  0
SPLINE
  5
25A
100
AcDbEntity
  8
0
100
AcDbSpline
 62
7
  6
CONTINUOUS
 70
0
 71
3
 72
11
 73
7
 74
0
 42
0.0000001
 43
0.0000001
 44
0.0000000001
 40
0.0
 40
0.0
 40
0.0
 40
0.0
 40
0.25
 40
0.5
 40
0.75
 40
1.0
 40
1.0
 40
1.0
 40
1.0
 10
9.5960781695
 20
9.1530632029
 30
0.0
 10
9.5894586482
 20
9.1537838039
 30
0.0
 10
9.578373954
 20
9.1560456309
 30
0.0
 10
9.5689767374
 20
9.1615904829
 30
0.0
 10
9.5645497028
 20
9.1702167279
 30
0.0
 10
9.5634004003
 20
9.1786345597
 30
0.0
 10
9.5634010042
 20
9.1834569037
 30
0.0
  0
SPLINE
  5
25B
100
AcDbEntity
  8
0
100
AcDbSpline
 62
7
  6
CONTINUOUS
 70
0
 71
3
 72
11
 73
7
 74
0
 42
0.0000001
 43
0.0000001
 44
0.0000000001
 40
0.0
 40
0.0
 40
0.0
 40
0.0
 40
0.25
 40
0.5
 40
0.75
 40
1.0
 40
1.0
 40
1.0
 40
1.0
 10
9.5634010042
 20
9.3423151714
 30
0.0
 10
9.5634006687
 20
9.3471370165
 30
0.0
 10
9.5645511825
 20
9.3555502162
 30
0.0
 10
9.5689785614
 20
9.3641710794
 30
0.0
 10
9.5783754656
 20
9.3697154018
 30
0.0
 10
9.5894592539
 20
9.3719823007
 30
0.0
 10
9.5960781695
 20
9.3727088722
 30
0.0
  0
SPLINE
  5
25C
100
AcDbEntity
  8
0
100
AcDbSpline
 62
7
  6
CONTINUOUS
 70
0
 71
3
 72
15
 73
11
 74
0
 42
0.0000001
 43
0.0000001
 44
0.0000000001
 40
0.0
 40
0.0
 40
0.0
 40
0.0
 40
0.1139240506
 40
0.2278481013
 40
0.3417721519
 40
0.4556962025
 40
0.5917721519
 40
0.7278481013
 40
0.8639240506
 40
1.0
 40
1.0
 40
1.0
 40
1.0
 10
9.5960781695
 20
9.3727088722
 30
0.0
 10
9.5964368063
 20
9.3727088722
 30
0.0
 10
9.5971074127
 20
9.3731721365
 30
0.0
 10
9.598017772
 20
9.3757209673
 30
0.0
 10
9.5986586267
 20
9.3787516075
 30
0.0
 10
9.5988505672
 20
9.3808705835
 30
0.0
 10
9.5986524482
 20
9.3829629708
 30
0.0
 10
9.5980194354
 20
9.3859115255
 30
0.0
 10
9.5971069375
 20
9.3882871232
 30
0.0
 10
9.5964368063
 20
9.3887324943
 30
0.0
 10
9.5960781695
 20
9.3887324943
 30
0.0
  0
SPLINE
  5
25D
100
AcDbEntity
  8
0
100
AcDbSpline
 62
7
  6
CONTINUOUS
 70
0
 71
3
 72
11
 73
7
 74
0
 42
0.0000001
 43
0.0000001
 44
0.0000000001
 40
0.0
 40
0.0
 40
0.0
 40
0.0
 40
0.2528025934
 40
0.5056151552
 40
0.7528132249
 40
1.0
 40
1.0
 40
1.0
 40
1.0
 10
9.5960781695
 20
9.3887324943
 30
0.0
 10
9.5847667784
 20
9.3887324943
 30
0.0
 10
9.5622642914
 20
9.3876511184
 30
0.0
 10
9.5297374518
 20
9.3860191879
 30
0.0
 10
9.498702123
 20
9.3876461428
 30
0.0
 10
9.4775255659
 20
9.3887278263
 30
0.0
 10
9.4664718703
 20
9.3887324943
 30
0.0
  0
SPLINE
  5
25E
100
AcDbEntity
  8
0
100
AcDbSpline
 62
7
  6
CONTINUOUS
 70
0
 71
3
 72
15
 73
11
 74
0
 42
0.0000001
 43
0.0000001
 44
0.0000000001
 40
0.0
 40
0.0
 40
0.0
 40
0.0
 40
0.1455916473
 40
0.2911832947
 40
0.436774942
 40
0.5823665893
 40
0.686774942
 40
0.7911832947
 40
0.8955916473
 40
1.0
 40
1.0
 40
1.0
 40
1.0
 10
9.4664718703
 20
9.3887324943
 30
0.0
 10
9.4661132337
 20
9.3887326457
 30
0.0
 10
9.465446893
 20
9.3883101151
 30
0.0
 10
9.4645341737
 20
9.3861100001
 30
0.0
 10
9.4639062787
 20
9.3832518697
 30
0.0
 10
9.4637042705
 20
9.3810125104
 30
0.0
 10
9.4638940778
 20
9.3787704605
 30
0.0
 10
9.4645364232
 20
9.3759218951
 30
0.0
 10
9.4654399456
 20
9.3734553704
 30
0.0
 10
9.4661099533
 20
9.3728309791
 30
0.0
 10
9.4664718703
 20
9.3727088722
 30
0.0
  0
SPLINE
  5
25F
100
AcDbEntity
  8
0
100
AcDbSpline
 62
7
  6
CONTINUOUS
 70
0
 71
3
 72
8
 73
4
 74
0
 42
0.0000001
 43
0.0000001
 44
0.0000000001
 40
0.0
 40
0.0
 40
0.0
 40
0.0
 40
1.0
 40
1.0
 40
1.0
 40
1.0
 10
9.4664718703
 20
9.3727088722
 30
0.0
 10
9.4800958211
 20
9.3710108697
 30
0.0
 10
9.4884405522
 20
9.3681087495
 30
0.0
 10
9.4915112404
 20
9.3640080848
 30
0.0
  0
SPLINE
  5
260
100
AcDbEntity
  8
0
100
AcDbSpline
 62
7
  6
CONTINUOUS
 70
0
 71
3
 72
8
 73
4
 74
0
 42
0.0000001
 43
0.0000001
 44
0.0000000001
 40
0.0
 40
0.0
 40
0.0
 40
0.0
 40
1.0
 40
1.0
 40
1.0
 40
1.0
 10
9.4915112404
 20
9.3640080848
 30
0.0
 10
9.4945813014
 20
9.3599082577
 30
0.0
 10
9.4961179977
 20
9.3526768839
 30
0.0
 10
9.4961175396
 20
9.3423151714
 30
0.0
  0
SPLINE
  5
261
100
AcDbEntity
  8
0
100
AcDbSpline
 62
7
  6
CONTINUOUS
 70
0
 71
3
 72
8
 73
4
 74
0
 42
0.0000001
 43
0.0000001
 44
0.0000000001
 40
0.0
 40
0.0
 40
0.0
 40
0.0
 40
1.0
 40
1.0
 40
1.0
 40
1.0
 10
9.4041096656
 20
9.3423151714
 30
0.0
 10
9.4041140303
 20
9.3519592715
 30
0.0
 10
9.405806787
 20
9.3590721345
 30
0.0
 10
9.4091884057
 20
9.3636537541
 30
0.0
  0
SPLINE
  5
262
100
AcDbEntity
  8
0
100
AcDbSpline
 62
7
  6
CONTINUOUS
 70
0
 71
3
 72
8
 73
4
 74
0
 42
0.0000001
 43
0.0000001
 44
0.0000000001
 40
0.0
 40
0.0
 40
0.0
 40
0.0
 40
1.0
 40
1.0
 40
1.0
 40
1.0
 10
9.4091884057
 20
9.3636537541
 30
0.0
 10
9.4125595927
 20
9.3682362649
 30
0.0
 10
9.4208644238
 20
9.371250119
 30
0.0
 10
9.4341096656
 20
9.3727088722
 30
0.0
  0
SPLINE
  5
263
100
AcDbEntity
  8
0
100
AcDbSpline
 62
7
  6
CONTINUOUS
 70
0
 71
3
 72
15
 73
11
 74
0
 42
0.0000001
 43
0.0000001
 44
0.0000000001
 40
0.0
 40
0.0
 40
0.0
 40
0.0
 40
0.113893624
 40
0.2277872481
 40
0.3416808721
 40
0.4555744961
 40
0.5916141026
 40
0.7276537091
 40
0.8638268545
 40
1.0
 40
1.0
 40
1.0
 40
1.0
 10
9.4341096656
 20
9.3727088722
 30
0.0
 10
9.434407402
 20
9.3727082664
 30
0.0
 10
9.4349968012
 20
9.373170333
 30
0.0
 10
9.4359521457
 20
9.3757172361
 30
0.0
 10
9.436690076
 20
9.3787463776
 30
0.0
 10
9.4369052787
 20
9.3808649754
 30
0.0
 10
9.4366909693
 20
9.3829575908
 30
0.0
 10
9.4359830486
 20
9.385909409
 30
0.0
 10
9.435033262
 20
9.3882850781
 30
0.0
 10
9.4344467721
 20
9.3887318885
 30
0.0
 10
9.4341490357
 20
9.3887324943
 30
0.0
  0
SPLINE
  5
264
100
AcDbEntity
  8
0
100
AcDbSpline
 62
7
  6
CONTINUOUS
 70
0
 71
3
 72
12
 73
8
 74
0
 42
0.0000001
 43
0.0000001
 44
0.0000000001
 40
0.0
 40
0.0
 40
0.0
 40
0.0
 40
0.2499939442
 40
0.4999991781
 40
0.625001795
 40
0.7500044119
 40
1.0
 40
1.0
 40
1.0
 40
1.0
 10
9.4341490357
 20
9.3887324943
 30
0.0
 10
9.4229766614
 20
9.3887324943
 30
0.0
 10
9.4016073269
 20
9.3876230988
 30
0.0
 10
9.3758838054
 20
9.3863564306
 30
0.0
 10
9.3546885677
 20
9.3867191527
 30
0.0
 10
9.3324471369
 20
9.3879868279
 30
0.0
 10
9.3155807721
 20
9.3887324943
 30
0.0
 10
9.3045033664
 20
9.3887324943
 30
0.0
  0
SPLINE
  5
265
100
AcDbEntity
  8
0
100
AcDbSpline
 62
7
  6
CONTINUOUS
 70
0
 71
3
 72
15
 73
11
 74
0
 42
0.0000001
 43
0.0000001
 44
0.0000000001
 40
0.0
 40
0.0
 40
0.0
 40
0.0
 40
0.1455916473
 40
0.2911832947
 40
0.436774942
 40
0.5823665893
 40
0.686774942
 40
0.7911832947
 40
0.8955916473
 40
1.0
 40
1.0
 40
1.0
 40
1.0
 10
9.3045033664
 20
9.3887324943
 30
0.0
 10
9.3041413462
 20
9.3887324943
 30
0.0
 10
9.3034719487
 20
9.3883091791
 30
0.0
 10
9.3025612242
 20
9.3861083824
 30
0.0
 10
9.3019352424
 20
9.3832496978
 30
0.0
 10
9.301736816
 20
9.3810101738
 30
0.0
 10
9.301923879
 20
9.3787682831
 30
0.0
 10
9.3025642836
 20
9.3759202605
 30
0.0
 10
9.3034710746
 20
9.3734544988
 30
0.0
 10
9.3041413462
 20
9.3728306734
 30
0.0
 10
9.3045033664
 20
9.3727088722
 30
0.0
  0
SPLINE
  5
266
100
AcDbEntity
  8
0
100
AcDbSpline
 62
7
  6
CONTINUOUS
 70
0
 71
3
 72
11
 73
7
 74
0
 42
0.0000001
 43
0.0000001
 44
0.0000000001
 40
0.0
 40
0.0
 40
0.0
 40
0.0
 40
0.2500976142
 40
0.5001952285
 40
0.7500976142
 40
1.0
 40
1.0
 40
1.0
 40
1.0
 10
9.3045033664
 20
9.3727088722
 30
0.0
 10
9.3110618499
 20
9.3718640681
 30
0.0
 10
9.3220373907
 20
9.369457525
 30
0.0
 10
9.3313249717
 20
9.3641749701
 30
0.0
 10
9.3356884099
 20
9.3558127629
 30
0.0
 10
9.3368263522
 20
9.3472595067
 30
0.0
 10
9.336826201
 20
9.3423151714
 30
0.0
  0
SPLINE
  5
267
100
AcDbEntity
  8
0
100
AcDbSpline
 62
7
  6
CONTINUOUS
 70
0
 71
3
 72
11
 73
7
 74
0
 42
0.0000001
 43
0.0000001
 44
0.0000000001
 40
0.0
 40
0.0
 40
0.0
 40
0.0
 40
0.2499023858
 40
0.4998047715
 40
0.7499023858
 40
1.0
 40
1.0
 40
1.0
 40
1.0
 10
9.336826201
 20
9.1834569037
 30
0.0
 10
9.3368266271
 20
9.1785188338
 30
0.0
 10
9.3356899214
 20
9.1699606787
 30
0.0
 10
9.3313267981
 20
9.1615840273
 30
0.0
 10
9.322038876
 20
9.1563071546
 30
0.0
 10
9.3110624432
 20
9.1539054346
 30
0.0
 10
9.3045033664
 20
9.1530632029
 30
0.0
  0
SPLINE
  5
268
100
AcDbEntity
  8
0
100
AcDbSpline
 62
7
  6
CONTINUOUS
 70
0
 71
3
 72
15
 73
11
 74
0
 42
0.0000001
 43
0.0000001
 44
0.0000000001
 40
0.0
 40
0.0
 40
0.0
 40
0.0
 40
0.1036344321
 40
0.2072688643
 40
0.3115755927
 40
0.4158823211
 40
0.5619117408
 40
0.7079411605
 40
0.8539705803
 40
1.0
 40
1.0
 40
1.0
 40
1.0
 10
9.3045033664
 20
9.1530632029
 30
0.0
 10
9.3041404567
 20
9.1529411025
 30
0.0
 10
9.3034688649
 20
9.1523122341
 30
0.0
 10
9.3025564074
 20
9.1498356035
 30
0.0
 10
9.301917957
 20
9.1469855201
 30
0.0
 10
9.3017297398
 20
9.1447387967
 30
0.0
 10
9.3019290811
 20
9.1424884917
 30
0.0
 10
9.3025564124
 20
9.1396317464
 30
0.0
 10
9.303469426
 20
9.1374286478
 30
0.0
 10
9.3041404567
 20
9.1370002108
 30
0.0
 10
9.3045033664
 20
9.1370002108
 30
0.0
  0
SPLINE
  5
269
100
AcDbEntity
  8
0
100
AcDbSpline
 62
7
  6
CONTINUOUS
 70
0
 71
3
 72
15
 73
11
 74
0
 42
0.0000001
 43
0.0000001
 44
0.0000000001
 40
0.0
 40
0.0
 40
0.0
 40
0.0
 40
0.1477413654
 40
0.2954827308
 40
0.4442708958
 40
0.5930590607
 40
0.6948614894
 40
0.796663918
 40
0.898331959
 40
1.0
 40
1.0
 40
1.0
 40
1.0
 10
12.5264718703
 20
9.3049529667
 30
0.0
 10
12.5264723245
 20
9.3045900056
 30
0.0
 10
12.5260079552
 20
9.3039025337
 30
0.0
 10
12.5235276338
 20
9.3029124265
 30
0.0
 10
12.520445601
 20
9.3022018916
 30
0.0
 10
12.5183282032
 20
9.3019849543
 30
0.0
 10
12.5163954226
 20
9.3021640577
 30
0.0
 10
12.5141821927
 20
9.3027090354
 30
0.0
 10
12.5122148843
 20
9.3035975028
 30
0.0
 10
12.5115130696
 20
9.3044355992
 30
0.0
 10
12.5112750199
 20
9.3049135966
 30
0.0
  0
SPLINE
  5
26A
100
AcDbEntity
  8
0
100
AcDbSpline
 62
7
  6
CONTINUOUS
 70
0
 71
3
 72
13
 73
9
 74
0
 42
0.0000001
 43
0.0000001
 44
0.0000000001
 40
0.0
 40
0.0
 40
0.0
 40
0.0
 40
0.2499926997
 40
0.3749890495
 40
0.4999853993
 40
0.6249890495
 40
0.7499926997
 40
1.0
 40
1.0
 40
1.0
 40
1.0
 10
12.5217868309
 20
9.3836537541
 30
0.0
 10
12.5220236217
 20
9.3778763154
 30
0.0
 10
12.5224608049
 20
9.3686579154
 30
0.0
 10
12.5231985688
 20
9.3553360125
 30
0.0
 10
12.5238361693
 20
9.3446700222
 30
0.0
 10
12.5245243379
 20
9.3339591254
 30
0.0
 10
12.5254054198
 20
9.3204556658
 30
0.0
 10
12.5260520148
 20
9.3109677579
 30
0.0
 10
12.5264718703
 20
9.3049529667
 30
0.0
  0
SPLINE
  5
26B
100
AcDbEntity
  8
0
100
AcDbSpline
 62
7
  6
CONTINUOUS
 70
0
 71
3
 72
8
 73
4
 74
0
 42
0.0000001
 43
0.0000001
 44
0.0000000001
 40
0.0
 40
0.0
 40
0.0
 40
0.0
 40
1.0
 40
1.0
 40
1.0
 40
1.0
 10
12.4874167522
 20
9.389086825
 30
0.0
 10
12.4998639698
 20
9.3854674124
 30
0.0
 10
12.5113194291
 20
9.3836566614
 30
0.0
 10
12.5217868309
 20
9.3836537541
 30
0.0
  0
SPLINE
  5
26C
100
AcDbEntity
  8
0
100
AcDbSpline
 62
7
  6
CONTINUOUS
 70
0
 71
3
 72
8
 73
4
 74
0
 42
0.0000001
 43
0.0000001
 44
0.0000000001
 40
0.0
 40
0.0
 40
0.0
 40
0.0
 40
1.0
 40
1.0
 40
1.0
 40
1.0
 10
12.4396608467
 20
9.3945198958
 30
0.0
 10
12.4590402697
 20
9.394519431
 30
0.0
 10
12.4749601405
 20
9.3927089691
 30
0.0
 10
12.4874167522
 20
9.389086825
 30
0.0
  0
SPLINE
  5
26D
100
AcDbEntity
  8
0
100
AcDbSpline
 62
7
  6
CONTINUOUS
 70
0
 71
3
 72
8
 73
4
 74
0
 42
0.0000001
 43
0.0000001
 44
0.0000000001
 40
0.0
 40
0.0
 40
0.0
 40
0.0
 40
1.0
 40
1.0
 40
1.0
 40
1.0
 10
12.3349758073
 20
9.3544805258
 30
0.0
 10
12.3609626109
 20
9.3811695053
 30
0.0
 10
12.3958490957
 20
9.3945209467
 30
0.0
 10
12.4396608467
 20
9.3945198958
 30
0.0
  0
SPLINE
  5
26E
100
AcDbEntity
  8
0
100
AcDbSpline
 62
7
  6
CONTINUOUS
 70
0
 71
3
 72
18
 73
14
 74
0
 42
0.0000001
 43
0.0000001
 44
0.0000000001
 40
0.0
 40
0.0
 40
0.0
 40
0.0
 40
0.0822709583
 40
0.1645419166
 40
0.2469418447
 40
0.3293417728
 40
0.4938612025
 40
0.5762473957
 40
0.6174404923
 40
0.6586335889
 40
0.7439751917
 40
0.8293167944
 40
1.0
 40
1.0
 40
1.0
 40
1.0
 10
12.4369443112
 20
9.1323545415
 30
0.0
 10
12.4253875688
 20
9.1323558554
 30
0.0
 10
12.403605077
 20
9.1341324835
 30
0.0
 10
12.3747704553
 20
9.1425974636
 30
0.0
 10
12.3501991854
 20
9.1555337746
 30
0.0
 10
12.3236254409
 20
9.1772591015
 30
0.0
 10
12.306059337
 20
9.2053505656
 30
0.0
 10
12.2985241536
 20
9.2333172241
 30
0.0
 10
12.2963620205
 20
9.2495998459
 30
0.0
 10
12.2956185554
 20
9.266682623
 30
0.0
 10
12.2976187371
 20
9.2878291463
 30
0.0
 10
12.3073676742
 20
9.3195656013
 30
0.0
 10
12.3219821733
 20
9.3411357975
 30
0.0
 10
12.3349758073
 20
9.3544805258
 30
0.0
  0
SPLINE
  5
26F
100
AcDbEntity
  8
0
100
AcDbSpline
 62
7
  6
CONTINUOUS
 70
0
 71
3
 72
8
 73
4
 74
0
 42
0.0000001
 43
0.0000001
 44
0.0000000001
 40
0.0
 40
0.0
 40
0.0
 40
0.0
 40
1.0
 40
1.0
 40
1.0
 40
1.0
 10
12.4853695081
 20
9.1401498171
 30
0.0
 10
12.4702778565
 20
9.1349409862
 30
0.0
 10
12.4541383818
 20
9.1323525867
 30
0.0
 10
12.4369443112
 20
9.1323545415
 30
0.0
  0
SPLINE
  5
270
100
AcDbEntity
  8
0
100
AcDbSpline
 62
7
  6
CONTINUOUS
 70
0
 71
3
 72
8
 73
4
 74
0
 42
0.0000001
 43
0.0000001
 44
0.0000000001
 40
0.0
 40
0.0
 40
0.0
 40
0.0
 40
1.0
 40
1.0
 40
1.0
 40
1.0
 10
12.5233616341
 20
9.1479844628
 30
0.0
 10
12.513133386
 20
9.1479788034
 30
0.0
 10
12.500467086
 20
9.1453606935
 30
0.0
 10
12.4853695081
 20
9.1401498171
 30
0.0
  0
LINE
  5
271
100
AcDbEntity
  8
0
100
AcDbLine
 62
7
  6
CONTINUOUS
 10
12.5325348624
 20
9.2266852502
 11
12.5233616341
 21
9.1479844628
  0
SPLINE
  5
272
100
AcDbEntity
  8
0
100
AcDbSpline
 62
7
  6
CONTINUOUS
 70
0
 71
3
 72
15
 73
11
 74
0
 42
0.0000001
 43
0.0000001
 44
0.0000000001
 40
0.0
 40
0.0
 40
0.0
 40
0.0
 40
0.1319214499
 40
0.2638428997
 40
0.3957643496
 40
0.5276857994
 40
0.6449493104
 40
0.7622128214
 40
0.8811064107
 40
1.0
 40
1.0
 40
1.0
 40
1.0
 10
12.5173773821
 20
9.2266852502
 30
0.0
 10
12.5174987603
 20
9.2271590298
 30
0.0
 10
12.5180738871
 20
9.2279993165
 30
0.0
 10
12.5202318809
 20
9.2289014594
 30
0.0
 10
12.5227907106
 20
9.2294329221
 30
0.0
 10
12.5245765653
 20
9.229627738
 30
0.0
 10
12.5264911928
 20
9.2294248824
 30
0.0
 10
12.5295122284
 20
9.2287136893
 30
0.0
 10
12.5320721709
 20
9.2277243269
 30
0.0
 10
12.5325345422
 20
9.2270438867
 30
0.0
 10
12.5325348624
 20
9.2266852502
 30
0.0
  0
SPLINE
  5
273
100
AcDbEntity
  8
0
100
AcDbSpline
 62
7
  6
CONTINUOUS
 70
0
 71
3
 72
8
 73
4
 74
0
 42
0.0000001
 43
0.0000001
 44
0.0000000001
 40
0.0
 40
0.0
 40
0.0
 40
0.0
 40
1.0
 40
1.0
 40
1.0
 40
1.0
 10
12.4879285632
 20
9.1731419431
 30
0.0
 10
12.5010721358
 20
9.1884695373
 30
0.0
 10
12.5108881639
 20
9.2063136404
 30
0.0
 10
12.5173773821
 20
9.2266852502
 30
0.0
  0
SPLINE
  5
274
100
AcDbEntity
  8
0
100
AcDbSpline
 62
7
  6
CONTINUOUS
 70
0
 71
3
 72
15
 73
11
 74
0
 42
0.0000001
 43
0.0000001
 44
0.0000000001
 40
0.0
 40
0.0
 40
0.0
 40
0.0
 40
0.2775368604
 40
0.4163052905
 40
0.4856895056
 40
0.5550737207
 40
0.6106895056
 40
0.6663052905
 40
0.7775368604
 40
1.0
 40
1.0
 40
1.0
 40
1.0
 10
12.3820624215
 20
9.1819214706
 30
0.0
 10
12.3873136769
 20
9.1713272253
 30
0.0
 10
12.3980874599
 20
9.1594107135
 30
0.0
 10
12.4158015655
 20
9.1524589858
 30
0.0
 10
12.4273275226
 20
9.1504766383
 30
0.0
 10
12.4362212817
 20
9.1500010685
 30
0.0
 10
12.444605878
 20
9.1503784587
 30
0.0
 10
12.4542905706
 20
9.1518174644
 30
0.0
 10
12.4700486999
 20
9.1568440742
 30
0.0
 10
12.4813526346
 20
9.1654733153
 30
0.0
 10
12.4879285632
 20
9.1731419431
 30
0.0
  0
SPLINE
  5
275
100
AcDbEntity
  8
0
100
AcDbSpline
 62
7
  6
CONTINUOUS
 70
0
 71
3
 72
15
 73
11
 74
0
 42
0.0000001
 43
0.0000001
 44
0.0000000001
 40
0.0
 40
0.0
 40
0.0
 40
0.0
 40
0.2527238767
 40
0.3790858151
 40
0.4422667843
 40
0.5054477535
 40
0.5672667843
 40
0.6290858151
 40
0.7527238767
 40
1.0
 40
1.0
 40
1.0
 40
1.0
 10
12.382298642
 20
9.3442049352
 30
0.0
 10
12.3769729762
 20
9.333373564
 30
0.0
 10
12.3709731186
 20
9.3150101569
 30
0.0
 10
12.367479391
 20
9.2898149257
 30
0.0
 10
12.3664807257
 20
9.2744020535
 30
0.0
 10
12.3662302979
 20
9.2622577762
 30
0.0
 10
12.3664750845
 20
9.2502020016
 30
0.0
 10
12.3674581933
 20
9.2351234188
 30
0.0
 10
12.3709000288
 20
9.2104777707
 30
0.0
 10
12.3768112782
 20
9.1925154899
 30
0.0
 10
12.3820624215
 20
9.1819214706
 30
0.0
  0
SPLINE
  5
276
100
AcDbEntity
  8
0
100
AcDbSpline
 62
7
  6
CONTINUOUS
 70
0
 71
3
 72
8
 73
4
 74
0
 42
0.0000001
 43
0.0000001
 44
0.0000000001
 40
0.0
 40
0.0
 40
0.0
 40
0.0
 40
1.0
 40
1.0
 40
1.0
 40
1.0
 10
12.4385191144
 20
9.3767246203
 30
0.0
 10
12.4116774303
 20
9.3767188671
 30
0.0
 10
12.3929482798
 20
9.365864233
 30
0.0
 10
12.382298642
 20
9.3442049352
 30
0.0
  0
SPLINE
  5
277
100
AcDbEntity
  8
0
100
AcDbSpline
 62
7
  6
CONTINUOUS
 70
0
 71
3
 72
8
 73
4
 74
0
 42
0.0000001
 43
0.0000001
 44
0.0000000001
 40
0.0
 40
0.0
 40
0.0
 40
0.0
 40
1.0
 40
1.0
 40
1.0
 40
1.0
 10
12.4859994294
 20
9.3539293447
 30
0.0
 10
12.4720388785
 20
9.3691213418
 30
0.0
 10
12.4562086232
 20
9.3767284117
 30
0.0
 10
12.4385191144
 20
9.3767246203
 30
0.0
  0
SPLINE
  5
278
100
AcDbEntity
  8
0
100
AcDbSpline
 62
7
  6
CONTINUOUS
 70
0
 71
3
 72
8
 73
4
 74
0
 42
0.0000001
 43
0.0000001
 44
0.0000000001
 40
0.0
 40
0.0
 40
0.0
 40
0.0
 40
1.0
 40
1.0
 40
1.0
 40
1.0
 10
12.5112750199
 20
9.3049135966
 30
0.0
 10
12.5083904727
 20
9.3223901688
 30
0.0
 10
12.4999687588
 20
9.3387277946
 30
0.0
 10
12.4859994294
 20
9.3539293447
 30
0.0
  0
ENDSEC
  0
SECTION
  2
OBJECTS
  0
DICTIONARY
  5
C
100
AcDbDictionary
280
0
281
1
  3
ACAD_GROUP
350
D
  3
ACAD_MLINESTYLE
350
17
  3
ACAD_LAYOUT
350
1A
  3
ACAD_PLOTSETTINGS
350
19
  3
ACAD_PLOTSTYLENAME
350
E
  0
DICTIONARY
  5
D
102
{ACAD_REACTORS
330
C
102
}
100
AcDbDictionary
280
0
281
1
  0
ACDBDICTIONARYWDFLT
  5
E
102
{ACAD_REACTORS
330
C
102
}
100
AcDbDictionary
281
1
  3
Normal
350
F
100
AcDbDictionaryWithDefault
340
F
  0
DICTIONARY
  5
17
102
{ACAD_REACTORS
330
C
102
}
100
AcDbDictionary
280
0
281
1
  3
Standard
350
18
  0
DICTIONARY
  5
19
102
{ACAD_REACTORS
330
C
102
}
100
AcDbDictionary
281
1
  0
DICTIONARY
  5
1A
102
{ACAD_REACTORS
330
C
102
}
100
AcDbDictionary
281
1
  3
Model
350
279
  3
Layout1
350
27A
  0
ACDBPLACEHOLDER
  5
F
102
{ACAD_REACTORS
330
E
102
}
  0
MLINESTYLE
  5
18
102
{ACAD_REACTORS
330
17
102
}
100
AcDbMlineStyle
  2
STANDARD
 70
0
  3

 62
256
 51
90.0
 52
90.0
 71
2
 49
0.5
 62
256
  6
BYLAYER
 49
-0.5
 62
256
  6
BYLAYER
  0
LAYOUT
  5
279
102
{ACAD_REACTORS
330
1A
102
}
100
AcDbPlotSettings
  1

  2
none_device
  4
ANSI_C_(22.00_x_17.00_Inches)
  6

 40
0.0
 41
0.0
 42
0.0
 43
0.0
 44
558.8
 45
431.8
 46
0.0
 47
0.0
 48
0.0
 49
0.0
140
0.0
141
0.0
142
1.0
143
1.0
 70
1024
 72
0
 73
0
 74
0
  7

 75
0
147
1.0
148
0.0
149
0.0
100
AcDbLayout
  1
Model
 70
0
 71
0
 10
0.0
 20
0.0
 11
22.0
 21
17.0
 12
0.0
 22
0.0
 32
0.0
 14
0.0
 24
0.0
 34
0.0
 15
0.0
 25
0.0
 35
0.0
146
0.0
 13
0.0
 23
0.0
 33
0.0
 16
1.0
 26
0.0
 36
0.0
 17
0.0
 27
1.0
 37
0.0
 76
0
330
205
345
0
346
0
  0
LAYOUT
  5
27A
102
{ACAD_REACTORS
330
1A
102
}
100
AcDbPlotSettings
  1

  2
none_device
  4
ANSI_C_(22.00_x_17.00_Inches)
  6

 40
0.0
 41
0.0
 42
0.0
 43
0.0
 44
558.8
 45
431.8
 46
0.0
 47
0.0
 48
0.0
 49
0.0
140
0.0
141
0.0
142
1.0
143
1.0
 70
0
 72
0
 73
0
 74
0
  7

 75
0
147
1.0
148
0.0
149
0.0
100
AcDbLayout
  1
Layout1
 70
0
 71
1
 10
0.0
 20
0.0
 11
22.0
 21
17.0
 12
0.0
 22
0.0
 32
0.0
 14
0.0
 24
0.0
 34
0.0
 15
0.0
 25
0.0
 35
0.0
146
0.0
 13
0.0
 23
0.0
 33
0.0
 16
1.0
 26
0.0
 36
0.0
 17
0.0
 27
1.0
 37
0.0
 76
0
330
206
345
0
346
0
  0
ENDSEC
  0
EOF
