999
DXF file: E:\BT Custom\CADOUTPUT\_FRONT.dxf
999
Pro/ENGINEER 2018400 by Parametric Technology Corporation
  0
SECTION
  2
HEADER
  9
$ACADVER
  1
AC1018
  9
$DWGCODEPAGE
  3
ANSI_1252
  9
$EXTMAX
 10
22.0
 20
17.0
 30
0.0
  9
$EXTMIN
 10
0.0
 20
0.0
 30
0.0
  9
$LIMMIN
 10
0.0
 20
0.0
  9
$LIMMAX
 10
22.0
 20
17.0
  9
$VIEWCTR
 10
11.0
 20
8.5
  9
$VIEWSIZE
 40
17.0
  9
$CLAYER
  8
0
  9
$LTSCALE
 40
1.21
  9
$CELTYPE
  6
BYLAYER
  9
$DIMSCALE
 40
1.0
  9
$DIMASZ
 40
0.1
  9
$DIMEXO
 40
0.0625
  9
$DIMDLI
 40
0.836
  9
$DIMEXE
 40
0.125
  9
$DIMCEN
 40
0.198
  9
$DIMLFAC
 40
1.0
  9
$DIMBLK
  1
_FILLED
  9
$DIMALT
 70
1
  9
$DIMALTD
 70
2
  9
$DIMALTTD
 70
2
  9
$DIMALTF
 40
25.4
  9
$DIMTXT
 40
0.08
  9
$DIMTOL
 70
1
  9
$DIMLIM
 70
0
  9
$DIMTFAC
 40
1.0
  9
$DIMTP
 40
0.001
  9
$DIMTM
 40
0.001
  9
$DIMGAP
 40
0.09
  9
$DIMDSEP
 70
46
  9
$AUNITS
 70
0
  9
$PDMODE
 70
3
  9
$PDSIZE
 40
0.06
  9
$HANDSEED
  5
3B3
  9
$TILEMODE
 70
1
  9
$MEASUREMENT
 70
0
  9
$INSUNITS
 70
1
  0
ENDSEC
  0
SECTION
  2
CLASSES
  0
CLASS
  1
ACDBDICTIONARYWDFLT
  2
AcDbDictionaryWithDefault
  3
AutoCAD 2000
 90
0
 91
1
280
0
281
0
  0
CLASS
  1
ACDBPLACEHOLDER
  2
AcDbPlaceHolder
  3
AutoCAD 2000
 90
0
 91
1
280
0
281
0
  0
CLASS
  1
LAYOUT
  2
AcDbLayout
  3
AutoCAD 2000
 90
0
 91
0
280
0
281
0
  0
ENDSEC
  0
SECTION
  2
TABLES
  0
TABLE
  2
VPORT
  5
8
100
AcDbSymbolTable
 70
2
  0
VPORT
  5
1F4
100
AcDbSymbolTableRecord
100
AcDbViewportTableRecord
  2
*ACTIVE
 70
0
 10
0.0
 20
0.0
 11
1.0
 21
1.0
 12
11.0
 22
8.5
 13
0.0
 23
0.0
 14
1.0
 24
1.0
 15
0.0
 25
0.0
 16
0.0
 26
0.0
 36
1.0
 17
0.0
 27
0.0
 37
0.0
 40
17.0
 41
1.2941176471
 42
50.0
 43
0.0
 44
0.0
 50
0.0
 51
0.0
 71
0
 72
100
 73
1
 74
1
 75
0
 76
0
 77
0
 78
0
  0
ENDTAB
  0
TABLE
  2
LTYPE
  5
5
100
AcDbSymbolTable
 70
6
  0
LTYPE
  5
14
100
AcDbSymbolTableRecord
100
AcDbLinetypeTableRecord
  2
BYBLOCK
 70
0
  3

 72
65
 73
0
 40
0.0
  0
LTYPE
  5
15
100
AcDbSymbolTableRecord
100
AcDbLinetypeTableRecord
  2
BYLAYER
 70
0
  3

 72
65
 73
0
 40
0.0
  0
LTYPE
  5
16
100
AcDbSymbolTableRecord
100
AcDbLinetypeTableRecord
  2
CONTINUOUS
 70
64
  3
Solid line
 72
65
 73
0
 40
0.0
  0
LTYPE
  5
1F5
100
AcDbSymbolTableRecord
100
AcDbLinetypeTableRecord
  2
CENTER
 70
64
  3
____ _ ____ _ ____ _ ____ _ ____ _ ____ _ ____
 72
65
 73
4
 40
0.6
 49
0.375
 74
0
 49
-0.075
 74
0
 49
0.075
 74
0
 49
-0.075
 74
0
  0
LTYPE
  5
1F6
100
AcDbSymbolTableRecord
100
AcDbLinetypeTableRecord
  2
HIDDEN
 70
64
  3
- - - - - - - - - - - - - - - - - - - -
 72
65
 73
2
 40
0.2
 49
0.1
 74
0
 49
-0.1
 74
0
  0
LTYPE
  5
1F7
100
AcDbSymbolTableRecord
100
AcDbLinetypeTableRecord
  2
PHANTOM
 70
64
  3
_____ _ _ _____ _ _ _____ _ _ _____
 72
65
 73
6
 40
0.8
 49
0.45
 74
0
 49
-0.05
 74
0
 49
0.1
 74
0
 49
-0.05
 74
0
 49
0.1
 74
0
 49
-0.05
 74
0
  0
LTYPE
  5
1F8
100
AcDbSymbolTableRecord
100
AcDbLinetypeTableRecord
  2
DOT
 70
64
  3
. . . . . . . . . . . . . . . . . . . .
 72
65
 73
2
 40
0.2
 49
0.1
 74
0
 49
-0.1
 74
0
  0
LTYPE
  5
1F9
100
AcDbSymbolTableRecord
100
AcDbLinetypeTableRecord
  2
DASHED
 70
64
  3
- - - - - - - - - - - - - - - - - - - -
 72
65
 73
2
 40
0.2
 49
0.1
 74
0
 49
-0.1
 74
0
  0
ENDTAB
  0
TABLE
  2
LAYER
  5
2
100
AcDbSymbolTable
 70
36
  0
LAYER
  5
10
100
AcDbSymbolTableRecord
100
AcDbLayerTableRecord
  2
0
 70
0
 62
7
  6
CONTINUOUS
370
-3
390
F
  0
LAYER
  5
1FA
100
AcDbSymbolTableRecord
100
AcDbLayerTableRecord
  2
DEFAULT_1
 70
0
 62
7
  6
CENTER
370
-3
390
F
  0
LAYER
  5
1FB
100
AcDbSymbolTableRecord
100
AcDbLayerTableRecord
  2
DEFAULT_2
 70
0
 62
8
  6
HIDDEN
370
-3
390
F
  0
LAYER
  5
1FC
100
AcDbSymbolTableRecord
100
AcDbLayerTableRecord
  2
DEFAULT_3
 70
0
 62
7
  6
PHANTOM
370
-3
390
F
  0
LAYER
  5
1FD
100
AcDbSymbolTableRecord
100
AcDbLayerTableRecord
  2
ALL_FEATURES
 70
0
 62
7
  6
CONTINUOUS
370
-3
390
F
  0
LAYER
  5
1FE
100
AcDbSymbolTableRecord
100
AcDbLayerTableRecord
  2
AXES_FEATURES
 70
0
 62
7
  6
CONTINUOUS
370
-3
390
F
  0
LAYER
  5
1FF
100
AcDbSymbolTableRecord
100
AcDbLayerTableRecord
  2
DEFAULT_COORDINATE_SYSTEM
 70
0
 62
7
  6
CONTINUOUS
370
-3
390
F
  0
LAYER
  5
200
100
AcDbSymbolTableRecord
100
AcDbLayerTableRecord
  2
DEFAULT_DATUM_AXES
 70
0
 62
7
  6
CONTINUOUS
370
-3
390
F
  0
LAYER
  5
201
100
AcDbSymbolTableRecord
100
AcDbLayerTableRecord
  2
DEFAULT_DATUM_PLANES
 70
0
 62
7
  6
CONTINUOUS
370
-3
390
F
  0
LAYER
  5
202
100
AcDbSymbolTableRecord
100
AcDbLayerTableRecord
  2
DIMENSIONS
 70
0
 62
7
  6
CONTINUOUS
370
-3
390
F
  0
ENDTAB
  0
TABLE
  2
STYLE
  5
3
100
AcDbSymbolTable
 70
1
  0
STYLE
  5
11
100
AcDbSymbolTableRecord
100
AcDbTextStyleTableRecord
  2
STANDARD
 70
0
 40
0.0
 41
0.8
 50
0.0
 71
0
 42
0.2
  3
txt
  4

  0
STYLE
  5
203
100
AcDbSymbolTableRecord
100
AcDbTextStyleTableRecord
  2
TEXTSTYLE_1
 70
0
 40
0.0
 41
0.8
 50
0.0
 71
0
 42
0.2
  3
gdt
  4

  0
ENDTAB
  0
TABLE
  2
VIEW
  5
6
100
AcDbSymbolTable
 70
0
  0
ENDTAB
  0
TABLE
  2
UCS
  5
7
100
AcDbSymbolTable
 70
0
  0
ENDTAB
  0
TABLE
  2
APPID
  5
9
100
AcDbSymbolTable
 70
1
  0
APPID
  5
204
100
AcDbSymbolTableRecord
100
AcDbRegAppTableRecord
  2
ACAD
 70
0
  0
ENDTAB
  0
TABLE
  2
BLOCK_RECORD
  5
1
100
AcDbSymbolTable
 70
0
  0
BLOCK_RECORD
  5
205
100
AcDbSymbolTableRecord
100
AcDbBlockTableRecord
  2
*Model_Space
  0
BLOCK_RECORD
  5
206
100
AcDbSymbolTableRecord
100
AcDbBlockTableRecord
  2
*Paper_Space
  0
BLOCK_RECORD
  5
207
100
AcDbSymbolTableRecord
100
AcDbBlockTableRecord
  2
_FILLED
  0
ENDTAB
  0
TABLE
  2
DIMSTYLE
  5
A
100
AcDbSymbolTable
 70
1
100
AcDbDimStyleTable
 71
0
  0
DIMSTYLE
105
208
100
AcDbSymbolTableRecord
100
AcDbDimStyleTableRecord
  2
STANDARD
 70
0
  3

  4

 40
1.0
 41
0.1
 42
0.0625
 43
0.38
 44
0.125
 45
0.0
 46
0.0
 47
0.001
 48
0.001
140
0.08
141
0.09
142
0.0
143
25.4
144
1.0
145
0.0
146
1.0
147
0.09
 71
1.0
 72
0.0
 73
1
 74
1
 75
0
 76
0
 77
0
 78
4
 79
1
170
1
171
2
172
0
173
0
174
0
175
0
176
0
177
0
178
0
270
2
179
3
271
3
272
3
273
2
274
2
275
0
280
0
281
0
282
0
283
1
284
4
285
0
286
0
287
3
288
0
340
11
278
46
341
207
342
207
343
207
344
207
  0
ENDTAB
  0
ENDSEC
  0
SECTION
  2
BLOCKS
  0
BLOCK
  5
20
100
AcDbEntity
  8
0
100
AcDbBlockBegin
  2
*Model_Space
 70
0
 10
0.0
 20
0.0
 30
0.0
  3
*Model_Space
  1

  0
ENDBLK
  5
21
100
AcDbEntity
  8
0
100
AcDbBlockEnd
  0
BLOCK
  5
1C
100
AcDbEntity
  8
0
100
AcDbBlockBegin
  2
*Paper_Space
 70
0
 10
0.0
 20
0.0
 30
0.0
  3
*Paper_Space
  1

  0
ENDBLK
  5
1D
100
AcDbEntity
  8
0
100
AcDbBlockEnd
  0
BLOCK
  5
209
100
AcDbEntity
  8
0
100
AcDbBlockBegin
  2
_FILLED
 70
64
 10
0.0
 20
0.0
  3
_FILLED
  1

  0
SOLID
  5
20A
100
AcDbEntity
  8
0
  6
BYBLOCK
 62
0
100
AcDbTrace
 10
0.0
 20
0.0
 11
-1.0
 21
0.2
 12
-1.0
 22
-0.2
 13
-1.0
 23
-0.2
  0
ENDBLK
  5
20B
100
AcDbEntity
  8
0
  6
BYBLOCK
 62
0
100
AcDbBlockEnd
  0
ENDSEC
  0
SECTION
  2
ENTITIES
  0
LINE
  5
20C
100
AcDbEntity
  8
0
100
AcDbLine
 62
7
  6
CONTINUOUS
 10
7.5626923427
 20
11.7276695021
 11
7.5626923427
 21
6.8076695021
  0
LINE
  5
20D
100
AcDbEntity
  8
0
100
AcDbLine
 62
7
  6
CONTINUOUS
 10
7.6876923427
 20
11.7276695021
 11
7.6876923427
 21
6.8076695021
  0
LINE
  5
20E
100
AcDbEntity
  8
0
100
AcDbLine
 62
7
  6
CONTINUOUS
 10
8.4776923427
 20
5.8926695021
 11
13.3976923427
 21
5.8926695021
  0
LINE
  5
20F
100
AcDbEntity
  8
0
100
AcDbLine
 62
7
  6
CONTINUOUS
 10
8.4776923427
 20
6.0176695021
 11
13.3976923427
 21
6.0176695021
  0
LINE
  5
210
100
AcDbEntity
  8
0
100
AcDbLine
 62
7
  6
CONTINUOUS
 10
8.0626923427
 20
12.2276695021
 11
8.0626923427
 21
12.1826695021
  0
LINE
  5
211
100
AcDbEntity
  8
0
100
AcDbLine
 62
7
  6
CONTINUOUS
 10
8.0626923427
 20
6.3526695021
 11
8.0626923427
 21
6.3076695021
  0
LINE
  5
212
100
AcDbEntity
  8
0
100
AcDbLine
 62
7
  6
CONTINUOUS
 10
7.9776923427
 20
6.3926695021
 11
8.0226923427
 21
6.3926695021
  0
LINE
  5
213
100
AcDbEntity
  8
0
100
AcDbLine
 62
7
  6
CONTINUOUS
 10
13.8526923427
 20
6.3926695021
 11
13.8976923427
 21
6.3926695021
  0
LINE
  5
214
100
AcDbEntity
  8
0
100
AcDbLine
 62
7
  6
CONTINUOUS
 10
8.1876923427
 20
12.2276695021
 11
8.1876923427
 21
12.1826695021
  0
LINE
  5
215
100
AcDbEntity
  8
0
100
AcDbLine
 62
7
  6
CONTINUOUS
 10
8.1876923427
 20
6.3526695021
 11
8.1876923427
 21
6.3076695021
  0
LINE
  5
216
100
AcDbEntity
  8
0
100
AcDbLine
 62
7
  6
CONTINUOUS
 10
7.9776923427
 20
6.5176695021
 11
8.0226923427
 21
6.5176695021
  0
LINE
  5
217
100
AcDbEntity
  8
0
100
AcDbLine
 62
7
  6
CONTINUOUS
 10
13.8526923427
 20
6.5176695021
 11
13.8976923427
 21
6.5176695021
  0
LINE
  5
218
100
AcDbEntity
  8
0
100
AcDbLine
 62
7
  6
CONTINUOUS
 10
8.7926701005
 20
8.9274156369
 11
8.7892498991
 21
8.9180187107
  0
LINE
  5
219
100
AcDbEntity
  8
0
100
AcDbLine
 62
7
  6
CONTINUOUS
 10
9.2238062217
 20
7.9505378264
 11
9.2238062217
 21
7.9431356925
  0
LINE
  5
21A
100
AcDbEntity
  8
0
100
AcDbLine
 62
7
  6
CONTINUOUS
 10
9.2238062217
 20
7.7610716376
 11
9.2238062217
 21
7.7536695021
  0
LINE
  5
21B
100
AcDbEntity
  8
0
100
AcDbLine
 62
7
  6
CONTINUOUS
 10
9.24928665
 20
7.9113919276
 11
9.24928665
 21
7.7928154099
  0
LINE
  5
21C
100
AcDbEntity
  8
0
100
AcDbLine
 62
7
  6
CONTINUOUS
 10
9.2800339772
 20
7.7928154099
 11
9.2800339772
 21
7.8449150521
  0
LINE
  5
21D
100
AcDbEntity
  8
0
100
AcDbLine
 62
7
  6
CONTINUOUS
 10
9.2800339772
 20
7.8577264446
 11
9.2800339772
 21
7.9113919276
  0
LINE
  5
21E
100
AcDbEntity
  8
0
100
AcDbLine
 62
7
  6
CONTINUOUS
 10
9.3055144086
 20
7.7536695021
 11
9.3055144086
 21
7.7610716376
  0
LINE
  5
21F
100
AcDbEntity
  8
0
100
AcDbLine
 62
7
  6
CONTINUOUS
 10
9.3055144086
 20
7.9431356925
 11
9.3055144086
 21
7.9505378264
  0
LINE
  5
220
100
AcDbEntity
  8
0
100
AcDbLine
 62
7
  6
CONTINUOUS
 10
9.3401051535
 20
7.9505378264
 11
9.3401051535
 21
7.9431356925
  0
LINE
  5
221
100
AcDbEntity
  8
0
100
AcDbLine
 62
7
  6
CONTINUOUS
 10
9.3401051535
 20
7.7610716376
 11
9.3401051535
 21
7.7536695021
  0
LINE
  5
222
100
AcDbEntity
  8
0
100
AcDbLine
 62
7
  6
CONTINUOUS
 10
9.3655855789
 20
7.9113919276
 11
9.3655855789
 21
7.8577264446
  0
LINE
  5
223
100
AcDbEntity
  8
0
100
AcDbLine
 62
7
  6
CONTINUOUS
 10
9.3655855789
 20
7.8449150521
 11
9.3655855789
 21
7.7928154099
  0
LINE
  5
224
100
AcDbEntity
  8
0
100
AcDbLine
 62
7
  6
CONTINUOUS
 10
12.1260660043
 20
7.8859114903
 11
12.1333257904
 21
7.8870502847
  0
LINE
  5
225
100
AcDbEntity
  8
0
100
AcDbLine
 62
7
  6
CONTINUOUS
 10
9.3963329091
 20
7.7928154099
 11
9.3963329091
 21
7.9113919276
  0
LINE
  5
226
100
AcDbEntity
  8
0
100
AcDbLine
 62
7
  6
CONTINUOUS
 10
9.4218133344
 20
7.7536695021
 11
9.4218133344
 21
7.7610716376
  0
LINE
  5
227
100
AcDbEntity
  8
0
100
AcDbLine
 62
7
  6
CONTINUOUS
 10
9.4218133344
 20
7.9431356925
 11
9.4218133344
 21
7.9505378264
  0
LINE
  5
228
100
AcDbEntity
  8
0
100
AcDbLine
 62
7
  6
CONTINUOUS
 10
9.690425457
 20
7.7610716376
 11
9.690425457
 21
7.7536695021
  0
LWPOLYLINE
  5
229
100
AcDbEntity
  8
0
100
AcDbPolyline
 62
7
  6
CONTINUOUS
 90
8
 70
0
 10
9.8684088242
 20
10.3196350557
 10
9.8631672242
 20
10.313664237
 10
9.8551688833
 20
10.3007651544
 10
9.8501389999
 20
10.2864457676
 10
9.8483137218
 20
10.2713793139
 10
9.8497785424
 20
10.2562740223
 10
9.8544642692
 20
10.2418399621
 10
9.8584351078
 20
10.2342783788
  0
LINE
  5
22A
100
AcDbEntity
  8
0
100
AcDbLine
 62
7
  6
CONTINUOUS
 10
9.8684085323
 20
10.3196353441
 11
9.885726537
 21
10.3369533483
  0
LWPOLYLINE
  5
22B
100
AcDbEntity
  8
0
100
AcDbPolyline
 62
7
  6
CONTINUOUS
 90
6
 70
0
 10
10.0111388685
 20
10.3461224933
 10
10.0070153839
 20
10.3441446171
 10
9.996177042
 20
10.3413798191
 10
9.9850101408
 20
10.3417218826
 10
9.9743853928
 20
10.3451332139
 10
9.9710837224
 20
10.3469266695
  0
LINE
  5
22C
100
AcDbEntity
  8
0
100
AcDbLine
 62
7
  6
CONTINUOUS
 10
9.2238062217
 20
7.7536695021
 11
9.3055144086
 21
7.7536695021
  0
LINE
  5
22D
100
AcDbEntity
  8
0
100
AcDbLine
 62
7
  6
CONTINUOUS
 10
9.3401051535
 20
7.7536695021
 11
9.4218133344
 21
7.7536695021
  0
LINE
  5
22E
100
AcDbEntity
  8
0
100
AcDbLine
 62
7
  6
CONTINUOUS
 10
9.690425457
 20
7.7536695021
 11
9.7721336021
 21
7.7536695021
  0
LINE
  5
22F
100
AcDbEntity
  8
0
100
AcDbLine
 62
7
  6
CONTINUOUS
 10
12.3683435669
 20
7.7536695021
 11
12.5239307632
 21
7.7536695021
  0
LINE
  5
230
100
AcDbEntity
  8
0
100
AcDbLine
 62
7
  6
CONTINUOUS
 10
12.5511193981
 20
7.7536695021
 11
12.6328275909
 21
7.7536695021
  0
LINE
  5
231
100
AcDbEntity
  8
0
100
AcDbLine
 62
7
  6
CONTINUOUS
 10
12.4668489208
 20
7.7664808902
 11
12.454179882
 21
7.7664808902
  0
LINE
  5
232
100
AcDbEntity
  8
0
100
AcDbLine
 62
7
  6
CONTINUOUS
 10
12.5388774147
 20
7.8066232401
 11
12.5316176166
 21
7.8066232401
  0
LINE
  5
233
100
AcDbEntity
  8
0
100
AcDbLine
 62
7
  6
CONTINUOUS
 10
9.2800339772
 20
7.8449150521
 11
9.3655855789
 21
7.8449150521
  0
LINE
  5
234
100
AcDbEntity
  8
0
100
AcDbLine
 62
7
  6
CONTINUOUS
 10
9.3655855789
 20
7.8577264446
 11
9.2800339772
 21
7.8577264446
  0
LINE
  5
235
100
AcDbEntity
  8
0
100
AcDbLine
 62
7
  6
CONTINUOUS
 10
9.6481478824
 20
7.8997193235
 11
9.6554076328
 21
7.8997193235
  0
LINE
  5
236
100
AcDbEntity
  8
0
100
AcDbLine
 62
7
  6
CONTINUOUS
 10
9.8071514263
 20
7.8997193235
 11
9.8144112243
 21
7.8997193235
  0
LINE
  5
237
100
AcDbEntity
  8
0
100
AcDbLine
 62
7
  6
CONTINUOUS
 10
9.6971158161
 20
7.9377264398
 11
9.7159058704
 21
7.9377264398
  0
LINE
  5
238
100
AcDbEntity
  8
0
100
AcDbLine
 62
7
  6
CONTINUOUS
 10
9.7466531887
 20
7.9377264398
 11
9.7614574566
 21
7.9377264398
  0
LINE
  5
239
100
AcDbEntity
  8
0
100
AcDbLine
 62
7
  6
CONTINUOUS
 10
12.6335393181
 20
7.9505378264
 11
12.5511193981
 21
7.9505378264
  0
LINE
  5
23A
100
AcDbEntity
  8
0
100
AcDbLine
 62
7
  6
CONTINUOUS
 10
12.4500517597
 20
7.9505378264
 11
12.3683435669
 21
7.9505378264
  0
LINE
  5
23B
100
AcDbEntity
  8
0
100
AcDbLine
 62
7
  6
CONTINUOUS
 10
9.8115642204
 20
7.9505378264
 11
9.6509948387
 21
7.9505378264
  0
LINE
  5
23C
100
AcDbEntity
  8
0
100
AcDbLine
 62
7
  6
CONTINUOUS
 10
9.4218133344
 20
7.9505378264
 11
9.3401051535
 21
7.9505378264
  0
LINE
  5
23D
100
AcDbEntity
  8
0
100
AcDbLine
 62
7
  6
CONTINUOUS
 10
9.3055144086
 20
7.9505378264
 11
9.2238062217
 21
7.9505378264
  0
LINE
  5
23E
100
AcDbEntity
  8
0
100
AcDbLine
 62
7
  6
CONTINUOUS
 10
12.1309058656
 20
7.9536695021
 11
12.1246425261
 21
7.9536695021
  0
LWPOLYLINE
  5
23F
100
AcDbEntity
  8
0
100
AcDbPolyline
 62
7
  6
CONTINUOUS
 90
8
 70
0
 10
9.8857267892
 20
8.1983859836
 10
9.8916976078
 20
8.1931443836
 10
9.9045966905
 20
8.1851460428
 10
9.9189160773
 20
8.1801161593
 10
9.933982531
 20
8.1782908812
 10
9.9490878226
 20
8.1797557018
 10
9.9635218828
 20
8.1844414286
 10
9.971083466
 20
8.1884122672
  0
LINE
  5
240
100
AcDbEntity
  8
0
100
AcDbLine
 62
7
  6
CONTINUOUS
 10
9.8857265007
 20
8.1983856917
 11
9.8684084966
 21
8.2157036964
  0
LWPOLYLINE
  5
241
100
AcDbEntity
  8
0
100
AcDbPolyline
 62
7
  6
CONTINUOUS
 90
6
 70
0
 10
9.8592393516
 20
8.3411160279
 10
9.8612172278
 20
8.3369925433
 10
9.8639820258
 20
8.3261542014
 10
9.8636399622
 20
8.3149873002
 10
9.860228631
 20
8.3043625522
 10
9.8584351754
 20
8.3010608818
  0
LINE
  5
242
100
AcDbEntity
  8
0
100
AcDbLine
 62
7
  6
CONTINUOUS
 10
9.8144112243
 20
7.8997193235
 11
9.8115642204
 21
7.9505378264
  0
LINE
  5
243
100
AcDbEntity
  8
0
100
AcDbLine
 62
7
  6
CONTINUOUS
 10
9.7159058704
 20
7.9377264398
 11
9.7159058704
 21
7.7928154099
  0
LINE
  5
244
100
AcDbEntity
  8
0
100
AcDbLine
 62
7
  6
CONTINUOUS
 10
9.7466531887
 20
7.7928154099
 11
9.7466531887
 21
7.9377264398
  0
LINE
  5
245
100
AcDbEntity
  8
0
100
AcDbLine
 62
7
  6
CONTINUOUS
 10
9.7721336021
 20
7.7536695021
 11
9.7721336021
 21
7.7610716376
  0
LINE
  5
246
100
AcDbEntity
  8
0
100
AcDbLine
 62
7
  6
CONTINUOUS
 10
9.6509948387
 20
7.9505378264
 11
9.6481478824
 21
7.8997193235
  0
LWPOLYLINE
  5
247
100
AcDbEntity
  8
0
100
AcDbPolyline
 62
7
  6
CONTINUOUS
 90
8
 70
0
 10
9.8584354365
 20
8.3010607197
 10
9.85446447
 20
8.2934987111
 10
9.8497789517
 20
8.2790646182
 10
9.8483143502
 20
8.2639594037
 10
9.8501398037
 20
8.2488931231
 10
9.855169771
 20
8.2345739845
 10
9.8631680667
 20
8.2216751823
 10
9.8684094541
 20
8.2157046369
  0
LWPOLYLINE
  5
248
100
AcDbEntity
  8
0
100
AcDbPolyline
 62
7
  6
CONTINUOUS
 90
6
 70
0
 10
11.9043011836
 20
10.346926803
 10
11.9009992483
 20
10.3451331925
 10
11.890374523
 20
10.3417218789
 10
11.8792076507
 20
10.3413798183
 10
11.8683693373
 20
10.3441446025
 10
11.8642457768
 20
10.3461225155
  0
LWPOLYLINE
  5
249
100
AcDbEntity
  8
0
100
AcDbPolyline
 62
7
  6
CONTINUOUS
 90
8
 70
0
 10
11.9043011252
 20
8.188412596
 10
11.9118631338
 20
8.1844416294
 10
11.9262972267
 20
8.1797561111
 10
11.9414024412
 20
8.1782915096
 10
11.9564687218
 20
8.1801169631
 10
11.9707878604
 20
8.1851469304
 10
11.9836866626
 20
8.1931452261
 10
11.989657208
 20
8.1983866135
  0
LWPOLYLINE
  5
24A
100
AcDbEntity
  8
0
100
AcDbPolyline
 62
7
  6
CONTINUOUS
 90
6
 70
0
 10
9.8584350419
 20
10.234278343
 10
9.8602286524
 20
10.2309764077
 10
9.863639966
 20
10.2203516824
 10
9.8639820265
 20
10.2091848101
 10
9.8612172424
 20
10.1983464967
 10
9.8592393294
 20
10.1942229362
  0
LINE
  5
24B
100
AcDbEntity
  8
0
100
AcDbLine
 62
9
  6
CONTINUOUS
 10
10.0381723161
 20
8.3861605953
 11
10.0345088799
 21
8.3824756335
  0
LINE
  5
24C
100
AcDbEntity
  8
0
100
AcDbLine
 62
9
  6
CONTINUOUS
 10
11.8372123694
 20
10.149178409
 11
11.8408758055
 21
10.1528633708
  0
LINE
  5
24D
100
AcDbEntity
  8
0
100
AcDbLine
 62
7
  6
CONTINUOUS
 10
9.8710241674
 20
8.4244470697
 11
10.4893866435
 21
9.0428095457
  0
LINE
  5
24E
100
AcDbEntity
  8
0
100
AcDbLine
 62
7
  6
CONTINUOUS
 10
11.1625522992
 20
9.7159752014
 11
11.780914742
 21
10.3343376443
  0
LINE
  5
24F
100
AcDbEntity
  8
0
100
AcDbLine
 62
9
  6
CONTINUOUS
 10
11.8228862118
 20
10.1708529645
 11
11.8192012488
 21
10.1671895277
  0
LINE
  5
250
100
AcDbEntity
  8
0
100
AcDbLine
 62
9
  6
CONTINUOUS
 10
10.0524984737
 20
8.3644860397
 11
10.0561834367
 21
8.3681494766
  0
LINE
  5
251
100
AcDbEntity
  8
0
100
AcDbLine
 62
7
  6
CONTINUOUS
 10
9.0302584412
 20
8.6662579031
 11
9.0397956107
 21
8.6692649611
  0
LINE
  5
252
100
AcDbEntity
  8
0
100
AcDbLine
 62
7
  6
CONTINUOUS
 10
12.8355890747
 20
9.8660740432
 11
12.8451262442
 21
9.8690811012
  0
LINE
  5
253
100
AcDbEntity
  8
0
100
AcDbLine
 62
7
  6
CONTINUOUS
 10
12.8451262442
 20
8.6662579031
 11
12.8355890747
 21
8.6692649611
  0
LINE
  5
254
100
AcDbEntity
  8
0
100
AcDbLine
 62
7
  6
CONTINUOUS
 10
9.0397956107
 20
9.8660740432
 11
9.0302584412
 21
9.8690811012
  0
LINE
  5
255
100
AcDbEntity
  8
0
100
AcDbLine
 62
9
  6
CONTINUOUS
 10
11.8192012496
 20
8.3681494755
 11
11.8228862114
 21
8.3644860393
  0
LINE
  5
256
100
AcDbEntity
  8
0
100
AcDbLine
 62
9
  6
CONTINUOUS
 10
10.0561834358
 20
10.1671895288
 11
10.0524984741
 21
10.1708529649
  0
LINE
  5
257
100
AcDbEntity
  8
0
100
AcDbLine
 62
7
  6
CONTINUOUS
 10
11.7809147752
 20
8.2010013268
 11
11.1625522992
 21
8.8193638029
  0
LINE
  5
258
100
AcDbEntity
  8
0
100
AcDbLine
 62
7
  6
CONTINUOUS
 10
10.4893866435
 20
9.4925294586
 11
9.8710242006
 21
10.1108919014
  0
LINE
  5
259
100
AcDbEntity
  8
0
100
AcDbLine
 62
9
  6
CONTINUOUS
 10
10.0345088803
 20
10.1528633712
 11
10.0381723172
 21
10.1491784082
  0
LINE
  5
25A
100
AcDbEntity
  8
0
100
AcDbLine
 62
9
  6
CONTINUOUS
 10
11.8408758051
 20
8.3824756331
 11
11.8372123683
 21
8.3861605961
  0
LINE
  5
25B
100
AcDbEntity
  8
0
100
AcDbLine
 62
7
  6
CONTINUOUS
 10
12.1375962605
 20
7.7884025979
 11
12.1313329091
 21
7.794950642
  0
LINE
  5
25C
100
AcDbEntity
  8
0
100
AcDbLine
 62
7
  6
CONTINUOUS
 10
12.0043605181
 20
10.1108919346
 11
11.385998042
 21
9.4925294586
  0
LINE
  5
25D
100
AcDbEntity
  8
0
100
AcDbLine
 62
7
  6
CONTINUOUS
 10
10.7128323863
 20
8.8193638029
 11
10.0944699434
 21
8.20100136
  0
LINE
  5
25E
100
AcDbEntity
  8
0
100
AcDbLine
 62
7
  6
CONTINUOUS
 10
10.0944699103
 20
10.3343376775
 11
10.7128323863
 21
9.7159752014
  0
LINE
  5
25F
100
AcDbEntity
  8
0
100
AcDbLine
 62
7
  6
CONTINUOUS
 10
11.385998042
 20
9.0428095457
 11
12.0043604849
 21
8.4244471029
  0
LWPOLYLINE
  5
260
100
AcDbEntity
  8
0
100
AcDbPolyline
 62
7
  6
CONTINUOUS
 90
8
 70
0
 10
12.0169492467
 20
10.2342782837
 10
12.0209202124
 20
10.2418402914
 10
12.0256057296
 20
10.2562743822
 10
12.0270703309
 20
10.2713795951
 10
12.0252448776
 20
10.2864458748
 10
12.0202149106
 20
10.3007650131
 10
12.012216615
 20
10.3136638157
 10
12.0069752269
 20
10.319634362
  0
LWPOLYLINE
  5
261
100
AcDbEntity
  8
0
100
AcDbPolyline
 62
7
  6
CONTINUOUS
 90
6
 70
0
 10
9.9710835019
 20
8.1884122013
 10
9.9743854372
 20
8.1902058118
 10
9.9850101625
 20
8.1936171254
 10
9.9961770348
 20
8.193959186
 10
10.0070153482
 20
8.1911944018
 10
10.0111389087
 20
8.1892164888
  0
LWPOLYLINE
  5
262
100
AcDbEntity
  8
0
100
AcDbPolyline
 62
7
  6
CONTINUOUS
 90
8
 70
0
 10
9.9710835603
 20
10.3469264083
 10
9.9635215517
 20
10.3508973749
 10
9.9490874588
 20
10.3555828932
 10
9.9339822443
 20
10.3570474947
 10
9.9189159637
 20
10.3552220412
 10
9.9045968251
 20
10.3501920739
 10
9.8916980229
 20
10.3421937782
 10
9.8857274775
 20
10.3369523908
  0
LWPOLYLINE
  5
263
100
AcDbEntity
  8
0
100
AcDbPolyline
 62
7
  6
CONTINUOUS
 90
6
 70
0
 10
12.0169496451
 20
8.3010606588
 10
12.0151560332
 20
8.3043625964
 10
12.0117447195
 20
8.3149873217
 10
12.0114026589
 20
8.3261541941
 10
12.014167443
 20
8.3369925075
 10
12.0161453561
 20
8.3411160681
  0
LINE
  5
264
100
AcDbEntity
  8
0
100
AcDbLine
 62
7
  6
CONTINUOUS
 10
12.1333257904
 20
7.8870502847
 11
12.1309058656
 21
7.9536695021
  0
LINE
  5
265
100
AcDbEntity
  8
0
100
AcDbLine
 62
7
  6
CONTINUOUS
 10
12.3683435669
 20
7.9505378264
 11
12.3683435669
 21
7.9431356925
  0
LINE
  5
266
100
AcDbEntity
  8
0
100
AcDbLine
 62
7
  6
CONTINUOUS
 10
12.3683435669
 20
7.7610716376
 11
12.3683435669
 21
7.7536695021
  0
LINE
  5
267
100
AcDbEntity
  8
0
100
AcDbLine
 62
7
  6
CONTINUOUS
 10
12.393824028
 20
7.9113919276
 11
12.393824028
 21
7.7928154099
  0
LINE
  5
268
100
AcDbEntity
  8
0
100
AcDbLine
 62
7
  6
CONTINUOUS
 10
12.4245713463
 20
7.7855556238
 11
12.4245713463
 21
7.9113919276
  0
LINE
  5
269
100
AcDbEntity
  8
0
100
AcDbLine
 62
7
  6
CONTINUOUS
 10
12.4500517597
 20
7.9431356925
 11
12.4500517597
 21
7.9505378264
  0
LINE
  5
26A
100
AcDbEntity
  8
0
100
AcDbLine
 62
7
  6
CONTINUOUS
 10
12.5511193981
 20
7.9505378264
 11
12.5511193981
 21
7.9431356925
  0
LINE
  5
26B
100
AcDbEntity
  8
0
100
AcDbLine
 62
7
  6
CONTINUOUS
 10
12.5511193981
 20
7.7610716376
 11
12.5511193981
 21
7.7536695021
  0
LWPOLYLINE
  5
26C
100
AcDbEntity
  8
0
100
AcDbPolyline
 62
7
  6
CONTINUOUS
 90
8
 70
0
 10
12.0069758681
 20
8.2157039402
 10
12.0122174678
 20
8.2216747584
 10
12.0202158087
 20
8.2345738411
 10
12.0252456924
 20
8.2488932284
 10
12.0270709705
 20
8.2639596832
 10
12.0256061495
 20
8.2790649764
 10
12.0209204215
 20
8.2934990383
 10
12.0169495811
 20
8.301060624
  0
LINE
  5
26D
100
AcDbEntity
  8
0
100
AcDbLine
 62
7
  6
CONTINUOUS
 10
12.0069761524
 20
8.2157036594
 11
11.9896581485
 21
8.198385656
  0
LWPOLYLINE
  5
26E
100
AcDbEntity
  8
0
100
AcDbPolyline
 62
7
  6
CONTINUOUS
 90
6
 70
0
 10
11.8642458169
 20
8.189216511
 10
11.8683693016
 20
8.1911943872
 10
11.8792076435
 20
8.1939591852
 10
11.8903745447
 20
8.1936171217
 10
11.9009992927
 20
8.1902057904
 10
11.9043009631
 20
8.1884123348
  0
LWPOLYLINE
  5
26F
100
AcDbEntity
  8
0
100
AcDbPolyline
 62
7
  6
CONTINUOUS
 90
8
 70
0
 10
11.9896578963
 20
10.3369530206
 10
11.9836870776
 20
10.3421946207
 10
11.970787995
 20
10.3501929615
 10
11.9564686082
 20
10.355222845
 10
11.9414021545
 20
10.3570481231
 10
11.9262968628
 20
10.3555833025
 10
11.9118628027
 20
10.3508975757
 10
11.9043012194
 20
10.3469267371
  0
LINE
  5
270
100
AcDbEntity
  8
0
100
AcDbLine
 62
7
  6
CONTINUOUS
 10
11.9896581847
 20
10.3369533126
 11
12.0069761893
 21
10.3196353074
  0
LWPOLYLINE
  5
271
100
AcDbEntity
  8
0
100
AcDbPolyline
 62
7
  6
CONTINUOUS
 90
6
 70
0
 10
12.0161453339
 20
10.1942229764
 10
12.0141674577
 20
10.1983464611
 10
12.0114026597
 20
10.209184803
 10
12.0117447233
 20
10.2203517042
 10
12.0151560546
 20
10.2309764522
 10
12.0169495091
 20
10.2342781209
  0
LINE
  5
272
100
AcDbEntity
  8
0
100
AcDbLine
 62
7
  6
CONTINUOUS
 10
12.5765998115
 20
7.7866944122
 11
12.5765998115
 21
7.9113919276
  0
LINE
  5
273
100
AcDbEntity
  8
0
100
AcDbLine
 62
7
  6
CONTINUOUS
 10
12.6073471298
 20
7.9247727054
 11
12.6073471298
 21
7.7775840926
  0
LINE
  5
274
100
AcDbEntity
  8
0
100
AcDbLine
 62
7
  6
CONTINUOUS
 10
12.5239307632
 20
7.7536695021
 11
12.5388774147
 21
7.8066232401
  0
LINE
  5
275
100
AcDbEntity
  8
0
100
AcDbLine
 62
7
  6
CONTINUOUS
 10
13.0827145849
 20
8.9274156369
 11
13.0861347864
 21
8.9180187107
  0
LINE
  5
276
100
AcDbEntity
  8
0
100
AcDbLine
 62
7
  6
CONTINUOUS
 10
13.6876923427
 20
6.3076695021
 11
13.6876923427
 21
6.3526695021
  0
LINE
  5
277
100
AcDbEntity
  8
0
100
AcDbLine
 62
7
  6
CONTINUOUS
 10
13.6876923427
 20
12.1826695021
 11
13.6876923427
 21
12.2276695021
  0
LINE
  5
278
100
AcDbEntity
  8
0
100
AcDbLine
 62
7
  6
CONTINUOUS
 10
13.8126923427
 20
6.3076695021
 11
13.8126923427
 21
6.3526695021
  0
LINE
  5
279
100
AcDbEntity
  8
0
100
AcDbLine
 62
7
  6
CONTINUOUS
 10
13.8126923427
 20
12.1826695021
 11
13.8126923427
 21
12.2276695021
  0
LINE
  5
27A
100
AcDbEntity
  8
0
100
AcDbLine
 62
7
  6
CONTINUOUS
 10
13.8976923427
 20
12.0176695021
 11
13.8526923427
 21
12.0176695021
  0
LINE
  5
27B
100
AcDbEntity
  8
0
100
AcDbLine
 62
7
  6
CONTINUOUS
 10
8.0226923427
 20
12.0176695021
 11
7.9776923427
 21
12.0176695021
  0
LINE
  5
27C
100
AcDbEntity
  8
0
100
AcDbLine
 62
7
  6
CONTINUOUS
 10
13.8976923427
 20
12.1426695021
 11
13.8526923427
 21
12.1426695021
  0
LINE
  5
27D
100
AcDbEntity
  8
0
100
AcDbLine
 62
7
  6
CONTINUOUS
 10
8.0226923427
 20
12.1426695021
 11
7.9776923427
 21
12.1426695021
  0
LINE
  5
27E
100
AcDbEntity
  8
0
100
AcDbLine
 62
7
  6
CONTINUOUS
 10
14.1876923427
 20
6.8076695021
 11
14.1876923427
 21
11.7276695021
  0
LINE
  5
27F
100
AcDbEntity
  8
0
100
AcDbLine
 62
7
  6
CONTINUOUS
 10
14.3126923427
 20
6.8076695021
 11
14.3126923427
 21
11.7276695021
  0
LINE
  5
280
100
AcDbEntity
  8
0
100
AcDbLine
 62
7
  6
CONTINUOUS
 10
13.3976923427
 20
12.5176695021
 11
8.4776923427
 21
12.5176695021
  0
LINE
  5
281
100
AcDbEntity
  8
0
100
AcDbLine
 62
7
  6
CONTINUOUS
 10
13.3976923427
 20
12.6426695021
 11
8.4776923427
 21
12.6426695021
  0
ARC
  5
282
100
AcDbEntity
  8
0
100
AcDbCircle
 62
9
  6
CONTINUOUS
 10
9.9214478461
 20
6.4884879483
 40
2.7637471316
100
AcDbArc
 50
44.8879038325
 51
45.0019485387
  0
ARC
  5
283
100
AcDbEntity
  8
0
100
AcDbCircle
 62
9
  6
CONTINUOUS
 10
8.1620048607
 20
8.2549258938
 40
2.7588009482
100
AcDbArc
 50
44.9979478734
 51
45.1121970308
  0
ARC
  5
284
100
AcDbEntity
  8
0
100
AcDbCircle
 62
9
  6
CONTINUOUS
 10
10.4282830217
 20
8.0757703881
 40
1.0955976404
100
AcDbArc
 50
44.999881072
 51
45.5637251218
  0
ARC
  5
285
100
AcDbEntity
  8
0
100
AcDbCircle
 62
9
  6
CONTINUOUS
 10
9.7458014709
 20
8.758269496
 40
1.0955852257
100
AcDbArc
 50
44.4362288057
 51
45.0000792348
  0
ARC
  5
286
100
AcDbEntity
  8
0
100
AcDbCircle
 62
9
  6
CONTINUOUS
 10
10.2594573119
 20
9.2676689397
 40
0.4668612279
100
AcDbArc
 50
315.0259833609
 51
44.9739300547
  0
ARC
  5
287
100
AcDbEntity
  8
0
100
AcDbCircle
 62
7
  6
CONTINUOUS
 10
8.4776923427
 20
6.3076695021
 40
0.415
100
AcDbArc
 50
180.0
 51
270.0
  0
ARC
  5
288
100
AcDbEntity
  8
0
100
AcDbCircle
 62
7
  6
CONTINUOUS
 10
7.9776923427
 20
6.8076695021
 40
0.415
100
AcDbArc
 50
180.0
 51
270.0
  0
ARC
  5
289
100
AcDbEntity
  8
0
100
AcDbCircle
 62
7
  6
CONTINUOUS
 10
8.6544939626
 20
8.5477798181
 40
0.404
100
AcDbArc
 50
29.1575069264
 51
70.0
  0
ARC
  5
28A
100
AcDbEntity
  8
0
100
AcDbCircle
 62
9
  6
CONTINUOUS
 10
10.2665858016
 20
9.267669337
 40
0.3945726073
100
AcDbArc
 50
315.0110483385
 51
44.9889855539
  0
ARC
  5
28B
100
AcDbEntity
  8
0
100
AcDbCircle
 62
7
  6
CONTINUOUS
 10
8.6544939626
 20
8.5477798181
 40
0.394
100
AcDbArc
 50
17.5
 51
70.0
  0
ARC
  5
28C
100
AcDbEntity
  8
0
100
AcDbCircle
 62
9
  6
CONTINUOUS
 10
10.2650897322
 20
9.267669397
 40
0.3681583545
100
AcDbArc
 50
315.5895341898
 51
44.4104889789
  0
ARC
  5
28D
100
AcDbEntity
  8
0
100
AcDbCircle
 62
7
  6
CONTINUOUS
 10
8.4776923427
 20
6.3076695021
 40
0.29
100
AcDbArc
 50
180.0
 51
270.0
  0
ARC
  5
28E
100
AcDbEntity
  8
0
100
AcDbCircle
 62
7
  6
CONTINUOUS
 10
7.9776923427
 20
6.8076695021
 40
0.29
100
AcDbArc
 50
180.0
 51
270.0
  0
ARC
  5
28F
100
AcDbEntity
  8
0
100
AcDbCircle
 62
7
  6
CONTINUOUS
 10
8.0226923427
 20
6.3526695021
 40
0.165
100
AcDbArc
 50
0.0
 51
90.0
  0
ARC
  5
290
100
AcDbEntity
  8
0
100
AcDbCircle
 62
7
  6
CONTINUOUS
 10
10.0449711436
 20
8.2504975095
 40
0.07
100
AcDbArc
 50
241.0976396061
 51
314.9999999975
  0
ARC
  5
291
100
AcDbEntity
  8
0
100
AcDbCircle
 62
7
  6
CONTINUOUS
 10
9.9205202902
 20
8.3749482431
 40
0.07
100
AcDbArc
 50
135.0000000222
 51
208.9023788032
  0
ARC
  5
292
100
AcDbEntity
  8
0
100
AcDbCircle
 62
7
  6
CONTINUOUS
 10
8.0226923427
 20
6.3526695021
 40
0.04
100
AcDbArc
 50
0.0
 51
90.0
  0
ARC
  5
293
100
AcDbEntity
  8
0
100
AcDbCircle
 62
9
  6
CONTINUOUS
 10
8.1585107922
 20
10.2839139954
 40
2.7637471269
100
AcDbArc
 50
314.8879038324
 51
315.0019485388
  0
ARC
  5
294
100
AcDbEntity
  8
0
100
AcDbCircle
 62
9
  6
CONTINUOUS
 10
9.9249487365
 20
12.043356982
 40
2.7588009452
100
AcDbArc
 50
314.9979478733
 51
315.1121970309
  0
ARC
  5
295
100
AcDbEntity
  8
0
100
AcDbCircle
 62
9
  6
CONTINUOUS
 10
10.4282802703
 20
10.4595713882
 40
1.0956015461
100
AcDbArc
 50
314.4362761251
 51
315.0001181411
  0
ARC
  5
296
100
AcDbEntity
  8
0
100
AcDbCircle
 62
9
  6
CONTINUOUS
 10
9.7457932288
 20
9.7770788231
 40
1.0955976403
100
AcDbArc
 50
314.9998810719
 51
315.5637251218
  0
ARC
  5
297
100
AcDbEntity
  8
0
100
AcDbCircle
 62
7
  6
CONTINUOUS
 10
7.9776923427
 20
11.7276695021
 40
0.415
100
AcDbArc
 50
90.0
 51
180.0
  0
ARC
  5
298
100
AcDbEntity
  8
0
100
AcDbCircle
 62
7
  6
CONTINUOUS
 10
8.4776923427
 20
12.2276695021
 40
0.415
100
AcDbArc
 50
90.0
 51
180.0
  0
ARC
  5
299
100
AcDbEntity
  8
0
100
AcDbCircle
 62
7
  6
CONTINUOUS
 10
10.264526687
 20
9.2676695021
 40
0.318
100
AcDbArc
 50
315.0
 51
45.0
  0
ARC
  5
29A
100
AcDbEntity
  8
0
100
AcDbCircle
 62
7
  6
CONTINUOUS
 10
7.9776923427
 20
11.7276695021
 40
0.29
100
AcDbArc
 50
90.0
 51
180.0
  0
ARC
  5
29B
100
AcDbEntity
  8
0
100
AcDbCircle
 62
7
  6
CONTINUOUS
 10
8.4776923427
 20
12.2276695021
 40
0.29
100
AcDbArc
 50
90.0
 51
180.0
  0
ARC
  5
29C
100
AcDbEntity
  8
0
100
AcDbCircle
 62
7
  6
CONTINUOUS
 10
8.0226923427
 20
12.1826695021
 40
0.165
100
AcDbArc
 50
270.0
 51
360.0
  0
ARC
  5
29D
100
AcDbEntity
  8
0
100
AcDbCircle
 62
7
  6
CONTINUOUS
 10
9.9205203501
 20
10.1603907013
 40
0.07
100
AcDbArc
 50
151.0976396061
 51
224.9999999975
  0
ARC
  5
29E
100
AcDbEntity
  8
0
100
AcDbCircle
 62
7
  6
CONTINUOUS
 10
10.0449710837
 20
10.2848415547
 40
0.07
100
AcDbArc
 50
45.0000000222
 51
118.9023788032
  0
ARC
  5
29F
100
AcDbEntity
  8
0
100
AcDbCircle
 62
7
  6
CONTINUOUS
 10
8.0226923427
 20
12.1826695021
 40
0.04
100
AcDbArc
 50
270.0
 51
360.0
  0
ARC
  5
2A0
100
AcDbEntity
  8
0
100
AcDbCircle
 62
9
  6
CONTINUOUS
 10
13.7168738962
 20
8.2514250059
 40
2.763747131
100
AcDbArc
 50
134.8879038325
 51
135.0019485388
  0
ARC
  5
2A1
100
AcDbEntity
  8
0
100
AcDbCircle
 62
9
  6
CONTINUOUS
 10
11.9504359477
 20
6.4919820235
 40
2.7588009434
100
AcDbArc
 50
134.9979478733
 51
135.1121970309
  0
ARC
  5
2A2
100
AcDbEntity
  8
0
100
AcDbCircle
 62
9
  6
CONTINUOUS
 10
12.1295914567
 20
8.7582601812
 40
1.0955976403
100
AcDbArc
 50
134.9998810719
 51
135.5637251218
  0
ARC
  5
2A3
100
AcDbEntity
  8
0
100
AcDbCircle
 62
9
  6
CONTINUOUS
 10
11.4470923488
 20
8.0757786303
 40
1.0955852257
100
AcDbArc
 50
134.4362288057
 51
135.0000792348
  0
CIRCLE
  5
2A4
100
AcDbEntity
  8
0
100
AcDbCircle
 62
7
  6
CONTINUOUS
 10
10.9376923427
 20
7.0976695021
 40
0.492
  0
ARC
  5
2A5
100
AcDbEntity
  8
0
100
AcDbCircle
 62
9
  6
CONTINUOUS
 10
10.9376924259
 20
8.5894350646
 40
0.4668609363
100
AcDbArc
 50
45.0258902801
 51
134.973939903
  0
ARC
  5
2A6
100
AcDbEntity
  8
0
100
AcDbCircle
 62
7
  6
CONTINUOUS
 10
13.3976923427
 20
6.3076695021
 40
0.415
100
AcDbArc
 50
270.0
 51
360.0
  0
ARC
  5
2A7
100
AcDbEntity
  8
0
100
AcDbCircle
 62
7
  6
CONTINUOUS
 10
13.8976923427
 20
6.8076695021
 40
0.415
100
AcDbArc
 50
270.0
 51
360.0
  0
CIRCLE
  5
2A8
100
AcDbEntity
  8
0
100
AcDbCircle
 62
9
  6
CONTINUOUS
 10
10.9376923427
 20
7.0976695021
 40
0.412
  0
ARC
  5
2A9
100
AcDbEntity
  8
0
100
AcDbCircle
 62
7
  6
CONTINUOUS
 10
13.2208907228
 20
8.5477798181
 40
0.404
100
AcDbArc
 50
110.0
 51
150.8424930736
  0
ARC
  5
2AA
100
AcDbEntity
  8
0
100
AcDbCircle
 62
9
  6
CONTINUOUS
 10
10.9376925079
 20
8.5965629602
 40
0.3945726088
100
AcDbArc
 50
45.0110484269
 51
134.9889854655
  0
ARC
  5
2AB
100
AcDbEntity
  8
0
100
AcDbCircle
 62
7
  6
CONTINUOUS
 10
13.2208907228
 20
8.5477798181
 40
0.394
100
AcDbArc
 50
110.0
 51
162.5
  0
CIRCLE
  5
2AC
100
AcDbEntity
  8
0
100
AcDbCircle
 62
7
  6
CONTINUOUS
 10
10.9376923427
 20
7.0976695021
 40
0.3935
  0
ARC
  5
2AD
100
AcDbEntity
  8
0
100
AcDbCircle
 62
9
  6
CONTINUOUS
 10
10.9376924479
 20
8.5950668916
 40
0.3681583545
100
AcDbArc
 50
45.5895341898
 51
134.4104889789
  0
CIRCLE
  5
2AE
100
AcDbEntity
  8
0
100
AcDbCircle
 62
9
  6
CONTINUOUS
 10
10.9376923427
 20
7.0976695021
 40
0.3435
  0
ARC
  5
2AF
100
AcDbEntity
  8
0
100
AcDbCircle
 62
7
  6
CONTINUOUS
 10
10.9376923427
 20
8.5945038465
 40
0.318
100
AcDbArc
 50
45.0
 51
135.0
  0
ARC
  5
2B0
100
AcDbEntity
  8
0
100
AcDbCircle
 62
7
  6
CONTINUOUS
 10
13.3976923427
 20
6.3076695021
 40
0.29
100
AcDbArc
 50
270.0
 51
360.0
  0
ARC
  5
2B1
100
AcDbEntity
  8
0
100
AcDbCircle
 62
7
  6
CONTINUOUS
 10
13.8976923427
 20
6.8076695021
 40
0.29
100
AcDbArc
 50
270.0
 51
360.0
  0
ARC
  5
2B2
100
AcDbEntity
  8
0
100
AcDbCircle
 62
7
  6
CONTINUOUS
 10
13.8526923427
 20
6.3526695021
 40
0.165
100
AcDbArc
 50
90.0
 51
180.0
  0
ARC
  5
2B3
100
AcDbEntity
  8
0
100
AcDbCircle
 62
7
  6
CONTINUOUS
 10
11.8304136018
 20
8.2504974496
 40
0.07
100
AcDbArc
 50
225.0000000222
 51
298.9023788032
  0
ARC
  5
2B4
100
AcDbEntity
  8
0
100
AcDbCircle
 62
7
  6
CONTINUOUS
 10
11.9548643353
 20
8.374948303
 40
0.07
100
AcDbArc
 50
331.0976396061
 51
44.9999999975
  0
ARC
  5
2B5
100
AcDbEntity
  8
0
100
AcDbCircle
 62
7
  6
CONTINUOUS
 10
13.8526923427
 20
6.3526695021
 40
0.04
100
AcDbArc
 50
90.0
 51
180.0
  0
ARC
  5
2B6
100
AcDbEntity
  8
0
100
AcDbCircle
 62
7
  6
CONTINUOUS
 10
10.9376923427
 20
9.2676695021
 40
2.0
100
AcDbArc
 50
162.5
 51
195.160747129
  0
ARC
  5
2B7
100
AcDbEntity
  8
0
100
AcDbCircle
 62
7
  6
CONTINUOUS
 10
10.9376923427
 20
9.2676695021
 40
2.0
100
AcDbArc
 50
344.839252871
 51
17.5
  0
ARC
  5
2B8
100
AcDbEntity
  8
0
100
AcDbCircle
 62
7
  6
CONTINUOUS
 10
10.9376923427
 20
9.2676695021
 40
1.99
100
AcDbArc
 50
162.5
 51
197.5
  0
ARC
  5
2B9
100
AcDbEntity
  8
0
100
AcDbCircle
 62
7
  6
CONTINUOUS
 10
10.9376923427
 20
9.2676695021
 40
1.99
100
AcDbArc
 50
342.5
 51
17.5
  0
ARC
  5
2BA
100
AcDbEntity
  8
0
100
AcDbCircle
 62
9
  6
CONTINUOUS
 10
10.9376923427
 20
9.2676695021
 40
1.2646377159
100
AcDbArc
 50
314.4236713699
 51
315.5763286048
  0
ARC
  5
2BB
100
AcDbEntity
  8
0
100
AcDbCircle
 62
9
  6
CONTINUOUS
 10
10.9376923427
 20
9.2676695021
 40
1.2646377159
100
AcDbArc
 50
134.4236713699
 51
135.5763286048
  0
ARC
  5
2BC
100
AcDbEntity
  8
0
100
AcDbCircle
 62
9
  6
CONTINUOUS
 10
10.9376923427
 20
9.2676695021
 40
1.2646377159
100
AcDbArc
 50
44.4236713699
 51
45.5763286048
  0
ARC
  5
2BD
100
AcDbEntity
  8
0
100
AcDbCircle
 62
9
  6
CONTINUOUS
 10
10.9376923427
 20
9.2676695021
 40
1.2646377159
100
AcDbArc
 50
224.4236713699
 51
225.5763286048
  0
ARC
  5
2BE
100
AcDbEntity
  8
0
100
AcDbCircle
 62
9
  6
CONTINUOUS
 10
11.4471016308
 20
10.4595685815
 40
1.0955975926
100
AcDbArc
 50
224.9998810079
 51
225.5637250823
  0
ARC
  5
2BF
100
AcDbEntity
  8
0
100
AcDbCircle
 62
9
  6
CONTINUOUS
 10
12.1295832145
 20
9.7770695081
 40
1.0955852255
100
AcDbArc
 50
224.4362288056
 51
225.0000792348
  0
ARC
  5
2C0
100
AcDbEntity
  8
0
100
AcDbCircle
 62
7
  6
CONTINUOUS
 10
10.9376923427
 20
9.2676695021
 40
0.7
100
AcDbArc
 50
58.0645786687
 51
121.9295296656
  0
ARC
  5
2C1
100
AcDbEntity
  8
0
100
AcDbCircle
 62
7
  6
CONTINUOUS
 10
10.9376923427
 20
9.2676695021
 40
0.7
100
AcDbArc
 50
328.0704703344
 51
31.9354213313
  0
ARC
  5
2C2
100
AcDbEntity
  8
0
100
AcDbCircle
 62
7
  6
CONTINUOUS
 10
10.9376923427
 20
9.2676695021
 40
0.7
100
AcDbArc
 50
148.0704703344
 51
211.9354213313
  0
ARC
  5
2C3
100
AcDbEntity
  8
0
100
AcDbCircle
 62
7
  6
CONTINUOUS
 10
10.9376923427
 20
9.2676695021
 40
0.7
100
AcDbArc
 50
238.0645786687
 51
301.9295296656
  0
ARC
  5
2C4
100
AcDbEntity
  8
0
100
AcDbCircle
 62
9
  6
CONTINUOUS
 10
10.9376923427
 20
9.2676695021
 40
0.66
100
AcDbArc
 50
148.8733066237
 51
211.1230305147
  0
ARC
  5
2C5
100
AcDbEntity
  8
0
100
AcDbCircle
 62
9
  6
CONTINUOUS
 10
10.9376923427
 20
9.2676695021
 40
0.66
100
AcDbArc
 50
238.8769694853
 51
301.1266933763
  0
ARC
  5
2C6
100
AcDbEntity
  8
0
100
AcDbCircle
 62
9
  6
CONTINUOUS
 10
10.9376923427
 20
9.2676695021
 40
0.66
100
AcDbArc
 50
58.8769694853
 51
121.1266933763
  0
ARC
  5
2C7
100
AcDbEntity
  8
0
100
AcDbCircle
 62
9
  6
CONTINUOUS
 10
10.9376923427
 20
9.2676695021
 40
0.66
100
AcDbArc
 50
328.8733066237
 51
31.1230305147
  0
ARC
  5
2C8
100
AcDbEntity
  8
0
100
AcDbCircle
 62
7
  6
CONTINUOUS
 10
10.9376923427
 20
9.2676695021
 40
0.6065
100
AcDbArc
 50
60.1207344128
 51
119.879246306
  0
ARC
  5
2C9
100
AcDbEntity
  8
0
100
AcDbCircle
 62
7
  6
CONTINUOUS
 10
10.9376923427
 20
9.2676695021
 40
0.6065
100
AcDbArc
 50
330.120753694
 51
29.8792655872
  0
ARC
  5
2CA
100
AcDbEntity
  8
0
100
AcDbCircle
 62
7
  6
CONTINUOUS
 10
10.9376923427
 20
9.2676695021
 40
0.6065
100
AcDbArc
 50
150.120753694
 51
209.8792655872
  0
ARC
  5
2CB
100
AcDbEntity
  8
0
100
AcDbCircle
 62
7
  6
CONTINUOUS
 10
10.9376923427
 20
9.2676695021
 40
0.6065
100
AcDbArc
 50
240.1207344128
 51
299.879246306
  0
ARC
  5
2CC
100
AcDbEntity
  8
0
100
AcDbCircle
 62
9
  6
CONTINUOUS
 10
11.6159273736
 20
9.2676700629
 40
0.4668612279
100
AcDbArc
 50
135.0259832141
 51
224.9739299066
  0
ARC
  5
2CD
100
AcDbEntity
  8
0
100
AcDbCircle
 62
9
  6
CONTINUOUS
 10
10.9376923431
 20
9.9459041128
 40
0.4668611188
100
AcDbArc
 50
225.0258975195
 51
314.9741024844
  0
ARC
  5
2CE
100
AcDbEntity
  8
0
100
AcDbCircle
 62
9
  6
CONTINUOUS
 10
10.9376923434
 20
9.9387682695
 40
0.3945656562
100
AcDbArc
 50
225.0102332438
 51
314.9897666205
  0
ARC
  5
2CF
100
AcDbEntity
  8
0
100
AcDbCircle
 62
9
  6
CONTINUOUS
 10
11.6087906253
 20
9.2676696673
 40
0.3945651831
100
AcDbArc
 50
135.0102004966
 51
224.9898333959
  0
ARC
  5
2D0
100
AcDbEntity
  8
0
100
AcDbCircle
 62
9
  6
CONTINUOUS
 10
10.9376923431
 20
9.9402726545
 40
0.3681588425
100
AcDbArc
 50
225.5895814597
 51
314.4104184523
  0
ARC
  5
2D1
100
AcDbEntity
  8
0
100
AcDbCircle
 62
9
  6
CONTINUOUS
 10
11.6102949452
 20
9.2676696073
 40
0.3681583545
100
AcDbArc
 50
135.5895333094
 51
224.4104898593
  0
ARC
  5
2D2
100
AcDbEntity
  8
0
100
AcDbCircle
 62
7
  6
CONTINUOUS
 10
10.9376923427
 20
9.9408351578
 40
0.318
100
AcDbArc
 50
225.0
 51
315.0
  0
ARC
  5
2D3
100
AcDbEntity
  8
0
100
AcDbCircle
 62
7
  6
CONTINUOUS
 10
11.6108579984
 20
9.2676695021
 40
0.318
100
AcDbArc
 50
135.0
 51
225.0
  0
ARC
  5
2D4
100
AcDbEntity
  8
0
100
AcDbCircle
 62
7
  6
CONTINUOUS
 10
11.8304135419
 20
10.2848414947
 40
0.07
100
AcDbArc
 50
61.0976396061
 51
134.9999999975
  0
ARC
  5
2D5
100
AcDbEntity
  8
0
100
AcDbCircle
 62
7
  6
CONTINUOUS
 10
11.9548643953
 20
10.1603907612
 40
0.07
100
AcDbArc
 50
315.0000000222
 51
28.9023788032
  0
ARC
  5
2D6
100
AcDbEntity
  8
0
100
AcDbCircle
 62
9
  6
CONTINUOUS
 10
11.9539368377
 20
12.0468510543
 40
2.7637471292
100
AcDbArc
 50
224.8879038325
 51
225.0019485388
  0
ARC
  5
2D7
100
AcDbEntity
  8
0
100
AcDbCircle
 62
9
  6
CONTINUOUS
 10
13.7133798218
 20
10.2804131075
 40
2.758800944
100
AcDbArc
 50
224.9979478733
 51
225.1121970309
  0
ARC
  5
2D8
100
AcDbEntity
  8
0
100
AcDbCircle
 62
7
  6
CONTINUOUS
 10
13.3976923427
 20
12.2276695021
 40
0.415
100
AcDbArc
 50
0.0
 51
90.0
  0
ARC
  5
2D9
100
AcDbEntity
  8
0
100
AcDbCircle
 62
7
  6
CONTINUOUS
 10
13.8976923427
 20
11.7276695021
 40
0.415
100
AcDbArc
 50
0.0
 51
90.0
  0
ARC
  5
2DA
100
AcDbEntity
  8
0
100
AcDbCircle
 62
7
  6
CONTINUOUS
 10
13.3976923427
 20
12.2276695021
 40
0.29
100
AcDbArc
 50
0.0
 51
90.0
  0
ARC
  5
2DB
100
AcDbEntity
  8
0
100
AcDbCircle
 62
7
  6
CONTINUOUS
 10
13.8976923427
 20
11.7276695021
 40
0.29
100
AcDbArc
 50
0.0
 51
90.0
  0
ARC
  5
2DC
100
AcDbEntity
  8
0
100
AcDbCircle
 62
7
  6
CONTINUOUS
 10
13.8526923427
 20
12.1826695021
 40
0.165
100
AcDbArc
 50
180.0
 51
270.0
  0
ARC
  5
2DD
100
AcDbEntity
  8
0
100
AcDbCircle
 62
7
  6
CONTINUOUS
 10
13.8526923427
 20
12.1826695021
 40
0.04
100
AcDbArc
 50
180.0
 51
270.0
  0
SPLINE
  5
2DE
100
AcDbEntity
  8
0
100
AcDbSpline
 62
7
  6
CONTINUOUS
 70
0
 71
3
 72
8
 73
4
 74
0
 42
0.0000001
 43
0.0000001
 44
0.0000000001
 40
0.0
 40
0.0
 40
0.0
 40
0.0
 40
1.0
 40
1.0
 40
1.0
 40
1.0
 10
9.2238062217
 20
7.9431356925
 30
0.0
 10
9.2357635169
 20
7.9425663012
 30
0.0
 10
9.2430233046
 20
7.9397193211
 30
0.0
 10
9.2454995416
 20
7.9344130982
 30
0.0
  0
SPLINE
  5
2DF
100
AcDbEntity
  8
0
100
AcDbSpline
 62
7
  6
CONTINUOUS
 70
0
 71
3
 72
8
 73
4
 74
0
 42
0.0000001
 43
0.0000001
 44
0.0000000001
 40
0.0
 40
0.0
 40
0.0
 40
0.0
 40
1.0
 40
1.0
 40
1.0
 40
1.0
 10
9.2454995416
 20
7.9344130982
 30
0.0
 10
9.2480055108
 20
7.9290431637
 30
0.0
 10
9.24928665
 20
7.9213563341
 30
0.0
 10
9.24928665
 20
7.9113919276
 30
0.0
  0
SPLINE
  5
2E0
100
AcDbEntity
  8
0
100
AcDbSpline
 62
7
  6
CONTINUOUS
 70
0
 71
3
 72
8
 73
4
 74
0
 42
0.0000001
 43
0.0000001
 44
0.0000000001
 40
0.0
 40
0.0
 40
0.0
 40
0.0
 40
1.0
 40
1.0
 40
1.0
 40
1.0
 10
9.24928665
 20
7.7928154099
 30
0.0
 10
9.24928665
 20
7.7791499305
 30
0.0
 10
9.2474361136
 20
7.7704666558
 30
0.0
 10
9.2437350464
 20
7.7667655875
 30
0.0
  0
SPLINE
  5
2E1
100
AcDbEntity
  8
0
100
AcDbSpline
 62
7
  6
CONTINUOUS
 70
0
 71
3
 72
8
 73
4
 74
0
 42
0.0000001
 43
0.0000001
 44
0.0000000001
 40
0.0
 40
0.0
 40
0.0
 40
0.0
 40
1.0
 40
1.0
 40
1.0
 40
1.0
 10
9.2437350464
 20
7.7667655875
 30
0.0
 10
9.2400339796
 20
7.7630645196
 30
0.0
 10
9.233485937
 20
7.7612139861
 30
0.0
 10
9.2238062217
 20
7.7610716376
 30
0.0
  0
SPLINE
  5
2E2
100
AcDbEntity
  8
0
100
AcDbSpline
 62
7
  6
CONTINUOUS
 70
0
 71
3
 72
8
 73
4
 74
0
 42
0.0000001
 43
0.0000001
 44
0.0000000001
 40
0.0
 40
0.0
 40
0.0
 40
0.0
 40
1.0
 40
1.0
 40
1.0
 40
1.0
 10
9.3055144086
 20
7.7610716376
 30
0.0
 10
9.2952652945
 20
7.7612139861
 30
0.0
 10
9.2884325578
 20
7.7636339146
 30
0.0
 10
9.2850161868
 20
7.7681890747
 30
0.0
  0
SPLINE
  5
2E3
100
AcDbEntity
  8
0
100
AcDbSpline
 62
7
  6
CONTINUOUS
 70
0
 71
3
 72
8
 73
4
 74
0
 42
0.0000001
 43
0.0000001
 44
0.0000000001
 40
0.0
 40
0.0
 40
0.0
 40
0.0
 40
1.0
 40
1.0
 40
1.0
 40
1.0
 10
9.2850161868
 20
7.7681890747
 30
0.0
 10
9.2815998151
 20
7.7727442357
 30
0.0
 10
9.2800339772
 20
7.781000464
 30
0.0
 10
9.2800339772
 20
7.7928154099
 30
0.0
  0
SPLINE
  5
2E4
100
AcDbEntity
  8
0
100
AcDbSpline
 62
7
  6
CONTINUOUS
 70
0
 71
3
 72
8
 73
4
 74
0
 42
0.0000001
 43
0.0000001
 44
0.0000000001
 40
0.0
 40
0.0
 40
0.0
 40
0.0
 40
1.0
 40
1.0
 40
1.0
 40
1.0
 10
9.3655855789
 20
7.7928154099
 30
0.0
 10
9.3655855789
 20
7.7812851596
 30
0.0
 10
9.364019741
 20
7.7731712821
 30
0.0
 10
9.3609797452
 20
7.7683638427
 30
0.0
  0
SPLINE
  5
2E5
100
AcDbEntity
  8
0
100
AcDbSpline
 62
7
  6
CONTINUOUS
 70
0
 71
3
 72
8
 73
4
 74
0
 42
0.0000001
 43
0.0000001
 44
0.0000000001
 40
0.0
 40
0.0
 40
0.0
 40
0.0
 40
1.0
 40
1.0
 40
1.0
 40
1.0
 10
9.3609797452
 20
7.7683638427
 30
0.0
 10
9.3578987493
 20
7.763491566
 30
0.0
 10
9.3509236588
 20
7.7610716376
 30
0.0
 10
9.3401051535
 20
7.7610716376
 30
0.0
  0
SPLINE
  5
2E6
100
AcDbEntity
  8
0
100
AcDbSpline
 62
7
  6
CONTINUOUS
 70
0
 71
3
 72
8
 73
4
 74
0
 42
0.0000001
 43
0.0000001
 44
0.0000000001
 40
0.0
 40
0.0
 40
0.0
 40
0.0
 40
1.0
 40
1.0
 40
1.0
 40
1.0
 10
9.4218133344
 20
7.7610716376
 30
0.0
 10
9.411137177
 20
7.7616410326
 30
0.0
 10
9.4041620984
 20
7.7637762639
 30
0.0
 10
9.4010304223
 20
7.7677620292
 30
0.0
  0
SPLINE
  5
2E7
100
AcDbEntity
  8
0
100
AcDbSpline
 62
7
  6
CONTINUOUS
 70
0
 71
3
 72
8
 73
4
 74
0
 42
0.0000001
 43
0.0000001
 44
0.0000000001
 40
0.0
 40
0.0
 40
0.0
 40
0.0
 40
1.0
 40
1.0
 40
1.0
 40
1.0
 10
9.4010304223
 20
7.7677620292
 30
0.0
 10
9.3978987469
 20
7.7717477936
 30
0.0
 10
9.3963329091
 20
7.7800040203
 30
0.0
 10
9.3963329091
 20
7.7928154099
 30
0.0
  0
SPLINE
  5
2E8
100
AcDbEntity
  8
0
100
AcDbSpline
 62
7
  6
CONTINUOUS
 70
0
 71
3
 72
8
 73
4
 74
0
 42
0.0000001
 43
0.0000001
 44
0.0000000001
 40
0.0
 40
0.0
 40
0.0
 40
0.0
 40
1.0
 40
1.0
 40
1.0
 40
1.0
 10
9.3963329091
 20
7.9113919276
 30
0.0
 10
9.3963329091
 20
7.9253420967
 30
0.0
 10
9.3980410948
 20
7.9340253729
 30
0.0
 10
9.4017085539
 20
7.9374771006
 30
0.0
  0
SPLINE
  5
2E9
100
AcDbEntity
  8
0
100
AcDbSpline
 62
7
  6
CONTINUOUS
 70
0
 71
3
 72
8
 73
4
 74
0
 42
0.0000001
 43
0.0000001
 44
0.0000000001
 40
0.0
 40
0.0
 40
0.0
 40
0.0
 40
1.0
 40
1.0
 40
1.0
 40
1.0
 10
9.4017085539
 20
7.9374771006
 30
0.0
 10
9.4053008809
 20
7.9408581156
 30
0.0
 10
9.4119912758
 20
7.942708649
 30
0.0
 10
9.4218133344
 20
7.9431356925
 30
0.0
  0
SPLINE
  5
2EA
100
AcDbEntity
  8
0
100
AcDbSpline
 62
7
  6
CONTINUOUS
 70
0
 71
3
 72
8
 73
4
 74
0
 42
0.0000001
 43
0.0000001
 44
0.0000000001
 40
0.0
 40
0.0
 40
0.0
 40
0.0
 40
1.0
 40
1.0
 40
1.0
 40
1.0
 10
9.3401051535
 20
7.9431356925
 30
0.0
 10
9.3523471489
 20
7.9425663012
 30
0.0
 10
9.359606935
 20
7.9395769733
 30
0.0
 10
9.3619673421
 20
7.9342839301
 30
0.0
  0
SPLINE
  5
2EB
100
AcDbEntity
  8
0
100
AcDbSpline
 62
7
  6
CONTINUOUS
 70
0
 71
3
 72
8
 73
4
 74
0
 42
0.0000001
 43
0.0000001
 44
0.0000000001
 40
0.0
 40
0.0
 40
0.0
 40
0.0
 40
1.0
 40
1.0
 40
1.0
 40
1.0
 10
9.3619673421
 20
7.9342839301
 30
0.0
 10
9.3643044367
 20
7.9290431637
 30
0.0
 10
9.3655855789
 20
7.9213563341
 30
0.0
 10
9.3655855789
 20
7.9113919276
 30
0.0
  0
SPLINE
  5
2EC
100
AcDbEntity
  8
0
100
AcDbSpline
 62
7
  6
CONTINUOUS
 70
0
 71
3
 72
8
 73
4
 74
0
 42
0.0000001
 43
0.0000001
 44
0.0000000001
 40
0.0
 40
0.0
 40
0.0
 40
0.0
 40
1.0
 40
1.0
 40
1.0
 40
1.0
 10
9.2800339772
 20
7.9113919276
 30
0.0
 10
9.2800339772
 20
7.9216410297
 30
0.0
 10
9.2813151195
 20
7.9293278593
 30
0.0
 10
9.2841076133
 20
7.9343400314
 30
0.0
  0
SPLINE
  5
2ED
100
AcDbEntity
  8
0
100
AcDbSpline
 62
7
  6
CONTINUOUS
 70
0
 71
3
 72
8
 73
4
 74
0
 42
0.0000001
 43
0.0000001
 44
0.0000000001
 40
0.0
 40
0.0
 40
0.0
 40
0.0
 40
1.0
 40
1.0
 40
1.0
 40
1.0
 10
9.2841076133
 20
7.9343400314
 30
0.0
 10
9.2868667199
 20
7.9392922777
 30
0.0
 10
9.2939841583
 20
7.9422816056
 30
0.0
 10
9.3055144086
 20
7.9431356925
 30
0.0
  0
SPLINE
  5
2EE
100
AcDbEntity
  8
0
100
AcDbSpline
 62
7
  6
CONTINUOUS
 70
0
 71
3
 72
8
 73
4
 74
0
 42
0.0000001
 43
0.0000001
 44
0.0000000001
 40
0.0
 40
0.0
 40
0.0
 40
0.0
 40
1.0
 40
1.0
 40
1.0
 40
1.0
 10
9.440461029
 20
7.8521748382
 30
0.0
 10
9.440461029
 20
7.8217122096
 30
0.0
 10
9.4495713367
 20
7.7970858711
 30
0.0
 10
9.4678980251
 20
7.7784026372
 30
0.0
  0
SPLINE
  5
2EF
100
AcDbEntity
  8
0
100
AcDbSpline
 62
7
  6
CONTINUOUS
 70
0
 71
3
 72
8
 73
4
 74
0
 42
0.0000001
 43
0.0000001
 44
0.0000000001
 40
0.0
 40
0.0
 40
0.0
 40
0.0
 40
1.0
 40
1.0
 40
1.0
 40
1.0
 10
9.4678980251
 20
7.7784026372
 30
0.0
 10
9.4861549749
 20
7.7597904987
 30
0.0
 10
9.5085037365
 20
7.7505378294
 30
0.0
 10
9.5349805965
 20
7.7505378294
 30
0.0
  0
SPLINE
  5
2F0
100
AcDbEntity
  8
0
100
AcDbSpline
 62
7
  6
CONTINUOUS
 70
0
 71
3
 72
8
 73
4
 74
0
 42
0.0000001
 43
0.0000001
 44
0.0000000001
 40
0.0
 40
0.0
 40
0.0
 40
0.0
 40
1.0
 40
1.0
 40
1.0
 40
1.0
 10
9.5349805965
 20
7.7505378294
 30
0.0
 10
9.5627385988
 20
7.7505378294
 30
0.0
 10
9.585372056
 20
7.7602175447
 30
0.0
 10
9.6030232986
 20
7.7795769818
 30
0.0
  0
SPLINE
  5
2F1
100
AcDbEntity
  8
0
100
AcDbSpline
 62
7
  6
CONTINUOUS
 70
0
 71
3
 72
8
 73
4
 74
0
 42
0.0000001
 43
0.0000001
 44
0.0000000001
 40
0.0
 40
0.0
 40
0.0
 40
0.0
 40
1.0
 40
1.0
 40
1.0
 40
1.0
 10
9.6030232986
 20
7.7795769818
 30
0.0
 10
9.6206745281
 20
7.7989364046
 30
0.0
 10
9.629500164
 20
7.8231356937
 30
0.0
 10
9.629500164
 20
7.8520324904
 30
0.0
  0
SPLINE
  5
2F2
100
AcDbEntity
  8
0
100
AcDbSpline
 62
7
  6
CONTINUOUS
 70
0
 71
3
 72
8
 73
4
 74
0
 42
0.0000001
 43
0.0000001
 44
0.0000000001
 40
0.0
 40
0.0
 40
0.0
 40
0.0
 40
1.0
 40
1.0
 40
1.0
 40
1.0
 10
9.629500164
 20
7.8520324904
 30
0.0
 10
9.629500164
 20
7.8819257277
 30
0.0
 10
9.6203898563
 20
7.9062673706
 30
0.0
 10
9.6021692201
 20
7.9251997517
 30
0.0
  0
SPLINE
  5
2F3
100
AcDbEntity
  8
0
100
AcDbSpline
 62
7
  6
CONTINUOUS
 70
0
 71
3
 72
8
 73
4
 74
0
 42
0.0000001
 43
0.0000001
 44
0.0000000001
 40
0.0
 40
0.0
 40
0.0
 40
0.0
 40
1.0
 40
1.0
 40
1.0
 40
1.0
 10
9.6021692201
 20
7.9251997517
 30
0.0
 10
9.5839485779
 20
7.9441321391
 30
0.0
 10
9.5614574566
 20
7.9536695021
 30
0.0
 10
9.5349805965
 20
7.9536695021
 30
0.0
  0
SPLINE
  5
2F4
100
AcDbEntity
  8
0
100
AcDbSpline
 62
7
  6
CONTINUOUS
 70
0
 71
3
 72
8
 73
4
 74
0
 42
0.0000001
 43
0.0000001
 44
0.0000000001
 40
0.0
 40
0.0
 40
0.0
 40
0.0
 40
1.0
 40
1.0
 40
1.0
 40
1.0
 10
9.5349805965
 20
7.9536695021
 30
0.0
 10
9.5095001831
 20
7.9536695021
 30
0.0
 10
9.4874361172
 20
7.9445591825
 30
0.0
 10
9.4686816825
 20
7.926444111
 30
0.0
  0
SPLINE
  5
2F5
100
AcDbEntity
  8
0
100
AcDbSpline
 62
7
  6
CONTINUOUS
 70
0
 71
3
 72
8
 73
4
 74
0
 42
0.0000001
 43
0.0000001
 44
0.0000000001
 40
0.0
 40
0.0
 40
0.0
 40
0.0
 40
1.0
 40
1.0
 40
1.0
 40
1.0
 10
9.4686816825
 20
7.926444111
 30
0.0
 10
9.4498560324
 20
7.9082602519
 30
0.0
 10
9.440461029
 20
7.8834915656
 30
0.0
 10
9.440461029
 20
7.8521748382
 30
0.0
  0
SPLINE
  5
2F6
100
AcDbEntity
  8
0
100
AcDbSpline
 62
7
  6
CONTINUOUS
 70
0
 71
3
 72
8
 73
4
 74
0
 42
0.0000001
 43
0.0000001
 44
0.0000000001
 40
0.0
 40
0.0
 40
0.0
 40
0.0
 40
1.0
 40
1.0
 40
1.0
 40
1.0
 10
9.6554076328
 20
7.8997193235
 30
0.0
 10
9.6576852455
 20
7.9156623858
 30
0.0
 10
9.6620980396
 20
7.9259114999
 30
0.0
 10
9.6687645121
 20
7.9306425451
 30
0.0
  0
SPLINE
  5
2F7
100
AcDbEntity
  8
0
100
AcDbSpline
 62
7
  6
CONTINUOUS
 70
0
 71
3
 72
8
 73
4
 74
0
 42
0.0000001
 43
0.0000001
 44
0.0000000001
 40
0.0
 40
0.0
 40
0.0
 40
0.0
 40
1.0
 40
1.0
 40
1.0
 40
1.0
 10
9.6687645121
 20
7.9306425451
 30
0.0
 10
9.6753364696
 20
7.9353065151
 30
0.0
 10
9.6848738327
 20
7.9377264398
 30
0.0
 10
9.6971158161
 20
7.9377264398
 30
0.0
  0
SPLINE
  5
2F8
100
AcDbEntity
  8
0
100
AcDbSpline
 62
7
  6
CONTINUOUS
 70
0
 71
3
 72
8
 73
4
 74
0
 42
0.0000001
 43
0.0000001
 44
0.0000000001
 40
0.0
 40
0.0
 40
0.0
 40
0.0
 40
1.0
 40
1.0
 40
1.0
 40
1.0
 10
9.7159058704
 20
7.7928154099
 30
0.0
 10
9.7159058704
 20
7.7807157654
 30
0.0
 10
9.7143400326
 20
7.7724595371
 30
0.0
 10
9.7115253389
 20
7.7680264027
 30
0.0
  0
SPLINE
  5
2F9
100
AcDbEntity
  8
0
100
AcDbSpline
 62
7
  6
CONTINUOUS
 70
0
 71
3
 72
8
 73
4
 74
0
 42
0.0000001
 43
0.0000001
 44
0.0000000001
 40
0.0
 40
0.0
 40
0.0
 40
0.0
 40
1.0
 40
1.0
 40
1.0
 40
1.0
 10
9.7115253389
 20
7.7680264027
 30
0.0
 10
9.7086460724
 20
7.763491566
 30
0.0
 10
9.7015286579
 20
7.7612139861
 30
0.0
 10
9.690425457
 20
7.7610716376
 30
0.0
  0
SPLINE
  5
2FA
100
AcDbEntity
  8
0
100
AcDbSpline
 62
7
  6
CONTINUOUS
 70
0
 71
3
 72
8
 73
4
 74
0
 42
0.0000001
 43
0.0000001
 44
0.0000000001
 40
0.0
 40
0.0
 40
0.0
 40
0.0
 40
1.0
 40
1.0
 40
1.0
 40
1.0
 10
9.7721336021
 20
7.7610716376
 30
0.0
 10
9.7601763382
 20
7.7612139861
 30
0.0
 10
9.753058876
 20
7.7636339146
 30
0.0
 10
9.7504669847
 20
7.7684577447
 30
0.0
  0
SPLINE
  5
2FB
100
AcDbEntity
  8
0
100
AcDbSpline
 62
7
  6
CONTINUOUS
 70
0
 71
3
 72
8
 73
4
 74
0
 42
0.0000001
 43
0.0000001
 44
0.0000000001
 40
0.0
 40
0.0
 40
0.0
 40
0.0
 40
1.0
 40
1.0
 40
1.0
 40
1.0
 10
9.7504669847
 20
7.7684577447
 30
0.0
 10
9.7479343548
 20
7.7731712821
 30
0.0
 10
9.7466531887
 20
7.7812851596
 30
0.0
 10
9.7466531887
 20
7.7928154099
 30
0.0
  0
SPLINE
  5
2FC
100
AcDbEntity
  8
0
100
AcDbSpline
 62
7
  6
CONTINUOUS
 70
0
 71
3
 72
8
 73
4
 74
0
 42
0.0000001
 43
0.0000001
 44
0.0000000001
 40
0.0
 40
0.0
 40
0.0
 40
0.0
 40
1.0
 40
1.0
 40
1.0
 40
1.0
 10
9.7614574566
 20
7.9377264398
 30
0.0
 10
9.7769734993
 20
7.9377264398
 30
0.0
 10
9.7879343166
 20
7.9345947641
 30
0.0
 10
9.7944823732
 20
7.9283314096
 30
0.0
  0
SPLINE
  5
2FD
100
AcDbEntity
  8
0
100
AcDbSpline
 62
7
  6
CONTINUOUS
 70
0
 71
3
 72
8
 73
4
 74
0
 42
0.0000001
 43
0.0000001
 44
0.0000000001
 40
0.0
 40
0.0
 40
0.0
 40
0.0
 40
1.0
 40
1.0
 40
1.0
 40
1.0
 10
9.7944823732
 20
7.9283314096
 30
0.0
 10
9.8010304107
 20
7.9220680732
 30
0.0
 10
9.8051585331
 20
7.9125307101
 30
0.0
 10
9.8071514263
 20
7.8997193235
 30
0.0
  0
SPLINE
  5
2FE
100
AcDbEntity
  8
0
100
AcDbSpline
 62
7
  6
CONTINUOUS
 70
0
 71
3
 72
8
 73
4
 74
0
 42
0.0000001
 43
0.0000001
 44
0.0000000001
 40
0.0
 40
0.0
 40
0.0
 40
0.0
 40
1.0
 40
1.0
 40
1.0
 40
1.0
 10
12.1313329091
 20
7.794950642
 30
0.0
 10
12.121795546
 20
7.7852709252
 30
0.0
 10
12.1116887798
 20
7.7777264419
 30
0.0
 10
12.1010126235
 20
7.7726018841
 30
0.0
  0
SPLINE
  5
2FF
100
AcDbEntity
  8
0
100
AcDbSpline
 62
7
  6
CONTINUOUS
 70
0
 71
3
 72
8
 73
4
 74
0
 42
0.0000001
 43
0.0000001
 44
0.0000000001
 40
0.0
 40
0.0
 40
0.0
 40
0.0
 40
1.0
 40
1.0
 40
1.0
 40
1.0
 10
12.1010126235
 20
7.7726018841
 30
0.0
 10
12.0903364768
 20
7.7674773309
 30
0.0
 10
12.0788062205
 20
7.7649150538
 30
0.0
 10
12.0662795296
 20
7.7649150538
 30
0.0
  0
SPLINE
  5
300
100
AcDbEntity
  8
0
100
AcDbSpline
 62
7
  6
CONTINUOUS
 70
0
 71
3
 72
8
 73
4
 74
0
 42
0.0000001
 43
0.0000001
 44
0.0000000001
 40
0.0
 40
0.0
 40
0.0
 40
0.0
 40
1.0
 40
1.0
 40
1.0
 40
1.0
 10
12.0662795296
 20
7.7649150538
 30
0.0
 10
12.0440731277
 20
7.7649150538
 30
0.0
 10
12.0268489291
 20
7.7727442357
 30
0.0
 10
12.0144204364
 20
7.7886527062
 30
0.0
  0
SPLINE
  5
301
100
AcDbEntity
  8
0
100
AcDbSpline
 62
7
  6
CONTINUOUS
 70
0
 71
3
 72
8
 73
4
 74
0
 42
0.0000001
 43
0.0000001
 44
0.0000000001
 40
0.0
 40
0.0
 40
0.0
 40
0.0
 40
1.0
 40
1.0
 40
1.0
 40
1.0
 10
12.0144204364
 20
7.7886527062
 30
0.0
 10
12.001937895
 20
7.8046303588
 30
0.0
 10
11.9958168974
 20
7.8266944128
 30
0.0
 10
11.9958168974
 20
7.8548794645
 30
0.0
  0
SPLINE
  5
302
100
AcDbEntity
  8
0
100
AcDbSpline
 62
7
  6
CONTINUOUS
 70
0
 71
3
 72
8
 73
4
 74
0
 42
0.0000001
 43
0.0000001
 44
0.0000000001
 40
0.0
 40
0.0
 40
0.0
 40
0.0
 40
1.0
 40
1.0
 40
1.0
 40
1.0
 10
11.9958168974
 20
7.8548794645
 30
0.0
 10
11.9958168974
 20
7.8813563365
 30
0.0
 10
12.0022225907
 20
7.9024239558
 30
0.0
 10
12.0151344652
 20
7.9178325999
 30
0.0
  0
SPLINE
  5
303
100
AcDbEntity
  8
0
100
AcDbSpline
 62
7
  6
CONTINUOUS
 70
0
 71
3
 72
8
 73
4
 74
0
 42
0.0000001
 43
0.0000001
 44
0.0000000001
 40
0.0
 40
0.0
 40
0.0
 40
0.0
 40
1.0
 40
1.0
 40
1.0
 40
1.0
 10
12.0151344652
 20
7.9178325999
 30
0.0
 10
12.0279877176
 20
7.933171286
 30
0.0
 10
12.0437884261
 20
7.9408581156
 30
0.0
 10
12.0624361148
 20
7.9408581156
 30
0.0
  0
SPLINE
  5
304
100
AcDbEntity
  8
0
100
AcDbSpline
 62
7
  6
CONTINUOUS
 70
0
 71
3
 72
8
 73
4
 74
0
 42
0.0000001
 43
0.0000001
 44
0.0000000001
 40
0.0
 40
0.0
 40
0.0
 40
0.0
 40
1.0
 40
1.0
 40
1.0
 40
1.0
 10
12.0624361148
 20
7.9408581156
 30
0.0
 10
12.0773827305
 20
7.9408581156
 30
0.0
 10
12.0900517692
 20
7.9364452976
 30
0.0
 10
12.1005559274
 20
7.9275846539
 30
0.0
  0
SPLINE
  5
305
100
AcDbEntity
  8
0
100
AcDbSpline
 62
7
  6
CONTINUOUS
 70
0
 71
3
 72
8
 73
4
 74
0
 42
0.0000001
 43
0.0000001
 44
0.0000000001
 40
0.0
 40
0.0
 40
0.0
 40
0.0
 40
1.0
 40
1.0
 40
1.0
 40
1.0
 10
12.1005559274
 20
7.9275846539
 30
0.0
 10
12.1109770407
 20
7.9187940615
 30
0.0
 10
12.1195179691
 20
7.9048438805
 30
0.0
 10
12.1260660043
 20
7.8859114903
 30
0.0
  0
SPLINE
  5
306
100
AcDbEntity
  8
0
100
AcDbSpline
 62
7
  6
CONTINUOUS
 70
0
 71
3
 72
8
 73
4
 74
0
 42
0.0000001
 43
0.0000001
 44
0.0000000001
 40
0.0
 40
0.0
 40
0.0
 40
0.0
 40
1.0
 40
1.0
 40
1.0
 40
1.0
 10
12.1246425261
 20
7.9536695021
 30
0.0
 10
12.120372056
 20
7.9465520638
 30
0.0
 10
12.1158169021
 20
7.9431356925
 30
0.0
 10
12.1112617364
 20
7.9431356925
 30
0.0
  0
SPLINE
  5
307
100
AcDbEntity
  8
0
100
AcDbSpline
 62
7
  6
CONTINUOUS
 70
0
 71
3
 72
8
 73
4
 74
0
 42
0.0000001
 43
0.0000001
 44
0.0000000001
 40
0.0
 40
0.0
 40
0.0
 40
0.0
 40
1.0
 40
1.0
 40
1.0
 40
1.0
 10
12.1112617364
 20
7.9431356925
 30
0.0
 10
12.1091265073
 20
7.9431356925
 30
0.0
 10
12.1031478634
 20
7.9448438782
 30
0.0
 10
12.0931614555
 20
7.9483391218
 30
0.0
  0
SPLINE
  5
308
100
AcDbEntity
  8
0
100
AcDbSpline
 62
7
  6
CONTINUOUS
 70
0
 71
3
 72
8
 73
4
 74
0
 42
0.0000001
 43
0.0000001
 44
0.0000000001
 40
0.0
 40
0.0
 40
0.0
 40
0.0
 40
1.0
 40
1.0
 40
1.0
 40
1.0
 10
12.0931614555
 20
7.9483391218
 30
0.0
 10
12.0832190385
 20
7.9518189687
 30
0.0
 10
12.0716887822
 20
7.9536695021
 30
0.0
 10
12.0588773956
 20
7.9536695021
 30
0.0
  0
SPLINE
  5
309
100
AcDbEntity
  8
0
100
AcDbSpline
 62
7
  6
CONTINUOUS
 70
0
 71
3
 72
8
 73
4
 74
0
 42
0.0000001
 43
0.0000001
 44
0.0000000001
 40
0.0
 40
0.0
 40
0.0
 40
0.0
 40
1.0
 40
1.0
 40
1.0
 40
1.0
 10
12.0588773956
 20
7.9536695021
 30
0.0
 10
12.0315464368
 20
7.9536695021
 30
0.0
 10
12.0084859361
 20
7.9441321391
 30
0.0
 10
11.9895891687
 20
7.9251643317
 30
0.0
  0
SPLINE
  5
30A
100
AcDbEntity
  8
0
100
AcDbSpline
 62
7
  6
CONTINUOUS
 70
0
 71
3
 72
8
 73
4
 74
0
 42
0.0000001
 43
0.0000001
 44
0.0000000001
 40
0.0
 40
0.0
 40
0.0
 40
0.0
 40
1.0
 40
1.0
 40
1.0
 40
1.0
 10
11.9895891687
 20
7.9251643317
 30
0.0
 10
11.9706211676
 20
7.9061250228
 30
0.0
 10
11.9612261509
 20
7.8810716409
 30
0.0
 10
11.9612261509
 20
7.8497549135
 30
0.0
  0
SPLINE
  5
30B
100
AcDbEntity
  8
0
100
AcDbSpline
 62
7
  6
CONTINUOUS
 70
0
 71
3
 72
8
 73
4
 74
0
 42
0.0000001
 43
0.0000001
 44
0.0000000001
 40
0.0
 40
0.0
 40
0.0
 40
0.0
 40
1.0
 40
1.0
 40
1.0
 40
1.0
 10
11.9612261509
 20
7.8497549135
 30
0.0
 10
11.9612261509
 20
7.8184381861
 30
0.0
 10
11.9707635169
 20
7.7939541984
 30
0.0
 10
11.9901229476
 20
7.7765876503
 30
0.0
  0
SPLINE
  5
30C
100
AcDbEntity
  8
0
100
AcDbSpline
 62
7
  6
CONTINUOUS
 70
0
 71
3
 72
8
 73
4
 74
0
 42
0.0000001
 43
0.0000001
 44
0.0000000001
 40
0.0
 40
0.0
 40
0.0
 40
0.0
 40
1.0
 40
1.0
 40
1.0
 40
1.0
 10
11.9901229476
 20
7.7765876503
 30
0.0
 10
12.0094823768
 20
7.7592211037
 30
0.0
 10
12.0319734802
 20
7.7505378294
 30
0.0
 10
12.0577386012
 20
7.7505378294
 30
0.0
  0
SPLINE
  5
30D
100
AcDbEntity
  8
0
100
AcDbSpline
 62
7
  6
CONTINUOUS
 70
0
 71
3
 72
8
 73
4
 74
0
 42
0.0000001
 43
0.0000001
 44
0.0000000001
 40
0.0
 40
0.0
 40
0.0
 40
0.0
 40
1.0
 40
1.0
 40
1.0
 40
1.0
 10
12.0577386012
 20
7.7505378294
 30
0.0
 10
12.0724005332
 20
7.7505378294
 30
0.0
 10
12.0860660066
 20
7.7533848046
 30
0.0
 10
12.0985664193
 20
7.758853735
 30
0.0
  0
SPLINE
  5
30E
100
AcDbEntity
  8
0
100
AcDbSpline
 62
7
  6
CONTINUOUS
 70
0
 71
3
 72
8
 73
4
 74
0
 42
0.0000001
 43
0.0000001
 44
0.0000000001
 40
0.0
 40
0.0
 40
0.0
 40
0.0
 40
1.0
 40
1.0
 40
1.0
 40
1.0
 10
12.0985664193
 20
7.758853735
 30
0.0
 10
12.1111193886
 20
7.7643456589
 30
0.0
 10
12.1242154708
 20
7.7741677228
 30
0.0
 10
12.1375962605
 20
7.7884025979
 30
0.0
  0
SPLINE
  5
30F
100
AcDbEntity
  8
0
100
AcDbSpline
 62
7
  6
CONTINUOUS
 70
0
 71
3
 72
8
 73
4
 74
0
 42
0.0000001
 43
0.0000001
 44
0.0000000001
 40
0.0
 40
0.0
 40
0.0
 40
0.0
 40
1.0
 40
1.0
 40
1.0
 40
1.0
 10
12.1592332592
 20
7.8521748382
 30
0.0
 10
12.1592332592
 20
7.8217122096
 30
0.0
 10
12.1683435907
 20
7.7970858711
 30
0.0
 10
12.1866702675
 20
7.7784026491
 30
0.0
  0
SPLINE
  5
310
100
AcDbEntity
  8
0
100
AcDbSpline
 62
7
  6
CONTINUOUS
 70
0
 71
3
 72
8
 73
4
 74
0
 42
0.0000001
 43
0.0000001
 44
0.0000000001
 40
0.0
 40
0.0
 40
0.0
 40
0.0
 40
1.0
 40
1.0
 40
1.0
 40
1.0
 10
12.1866702675
 20
7.7784026491
 30
0.0
 10
12.2049272289
 20
7.7597904987
 30
0.0
 10
12.2272759666
 20
7.7505378294
 30
0.0
 10
12.2537528505
 20
7.7505378294
 30
0.0
  0
SPLINE
  5
311
100
AcDbEntity
  8
0
100
AcDbSpline
 62
7
  6
CONTINUOUS
 70
0
 71
3
 72
8
 73
4
 74
0
 42
0.0000001
 43
0.0000001
 44
0.0000000001
 40
0.0
 40
0.0
 40
0.0
 40
0.0
 40
1.0
 40
1.0
 40
1.0
 40
1.0
 10
12.2537528505
 20
7.7505378294
 30
0.0
 10
12.2815108528
 20
7.7505378294
 30
0.0
 10
12.30414431
 20
7.7602175447
 30
0.0
 10
12.3217955417
 20
7.7795769699
 30
0.0
  0
SPLINE
  5
312
100
AcDbEntity
  8
0
100
AcDbSpline
 62
7
  6
CONTINUOUS
 70
0
 71
3
 72
8
 73
4
 74
0
 42
0.0000001
 43
0.0000001
 44
0.0000000001
 40
0.0
 40
0.0
 40
0.0
 40
0.0
 40
1.0
 40
1.0
 40
1.0
 40
1.0
 10
12.3217955417
 20
7.7795769699
 30
0.0
 10
12.3394467821
 20
7.7989364046
 30
0.0
 10
12.348272418
 20
7.8231356937
 30
0.0
 10
12.348272418
 20
7.8520324904
 30
0.0
  0
SPLINE
  5
313
100
AcDbEntity
  8
0
100
AcDbSpline
 62
7
  6
CONTINUOUS
 70
0
 71
3
 72
8
 73
4
 74
0
 42
0.0000001
 43
0.0000001
 44
0.0000000001
 40
0.0
 40
0.0
 40
0.0
 40
0.0
 40
1.0
 40
1.0
 40
1.0
 40
1.0
 10
12.348272418
 20
7.8520324904
 30
0.0
 10
12.348272418
 20
7.8819257277
 30
0.0
 10
12.3391620865
 20
7.9062673706
 30
0.0
 10
12.3209414502
 20
7.9251997517
 30
0.0
  0
SPLINE
  5
314
100
AcDbEntity
  8
0
100
AcDbSpline
 62
7
  6
CONTINUOUS
 70
0
 71
3
 72
8
 73
4
 74
0
 42
0.0000001
 43
0.0000001
 44
0.0000000001
 40
0.0
 40
0.0
 40
0.0
 40
0.0
 40
1.0
 40
1.0
 40
1.0
 40
1.0
 10
12.3209414502
 20
7.9251997517
 30
0.0
 10
12.302720808
 20
7.9441321391
 30
0.0
 10
12.2802297106
 20
7.9536695021
 30
0.0
 10
12.2537528505
 20
7.9536695021
 30
0.0
  0
SPLINE
  5
315
100
AcDbEntity
  8
0
100
AcDbSpline
 62
7
  6
CONTINUOUS
 70
0
 71
3
 72
8
 73
4
 74
0
 42
0.0000001
 43
0.0000001
 44
0.0000000001
 40
0.0
 40
0.0
 40
0.0
 40
0.0
 40
1.0
 40
1.0
 40
1.0
 40
1.0
 10
12.2537528505
 20
7.9536695021
 30
0.0
 10
12.2282724132
 20
7.9536695021
 30
0.0
 10
12.2062083473
 20
7.9445591825
 30
0.0
 10
12.1874539184
 20
7.9264441051
 30
0.0
  0
SPLINE
  5
316
100
AcDbEntity
  8
0
100
AcDbSpline
 62
7
  6
CONTINUOUS
 70
0
 71
3
 72
8
 73
4
 74
0
 42
0.0000001
 43
0.0000001
 44
0.0000000001
 40
0.0
 40
0.0
 40
0.0
 40
0.0
 40
1.0
 40
1.0
 40
1.0
 40
1.0
 10
12.1874539184
 20
7.9264441051
 30
0.0
 10
12.1686282863
 20
7.9082602519
 30
0.0
 10
12.1592332592
 20
7.8834915656
 30
0.0
 10
12.1592332592
 20
7.8521748382
 30
0.0
  0
SPLINE
  5
317
100
AcDbEntity
  8
0
100
AcDbSpline
 62
7
  6
CONTINUOUS
 70
0
 71
3
 72
8
 73
4
 74
0
 42
0.0000001
 43
0.0000001
 44
0.0000000001
 40
0.0
 40
0.0
 40
0.0
 40
0.0
 40
1.0
 40
1.0
 40
1.0
 40
1.0
 10
12.5316176166
 20
7.8066232401
 30
0.0
 10
12.5239307632
 20
7.7892566907
 30
0.0
 10
12.5152475109
 20
7.7781534883
 30
0.0
 10
12.5055677688
 20
7.7734559699
 30
0.0
  0
SPLINE
  5
318
100
AcDbEntity
  8
0
100
AcDbSpline
 62
7
  6
CONTINUOUS
 70
0
 71
3
 72
8
 73
4
 74
0
 42
0.0000001
 43
0.0000001
 44
0.0000000001
 40
0.0
 40
0.0
 40
0.0
 40
0.0
 40
1.0
 40
1.0
 40
1.0
 40
1.0
 10
12.5055677688
 20
7.7734559699
 30
0.0
 10
12.4958880653
 20
7.7687584701
 30
0.0
 10
12.4829343548
 20
7.7664808902
 30
0.0
 10
12.4668489208
 20
7.7664808902
 30
0.0
  0
SPLINE
  5
319
100
AcDbEntity
  8
0
100
AcDbSpline
 62
7
  6
CONTINUOUS
 70
0
 71
3
 72
8
 73
4
 74
0
 42
0.0000001
 43
0.0000001
 44
0.0000000001
 40
0.0
 40
0.0
 40
0.0
 40
0.0
 40
1.0
 40
1.0
 40
1.0
 40
1.0
 10
12.454179882
 20
7.7664808902
 30
0.0
 10
12.4416531791
 20
7.7664808902
 30
0.0
 10
12.4335393181
 20
7.7673349831
 30
0.0
 10
12.4299677863
 20
7.7690157011
 30
0.0
  0
SPLINE
  5
31A
100
AcDbEntity
  8
0
100
AcDbSpline
 62
7
  6
CONTINUOUS
 70
0
 71
3
 72
8
 73
4
 74
0
 42
0.0000001
 43
0.0000001
 44
0.0000000001
 40
0.0
 40
0.0
 40
0.0
 40
0.0
 40
1.0
 40
1.0
 40
1.0
 40
1.0
 10
12.4299677863
 20
7.7690157011
 30
0.0
 10
12.42627952
 20
7.7707513529
 30
0.0
 10
12.4245713463
 20
7.7763029534
 30
0.0
 10
12.4245713463
 20
7.7855556238
 30
0.0
  0
SPLINE
  5
31B
100
AcDbEntity
  8
0
100
AcDbSpline
 62
7
  6
CONTINUOUS
 70
0
 71
3
 72
8
 73
4
 74
0
 42
0.0000001
 43
0.0000001
 44
0.0000000001
 40
0.0
 40
0.0
 40
0.0
 40
0.0
 40
1.0
 40
1.0
 40
1.0
 40
1.0
 10
12.4245713463
 20
7.9113919276
 30
0.0
 10
12.4245713463
 20
7.9244880098
 30
0.0
 10
12.4257101288
 20
7.9327442306
 30
0.0
 10
12.4281300606
 20
7.9364453085
 30
0.0
  0
SPLINE
  5
31C
100
AcDbEntity
  8
0
100
AcDbSpline
 62
7
  6
CONTINUOUS
 70
0
 71
3
 72
8
 73
4
 74
0
 42
0.0000001
 43
0.0000001
 44
0.0000000001
 40
0.0
 40
0.0
 40
0.0
 40
0.0
 40
1.0
 40
1.0
 40
1.0
 40
1.0
 10
12.4281300606
 20
7.9364453085
 30
0.0
 10
12.4305499782
 20
7.9401463646
 30
0.0
 10
12.4378097763
 20
7.9422816056
 30
0.0
 10
12.4500517597
 20
7.9431356925
 30
0.0
  0
SPLINE
  5
31D
100
AcDbEntity
  8
0
100
AcDbSpline
 62
7
  6
CONTINUOUS
 70
0
 71
3
 72
8
 73
4
 74
0
 42
0.0000001
 43
0.0000001
 44
0.0000000001
 40
0.0
 40
0.0
 40
0.0
 40
0.0
 40
1.0
 40
1.0
 40
1.0
 40
1.0
 10
12.3683435669
 20
7.9431356925
 30
0.0
 10
12.3800162067
 20
7.9425663012
 30
0.0
 10
12.3872759571
 20
7.9400040168
 30
0.0
 10
12.3898382391
 20
7.935164166
 30
0.0
  0
SPLINE
  5
31E
100
AcDbEntity
  8
0
100
AcDbSpline
 62
7
  6
CONTINUOUS
 70
0
 71
3
 72
8
 73
4
 74
0
 42
0.0000001
 43
0.0000001
 44
0.0000000001
 40
0.0
 40
0.0
 40
0.0
 40
0.0
 40
1.0
 40
1.0
 40
1.0
 40
1.0
 10
12.3898382391
 20
7.935164166
 30
0.0
 10
12.392400526
 20
7.9303243059
 30
0.0
 10
12.393824028
 20
7.9224951285
 30
0.0
 10
12.393824028
 20
7.9113919276
 30
0.0
  0
SPLINE
  5
31F
100
AcDbEntity
  8
0
100
AcDbSpline
 62
7
  6
CONTINUOUS
 70
0
 71
3
 72
8
 73
4
 74
0
 42
0.0000001
 43
0.0000001
 44
0.0000000001
 40
0.0
 40
0.0
 40
0.0
 40
0.0
 40
1.0
 40
1.0
 40
1.0
 40
1.0
 10
12.393824028
 20
7.7928154099
 30
0.0
 10
12.393824028
 20
7.7831356931
 30
0.0
 10
12.3928275814
 20
7.7755912098
 30
0.0
 10
12.3910556395
 20
7.7703462799
 30
0.0
  0
SPLINE
  5
320
100
AcDbEntity
  8
0
100
AcDbSpline
 62
7
  6
CONTINUOUS
 70
0
 71
3
 72
8
 73
4
 74
0
 42
0.0000001
 43
0.0000001
 44
0.0000000001
 40
0.0
 40
0.0
 40
0.0
 40
0.0
 40
1.0
 40
1.0
 40
1.0
 40
1.0
 10
12.3910556395
 20
7.7703462799
 30
0.0
 10
12.3892688503
 20
7.7650574024
 30
0.0
 10
12.3817243805
 20
7.7619257297
 30
0.0
 10
12.3683435669
 20
7.7610716376
 30
0.0
  0
SPLINE
  5
321
100
AcDbEntity
  8
0
100
AcDbSpline
 62
7
  6
CONTINUOUS
 70
0
 71
3
 72
8
 73
4
 74
0
 42
0.0000001
 43
0.0000001
 44
0.0000000001
 40
0.0
 40
0.0
 40
0.0
 40
0.0
 40
1.0
 40
1.0
 40
1.0
 40
1.0
 10
12.5511193981
 20
7.9431356925
 30
0.0
 10
12.5606567611
 20
7.942708649
 30
0.0
 10
12.5673471679
 20
7.9410004634
 30
0.0
 10
12.5710482349
 20
7.9378687877
 30
0.0
  0
SPLINE
  5
322
100
AcDbEntity
  8
0
100
AcDbSpline
 62
7
  6
CONTINUOUS
 70
0
 71
3
 72
8
 73
4
 74
0
 42
0.0000001
 43
0.0000001
 44
0.0000000001
 40
0.0
 40
0.0
 40
0.0
 40
0.0
 40
1.0
 40
1.0
 40
1.0
 40
1.0
 10
12.5710482349
 20
7.9378687877
 30
0.0
 10
12.5747493019
 20
7.9347371119
 30
0.0
 10
12.5765998115
 20
7.9259114999
 30
0.0
 10
12.5765998115
 20
7.9113919276
 30
0.0
  0
SPLINE
  5
323
100
AcDbEntity
  8
0
100
AcDbSpline
 62
7
  6
CONTINUOUS
 70
0
 71
3
 72
8
 73
4
 74
0
 42
0.0000001
 43
0.0000001
 44
0.0000000001
 40
0.0
 40
0.0
 40
0.0
 40
0.0
 40
1.0
 40
1.0
 40
1.0
 40
1.0
 10
12.5765998115
 20
7.7866944122
 30
0.0
 10
12.5765998115
 20
7.7772993955
 30
0.0
 10
12.5747493019
 20
7.7707513529
 30
0.0
 10
12.5712263202
 20
7.7671579238
 30
0.0
  0
SPLINE
  5
324
100
AcDbEntity
  8
0
100
AcDbSpline
 62
7
  6
CONTINUOUS
 70
0
 71
3
 72
8
 73
4
 74
0
 42
0.0000001
 43
0.0000001
 44
0.0000000001
 40
0.0
 40
0.0
 40
0.0
 40
0.0
 40
1.0
 40
1.0
 40
1.0
 40
1.0
 10
12.5712263202
 20
7.7671579238
 30
0.0
 10
12.5676318397
 20
7.763491566
 30
0.0
 10
12.5609414329
 20
7.761498684
 30
0.0
 10
12.5511193981
 20
7.7610716376
 30
0.0
  0
SPLINE
  5
325
100
AcDbEntity
  8
0
100
AcDbSpline
 62
7
  6
CONTINUOUS
 70
0
 71
3
 72
8
 73
4
 74
0
 42
0.0000001
 43
0.0000001
 44
0.0000000001
 40
0.0
 40
0.0
 40
0.0
 40
0.0
 40
1.0
 40
1.0
 40
1.0
 40
1.0
 10
12.6328275909
 20
7.7536695021
 30
0.0
 10
12.6701229324
 20
7.7536695021
 30
0.0
 10
12.6980232944
 20
7.7627798225
 30
0.0
 10
12.7168138809
 20
7.7812846192
 30
0.0
  0
SPLINE
  5
326
100
AcDbEntity
  8
0
100
AcDbSpline
 62
7
  6
CONTINUOUS
 70
0
 71
3
 72
8
 73
4
 74
0
 42
0.0000001
 43
0.0000001
 44
0.0000000001
 40
0.0
 40
0.0
 40
0.0
 40
0.0
 40
1.0
 40
1.0
 40
1.0
 40
1.0
 10
12.7168138809
 20
7.7812846192
 30
0.0
 10
12.7354610195
 20
7.7996481496
 30
0.0
 10
12.7448560467
 20
7.8229933459
 30
0.0
 10
12.7448560467
 20
7.8513207454
 30
0.0
  0
SPLINE
  5
327
100
AcDbEntity
  8
0
100
AcDbSpline
 62
7
  6
CONTINUOUS
 70
0
 71
3
 72
8
 73
4
 74
0
 42
0.0000001
 43
0.0000001
 44
0.0000000001
 40
0.0
 40
0.0
 40
0.0
 40
0.0
 40
1.0
 40
1.0
 40
1.0
 40
1.0
 10
12.7448560467
 20
7.8513207454
 30
0.0
 10
12.7448560467
 20
7.8803598899
 30
0.0
 10
12.7354610195
 20
7.9042744893
 30
0.0
 10
12.716778195
 20
7.9227441972
 30
0.0
  0
SPLINE
  5
328
100
AcDbEntity
  8
0
100
AcDbSpline
 62
7
  6
CONTINUOUS
 70
0
 71
3
 72
8
 73
4
 74
0
 42
0.0000001
 43
0.0000001
 44
0.0000000001
 40
0.0
 40
0.0
 40
0.0
 40
0.0
 40
1.0
 40
1.0
 40
1.0
 40
1.0
 10
12.716778195
 20
7.9227441972
 30
0.0
 10
12.6980232944
 20
7.941285159
 30
0.0
 10
12.670265316
 20
7.9505378264
 30
0.0
 10
12.6335393181
 20
7.9505378264
 30
0.0
  0
SPLINE
  5
329
100
AcDbEntity
  8
0
100
AcDbSpline
 62
7
  6
CONTINUOUS
 70
0
 71
3
 72
8
 73
4
 74
0
 42
0.0000001
 43
0.0000001
 44
0.0000000001
 40
0.0
 40
0.0
 40
0.0
 40
0.0
 40
1.0
 40
1.0
 40
1.0
 40
1.0
 10
9.4921980563
 20
7.7847811231
 30
0.0
 10
9.4807457342
 20
7.7990787554
 30
0.0
 10
9.475051774
 20
7.8212851602
 30
0.0
 10
9.475051774
 20
7.8514630991
 30
0.0
  0
SPLINE
  5
32A
100
AcDbEntity
  8
0
100
AcDbSpline
 62
7
  6
CONTINUOUS
 70
0
 71
3
 72
8
 73
4
 74
0
 42
0.0000001
 43
0.0000001
 44
0.0000000001
 40
0.0
 40
0.0
 40
0.0
 40
0.0
 40
1.0
 40
1.0
 40
1.0
 40
1.0
 10
9.5339841499
 20
7.7633492175
 30
0.0
 10
9.5176140442
 20
7.7633492175
 30
0.0
 10
9.5036638632
 20
7.7704666558
 30
0.0
 10
9.4921980563
 20
7.7847811231
 30
0.0
  0
SPLINE
  5
32B
100
AcDbEntity
  8
0
100
AcDbSpline
 62
7
  6
CONTINUOUS
 70
0
 71
3
 72
8
 73
4
 74
0
 42
0.0000001
 43
0.0000001
 44
0.0000000001
 40
0.0
 40
0.0
 40
0.0
 40
0.0
 40
1.0
 40
1.0
 40
1.0
 40
1.0
 10
9.5774005315
 20
7.7859826696
 30
0.0
 10
9.5657279386
 20
7.7708937007
 30
0.0
 10
9.5513507023
 20
7.7633492175
 30
0.0
 10
9.5339841499
 20
7.7633492175
 30
0.0
  0
SPLINE
  5
32C
100
AcDbEntity
  8
0
100
AcDbSpline
 62
7
  6
CONTINUOUS
 70
0
 71
3
 72
8
 73
4
 74
0
 42
0.0000001
 43
0.0000001
 44
0.0000000001
 40
0.0
 40
0.0
 40
0.0
 40
0.0
 40
1.0
 40
1.0
 40
1.0
 40
1.0
 10
9.594909419
 20
7.8527442354
 30
0.0
 10
9.594909419
 20
7.8232780415
 30
0.0
 10
9.589073123
 20
7.8010716367
 30
0.0
 10
9.5774005315
 20
7.7859826696
 30
0.0
  0
SPLINE
  5
32D
100
AcDbEntity
  8
0
100
AcDbSpline
 62
7
  6
CONTINUOUS
 70
0
 71
3
 72
8
 73
4
 74
0
 42
0.0000001
 43
0.0000001
 44
0.0000000001
 40
0.0
 40
0.0
 40
0.0
 40
0.0
 40
1.0
 40
1.0
 40
1.0
 40
1.0
 10
9.5787758635
 20
7.9174796814
 30
0.0
 10
9.5895001783
 20
7.9019969004
 30
0.0
 10
9.594909419
 20
7.8803598899
 30
0.0
 10
9.594909419
 20
7.8527442354
 30
0.0
  0
SPLINE
  5
32E
100
AcDbEntity
  8
0
100
AcDbSpline
 62
7
  6
CONTINUOUS
 70
0
 71
3
 72
8
 73
4
 74
0
 42
0.0000001
 43
0.0000001
 44
0.0000000001
 40
0.0
 40
0.0
 40
0.0
 40
0.0
 40
1.0
 40
1.0
 40
1.0
 40
1.0
 10
9.5349805965
 20
7.9408581156
 30
0.0
 10
9.5534859314
 20
7.9408581156
 30
0.0
 10
9.5680055036
 20
7.9330289382
 30
0.0
 10
9.5787758635
 20
7.9174796814
 30
0.0
  0
SPLINE
  5
32F
100
AcDbEntity
  8
0
100
AcDbSpline
 62
7
  6
CONTINUOUS
 70
0
 71
3
 72
8
 73
4
 74
0
 42
0.0000001
 43
0.0000001
 44
0.0000000001
 40
0.0
 40
0.0
 40
0.0
 40
0.0
 40
1.0
 40
1.0
 40
1.0
 40
1.0
 10
9.4917406605
 20
7.9184838514
 30
0.0
 10
9.5028097763
 20
7.9333136338
 30
0.0
 10
9.5173293485
 20
7.9408581156
 30
0.0
 10
9.5349805965
 20
7.9408581156
 30
0.0
  0
SPLINE
  5
330
100
AcDbEntity
  8
0
100
AcDbSpline
 62
7
  6
CONTINUOUS
 70
0
 71
3
 72
8
 73
4
 74
0
 42
0.0000001
 43
0.0000001
 44
0.0000000001
 40
0.0
 40
0.0
 40
0.0
 40
0.0
 40
1.0
 40
1.0
 40
1.0
 40
1.0
 10
9.475051774
 20
7.8514630991
 30
0.0
 10
9.475051774
 20
7.8812139887
 30
0.0
 10
9.4806033745
 20
7.9035627383
 30
0.0
 10
9.4917406605
 20
7.9184838514
 30
0.0
  0
SPLINE
  5
331
100
AcDbEntity
  8
0
100
AcDbSpline
 62
7
  6
CONTINUOUS
 70
0
 71
3
 72
8
 73
4
 74
0
 42
0.0000001
 43
0.0000001
 44
0.0000000001
 40
0.0
 40
0.0
 40
0.0
 40
0.0
 40
1.0
 40
1.0
 40
1.0
 40
1.0
 10
12.2109703031
 20
7.7847811172
 30
0.0
 10
12.1995179643
 20
7.7990787554
 30
0.0
 10
12.1938240042
 20
7.8212851602
 30
0.0
 10
12.1938240042
 20
7.8514630991
 30
0.0
  0
SPLINE
  5
332
100
AcDbEntity
  8
0
100
AcDbSpline
 62
7
  6
CONTINUOUS
 70
0
 71
3
 72
8
 73
4
 74
0
 42
0.0000001
 43
0.0000001
 44
0.0000000001
 40
0.0
 40
0.0
 40
0.0
 40
0.0
 40
1.0
 40
1.0
 40
1.0
 40
1.0
 10
12.2527564039
 20
7.7633492175
 30
0.0
 10
12.2363862982
 20
7.7633492175
 30
0.0
 10
12.2224361172
 20
7.7704666558
 30
0.0
 10
12.2109703031
 20
7.7847811172
 30
0.0
  0
SPLINE
  5
333
100
AcDbEntity
  8
0
100
AcDbSpline
 62
7
  6
CONTINUOUS
 70
0
 71
3
 72
8
 73
4
 74
0
 42
0.0000001
 43
0.0000001
 44
0.0000000001
 40
0.0
 40
0.0
 40
0.0
 40
0.0
 40
1.0
 40
1.0
 40
1.0
 40
1.0
 10
12.2961727691
 20
7.7859826639
 30
0.0
 10
12.2845001688
 20
7.7708937007
 30
0.0
 10
12.2701229563
 20
7.7633492175
 30
0.0
 10
12.2527564039
 20
7.7633492175
 30
0.0
  0
SPLINE
  5
334
100
AcDbEntity
  8
0
100
AcDbSpline
 62
7
  6
CONTINUOUS
 70
0
 71
3
 72
8
 73
4
 74
0
 42
0.0000001
 43
0.0000001
 44
0.0000000001
 40
0.0
 40
0.0
 40
0.0
 40
0.0
 40
1.0
 40
1.0
 40
1.0
 40
1.0
 10
12.313681673
 20
7.8527442354
 30
0.0
 10
12.313681673
 20
7.8232780415
 30
0.0
 10
12.3078453769
 20
7.8010716367
 30
0.0
 10
12.2961727691
 20
7.7859826639
 30
0.0
  0
SPLINE
  5
335
100
AcDbEntity
  8
0
100
AcDbSpline
 62
7
  6
CONTINUOUS
 70
0
 71
3
 72
8
 73
4
 74
0
 42
0.0000001
 43
0.0000001
 44
0.0000000001
 40
0.0
 40
0.0
 40
0.0
 40
0.0
 40
1.0
 40
1.0
 40
1.0
 40
1.0
 10
12.2975481094
 20
7.9174796759
 30
0.0
 10
12.3082724085
 20
7.9019969004
 30
0.0
 10
12.313681673
 20
7.8803598899
 30
0.0
 10
12.313681673
 20
7.8527442354
 30
0.0
  0
SPLINE
  5
336
100
AcDbEntity
  8
0
100
AcDbSpline
 62
7
  6
CONTINUOUS
 70
0
 71
3
 72
8
 73
4
 74
0
 42
0.0000001
 43
0.0000001
 44
0.0000000001
 40
0.0
 40
0.0
 40
0.0
 40
0.0
 40
1.0
 40
1.0
 40
1.0
 40
1.0
 10
12.2537528505
 20
7.9408581156
 30
0.0
 10
12.2722581854
 20
7.9408581156
 30
0.0
 10
12.2867777576
 20
7.9330289382
 30
0.0
 10
12.2975481094
 20
7.9174796759
 30
0.0
  0
SPLINE
  5
337
100
AcDbEntity
  8
0
100
AcDbSpline
 62
7
  6
CONTINUOUS
 70
0
 71
3
 72
8
 73
4
 74
0
 42
0.0000001
 43
0.0000001
 44
0.0000000001
 40
0.0
 40
0.0
 40
0.0
 40
0.0
 40
1.0
 40
1.0
 40
1.0
 40
1.0
 10
12.2105129145
 20
7.9184838514
 30
0.0
 10
12.2215820303
 20
7.9333136338
 30
0.0
 10
12.2361016025
 20
7.9408581156
 30
0.0
 10
12.2537528505
 20
7.9408581156
 30
0.0
  0
SPLINE
  5
338
100
AcDbEntity
  8
0
100
AcDbSpline
 62
7
  6
CONTINUOUS
 70
0
 71
3
 72
8
 73
4
 74
0
 42
0.0000001
 43
0.0000001
 44
0.0000000001
 40
0.0
 40
0.0
 40
0.0
 40
0.0
 40
1.0
 40
1.0
 40
1.0
 40
1.0
 10
12.1938240042
 20
7.8514630991
 30
0.0
 10
12.1938240042
 20
7.8812139887
 30
0.0
 10
12.1993756285
 20
7.9035627383
 30
0.0
 10
12.2105129145
 20
7.9184838514
 30
0.0
  0
SPLINE
  5
339
100
AcDbEntity
  8
0
100
AcDbSpline
 62
7
  6
CONTINUOUS
 70
0
 71
3
 72
8
 73
4
 74
0
 42
0.0000001
 43
0.0000001
 44
0.0000000001
 40
0.0
 40
0.0
 40
0.0
 40
0.0
 40
1.0
 40
1.0
 40
1.0
 40
1.0
 10
12.6094472389
 20
7.7687241968
 30
0.0
 10
12.6080589046
 20
7.7701819572
 30
0.0
 10
12.6073471298
 20
7.7731712821
 30
0.0
 10
12.6073471298
 20
7.7775840926
 30
0.0
  0
SPLINE
  5
33A
100
AcDbEntity
  8
0
100
AcDbSpline
 62
7
  6
CONTINUOUS
 70
0
 71
3
 72
8
 73
4
 74
0
 42
0.0000001
 43
0.0000001
 44
0.0000000001
 40
0.0
 40
0.0
 40
0.0
 40
0.0
 40
1.0
 40
1.0
 40
1.0
 40
1.0
 10
12.6198738327
 20
7.7664808902
 30
0.0
 10
12.614464592
 20
7.7664808902
 30
0.0
 10
12.6109058609
 20
7.7671926338
 30
0.0
 10
12.6094472389
 20
7.7687241968
 30
0.0
  0
SPLINE
  5
33B
100
AcDbEntity
  8
0
100
AcDbSpline
 62
7
  6
CONTINUOUS
 70
0
 71
3
 72
8
 73
4
 74
0
 42
0.0000001
 43
0.0000001
 44
0.0000000001
 40
0.0
 40
0.0
 40
0.0
 40
0.0
 40
1.0
 40
1.0
 40
1.0
 40
1.0
 10
12.689482378
 20
7.7899684358
 30
0.0
 10
12.6756745567
 20
7.7743100721
 30
0.0
 10
12.6524717083
 20
7.7664808902
 30
0.0
 10
12.6198738327
 20
7.7664808902
 30
0.0
  0
SPLINE
  5
33C
100
AcDbEntity
  8
0
100
AcDbSpline
 62
7
  6
CONTINUOUS
 70
0
 71
3
 72
8
 73
4
 74
0
 42
0.0000001
 43
0.0000001
 44
0.0000000001
 40
0.0
 40
0.0
 40
0.0
 40
0.0
 40
1.0
 40
1.0
 40
1.0
 40
1.0
 10
12.7102652778
 20
7.8500396091
 30
0.0
 10
12.7102652778
 20
7.8255556244
 30
0.0
 10
12.7032901993
 20
7.8056267995
 30
0.0
 10
12.689482378
 20
7.7899684358
 30
0.0
  0
SPLINE
  5
33D
100
AcDbEntity
  8
0
100
AcDbSpline
 62
7
  6
CONTINUOUS
 70
0
 71
3
 72
8
 73
4
 74
0
 42
0.0000001
 43
0.0000001
 44
0.0000000001
 40
0.0
 40
0.0
 40
0.0
 40
0.0
 40
1.0
 40
1.0
 40
1.0
 40
1.0
 10
12.6884859448
 20
7.9128154176
 30
0.0
 10
12.7030055275
 20
7.8963029522
 30
0.0
 10
12.7102652778
 20
7.8753776926
 30
0.0
 10
12.7102652778
 20
7.8500396091
 30
0.0
  0
SPLINE
  5
33E
100
AcDbEntity
  8
0
100
AcDbSpline
 62
7
  6
CONTINUOUS
 70
0
 71
3
 72
8
 73
4
 74
0
 42
0.0000001
 43
0.0000001
 44
0.0000000001
 40
0.0
 40
0.0
 40
0.0
 40
0.0
 40
1.0
 40
1.0
 40
1.0
 40
1.0
 10
12.625425457
 20
7.9377264398
 30
0.0
 10
12.6530410995
 20
7.9377264398
 30
0.0
 10
12.673966383
 20
7.9293278593
 30
0.0
 10
12.6884859448
 20
7.9128154176
 30
0.0
  0
SPLINE
  5
33F
100
AcDbEntity
  8
0
100
AcDbSpline
 62
7
  6
CONTINUOUS
 70
0
 71
3
 72
8
 73
4
 74
0
 42
0.0000001
 43
0.0000001
 44
0.0000000001
 40
0.0
 40
0.0
 40
0.0
 40
0.0
 40
1.0
 40
1.0
 40
1.0
 40
1.0
 10
12.6103364696
 20
7.9351641673
 30
0.0
 10
12.6123293628
 20
7.936872353
 30
0.0
 10
12.6174539318
 20
7.9377264398
 30
0.0
 10
12.625425457
 20
7.9377264398
 30
0.0
  0
SPLINE
  5
340
100
AcDbEntity
  8
0
100
AcDbSpline
 62
7
  6
CONTINUOUS
 70
0
 71
3
 72
8
 73
4
 74
0
 42
0.0000001
 43
0.0000001
 44
0.0000000001
 40
0.0
 40
0.0
 40
0.0
 40
0.0
 40
1.0
 40
1.0
 40
1.0
 40
1.0
 10
12.6073471298
 20
7.9247727054
 30
0.0
 10
12.6073471298
 20
7.9300396103
 30
0.0
 10
12.6083435764
 20
7.9334559816
 30
0.0
 10
12.6103364696
 20
7.9351641673
 30
0.0
  0
LINE
  5
341
100
AcDbEntity
  8
0
100
AcDbLine
 62
9
  6
CONTINUOUS
 10
10.6587439813
 20
9.6597202471
 11
10.1128413299
 21
10.2056229179
  0
LINE
  5
342
100
AcDbEntity
  8
0
100
AcDbLine
 62
9
  6
CONTINUOUS
 10
12.0169494916
 20
8.3010605591
 11
11.8795318567
 21
8.4389251338
  0
LINE
  5
343
100
AcDbEntity
  8
0
100
AcDbLine
 62
9
  6
CONTINUOUS
 10
10.1089479749
 20
10.2095090161
 11
9.9710830907
 21
10.3469268367
  0
SPLINE
  5
344
100
AcDbEntity
  8
0
100
AcDbSpline
 62
9
  6
CONTINUOUS
 70
0
 71
3
 72
18
 73
14
 74
0
 42
0.0000001
 43
0.0000001
 44
0.0000000001
 40
0.0
 40
0.0
 40
0.0
 40
0.0
 40
0.1627028642
 40
0.321445448
 40
0.4722089723
 40
0.6114976239
 40
0.7360729804
 40
0.7920035481
 40
0.8433234363
 40
0.8898533368
 40
0.9314690566
 40
0.9681477003
 40
1.0
 40
1.0
 40
1.0
 40
1.0
 10
11.8192012496
 20
8.3681494755
 30
0.0
 10
11.8165393053
 20
8.365490931
 30
0.0
 10
11.8111733066
 20
8.3603442807
 30
0.0
 10
11.8029853199
 20
8.3531161641
 30
0.0
 10
11.7949038679
 20
8.3465996982
 30
0.0
 10
11.7871428297
 20
8.3409635284
 30
0.0
 10
11.7809019267
 20
8.3369845318
 30
0.0
 10
11.7762131192
 20
8.3343832784
 30
0.0
 10
11.7730246838
 20
8.3328056145
 30
0.0
 10
11.7700571027
 20
8.3315383989
 30
0.0
 10
11.7673277033
 20
8.3305903928
 30
0.0
 10
11.7648548018
 20
8.3299666111
 30
0.0
 10
11.7632786662
 20
8.3297541754
 30
0.0
 10
11.7625431357
 20
8.3297160856
 30
0.0
  0
SPLINE
  5
345
100
AcDbEntity
  8
0
100
AcDbSpline
 62
9
  6
CONTINUOUS
 70
0
 71
3
 72
17
 73
13
 74
0
 42
0.0000001
 43
0.0000001
 44
0.0000000001
 40
0.0
 40
0.0
 40
0.0
 40
0.0
 40
0.1670161906
 40
0.3297216887
 40
0.4837365479
 40
0.6251876806
 40
0.7504034614
 40
0.8562022663
 40
0.9009997687
 40
0.9400301777
 40
0.9730814856
 40
1.0
 40
1.0
 40
1.0
 40
1.0
 10
11.2676548477
 20
8.9196958219
 30
0.0
 10
11.2649944846
 20
8.9170367578
 30
0.0
 10
11.2597019363
 20
8.9118275806
 30
0.0
 10
11.2518179423
 20
8.9043083332
 30
0.0
 10
11.2442299817
 20
8.8973149882
 30
0.0
 10
11.2371392575
 20
8.8910302486
 30
0.0
 10
11.230730374
 20
8.8856169254
 30
0.0
 10
11.2258625408
 20
8.8817554106
 30
0.0
 10
11.2224217777
 20
8.8792249628
 30
0.0
 10
11.2202541249
 20
8.8777305248
 30
0.0
 10
11.2183680778
 20
8.876540387
 30
0.0
 10
11.2171853039
 20
8.8758850917
 30
0.0
 10
11.2166407035
 20
8.8756187581
 30
0.0
  0
SPLINE
  5
346
100
AcDbEntity
  8
0
100
AcDbSpline
 62
9
  6
CONTINUOUS
 70
0
 71
3
 72
17
 73
13
 74
0
 42
0.0000001
 43
0.0000001
 44
0.0000000001
 40
0.0
 40
0.0
 40
0.0
 40
0.0
 40
0.1670163927
 40
0.3297220652
 40
0.4837370493
 40
0.6251882395
 40
0.7504039969
 40
0.8562026911
 40
0.9010001071
 40
0.9400304123
 40
0.9730816043
 40
1.0
 40
1.0
 40
1.0
 40
1.0
 10
10.6077309828
 20
8.9196967996
 30
0.0
 10
10.610391256
 20
8.9170376334
 30
0.0
 10
10.6156836272
 20
8.9118282526
 30
0.0
 10
10.6235673642
 20
8.904308702
 30
0.0
 10
10.6311550843
 20
8.8973150675
 30
0.0
 10
10.6382455912
 20
8.8910300616
 30
0.0
 10
10.6446542871
 20
8.8856165047
 30
0.0
 10
10.6495219873
 20
8.8817548189
 30
0.0
 10
10.6529626641
 20
8.8792242574
 30
0.0
 10
10.6551302658
 20
8.8777297523
 30
0.0
 10
10.657016273
 20
8.8765395606
 30
0.0
 10
10.6581990261
 20
8.8758842353
 30
0.0
 10
10.6587436183
 20
8.8756178896
 30
0.0
  0
SPLINE
  5
347
100
AcDbEntity
  8
0
100
AcDbSpline
 62
9
  6
CONTINUOUS
 70
0
 71
3
 72
18
 73
14
 74
0
 42
0.0000001
 43
0.0000001
 44
0.0000000001
 40
0.0
 40
0.0
 40
0.0
 40
0.0
 40
0.1627020178
 40
0.321443889
 40
0.4722069097
 40
0.6114953355
 40
0.7360707947
 40
0.7920015469
 40
0.8433217052
 40
0.8898519552
 40
0.9314680936
 40
0.9681472065
 40
1.0
 40
1.0
 40
1.0
 40
1.0
 10
10.0561834371
 20
8.368149477
 30
0.0
 10
10.0588453639
 20
8.3654909598
 30
0.0
 10
10.0642113278
 20
8.3603443599
 30
0.0
 10
10.0723992612
 20
8.3531163079
 30
0.0
 10
10.0804806653
 20
8.3465998892
 30
0.0
 10
10.0882416658
 20
8.3409637446
 30
0.0
 10
10.0944825439
 20
8.3369847512
 30
0.0
 10
10.0991713394
 20
8.3343834852
 30
0.0
 10
10.1023597739
 20
8.3328058035
 30
0.0
 10
10.1053273591
 20
8.331538563
 30
0.0
 10
10.1080567675
 20
8.3305905246
 30
0.0
 10
10.1105296833
 20
8.3299667037
 30
0.0
 10
10.1121058312
 20
8.3297542351
 30
0.0
 10
10.1128413698
 20
8.3297161269
 30
0.0
  0
SPLINE
  5
348
100
AcDbEntity
  8
0
100
AcDbSpline
 62
9
  6
CONTINUOUS
 70
0
 71
3
 72
18
 73
14
 74
0
 42
0.0000001
 43
0.0000001
 44
0.0000000001
 40
0.0
 40
0.0
 40
0.0
 40
0.0
 40
0.162837469
 40
0.3216738783
 40
0.4724873217
 40
0.6117814785
 40
0.7363201412
 40
0.7922186055
 40
0.843498891
 40
0.889983767
 40
0.9315519856
 40
0.9681850114
 40
1.0
 40
1.0
 40
1.0
 40
1.0
 10
10.0524984737
 20
8.3644860397
 30
0.0
 10
10.0551467302
 20
8.3618121373
 30
0.0
 10
10.0604861506
 20
8.3566356557
 30
0.0
 10
10.0686374382
 20
8.349364692
 30
0.0
 10
10.0766853928
 20
8.3428096086
 30
0.0
 10
10.0844168166
 20
8.3371401956
 30
0.0
 10
10.0906365844
 20
8.3331376203
 30
0.0
 10
10.09531103
 20
8.330521218
 30
0.0
 10
10.0984900779
 20
8.3289346822
 30
0.0
 10
10.1014496374
 20
8.3276605348
 30
0.0
 10
10.1041724523
 20
8.3267075934
 30
0.0
 10
10.1066402517
 20
8.326080909
 30
0.0
 10
10.1082136689
 20
8.325867924
 30
0.0
 10
10.1089479739
 20
8.3258299887
 30
0.0
  0
SPLINE
  5
349
100
AcDbEntity
  8
0
100
AcDbSpline
 62
9
  6
CONTINUOUS
 70
0
 71
3
 72
20
 73
16
 74
0
 42
0.0000001
 43
0.0000001
 44
0.0000000001
 40
0.0
 40
0.0
 40
0.0
 40
0.0
 40
0.0258177934
 40
0.0539685844
 40
0.0861854827
 40
0.123572541
 40
0.1667262997
 40
0.2159345908
 40
0.2712445455
 40
0.332551078
 40
0.3996619651
 40
0.4722663468
 40
0.6324521278
 40
0.8097915467
 40
1.0
 40
1.0
 40
1.0
 40
1.0
 10
11.9139072906
 20
8.5149002971
 30
0.0
 10
11.9142460879
 20
8.5145614715
 30
0.0
 10
11.9148380464
 20
8.513729212
 30
0.0
 10
11.9153465583
 20
8.5121941336
 30
0.0
 10
11.9155102453
 20
8.5103753125
 30
0.0
 10
11.9153401802
 20
8.5082823103
 30
0.0
 10
11.9148447206
 20
8.5059209942
 30
0.0
 10
11.9140260799
 20
8.5033020912
 30
0.0
 10
11.9128897524
 20
8.5004395822
 30
0.0
 10
11.9114421478
 20
8.4973504614
 30
0.0
 10
11.9096911326
 20
8.4940546527
 30
0.0
 10
11.9068737637
 20
8.4892529927
 30
0.0
 10
11.9026570324
 20
8.4829088355
 30
0.0
 10
11.896778861
 20
8.4750699306
 30
0.0
 10
11.8924262608
 20
8.4698140576
 30
0.0
 10
11.8901176678
 20
8.4671435104
 30
0.0
  0
SPLINE
  5
34A
100
AcDbEntity
  8
0
100
AcDbSpline
 62
9
  6
CONTINUOUS
 70
0
 71
3
 72
24
 73
20
 74
0
 42
0.0000001
 43
0.0000001
 44
0.0000000001
 40
0.0
 40
0.0
 40
0.0
 40
0.0
 40
0.0054594788
 40
0.0117414495
 40
0.0193957456
 40
0.0287261818
 40
0.0398951814
 40
0.0529915166
 40
0.0680559254
 40
0.0851007997
 40
0.1251160166
 40
0.1729488383
 40
0.2283660514
 40
0.2910548419
 40
0.3606634013
 40
0.4367427689
 40
0.6063750627
 40
0.7958047168
 40
1.0
 40
1.0
 40
1.0
 40
1.0
 10
11.385998042
 20
9.0428095457
 30
0.0
 10
11.3860645254
 20
9.0427430623
 30
0.0
 10
11.3861761341
 20
9.0425669009
 30
0.0
 10
11.3862440265
 20
9.0422351274
 30
0.0
 10
11.3862298907
 20
9.0418323259
 30
0.0
 10
11.3861365737
 20
9.041355176
 30
0.0
 10
11.3859644607
 20
9.0408019716
 30
0.0
 10
11.3857130686
 20
9.0401724843
 30
0.0
 10
11.3853826024
 20
9.0394672172
 30
0.0
 10
11.3848052664
 20
9.0383670748
 30
0.0
 10
11.3838784206
 20
9.0368151244
 30
0.0
 10
11.3825158068
 20
9.0347576372
 30
0.0
 10
11.3808566272
 20
9.0324302912
 30
0.0
 10
11.3789111374
 20
9.029848102
 30
0.0
 10
11.3766911217
 20
9.0270282993
 30
0.0
 10
11.3732576114
 20
9.0228208972
 30
0.0
 10
11.3683875127
 20
9.0171239449
 30
0.0
 10
11.361919196
 20
9.0098943187
 30
0.0
 10
11.3573038152
 20
9.0049286548
 30
0.0
 10
11.3548885433
 20
9.0023726944
 30
0.0
  0
SPLINE
  5
34B
100
AcDbEntity
  8
0
100
AcDbSpline
 62
9
  6
CONTINUOUS
 70
0
 71
3
 72
24
 73
20
 74
0
 42
0.0000001
 43
0.0000001
 44
0.0000000001
 40
0.0
 40
0.0
 40
0.0
 40
0.0
 40
0.0049451151
 40
0.0107916083
 40
0.018103206
 40
0.0271675981
 40
0.0381297543
 40
0.0510654542
 40
0.0660061821
 40
0.0829577961
 40
0.1228612796
 40
0.1706622655
 40
0.2261131894
 40
0.2888919046
 40
0.358640071
 40
0.4349035274
 40
0.6050222184
 40
0.7950729143
 40
1.0
 40
1.0
 40
1.0
 40
1.0
 10
11.3799179872
 20
9.0490586352
 30
0.0
 10
11.3799762413
 20
9.0489970952
 30
0.0
 10
11.3800697771
 20
9.0488295295
 30
0.0
 10
11.3801070855
 20
9.0485169394
 30
0.0
 10
11.3800623163
 20
9.0481367063
 30
0.0
 10
11.3799371092
 20
9.0476840468
 30
0.0
 10
11.3797315426
 20
9.0471572418
 30
0.0
 10
11.3794449484
 20
9.0465561032
 30
0.0
 10
11.3790775373
 20
9.045881185
 30
0.0
 10
11.3784450653
 20
9.0448256108
 30
0.0
 10
11.377446668
 20
9.0433346481
 30
0.0
 10
11.3759967348
 20
9.0413554053
 30
0.0
 10
11.3742446538
 20
9.0391133364
 30
0.0
 10
11.3722013142
 20
9.0366229209
 30
0.0
 10
11.3698792281
 20
9.0339007935
 30
0.0
 10
11.3662988734
 20
9.0298352279
 30
0.0
 10
11.3612413314
 20
9.0243249023
 30
0.0
 10
11.3545498411
 20
9.0173247488
 30
0.0
 10
11.3497900577
 20
9.0125123477
 30
0.0
 10
11.3473022395
 20
9.0100340041
 30
0.0
  0
SPLINE
  5
34C
100
AcDbEntity
  8
0
100
AcDbSpline
 62
9
  6
CONTINUOUS
 70
0
 71
3
 72
24
 73
20
 74
0
 42
0.0000001
 43
0.0000001
 44
0.0000000001
 40
0.0
 40
0.0
 40
0.0
 40
0.0
 40
0.0049450527
 40
0.0107914877
 40
0.0181030363
 40
0.0271673877
 40
0.0381295102
 40
0.0510651825
 40
0.0660058879
 40
0.0829574841
 40
0.1228609439
 40
0.17066192
 40
0.2261128461
 40
0.2888915738
 40
0.3586397616
 40
0.4349032474
 40
0.6050220175
 40
0.7950728097
 40
1.0
 40
1.0
 40
1.0
 40
1.0
 10
11.3799181814
 20
9.4862805425
 30
0.0
 10
11.3799764351
 20
9.4863420815
 30
0.0
 10
11.38006997
 20
9.4865096454
 30
0.0
 10
11.3801072767
 20
9.4868222329
 30
0.0
 10
11.380062506
 20
9.4872024633
 30
0.0
 10
11.3799372974
 20
9.4876551202
 30
0.0
 10
11.3797317291
 20
9.4881819227
 30
0.0
 10
11.3794451332
 20
9.488783059
 30
0.0
 10
11.3790777203
 20
9.4894579751
 30
0.0
 10
11.3784452456
 20
9.4905135465
 30
0.0
 10
11.3774468446
 20
9.4920045059
 30
0.0
 10
11.3759969071
 20
9.4939837453
 30
0.0
 10
11.3742448214
 20
9.4962258111
 30
0.0
 10
11.3722014768
 20
9.4987162237
 30
0.0
 10
11.3698793851
 20
9.5014383484
 30
0.0
 10
11.3662990221
 20
9.5055039105
 30
0.0
 10
11.361241469
 20
9.5110142319
 30
0.0
 10
11.3545499645
 20
9.5180143802
 30
0.0
 10
11.3497901709
 20
9.5228267772
 30
0.0
 10
11.3473023474
 20
9.5253051186
 30
0.0
  0
SPLINE
  5
34D
100
AcDbEntity
  8
0
100
AcDbSpline
 62
9
  6
CONTINUOUS
 70
0
 71
3
 72
24
 73
20
 74
0
 42
0.0000001
 43
0.0000001
 44
0.0000000001
 40
0.0
 40
0.0
 40
0.0
 40
0.0
 40
0.0054594791
 40
0.01174145
 40
0.0193957461
 40
0.0287261822
 40
0.0398951817
 40
0.0529915166
 40
0.0680559253
 40
0.0851007994
 40
0.1251160158
 40
0.1729488372
 40
0.2283660501
 40
0.2910548404
 40
0.3606633998
 40
0.4367427674
 40
0.6063750613
 40
0.795804716
 40
1.0
 40
1.0
 40
1.0
 40
1.0
 10
11.385998042
 20
9.4925294586
 30
0.0
 10
11.3860645254
 20
9.492595942
 30
0.0
 10
11.3861761342
 20
9.4927721034
 30
0.0
 10
11.3862440266
 20
9.4931038769
 30
0.0
 10
11.3862298908
 20
9.4935066784
 30
0.0
 10
11.3861365738
 20
9.4939838283
 30
0.0
 10
11.3859644609
 20
9.4945370327
 30
0.0
 10
11.3857130688
 20
9.49516652
 30
0.0
 10
11.3853826026
 20
9.4958717872
 30
0.0
 10
11.3848052667
 20
9.4969719295
 30
0.0
 10
11.3838784209
 20
9.4985238799
 30
0.0
 10
11.3825158072
 20
9.5005813672
 30
0.0
 10
11.3808566277
 20
9.5029087132
 30
0.0
 10
11.3789111379
 20
9.5054909024
 30
0.0
 10
11.3766911222
 20
9.5083107051
 30
0.0
 10
11.3732576119
 20
9.5125181072
 30
0.0
 10
11.3683875132
 20
9.5182150595
 30
0.0
 10
11.3619191965
 20
9.5254446858
 30
0.0
 10
11.3573038158
 20
9.5304103497
 30
0.0
 10
11.3548885438
 20
9.5329663102
 30
0.0
  0
SPLINE
  5
34E
100
AcDbEntity
  8
0
100
AcDbSpline
 62
9
  6
CONTINUOUS
 70
0
 71
3
 72
20
 73
16
 74
0
 42
0.0000001
 43
0.0000001
 44
0.0000000001
 40
0.0
 40
0.0
 40
0.0
 40
0.0
 40
0.0258088369
 40
0.0539515033
 40
0.0861618195
 40
0.1235440035
 40
0.1666944979
 40
0.2159009801
 40
0.2712104242
 40
0.3325176087
 40
0.3996301882
 40
0.4722371793
 40
0.6324305206
 40
0.8097799408
 40
1.0
 40
1.0
 40
1.0
 40
1.0
 10
11.913907292
 20
10.0204387086
 30
0.0
 10
11.9142459821
 20
10.0207773748
 30
0.0
 10
11.9148377364
 20
10.0216093446
 30
0.0
 10
11.9153459129
 20
10.0231439979
 30
0.0
 10
11.9155092723
 20
10.0249623976
 30
0.0
 10
11.9153388996
 20
10.0270550006
 30
0.0
 10
11.9148431514
 20
10.0294159505
 30
0.0
 10
11.9140242407
 20
10.0320345246
 30
0.0
 10
11.912887663
 20
10.0348967449
 30
0.0
 10
11.9114398305
 20
10.0379856194
 30
0.0
 10
11.9096886128
 20
10.0412812263
 30
0.0
 10
11.9068709909
 20
10.0460826908
 30
0.0
 10
11.9026540361
 20
10.0524267161
 30
0.0
 10
11.8967757544
 20
10.060265639
 30
0.0
 10
11.8924231865
 20
10.0655216424
 30
0.0
 10
11.890114632
 20
10.0681922898
 30
0.0
  0
LINE
  5
34F
100
AcDbEntity
  8
0
100
AcDbLine
 62
9
  6
CONTINUOUS
 10
10.0345088799
 20
8.3824756335
 11
9.8684085891
 21
8.215703721
  0
SPLINE
  5
350
100
AcDbEntity
  8
0
100
AcDbSpline
 62
9
  6
CONTINUOUS
 70
0
 71
3
 72
18
 73
14
 74
0
 42
0.0000001
 43
0.0000001
 44
0.0000000001
 40
0.0
 40
0.0
 40
0.0
 40
0.0
 40
0.1628374157
 40
0.3216737806
 40
0.4724871945
 40
0.6117813401
 40
0.7363200117
 40
0.7922184879
 40
0.8434987901
 40
0.8899836872
 40
0.9315519304
 40
0.9681849835
 40
1.0
 40
1.0
 40
1.0
 40
1.0
 10
10.0345088906
 20
8.382475644
 30
0.0
 10
10.0318349897
 20
8.3851238989
 30
0.0
 10
10.0266585108
 20
8.3904633163
 30
0.0
 10
10.0193875504
 20
8.3986145993
 30
0.0
 10
10.0128324691
 20
8.4066625498
 30
0.0
 10
10.0071630568
 20
8.4143939703
 30
0.0
 10
10.0031604811
 20
8.4206137359
 30
0.0
 10
10.0005440777
 20
8.4252881804
 30
0.0
 10
9.9989575406
 20
8.428467228
 30
0.0
 10
9.9976833916
 20
8.4314267875
 30
0.0
 10
9.9967304482
 20
8.4341496027
 30
0.0
 10
9.9961037616
 20
8.4366174028
 30
0.0
 10
9.9958907748
 20
8.4381908206
 30
0.0
 10
9.9958528384
 20
8.4389251261
 30
0.0
  0
SPLINE
  5
351
100
AcDbEntity
  8
0
100
AcDbSpline
 62
9
  6
CONTINUOUS
 70
0
 71
3
 72
18
 73
14
 74
0
 42
0.0000001
 43
0.0000001
 44
0.0000000001
 40
0.0
 40
0.0
 40
0.0
 40
0.0
 40
0.1628374155
 40
0.3216737803
 40
0.4724871942
 40
0.6117813397
 40
0.7363200113
 40
0.7922184875
 40
0.8434987898
 40
0.889983687
 40
0.9315519303
 40
0.9681849834
 40
1.0
 40
1.0
 40
1.0
 40
1.0
 10
11.8408757948
 20
10.1528633603
 30
0.0
 10
11.8435496958
 20
10.1502151053
 30
0.0
 10
11.8487261747
 20
10.144875688
 30
0.0
 10
11.855997135
 20
10.136724405
 30
0.0
 10
11.8625522163
 20
10.1286764545
 30
0.0
 10
11.8682216286
 20
10.120945034
 30
0.0
 10
11.8722242043
 20
10.1147252684
 30
0.0
 10
11.8748406077
 20
10.110050824
 30
0.0
 10
11.8764271448
 20
10.1068717764
 30
0.0
 10
11.8777012938
 20
10.1039122168
 30
0.0
 10
11.8786542372
 20
10.1011894016
 30
0.0
 10
11.8792809239
 20
10.0987216015
 30
0.0
 10
11.8794939107
 20
10.0971481837
 30
0.0
 10
11.879531847
 20
10.0964138782
 30
0.0
  0
SPLINE
  5
352
100
AcDbEntity
  8
0
100
AcDbSpline
 62
9
  6
CONTINUOUS
 70
0
 71
3
 72
18
 73
14
 74
0
 42
0.0000001
 43
0.0000001
 44
0.0000000001
 40
0.0
 40
0.0
 40
0.0
 40
0.0
 40
0.1627028642
 40
0.321445448
 40
0.4722089723
 40
0.6114976239
 40
0.7360729804
 40
0.7920035481
 40
0.8433234363
 40
0.8898533368
 40
0.9314690566
 40
0.9681477003
 40
1.0
 40
1.0
 40
1.0
 40
1.0
 10
11.8372123694
 20
10.149178409
 30
0.0
 10
11.8398709139
 20
10.1465164647
 30
0.0
 10
11.8450175641
 20
10.141150466
 30
0.0
 10
11.8522456808
 20
10.1329624793
 30
0.0
 10
11.8587621466
 20
10.1248810273
 30
0.0
 10
11.8643983165
 20
10.1171199891
 30
0.0
 10
11.8683773131
 20
10.1108790861
 30
0.0
 10
11.8709785665
 20
10.1061902786
 30
0.0
 10
11.8725562304
 20
10.1030018432
 30
0.0
 10
11.873823446
 20
10.1000342621
 30
0.0
 10
11.8747714521
 20
10.0973048627
 30
0.0
 10
11.8753952337
 20
10.0948319612
 30
0.0
 10
11.8756076695
 20
10.0932558256
 30
0.0
 10
11.8756457593
 20
10.0925202951
 30
0.0
  0
SPLINE
  5
353
100
AcDbEntity
  8
0
100
AcDbSpline
 62
9
  6
CONTINUOUS
 70
0
 71
3
 72
17
 73
13
 74
0
 42
0.0000001
 43
0.0000001
 44
0.0000000001
 40
0.0
 40
0.0
 40
0.0
 40
0.0
 40
0.1670161907
 40
0.3297216889
 40
0.4837365481
 40
0.6251876808
 40
0.7504034616
 40
0.8562022664
 40
0.9009997688
 40
0.9400301778
 40
0.9730814856
 40
1.0
 40
1.0
 40
1.0
 40
1.0
 10
11.285666023
 20
9.5976320071
 30
0.0
 10
11.2883250871
 20
9.594971644
 30
0.0
 10
11.2935342642
 20
9.5896790957
 30
0.0
 10
11.3010535117
 20
9.5817951017
 30
0.0
 10
11.3080468566
 20
9.5742071411
 30
0.0
 10
11.3143315962
 20
9.5671164169
 30
0.0
 10
11.3197449195
 20
9.5607075334
 30
0.0
 10
11.3236064343
 20
9.5558397002
 30
0.0
 10
11.3261368821
 20
9.5523989371
 30
0.0
 10
11.32763132
 20
9.5502312844
 30
0.0
 10
11.3288214579
 20
9.5483452372
 30
0.0
 10
11.3294767532
 20
9.5471624633
 30
0.0
 10
11.3297430868
 20
9.5466178629
 30
0.0
  0
SPLINE
  5
354
100
AcDbEntity
  8
0
100
AcDbSpline
 62
9
  6
CONTINUOUS
 70
0
 71
3
 72
17
 73
13
 74
0
 42
0.0000001
 43
0.0000001
 44
0.0000000001
 40
0.0
 40
0.0
 40
0.0
 40
0.0
 40
0.1670164241
 40
0.3297221132
 40
0.4837371003
 40
0.6251882824
 40
0.7504040244
 40
0.8562027006
 40
0.9010001089
 40
0.9400304087
 40
0.9730815992
 40
1.0
 40
1.0
 40
1.0
 40
1.0
 10
11.2856650448
 20
8.9377081426
 30
0.0
 10
11.2883242103
 20
8.9403684141
 30
0.0
 10
11.2935335894
 20
8.9456607814
 30
0.0
 10
11.3010531378
 20
8.953544512
 30
0.0
 10
11.3080467697
 20
8.9611322255
 30
0.0
 10
11.3143317724
 20
8.9682227262
 30
0.0
 10
11.3197453254
 20
8.9746314168
 30
0.0
 10
11.3236070069
 20
8.9794991139
 30
0.0
 10
11.3261375643
 20
8.9829397894
 30
0.0
 10
11.3276320662
 20
8.9851073908
 30
0.0
 10
11.3288222543
 20
8.9869933985
 30
0.0
 10
11.3294775766
 20
8.9881761523
 30
0.0
 10
11.3297439208
 20
8.988720745
 30
0.0
  0
SPLINE
  5
355
100
AcDbEntity
  8
0
100
AcDbSpline
 62
9
  6
CONTINUOUS
 70
0
 71
3
 72
18
 73
14
 74
0
 42
0.0000001
 43
0.0000001
 44
0.0000000001
 40
0.0
 40
0.0
 40
0.0
 40
0.0
 40
0.1627020178
 40
0.321443889
 40
0.4722069097
 40
0.6114953355
 40
0.7360707947
 40
0.7920015469
 40
0.8433217052
 40
0.8898519552
 40
0.9314680936
 40
0.9681472065
 40
1.0
 40
1.0
 40
1.0
 40
1.0
 10
11.8372123679
 20
8.3861605965
 30
0.0
 10
11.8398708851
 20
8.3888225233
 30
0.0
 10
11.845017485
 20
8.3941884872
 30
0.0
 10
11.8522455369
 20
8.4023764206
 30
0.0
 10
11.8587619557
 20
8.4104578247
 30
0.0
 10
11.8643981003
 20
8.4182188252
 30
0.0
 10
11.8683770937
 20
8.4244597033
 30
0.0
 10
11.8709783597
 20
8.4291484988
 30
0.0
 10
11.8725560414
 20
8.4323369333
 30
0.0
 10
11.8738232819
 20
8.4353045185
 30
0.0
 10
11.8747713203
 20
8.4380339269
 30
0.0
 10
11.8753951412
 20
8.4405068427
 30
0.0
 10
11.8756076098
 20
8.4420829906
 30
0.0
 10
11.8756457179
 20
8.4428185292
 30
0.0
  0
SPLINE
  5
356
100
AcDbEntity
  8
0
100
AcDbSpline
 62
9
  6
CONTINUOUS
 70
0
 71
3
 72
18
 73
14
 74
0
 42
0.0000001
 43
0.0000001
 44
0.0000000001
 40
0.0
 40
0.0
 40
0.0
 40
0.0
 40
0.162837469
 40
0.3216738783
 40
0.4724873217
 40
0.6117814785
 40
0.7363201412
 40
0.7922186055
 40
0.843498891
 40
0.889983767
 40
0.9315519856
 40
0.9681850114
 40
1.0
 40
1.0
 40
1.0
 40
1.0
 10
11.8408758051
 20
8.3824756331
 30
0.0
 10
11.8435497076
 20
8.3851238896
 30
0.0
 10
11.8487261892
 20
8.39046331
 30
0.0
 10
11.8559971528
 20
8.3986145976
 30
0.0
 10
11.8625522363
 20
8.4066625522
 30
0.0
 10
11.8682216493
 20
8.414393976
 30
0.0
 10
11.8722242246
 20
8.4206137438
 30
0.0
 10
11.8748406269
 20
8.4252881894
 30
0.0
 10
11.8764271627
 20
8.4284672373
 30
0.0
 10
11.8777013101
 20
8.4314267968
 30
0.0
 10
11.8786542515
 20
8.4341496117
 30
0.0
 10
11.8792809359
 20
8.4366174111
 30
0.0
 10
11.8794939208
 20
8.4381908283
 30
0.0
 10
11.8795318562
 20
8.4389251333
 30
0.0
  0
SPLINE
  5
357
100
AcDbEntity
  8
0
100
AcDbSpline
 62
9
  6
CONTINUOUS
 70
0
 71
3
 72
18
 73
14
 74
0
 42
0.0000001
 43
0.0000001
 44
0.0000000001
 40
0.0
 40
0.0
 40
0.0
 40
0.0
 40
0.1627028642
 40
0.321445448
 40
0.4722089723
 40
0.6114976239
 40
0.7360729804
 40
0.7920035481
 40
0.8433234363
 40
0.8898533368
 40
0.9314690566
 40
0.9681477003
 40
1.0
 40
1.0
 40
1.0
 40
1.0
 10
10.0381723161
 20
8.3861605953
 30
0.0
 10
10.0355137716
 20
8.3888225396
 30
0.0
 10
10.0303671213
 20
8.3941885383
 30
0.0
 10
10.0231390047
 20
8.402376525
 30
0.0
 10
10.0166225388
 20
8.410457977
 30
0.0
 10
10.010986369
 20
8.4182190152
 30
0.0
 10
10.0070073724
 20
8.4244599181
 30
0.0
 10
10.004406119
 20
8.4291487257
 30
0.0
 10
10.0028284551
 20
8.4323371611
 30
0.0
 10
10.0015612395
 20
8.4353047422
 30
0.0
 10
10.0006132334
 20
8.4380341416
 30
0.0
 10
9.9999894517
 20
8.4405070431
 30
0.0
 10
9.999777016
 20
8.4420831787
 30
0.0
 10
9.9997389262
 20
8.4428187091
 30
0.0
  0
SPLINE
  5
358
100
AcDbEntity
  8
0
100
AcDbSpline
 62
9
  6
CONTINUOUS
 70
0
 71
3
 72
17
 73
13
 74
0
 42
0.0000001
 43
0.0000001
 44
0.0000000001
 40
0.0
 40
0.0
 40
0.0
 40
0.0
 40
0.1670161907
 40
0.3297216889
 40
0.4837365481
 40
0.6251876808
 40
0.7504034616
 40
0.8562022664
 40
0.9009997688
 40
0.9400301778
 40
0.9730814856
 40
1.0
 40
1.0
 40
1.0
 40
1.0
 10
10.5897186625
 20
8.9377069972
 30
0.0
 10
10.5870595984
 20
8.9403673603
 30
0.0
 10
10.5818504212
 20
8.9456599086
 30
0.0
 10
10.5743311738
 20
8.9535439026
 30
0.0
 10
10.5673378288
 20
8.9611318632
 30
0.0
 10
10.5610530892
 20
8.9682225874
 30
0.0
 10
10.555639766
 20
8.9746314709
 30
0.0
 10
10.5517782512
 20
8.9794993041
 30
0.0
 10
10.5492478034
 20
8.9829400672
 30
0.0
 10
10.5477533654
 20
8.9851077199
 30
0.0
 10
10.5465632276
 20
8.9869937671
 30
0.0
 10
10.5459079323
 20
8.988176541
 30
0.0
 10
10.5456415987
 20
8.9887211414
 30
0.0
  0
SPLINE
  5
359
100
AcDbEntity
  8
0
100
AcDbSpline
 62
9
  6
CONTINUOUS
 70
0
 71
3
 72
17
 73
13
 74
0
 42
0.0000001
 43
0.0000001
 44
0.0000000001
 40
0.0
 40
0.0
 40
0.0
 40
0.0
 40
0.1670164241
 40
0.3297221132
 40
0.4837371003
 40
0.6251882824
 40
0.7504040244
 40
0.8562027006
 40
0.9010001089
 40
0.9400304087
 40
0.9730815992
 40
1.0
 40
1.0
 40
1.0
 40
1.0
 10
10.5897196407
 20
9.5976308617
 30
0.0
 10
10.5870604752
 20
9.5949705902
 30
0.0
 10
10.5818510961
 20
9.5896782229
 30
0.0
 10
10.5743315477
 20
9.5817944923
 30
0.0
 10
10.5673379158
 20
9.5742067788
 30
0.0
 10
10.5610529131
 20
9.5671162781
 30
0.0
 10
10.5556393601
 20
9.5607075875
 30
0.0
 10
10.5517776785
 20
9.5558398904
 30
0.0
 10
10.5492471212
 20
9.5523992149
 30
0.0
 10
10.5477526193
 20
9.5502316135
 30
0.0
 10
10.5465624312
 20
9.5483456058
 30
0.0
 10
10.5459071088
 20
9.547162852
 30
0.0
 10
10.5456407647
 20
9.5466182593
 30
0.0
  0
SPLINE
  5
35A
100
AcDbEntity
  8
0
100
AcDbSpline
 62
9
  6
CONTINUOUS
 70
0
 71
3
 72
18
 73
14
 74
0
 42
0.0000001
 43
0.0000001
 44
0.0000000001
 40
0.0
 40
0.0
 40
0.0
 40
0.0
 40
0.1627020178
 40
0.321443889
 40
0.4722069097
 40
0.6114953355
 40
0.7360707947
 40
0.7920015469
 40
0.8433217052
 40
0.8898519552
 40
0.9314680936
 40
0.9681472065
 40
1.0
 40
1.0
 40
1.0
 40
1.0
 10
10.0381723176
 20
10.1491784078
 30
0.0
 10
10.0355138003
 20
10.146516481
 30
0.0
 10
10.0303672004
 20
10.1411505171
 30
0.0
 10
10.0231391485
 20
10.1329625837
 30
0.0
 10
10.0166227297
 20
10.1248811795
 30
0.0
 10
10.0109865852
 20
10.1171201791
 30
0.0
 10
10.0070075918
 20
10.110879301
 30
0.0
 10
10.0044063258
 20
10.1061905055
 30
0.0
 10
10.0028286441
 20
10.103002071
 30
0.0
 10
10.0015614036
 20
10.1000344858
 30
0.0
 10
10.0006133651
 20
10.0973050774
 30
0.0
 10
9.9999895443
 20
10.0948321616
 30
0.0
 10
9.9997770757
 20
10.0932560137
 30
0.0
 10
9.9997389675
 20
10.0925204751
 30
0.0
  0
SPLINE
  5
35B
100
AcDbEntity
  8
0
100
AcDbSpline
 62
9
  6
CONTINUOUS
 70
0
 71
3
 72
18
 73
14
 74
0
 42
0.0000001
 43
0.0000001
 44
0.0000000001
 40
0.0
 40
0.0
 40
0.0
 40
0.0
 40
0.162837469
 40
0.3216738783
 40
0.4724873217
 40
0.6117814785
 40
0.7363201412
 40
0.7922186055
 40
0.843498891
 40
0.889983767
 40
0.9315519856
 40
0.9681850114
 40
1.0
 40
1.0
 40
1.0
 40
1.0
 10
10.0345088803
 20
10.1528633712
 30
0.0
 10
10.0318349779
 20
10.1502151147
 30
0.0
 10
10.0266584963
 20
10.1448756943
 30
0.0
 10
10.0193875326
 20
10.1367244067
 30
0.0
 10
10.0128324492
 20
10.1286764521
 30
0.0
 10
10.0071630362
 20
10.1209450283
 30
0.0
 10
10.0031604609
 20
10.1147252605
 30
0.0
 10
10.0005440586
 20
10.1100508149
 30
0.0
 10
9.9989575228
 20
10.106871767
 30
0.0
 10
9.9976833754
 20
10.1039122075
 30
0.0
 10
9.9967304339
 20
10.1011893926
 30
0.0
 10
9.9961037496
 20
10.0987215932
 30
0.0
 10
9.9958907646
 20
10.097148176
 30
0.0
 10
9.9958528293
 20
10.0964138709
 30
0.0
  0
LINE
  5
35C
100
AcDbEntity
  8
0
100
AcDbLine
 62
9
  6
CONTINUOUS
 10
12.0069761302
 20
8.2157037499
 11
11.8408758051
 21
8.3824756331
  0
SPLINE
  5
35D
100
AcDbEntity
  8
0
100
AcDbSpline
 62
9
  6
CONTINUOUS
 70
0
 71
3
 72
18
 73
14
 74
0
 42
0.0000001
 43
0.0000001
 44
0.0000000001
 40
0.0
 40
0.0
 40
0.0
 40
0.0
 40
0.1628374157
 40
0.3216737806
 40
0.4724871945
 40
0.6117813401
 40
0.7363200117
 40
0.7922184879
 40
0.8434987901
 40
0.8899836872
 40
0.9315519304
 40
0.9681849835
 40
1.0
 40
1.0
 40
1.0
 40
1.0
 10
10.0524984846
 20
10.1708529542
 30
0.0
 10
10.0551467395
 20
10.1735268552
 30
0.0
 10
10.0604861569
 20
10.1787033341
 30
0.0
 10
10.0686374399
 20
10.1859742945
 30
0.0
 10
10.0766853904
 20
10.1925293758
 30
0.0
 10
10.0844168109
 20
10.1981987881
 30
0.0
 10
10.0906365765
 20
10.2022013638
 30
0.0
 10
10.095311021
 20
10.2048177672
 30
0.0
 10
10.0984900685
 20
10.2064043042
 30
0.0
 10
10.1014496281
 20
10.2076784533
 30
0.0
 10
10.1041724433
 20
10.2086313967
 30
0.0
 10
10.1066402434
 20
10.2092580833
 30
0.0
 10
10.1082136612
 20
10.2094710701
 30
0.0
 10
10.1089479667
 20
10.2095090065
 30
0.0
  0
SPLINE
  5
35E
100
AcDbEntity
  8
0
100
AcDbSpline
 62
9
  6
CONTINUOUS
 70
0
 71
3
 72
15
 73
11
 74
0
 42
0.0000001
 43
0.0000001
 44
0.0000000001
 40
0.0
 40
0.0
 40
0.0
 40
0.0
 40
0.0721184239
 40
0.1609894857
 40
0.2665878167
 40
0.3880366149
 40
0.5240214438
 40
0.6728200479
 40
0.8323935681
 40
1.0
 40
1.0
 40
1.0
 40
1.0
 10
11.8756457218
 20
8.4428187468
 30
0.0
 10
11.8756813226
 20
8.4435062734
 30
0.0
 10
11.8759620048
 20
8.4450292456
 30
0.0
 10
11.8767869326
 20
8.4474412296
 30
0.0
 10
11.878053839
 20
8.4501828905
 30
0.0
 10
11.8797423683
 20
8.453211871
 30
0.0
 10
11.8818299502
 20
8.4564822093
 30
0.0
 10
11.8842845476
 20
8.4599434756
 30
0.0
 10
11.8870672655
 20
8.4635368303
 30
0.0
 10
11.8890699444
 20
8.4659345304
 30
0.0
 10
11.8901163048
 20
8.4671449335
 30
0.0
  0
LINE
  5
35F
100
AcDbEntity
  8
0
100
AcDbLine
 62
9
  6
CONTINUOUS
 10
11.8901163048
 20
8.4671449335
 11
12.0161452728
 21
8.341116025
  0
SPLINE
  5
360
100
AcDbEntity
  8
0
100
AcDbSpline
 62
9
  6
CONTINUOUS
 70
0
 71
3
 72
15
 73
11
 74
0
 42
0.0000001
 43
0.0000001
 44
0.0000000001
 40
0.0
 40
0.0
 40
0.0
 40
0.0
 40
0.0287938425
 40
0.0629103412
 40
0.1466847831
 40
0.2502375017
 40
0.3719792663
 40
0.5101054352
 40
0.6625097038
 40
1.0
 40
1.0
 40
1.0
 40
1.0
 10
11.3297430896
 20
8.9887211445
 30
0.0
 10
11.3298597645
 20
8.9889597216
 30
0.0
 10
11.3301355712
 20
8.9894707569
 30
0.0
 10
11.3308374148
 20
8.9906277932
 30
0.0
 10
11.3319963196
 20
8.9923114035
 30
0.0
 10
11.3337143198
 20
8.9945867533
 30
0.0
 10
11.3358172357
 20
8.9971976511
 30
0.0
 10
11.3382722694
 20
9.000101857
 30
0.0
 10
11.3420961405
 20
9.0044532107
 30
0.0
 10
11.3451626464
 20
9.0077730597
 30
0.0
 10
11.347302352
 20
9.0100338906
 30
0.0
  0
LINE
  5
361
100
AcDbEntity
  8
0
100
AcDbLine
 62
9
  6
CONTINUOUS
 10
11.8756457585
 20
8.4428184894
 11
11.3297430896
 21
8.9887211445
  0
LINE
  5
362
100
AcDbEntity
  8
0
100
AcDbLine
 62
9
  6
CONTINUOUS
 10
11.3548885435
 20
9.0023726945
 11
11.890116577
 21
8.4671447699
  0
SPLINE
  5
363
100
AcDbEntity
  8
0
100
AcDbSpline
 62
9
  6
CONTINUOUS
 70
0
 71
3
 72
15
 73
11
 74
0
 42
0.0000001
 43
0.0000001
 44
0.0000000001
 40
0.0
 40
0.0
 40
0.0
 40
0.0
 40
0.0287938199
 40
0.062910298
 40
0.1466847072
 40
0.2502374049
 40
0.3719791598
 40
0.5101053303
 40
0.6625096198
 40
1.0
 40
1.0
 40
1.0
 40
1.0
 10
11.3297430896
 20
9.5466178617
 30
0.0
 10
11.3298597643
 20
9.5463792847
 30
0.0
 10
11.3301355706
 20
9.5458682497
 30
0.0
 10
11.3308374134
 20
9.5447112141
 30
0.0
 10
11.3319963174
 20
9.5430276046
 30
0.0
 10
11.3337143167
 20
9.5407522554
 30
0.0
 10
11.3358172318
 20
9.5381413581
 30
0.0
 10
11.338272265
 20
9.5352371526
 30
0.0
 10
11.3420961359
 20
9.5308857988
 30
0.0
 10
11.3451626419
 20
9.5275659495
 30
0.0
 10
11.3473023476
 20
9.5253051185
 30
0.0
  0
LINE
  5
364
100
AcDbEntity
  8
0
100
AcDbLine
 62
9
  6
CONTINUOUS
 10
11.890116577
 20
10.0681942346
 11
11.3548885438
 21
9.5329663101
  0
SPLINE
  5
365
100
AcDbEntity
  8
0
100
AcDbSpline
 62
9
  6
CONTINUOUS
 70
0
 71
3
 72
15
 73
11
 74
0
 42
0.0000001
 43
0.0000001
 44
0.0000000001
 40
0.0
 40
0.0
 40
0.0
 40
0.0
 40
0.0721197319
 40
0.1609919042
 40
0.2665909547
 40
0.3880400202
 40
0.5240246426
 40
0.672822562
 40
0.8323949686
 40
1.0
 40
1.0
 40
1.0
 40
1.0
 10
11.8756457585
 20
10.092520515
 30
0.0
 10
11.8756813817
 20
10.0918329728
 30
0.0
 10
11.8759621042
 20
10.090309976
 30
0.0
 10
11.8767870803
 20
10.0878979603
 30
0.0
 10
11.8780540284
 20
10.0851562762
 30
0.0
 10
11.8797425918
 20
10.0821272815
 30
0.0
 10
11.8818301987
 20
10.0788569375
 30
0.0
 10
11.8842848119
 20
10.0753956734
 30
0.0
 10
11.887067537
 20
10.071802327
 30
0.0
 10
11.8890702171
 20
10.0694046337
 30
0.0
 10
11.890116577
 20
10.0681942346
 30
0.0
  0
LINE
  5
366
100
AcDbEntity
  8
0
100
AcDbLine
 62
9
  6
CONTINUOUS
 10
11.3297430877
 20
9.5466178636
 11
11.8756457585
 21
10.092520515
  0
LINE
  5
367
100
AcDbEntity
  8
0
100
AcDbLine
 62
9
  6
CONTINUOUS
 10
11.9043012862
 20
10.3469266513
 11
11.7664367111
 21
10.2095090161
  0
SPLINE
  5
368
100
AcDbEntity
  8
0
100
AcDbSpline
 62
9
  6
CONTINUOUS
 70
0
 71
3
 72
18
 73
14
 74
0
 42
0.0000001
 43
0.0000001
 44
0.0000000001
 40
0.0
 40
0.0
 40
0.0
 40
0.0
 40
0.1627028642
 40
0.321445448
 40
0.4722089723
 40
0.6114976239
 40
0.7360729804
 40
0.7920035481
 40
0.8433234363
 40
0.8898533368
 40
0.9314690566
 40
0.9681477003
 40
1.0
 40
1.0
 40
1.0
 40
1.0
 10
10.0561834358
 20
10.1671895288
 30
0.0
 10
10.0588453802
 20
10.1698480733
 30
0.0
 10
10.0642113789
 20
10.1749947235
 30
0.0
 10
10.0723993656
 20
10.1822228402
 30
0.0
 10
10.0804808176
 20
10.188739306
 30
0.0
 10
10.0882418558
 20
10.1943754759
 30
0.0
 10
10.0944827587
 20
10.1983544725
 30
0.0
 10
10.0991715663
 20
10.2009557259
 30
0.0
 10
10.1023600017
 20
10.2025333898
 30
0.0
 10
10.1053275828
 20
10.2038006054
 30
0.0
 10
10.1080569822
 20
10.2047486115
 30
0.0
 10
10.1105298837
 20
10.2053723932
 30
0.0
 10
10.1121060193
 20
10.2055848289
 30
0.0
 10
10.1128415497
 20
10.2056229187
 30
0.0
  0
LINE
  5
369
100
AcDbEntity
  8
0
100
AcDbLine
 62
9
  6
CONTINUOUS
 10
11.8795318567
 20
10.09641387
 11
12.0169496777
 21
10.2342787549
  0
SPLINE
  5
36A
100
AcDbEntity
  8
0
100
AcDbSpline
 62
9
  6
CONTINUOUS
 70
0
 71
3
 72
17
 73
13
 74
0
 42
0.0000001
 43
0.0000001
 44
0.0000000001
 40
0.0
 40
0.0
 40
0.0
 40
0.0
 40
0.1670161901
 40
0.3297216878
 40
0.4837365466
 40
0.6251876791
 40
0.75040346
 40
0.856202265
 40
0.9009997676
 40
0.9400301769
 40
0.9730814851
 40
1.0
 40
1.0
 40
1.0
 40
1.0
 10
10.6077298347
 20
9.6156431854
 30
0.0
 10
10.6103901979
 20
9.6183022494
 30
0.0
 10
10.6156827463
 20
9.6235114264
 30
0.0
 10
10.6235667405
 20
9.6310306737
 30
0.0
 10
10.6311547013
 20
9.6380240185
 30
0.0
 10
10.6382454256
 20
9.6443087579
 30
0.0
 10
10.6446543093
 20
9.6497220809
 30
0.0
 10
10.6495221428
 20
9.6535835956
 30
0.0
 10
10.652962906
 20
9.6561140432
 30
0.0
 10
10.6551305588
 20
9.6576084811
 30
0.0
 10
10.6570166061
 20
9.6587986189
 30
0.0
 10
10.65819938
 20
9.6594539141
 30
0.0
 10
10.6587439805
 20
9.6597202477
 30
0.0
  0
SPLINE
  5
36B
100
AcDbEntity
  8
0
100
AcDbSpline
 62
9
  6
CONTINUOUS
 70
0
 71
3
 72
17
 73
13
 74
0
 42
0.0000001
 43
0.0000001
 44
0.0000000001
 40
0.0
 40
0.0
 40
0.0
 40
0.0
 40
0.1670160307
 40
0.3297214328
 40
0.4837362522
 40
0.6251873921
 40
0.7504032164
 40
0.8562020901
 40
0.9009996334
 40
0.9400300861
 40
0.9730814394
 40
1.0
 40
1.0
 40
1.0
 40
1.0
 10
11.2676548484
 20
9.6156431822
 30
0.0
 10
11.2649944831
 20
9.6183022499
 30
0.0
 10
11.2597019293
 20
9.6235114349
 30
0.0
 10
11.2518179259
 20
9.6310306952
 30
0.0
 10
11.2442299536
 20
9.6380240545
 30
0.0
 10
11.2371392162
 20
9.6443088089
 30
0.0
 10
11.2307303188
 20
9.6497221465
 30
0.0
 10
11.2258624738
 20
9.6535836725
 30
0.0
 10
11.2224217014
 20
9.6561141283
 30
0.0
 10
11.2202540421
 20
9.6576085714
 30
0.0
 10
11.2183679887
 20
9.6587987137
 30
0.0
 10
11.2171852107
 20
9.6594540116
 30
0.0
 10
11.2166406083
 20
9.6597203464
 30
0.0
  0
SPLINE
  5
36C
100
AcDbEntity
  8
0
100
AcDbSpline
 62
9
  6
CONTINUOUS
 70
0
 71
3
 72
18
 73
14
 74
0
 42
0.0000001
 43
0.0000001
 44
0.0000000001
 40
0.0
 40
0.0
 40
0.0
 40
0.0
 40
0.1627020178
 40
0.321443889
 40
0.4722069097
 40
0.6114953355
 40
0.7360707947
 40
0.7920015469
 40
0.8433217052
 40
0.8898519552
 40
0.9314680936
 40
0.9681472065
 40
1.0
 40
1.0
 40
1.0
 40
1.0
 10
11.8192012484
 20
10.1671895273
 30
0.0
 10
11.8165393216
 20
10.1698480445
 30
0.0
 10
11.8111733577
 20
10.1749946444
 30
0.0
 10
11.8029854243
 20
10.1822226964
 30
0.0
 10
11.7949040201
 20
10.1887391151
 30
0.0
 10
11.7871430197
 20
10.1943752597
 30
0.0
 10
11.7809021416
 20
10.1983542531
 30
0.0
 10
11.7762133461
 20
10.2009555191
 30
0.0
 10
11.7730249116
 20
10.2025332008
 30
0.0
 10
11.7700573264
 20
10.2038004413
 30
0.0
 10
11.767327918
 20
10.2047484797
 30
0.0
 10
11.7648550022
 20
10.2053723006
 30
0.0
 10
11.7632788543
 20
10.2055847692
 30
0.0
 10
11.7625433157
 20
10.2056228773
 30
0.0
  0
SPLINE
  5
36D
100
AcDbEntity
  8
0
100
AcDbSpline
 62
9
  6
CONTINUOUS
 70
0
 71
3
 72
18
 73
14
 74
0
 42
0.0000001
 43
0.0000001
 44
0.0000000001
 40
0.0
 40
0.0
 40
0.0
 40
0.0
 40
0.162837469
 40
0.3216738783
 40
0.4724873217
 40
0.6117814785
 40
0.7363201412
 40
0.7922186055
 40
0.843498891
 40
0.889983767
 40
0.9315519856
 40
0.9681850114
 40
1.0
 40
1.0
 40
1.0
 40
1.0
 10
11.8228862118
 20
10.1708529646
 30
0.0
 10
11.8202379553
 20
10.173526867
 30
0.0
 10
11.8148985349
 20
10.1787033486
 30
0.0
 10
11.8067472473
 20
10.1859743122
 30
0.0
 10
11.7986992927
 20
10.1925293957
 30
0.0
 10
11.7909678689
 20
10.1981988087
 30
0.0
 10
11.7847481011
 20
10.202201384
 30
0.0
 10
11.7800736555
 20
10.2048177863
 30
0.0
 10
11.7768946076
 20
10.2064043221
 30
0.0
 10
11.7739350481
 20
10.2076784695
 30
0.0
 10
11.7712122332
 20
10.2086314109
 30
0.0
 10
11.7687444338
 20
10.2092580953
 30
0.0
 10
11.7671710166
 20
10.2094710803
 30
0.0
 10
11.7664367115
 20
10.2095090156
 30
0.0
  0
LINE
  5
36E
100
AcDbEntity
  8
0
100
AcDbLine
 62
9
  6
CONTINUOUS
 10
10.0111389942
 20
10.346122483
 11
10.1371677736
 21
10.2200934647
  0
LINE
  5
36F
100
AcDbEntity
  8
0
100
AcDbLine
 62
9
  6
CONTINUOUS
 10
11.9896580942
 20
10.3369532904
 11
11.8228862118
 21
10.1708529645
  0
SPLINE
  5
370
100
AcDbEntity
  8
0
100
AcDbSpline
 62
9
  6
CONTINUOUS
 70
0
 71
3
 72
20
 73
16
 74
0
 42
0.0000001
 43
0.0000001
 44
0.0000000001
 40
0.0
 40
0.0
 40
0.0
 40
0.0
 40
0.0258088369
 40
0.0539515033
 40
0.0861618195
 40
0.1235440035
 40
0.1666944979
 40
0.2159009801
 40
0.2712104242
 40
0.3325176087
 40
0.3996301882
 40
0.4722371793
 40
0.6324305206
 40
0.8097799408
 40
1.0
 40
1.0
 40
1.0
 40
1.0
 10
11.6904615492
 20
8.2914545529
 30
0.0
 10
11.6908002154
 20
8.2911158628
 30
0.0
 10
11.6916321852
 20
8.2905241085
 30
0.0
 10
11.6931668385
 20
8.2900159319
 30
0.0
 10
11.6949852381
 20
8.2898525725
 30
0.0
 10
11.6970778412
 20
8.2900229453
 30
0.0
 10
11.6994387911
 20
8.2905186935
 30
0.0
 10
11.7020573652
 20
8.2913376042
 30
0.0
 10
11.7049195855
 20
8.2924741819
 30
0.0
 10
11.70800846
 20
8.2939220144
 30
0.0
 10
11.7113040669
 20
8.2956732321
 30
0.0
 10
11.7161055314
 20
8.2984908539
 30
0.0
 10
11.7224495567
 20
8.3027078088
 30
0.0
 10
11.7302884796
 20
8.3085860905
 30
0.0
 10
11.735544483
 20
8.3129386584
 30
0.0
 10
11.7382151304
 20
8.3152472128
 30
0.0
  0
SPLINE
  5
371
100
AcDbEntity
  8
0
100
AcDbSpline
 62
9
  6
CONTINUOUS
 70
0
 71
3
 72
24
 73
20
 74
0
 42
0.0000001
 43
0.0000001
 44
0.0000000001
 40
0.0
 40
0.0
 40
0.0
 40
0.0
 40
0.0054594791
 40
0.01174145
 40
0.0193957461
 40
0.0287261822
 40
0.0398951817
 40
0.0529915166
 40
0.0680559253
 40
0.0851007994
 40
0.1251160158
 40
0.1729488372
 40
0.2283660501
 40
0.2910548404
 40
0.3606633998
 40
0.4367427674
 40
0.6063750613
 40
0.795804716
 40
1.0
 40
1.0
 40
1.0
 40
1.0
 10
11.1625522992
 20
8.8193638029
 30
0.0
 10
11.1626187826
 20
8.8192973195
 30
0.0
 10
11.162794944
 20
8.8191857107
 30
0.0
 10
11.1631267175
 20
8.8191178183
 30
0.0
 10
11.163529519
 20
8.8191319541
 30
0.0
 10
11.1640066689
 20
8.8192252711
 30
0.0
 10
11.1645598733
 20
8.819397384
 30
0.0
 10
11.1651893606
 20
8.8196487761
 30
0.0
 10
11.1658946278
 20
8.8199792423
 30
0.0
 10
11.1669947701
 20
8.8205565782
 30
0.0
 10
11.1685467205
 20
8.821483424
 30
0.0
 10
11.1706042078
 20
8.8228460377
 30
0.0
 10
11.1729315538
 20
8.8245052172
 30
0.0
 10
11.175513743
 20
8.826450707
 30
0.0
 10
11.1783335457
 20
8.8286707227
 30
0.0
 10
11.1825409478
 20
8.832104233
 30
0.0
 10
11.1882379001
 20
8.8369743317
 30
0.0
 10
11.1954675264
 20
8.8434426484
 30
0.0
 10
11.2004331903
 20
8.8480580291
 30
0.0
 10
11.2029891508
 20
8.8504733011
 30
0.0
  0
SPLINE
  5
372
100
AcDbEntity
  8
0
100
AcDbSpline
 62
9
  6
CONTINUOUS
 70
0
 71
3
 72
24
 73
20
 74
0
 42
0.0000001
 43
0.0000001
 44
0.0000000001
 40
0.0
 40
0.0
 40
0.0
 40
0.0
 40
0.0049450527
 40
0.0107914877
 40
0.0181030363
 40
0.0271673877
 40
0.0381295102
 40
0.0510651825
 40
0.0660058879
 40
0.0829574841
 40
0.1228609439
 40
0.17066192
 40
0.2261128461
 40
0.2888915738
 40
0.3586397616
 40
0.4349032474
 40
0.6050220175
 40
0.7950728097
 40
1.0
 40
1.0
 40
1.0
 40
1.0
 10
11.1563033831
 20
8.8254436635
 30
0.0
 10
11.1563649221
 20
8.8253854098
 30
0.0
 10
11.156532486
 20
8.8252918748
 30
0.0
 10
11.1568450735
 20
8.8252545682
 30
0.0
 10
11.1572253039
 20
8.8252993389
 30
0.0
 10
11.1576779608
 20
8.8254245475
 30
0.0
 10
11.1582047633
 20
8.8256301158
 30
0.0
 10
11.1588058996
 20
8.8259167117
 30
0.0
 10
11.1594808156
 20
8.8262841246
 30
0.0
 10
11.160536387
 20
8.8269165993
 30
0.0
 10
11.1620273465
 20
8.8279150003
 30
0.0
 10
11.1640065859
 20
8.8293649378
 30
0.0
 10
11.1662486517
 20
8.8311170235
 30
0.0
 10
11.1687390643
 20
8.8331603681
 30
0.0
 10
11.171461189
 20
8.8354824598
 30
0.0
 10
11.175526751
 20
8.8390628228
 30
0.0
 10
11.1810370725
 20
8.8441203759
 30
0.0
 10
11.1880372207
 20
8.8508118804
 30
0.0
 10
11.1928496178
 20
8.8555716739
 30
0.0
 10
11.1953279592
 20
8.8580594975
 30
0.0
  0
SPLINE
  5
373
100
AcDbEntity
  8
0
100
AcDbSpline
 62
9
  6
CONTINUOUS
 70
0
 71
3
 72
24
 73
20
 74
0
 42
0.0000001
 43
0.0000001
 44
0.0000000001
 40
0.0
 40
0.0
 40
0.0
 40
0.0
 40
0.0049451151
 40
0.0107916083
 40
0.018103206
 40
0.0271675981
 40
0.0381297543
 40
0.0510654542
 40
0.0660061821
 40
0.0829577961
 40
0.1228612796
 40
0.1706622655
 40
0.2261131894
 40
0.2888919046
 40
0.358640071
 40
0.4349035274
 40
0.6050222184
 40
0.7950729143
 40
1.0
 40
1.0
 40
1.0
 40
1.0
 10
10.7190814758
 20
8.8254438577
 30
0.0
 10
10.7190199358
 20
8.8253856036
 30
0.0
 10
10.7188523701
 20
8.8252920677
 30
0.0
 10
10.71853978
 20
8.8252547594
 30
0.0
 10
10.7181595469
 20
8.8252995286
 30
0.0
 10
10.7177068874
 20
8.8254247356
 30
0.0
 10
10.7171800824
 20
8.8256303023
 30
0.0
 10
10.7165789438
 20
8.8259168965
 30
0.0
 10
10.7159040256
 20
8.8262843076
 30
0.0
 10
10.7148484514
 20
8.8269167795
 30
0.0
 10
10.7133574887
 20
8.8279151769
 30
0.0
 10
10.7113782459
 20
8.8293651101
 30
0.0
 10
10.709136177
 20
8.8311171911
 30
0.0
 10
10.7066457615
 20
8.8331605307
 30
0.0
 10
10.7039236341
 20
8.8354826168
 30
0.0
 10
10.6998580685
 20
8.8390629715
 30
0.0
 10
10.6943477429
 20
8.8441205135
 30
0.0
 10
10.6873475894
 20
8.8508120038
 30
0.0
 10
10.6825351883
 20
8.8555717872
 30
0.0
 10
10.6800568447
 20
8.8580596054
 30
0.0
  0
SPLINE
  5
374
100
AcDbEntity
  8
0
100
AcDbSpline
 62
9
  6
CONTINUOUS
 70
0
 71
3
 72
24
 73
20
 74
0
 42
0.0000001
 43
0.0000001
 44
0.0000000001
 40
0.0
 40
0.0
 40
0.0
 40
0.0
 40
0.0054594788
 40
0.0117414495
 40
0.0193957456
 40
0.0287261818
 40
0.0398951814
 40
0.0529915166
 40
0.0680559254
 40
0.0851007997
 40
0.1251160166
 40
0.1729488383
 40
0.2283660514
 40
0.2910548419
 40
0.3606634013
 40
0.4367427689
 40
0.6063750627
 40
0.7958047168
 40
1.0
 40
1.0
 40
1.0
 40
1.0
 10
10.7128323863
 20
8.8193638029
 30
0.0
 10
10.7127659029
 20
8.8192973195
 30
0.0
 10
10.7125897415
 20
8.8191857107
 30
0.0
 10
10.712257968
 20
8.8191178184
 30
0.0
 10
10.7118551665
 20
8.8191319542
 30
0.0
 10
10.7113780166
 20
8.8192252712
 30
0.0
 10
10.7108248122
 20
8.8193973842
 30
0.0
 10
10.7101953249
 20
8.8196487763
 30
0.0
 10
10.7094900577
 20
8.8199792425
 30
0.0
 10
10.7083899154
 20
8.8205565785
 30
0.0
 10
10.706837965
 20
8.8214834243
 30
0.0
 10
10.7047804778
 20
8.822846038
 30
0.0
 10
10.7024531318
 20
8.8245052176
 30
0.0
 10
10.6998709425
 20
8.8264507074
 30
0.0
 10
10.6970511398
 20
8.8286707231
 30
0.0
 10
10.6928437378
 20
8.8321042335
 30
0.0
 10
10.6871467855
 20
8.8369743322
 30
0.0
 10
10.6799171593
 20
8.8434426489
 30
0.0
 10
10.6749514954
 20
8.8480580296
 30
0.0
 10
10.672395535
 20
8.8504733016
 30
0.0
  0
SPLINE
  5
375
100
AcDbEntity
  8
0
100
AcDbSpline
 62
9
  6
CONTINUOUS
 70
0
 71
3
 72
20
 73
16
 74
0
 42
0.0000001
 43
0.0000001
 44
0.0000000001
 40
0.0
 40
0.0
 40
0.0
 40
0.0
 40
0.0258177934
 40
0.0539685844
 40
0.0861854827
 40
0.123572541
 40
0.1667262997
 40
0.2159345908
 40
0.2712445455
 40
0.332551078
 40
0.3996619651
 40
0.4722663468
 40
0.6324521278
 40
0.8097915467
 40
1.0
 40
1.0
 40
1.0
 40
1.0
 10
10.1849231377
 20
8.2914545543
 30
0.0
 10
10.184584312
 20
8.291115757
 30
0.0
 10
10.1837520526
 20
8.2905237985
 30
0.0
 10
10.1822169742
 20
8.2900152866
 30
0.0
 10
10.1803981531
 20
8.2898515996
 30
0.0
 10
10.1783051509
 20
8.2900216647
 30
0.0
 10
10.1759438348
 20
8.2905171243
 30
0.0
 10
10.1733249318
 20
8.291335765
 30
0.0
 10
10.1704624228
 20
8.2924720925
 30
0.0
 10
10.167373302
 20
8.2939196971
 30
0.0
 10
10.1640774933
 20
8.2956707123
 30
0.0
 10
10.1592758333
 20
8.2984880811
 30
0.0
 10
10.1529316761
 20
8.3027048125
 30
0.0
 10
10.1450927712
 20
8.3085829839
 30
0.0
 10
10.1398368982
 20
8.3129355841
 30
0.0
 10
10.137166351
 20
8.315244177
 30
0.0
  0
LINE
  5
376
100
AcDbEntity
  8
0
100
AcDbLine
 62
9
  6
CONTINUOUS
 10
9.8584351936
 20
10.2342784456
 11
9.9958528287
 21
10.0964138705
  0
LINE
  5
377
100
AcDbEntity
  8
0
100
AcDbLine
 62
9
  6
CONTINUOUS
 10
12.0161453236
 20
10.1942228507
 11
11.8901163053
 21
10.0681940713
  0
LINE
  5
378
100
AcDbEntity
  8
0
100
AcDbLine
 62
9
  6
CONTINUOUS
 10
9.8684085545
 20
10.3196352536
 11
10.0345088803
 21
10.1528633712
  0
LINE
  5
379
100
AcDbEntity
  8
0
100
AcDbLine
 62
9
  6
CONTINUOUS
 10
9.8592393618
 20
8.3411161536
 11
9.9852683802
 21
8.467144933
  0
SPLINE
  5
37A
100
AcDbEntity
  8
0
100
AcDbSpline
 62
9
  6
CONTINUOUS
 70
0
 71
3
 72
20
 73
16
 74
0
 42
0.0000001
 43
0.0000001
 44
0.0000000001
 40
0.0
 40
0.0
 40
0.0
 40
0.0
 40
0.0258177934
 40
0.0539685844
 40
0.0861854827
 40
0.123572541
 40
0.1667262997
 40
0.2159345908
 40
0.2712445455
 40
0.332551078
 40
0.3996619651
 40
0.4722663468
 40
0.6324521278
 40
0.8097915467
 40
1.0
 40
1.0
 40
1.0
 40
1.0
 10
9.9614773949
 20
10.0204387071
 30
0.0
 10
9.9611385976
 20
10.0207775328
 30
0.0
 10
9.9605466391
 20
10.0216097923
 30
0.0
 10
9.9600381272
 20
10.0231448707
 30
0.0
 10
9.9598744402
 20
10.0249636918
 30
0.0
 10
9.9600445053
 20
10.027056694
 30
0.0
 10
9.9605399649
 20
10.0294180101
 30
0.0
 10
9.9613586056
 20
10.0320369131
 30
0.0
 10
9.9624949331
 20
10.0348994221
 30
0.0
 10
9.9639425377
 20
10.0379885428
 30
0.0
 10
9.9656935529
 20
10.0412843516
 30
0.0
 10
9.9685109217
 20
10.0460860116
 30
0.0
 10
9.9727276531
 20
10.0524301688
 30
0.0
 10
9.9786058245
 20
10.0602690737
 30
0.0
 10
9.9829584247
 20
10.0655249467
 30
0.0
 10
9.9852670176
 20
10.0681954939
 30
0.0
  0
SPLINE
  5
37B
100
AcDbEntity
  8
0
100
AcDbSpline
 62
9
  6
CONTINUOUS
 70
0
 71
3
 72
15
 73
11
 74
0
 42
0.0000001
 43
0.0000001
 44
0.0000000001
 40
0.0
 40
0.0
 40
0.0
 40
0.0
 40
0.0721184239
 40
0.1609894857
 40
0.2665878167
 40
0.3880366149
 40
0.5240214438
 40
0.6728200479
 40
0.8323935681
 40
1.0
 40
1.0
 40
1.0
 40
1.0
 10
10.1128415874
 20
8.3297161231
 30
0.0
 10
10.113529114
 20
8.3296805223
 30
0.0
 10
10.1150520862
 20
8.3293998401
 30
0.0
 10
10.1174640702
 20
8.3285749123
 30
0.0
 10
10.1202057311
 20
8.3273080059
 30
0.0
 10
10.1232347116
 20
8.3256194766
 30
0.0
 10
10.1265050499
 20
8.3235318947
 30
0.0
 10
10.1299663162
 20
8.3210772972
 30
0.0
 10
10.1335596708
 20
8.3182945793
 30
0.0
 10
10.135957371
 20
8.3162919005
 30
0.0
 10
10.137167774
 20
8.31524554
 30
0.0
  0
LINE
  5
37C
100
AcDbEntity
  8
0
100
AcDbLine
 62
9
  6
CONTINUOUS
 10
10.137167774
 20
8.31524554
 11
10.0111388656
 21
8.1892165721
  0
SPLINE
  5
37D
100
AcDbEntity
  8
0
100
AcDbSpline
 62
9
  6
CONTINUOUS
 70
0
 71
3
 72
15
 73
11
 74
0
 42
0.0000001
 43
0.0000001
 44
0.0000000001
 40
0.0
 40
0.0
 40
0.0
 40
0.0
 40
0.0287938425
 40
0.0629103412
 40
0.1466847831
 40
0.2502375017
 40
0.3719792663
 40
0.5101054352
 40
0.6625097038
 40
1.0
 40
1.0
 40
1.0
 40
1.0
 10
10.658743985
 20
8.8756187553
 30
0.0
 10
10.6589825622
 20
8.8755020804
 30
0.0
 10
10.6594935975
 20
8.8752262737
 30
0.0
 10
10.6606506338
 20
8.8745244301
 30
0.0
 10
10.662334244
 20
8.8733655253
 30
0.0
 10
10.6646095939
 20
8.8716475251
 30
0.0
 10
10.6672204917
 20
8.8695446092
 30
0.0
 10
10.6701246976
 20
8.8670895755
 30
0.0
 10
10.6744760513
 20
8.8632657044
 30
0.0
 10
10.6777959003
 20
8.8601991985
 30
0.0
 10
10.6800567312
 20
8.8580594929
 30
0.0
  0
LINE
  5
37E
100
AcDbEntity
  8
0
100
AcDbLine
 62
9
  6
CONTINUOUS
 10
10.11284133
 20
8.3297160864
 11
10.658743985
 21
8.8756187553
  0
LINE
  5
37F
100
AcDbEntity
  8
0
100
AcDbLine
 62
9
  6
CONTINUOUS
 10
10.6723955351
 20
8.8504733014
 11
10.1371676104
 21
8.3152452679
  0
SPLINE
  5
380
100
AcDbEntity
  8
0
100
AcDbSpline
 62
9
  6
CONTINUOUS
 70
0
 71
3
 72
15
 73
11
 74
0
 42
0.0000001
 43
0.0000001
 44
0.0000000001
 40
0.0
 40
0.0
 40
0.0
 40
0.0
 40
0.0287938199
 40
0.062910298
 40
0.1466847072
 40
0.2502374049
 40
0.3719791598
 40
0.5101053303
 40
0.6625096198
 40
1.0
 40
1.0
 40
1.0
 40
1.0
 10
11.2166407023
 20
8.8756187553
 30
0.0
 10
11.2164021253
 20
8.8755020806
 30
0.0
 10
11.2158910903
 20
8.8752262743
 30
0.0
 10
11.2147340547
 20
8.8745244314
 30
0.0
 10
11.2130504452
 20
8.8733655275
 30
0.0
 10
11.210775096
 20
8.8716475281
 30
0.0
 10
11.2081641987
 20
8.869544613
 30
0.0
 10
11.2052599932
 20
8.8670895799
 30
0.0
 10
11.2009086393
 20
8.8632657089
 30
0.0
 10
11.1975887901
 20
8.860199203
 30
0.0
 10
11.195327959
 20
8.8580594973
 30
0.0
  0
LINE
  5
381
100
AcDbEntity
  8
0
100
AcDbLine
 62
9
  6
CONTINUOUS
 10
11.7382170752
 20
8.3152452678
 11
11.2029891507
 21
8.8504733011
  0
SPLINE
  5
382
100
AcDbEntity
  8
0
100
AcDbSpline
 62
9
  6
CONTINUOUS
 70
0
 71
3
 72
15
 73
11
 74
0
 42
0.0000001
 43
0.0000001
 44
0.0000000001
 40
0.0
 40
0.0
 40
0.0
 40
0.0
 40
0.0721197319
 40
0.1609919042
 40
0.2665909547
 40
0.3880400202
 40
0.5240246426
 40
0.672822562
 40
0.8323949686
 40
1.0
 40
1.0
 40
1.0
 40
1.0
 10
11.7625433556
 20
8.3297160864
 30
0.0
 10
11.7618558134
 20
8.3296804632
 30
0.0
 10
11.7603328166
 20
8.3293997407
 30
0.0
 10
11.7579208009
 20
8.3285747646
 30
0.0
 10
11.7551791168
 20
8.3273078164
 30
0.0
 10
11.7521501221
 20
8.3256192531
 30
0.0
 10
11.7488797781
 20
8.3235316462
 30
0.0
 10
11.745418514
 20
8.321077033
 30
0.0
 10
11.7418251676
 20
8.3182943078
 30
0.0
 10
11.7394274743
 20
8.3162916278
 30
0.0
 10
11.7382170752
 20
8.3152452678
 30
0.0
  0
LINE
  5
383
100
AcDbEntity
  8
0
100
AcDbLine
 62
9
  6
CONTINUOUS
 10
11.2166407042
 20
8.8756187572
 11
11.7625433556
 21
8.3297160864
  0
SPLINE
  5
384
100
AcDbEntity
  8
0
100
AcDbSpline
 62
9
  6
CONTINUOUS
 70
0
 71
3
 72
24
 73
20
 74
0
 42
0.0000001
 43
0.0000001
 44
0.0000000001
 40
0.0
 40
0.0
 40
0.0
 40
0.0
 40
0.0054594788
 40
0.0117414495
 40
0.0193957456
 40
0.0287261818
 40
0.0398951814
 40
0.0529915166
 40
0.0680559254
 40
0.0851007997
 40
0.1251160166
 40
0.1729488383
 40
0.2283660514
 40
0.2910548419
 40
0.3606634013
 40
0.4367427689
 40
0.6063750627
 40
0.7958047168
 40
1.0
 40
1.0
 40
1.0
 40
1.0
 10
10.4893866435
 20
9.4925294586
 30
0.0
 10
10.48932016
 20
9.492595942
 30
0.0
 10
10.4892085513
 20
9.4927721033
 30
0.0
 10
10.489140659
 20
9.4931038769
 30
0.0
 10
10.4891547948
 20
9.4935066784
 30
0.0
 10
10.4892481118
 20
9.4939838283
 30
0.0
 10
10.4894202248
 20
9.4945370327
 30
0.0
 10
10.4896716169
 20
9.49516652
 30
0.0
 10
10.4900020831
 20
9.4958717871
 30
0.0
 10
10.490579419
 20
9.4969719295
 30
0.0
 10
10.4915062649
 20
9.4985238799
 30
0.0
 10
10.4928688786
 20
9.5005813671
 30
0.0
 10
10.4945280582
 20
9.5029087131
 30
0.0
 10
10.496473548
 20
9.5054909023
 30
0.0
 10
10.4986935637
 20
9.508310705
 30
0.0
 10
10.5021270741
 20
9.5125181071
 30
0.0
 10
10.5069971728
 20
9.5182150594
 30
0.0
 10
10.5134654895
 20
9.5254446855
 30
0.0
 10
10.5180808702
 20
9.5304103495
 30
0.0
 10
10.5204961422
 20
9.5329663099
 30
0.0
  0
LINE
  5
385
100
AcDbEntity
  8
0
100
AcDbLine
 62
9
  6
CONTINUOUS
 10
11.7664367106
 20
8.3258299882
 11
11.9043015948
 21
8.1884121676
  0
SPLINE
  5
386
100
AcDbEntity
  8
0
100
AcDbSpline
 62
9
  6
CONTINUOUS
 70
0
 71
3
 72
24
 73
20
 74
0
 42
0.0000001
 43
0.0000001
 44
0.0000000001
 40
0.0
 40
0.0
 40
0.0
 40
0.0
 40
0.0049451151
 40
0.0107916083
 40
0.018103206
 40
0.0271675981
 40
0.0381297543
 40
0.0510654542
 40
0.0660061821
 40
0.0829577961
 40
0.1228612796
 40
0.1706622655
 40
0.2261131894
 40
0.2888919046
 40
0.358640071
 40
0.4349035274
 40
0.6050222184
 40
0.7950729143
 40
1.0
 40
1.0
 40
1.0
 40
1.0
 10
10.4954666983
 20
9.4862803691
 30
0.0
 10
10.4954084442
 20
9.4863419091
 30
0.0
 10
10.4953149083
 20
9.4865094748
 30
0.0
 10
10.4952776
 20
9.4868220649
 30
0.0
 10
10.4953223692
 20
9.487202298
 30
0.0
 10
10.4954475762
 20
9.4876549575
 30
0.0
 10
10.4956531429
 20
9.4881817625
 30
0.0
 10
10.4959397371
 20
9.488782901
 30
0.0
 10
10.4963071481
 20
9.4894578193
 30
0.0
 10
10.4969396201
 20
9.4905133935
 30
0.0
 10
10.4979380175
 20
9.4920043562
 30
0.0
 10
10.4993879507
 20
9.493983599
 30
0.0
 10
10.5011400317
 20
9.4962256679
 30
0.0
 10
10.5031833713
 20
9.4987160834
 30
0.0
 10
10.5055054574
 20
9.5014382108
 30
0.0
 10
10.5090858121
 20
9.5055037764
 30
0.0
 10
10.5141433541
 20
9.511014102
 30
0.0
 10
10.5208348444
 20
9.5180142555
 30
0.0
 10
10.5255946278
 20
9.5228266565
 30
0.0
 10
10.528082446
 20
9.5253050002
 30
0.0
  0
SPLINE
  5
387
100
AcDbEntity
  8
0
100
AcDbSpline
 62
9
  6
CONTINUOUS
 70
0
 71
3
 72
24
 73
20
 74
0
 42
0.0000001
 43
0.0000001
 44
0.0000000001
 40
0.0
 40
0.0
 40
0.0
 40
0.0
 40
0.0049450527
 40
0.0107914877
 40
0.0181030363
 40
0.0271673877
 40
0.0381295102
 40
0.0510651825
 40
0.0660058879
 40
0.0829574841
 40
0.1228609439
 40
0.17066192
 40
0.2261128461
 40
0.2888915738
 40
0.3586397616
 40
0.4349032474
 40
0.6050220175
 40
0.7950728097
 40
1.0
 40
1.0
 40
1.0
 40
1.0
 10
10.4954665041
 20
9.0490584618
 30
0.0
 10
10.4954082504
 20
9.0489969228
 30
0.0
 10
10.4953147154
 20
9.0488293589
 30
0.0
 10
10.4952774088
 20
9.0485167714
 30
0.0
 10
10.4953221795
 20
9.048136541
 30
0.0
 10
10.4954473881
 20
9.0476838841
 30
0.0
 10
10.4956529564
 20
9.0471570816
 30
0.0
 10
10.4959395523
 20
9.0465559453
 30
0.0
 10
10.4963069652
 20
9.0458810292
 30
0.0
 10
10.4969394399
 20
9.0448254578
 30
0.0
 10
10.4979378409
 20
9.0433344984
 30
0.0
 10
10.4993877784
 20
9.041355259
 30
0.0
 10
10.5011398641
 20
9.0391131932
 30
0.0
 10
10.5031832087
 20
9.0366227806
 30
0.0
 10
10.5055053003
 20
9.0339006559
 30
0.0
 10
10.5090856634
 20
9.0298350938
 30
0.0
 10
10.5141432165
 20
9.0243247724
 30
0.0
 10
10.520834721
 20
9.0173246241
 30
0.0
 10
10.5255945145
 20
9.0125122271
 30
0.0
 10
10.5280823381
 20
9.0100338857
 30
0.0
  0
SPLINE
  5
388
100
AcDbEntity
  8
0
100
AcDbSpline
 62
9
  6
CONTINUOUS
 70
0
 71
3
 72
24
 73
20
 74
0
 42
0.0000001
 43
0.0000001
 44
0.0000000001
 40
0.0
 40
0.0
 40
0.0
 40
0.0
 40
0.0054594791
 40
0.01174145
 40
0.0193957461
 40
0.0287261822
 40
0.0398951817
 40
0.0529915166
 40
0.0680559253
 40
0.0851007994
 40
0.1251160158
 40
0.1729488372
 40
0.2283660501
 40
0.2910548404
 40
0.3606633998
 40
0.4367427674
 40
0.6063750613
 40
0.795804716
 40
1.0
 40
1.0
 40
1.0
 40
1.0
 10
10.4893866435
 20
9.0428095457
 30
0.0
 10
10.4893201601
 20
9.0427430623
 30
0.0
 10
10.4892085513
 20
9.0425669009
 30
0.0
 10
10.4891406589
 20
9.0422351274
 30
0.0
 10
10.4891547947
 20
9.0418323259
 30
0.0
 10
10.4892481117
 20
9.0413551759
 30
0.0
 10
10.4894202246
 20
9.0408019716
 30
0.0
 10
10.4896716167
 20
9.0401724843
 30
0.0
 10
10.4900020828
 20
9.0394672171
 30
0.0
 10
10.4905794188
 20
9.0383670747
 30
0.0
 10
10.4915062646
 20
9.0368151244
 30
0.0
 10
10.4928688783
 20
9.0347576371
 30
0.0
 10
10.4945280578
 20
9.0324302911
 30
0.0
 10
10.4964735476
 20
9.0298481019
 30
0.0
 10
10.4986935633
 20
9.0270282991
 30
0.0
 10
10.5021270736
 20
9.0228208971
 30
0.0
 10
10.5069971723
 20
9.0171239447
 30
0.0
 10
10.513465489
 20
9.0098943185
 30
0.0
 10
10.5180808697
 20
9.0049286546
 30
0.0
 10
10.5204961417
 20
9.0023726941
 30
0.0
  0
SPLINE
  5
389
100
AcDbEntity
  8
0
100
AcDbSpline
 62
9
  6
CONTINUOUS
 70
0
 71
3
 72
20
 73
16
 74
0
 42
0.0000001
 43
0.0000001
 44
0.0000000001
 40
0.0
 40
0.0
 40
0.0
 40
0.0
 40
0.0258088369
 40
0.0539515033
 40
0.0861618195
 40
0.1235440035
 40
0.1666944979
 40
0.2159009801
 40
0.2712104242
 40
0.3325176087
 40
0.3996301882
 40
0.4722371793
 40
0.6324305206
 40
0.8097799408
 40
1.0
 40
1.0
 40
1.0
 40
1.0
 10
9.9614773935
 20
8.5149002957
 30
0.0
 10
9.9611387034
 20
8.5145616295
 30
0.0
 10
9.9605469491
 20
8.5137296597
 30
0.0
 10
9.9600387725
 20
8.5121950064
 30
0.0
 10
9.9598754131
 20
8.5103766067
 30
0.0
 10
9.9600457859
 20
8.5082840037
 30
0.0
 10
9.9605415341
 20
8.5059230538
 30
0.0
 10
9.9613604448
 20
8.5033044797
 30
0.0
 10
9.9624970225
 20
8.5004422594
 30
0.0
 10
9.963944855
 20
8.4973533849
 30
0.0
 10
9.9656960727
 20
8.494057778
 30
0.0
 10
9.9685136945
 20
8.4892563135
 30
0.0
 10
9.9727306494
 20
8.4829122881
 30
0.0
 10
9.9786089311
 20
8.4750733653
 30
0.0
 10
9.982961499
 20
8.4698173619
 30
0.0
 10
9.9852700534
 20
8.4671467145
 30
0.0
  0
LINE
  5
38A
100
AcDbEntity
  8
0
100
AcDbLine
 62
9
  6
CONTINUOUS
 10
9.9710833992
 20
8.188412353
 11
10.1089479744
 21
8.3258299881
  0
LINE
  5
38B
100
AcDbEntity
  8
0
100
AcDbLine
 62
9
  6
CONTINUOUS
 10
9.8857265913
 20
8.1983857139
 11
10.0524984737
 21
8.3644860397
  0
LINE
  5
38C
100
AcDbEntity
  8
0
100
AcDbLine
 62
9
  6
CONTINUOUS
 10
11.8408758055
 20
10.1528633708
 11
12.0069760972
 21
10.3196352825
  0
LINE
  5
38D
100
AcDbEntity
  8
0
100
AcDbLine
 62
9
  6
CONTINUOUS
 10
11.8642456913
 20
8.1892165212
 11
11.7382169119
 21
8.3152455396
  0
SPLINE
  5
38E
100
AcDbEntity
  8
0
100
AcDbSpline
 62
9
  6
CONTINUOUS
 70
0
 71
3
 72
20
 73
16
 74
0
 42
0.0000001
 43
0.0000001
 44
0.0000000001
 40
0.0
 40
0.0
 40
0.0
 40
0.0
 40
0.0258088369
 40
0.0539515033
 40
0.0861618195
 40
0.1235440035
 40
0.1666944979
 40
0.2159009801
 40
0.2712104242
 40
0.3325176087
 40
0.3996301882
 40
0.4722371793
 40
0.6324305206
 40
0.8097799408
 40
1.0
 40
1.0
 40
1.0
 40
1.0
 10
10.1849231363
 20
10.2438844514
 30
0.0
 10
10.1845844701
 20
10.2442231415
 30
0.0
 10
10.1837525003
 20
10.2448148958
 30
0.0
 10
10.182217847
 20
10.2453230723
 30
0.0
 10
10.1803994473
 20
10.2454864318
 30
0.0
 10
10.1783068443
 20
10.245316059
 30
0.0
 10
10.1759458944
 20
10.2448203108
 30
0.0
 10
10.1733273203
 20
10.2440014001
 30
0.0
 10
10.1704651
 20
10.2428648224
 30
0.0
 10
10.1673762255
 20
10.2414169899
 30
0.0
 10
10.1640806186
 20
10.2396657722
 30
0.0
 10
10.1592791541
 20
10.2368481504
 30
0.0
 10
10.1529351287
 20
10.2326311955
 30
0.0
 10
10.1450962059
 20
10.2267529138
 30
0.0
 10
10.1398402025
 20
10.2224003459
 30
0.0
 10
10.1371695551
 20
10.2200917914
 30
0.0
  0
SPLINE
  5
38F
100
AcDbEntity
  8
0
100
AcDbSpline
 62
9
  6
CONTINUOUS
 70
0
 71
3
 72
15
 73
11
 74
0
 42
0.0000001
 43
0.0000001
 44
0.0000000001
 40
0.0
 40
0.0
 40
0.0
 40
0.0
 40
0.0721184239
 40
0.1609894857
 40
0.2665878167
 40
0.3880366149
 40
0.5240214438
 40
0.6728200479
 40
0.8323935681
 40
1.0
 40
1.0
 40
1.0
 40
1.0
 10
9.9997389637
 20
10.0925202574
 30
0.0
 10
9.9997033629
 20
10.0918327309
 30
0.0
 10
9.9994226807
 20
10.0903097587
 30
0.0
 10
9.9985977529
 20
10.0878977747
 30
0.0
 10
9.9973308465
 20
10.0851561138
 30
0.0
 10
9.9956423172
 20
10.0821271333
 30
0.0
 10
9.9935547353
 20
10.078856795
 30
0.0
 10
9.9911001378
 20
10.0753955287
 30
0.0
 10
9.9883174199
 20
10.071802174
 30
0.0
 10
9.9863147411
 20
10.0694044739
 30
0.0
 10
9.9852683806
 20
10.0681940708
 30
0.0
  0
LINE
  5
390
100
AcDbEntity
  8
0
100
AcDbLine
 62
9
  6
CONTINUOUS
 10
9.9852683806
 20
10.0681940708
 11
9.8592394127
 21
10.1942229793
  0
SPLINE
  5
391
100
AcDbEntity
  8
0
100
AcDbSpline
 62
9
  6
CONTINUOUS
 70
0
 71
3
 72
15
 73
11
 74
0
 42
0.0000001
 43
0.0000001
 44
0.0000000001
 40
0.0
 40
0.0
 40
0.0
 40
0.0
 40
0.0287938425
 40
0.0629103412
 40
0.1466847831
 40
0.2502375017
 40
0.3719792663
 40
0.5101054352
 40
0.6625097038
 40
1.0
 40
1.0
 40
1.0
 40
1.0
 10
10.5456415959
 20
9.5466178598
 30
0.0
 10
10.545524921
 20
9.5463792826
 30
0.0
 10
10.5452491143
 20
9.5458682473
 30
0.0
 10
10.5445472707
 20
9.5447112111
 30
0.0
 10
10.5433883659
 20
9.5430276008
 30
0.0
 10
10.5416703656
 20
9.540752251
 30
0.0
 10
10.5395674498
 20
9.5381413532
 30
0.0
 10
10.5371124161
 20
9.5352371473
 30
0.0
 10
10.533288545
 20
9.5308857936
 30
0.0
 10
10.5302220391
 20
9.5275659446
 30
0.0
 10
10.5280823335
 20
9.5253051137
 30
0.0
  0
LINE
  5
392
100
AcDbEntity
  8
0
100
AcDbLine
 62
9
  6
CONTINUOUS
 10
9.999738927
 20
10.0925205149
 11
10.5456415959
 21
9.5466178598
  0
LINE
  5
393
100
AcDbEntity
  8
0
100
AcDbLine
 62
9
  6
CONTINUOUS
 10
10.520496142
 20
9.5329663098
 11
9.9852681085
 21
10.0681942344
  0
SPLINE
  5
394
100
AcDbEntity
  8
0
100
AcDbSpline
 62
9
  6
CONTINUOUS
 70
0
 71
3
 72
15
 73
11
 74
0
 42
0.0000001
 43
0.0000001
 44
0.0000000001
 40
0.0
 40
0.0
 40
0.0
 40
0.0
 40
0.0287938199
 40
0.062910298
 40
0.1466847072
 40
0.2502374049
 40
0.3719791598
 40
0.5101053303
 40
0.6625096198
 40
1.0
 40
1.0
 40
1.0
 40
1.0
 10
10.5456415959
 20
8.9887211426
 30
0.0
 10
10.5455249212
 20
8.9889597196
 30
0.0
 10
10.5452491149
 20
8.9894707545
 30
0.0
 10
10.544547272
 20
8.9906277901
 30
0.0
 10
10.5433883681
 20
8.9923113997
 30
0.0
 10
10.5416703687
 20
8.9945867488
 30
0.0
 10
10.5395674536
 20
8.9971976462
 30
0.0
 10
10.5371124205
 20
9.0001018517
 30
0.0
 10
10.5332885495
 20
9.0044532055
 30
0.0
 10
10.5302220436
 20
9.0077730547
 30
0.0
 10
10.5280823379
 20
9.0100338858
 30
0.0
  0
SPLINE
  5
395
100
AcDbEntity
  8
0
100
AcDbSpline
 62
9
  6
CONTINUOUS
 70
0
 71
3
 72
15
 73
11
 74
0
 42
0.0000001
 43
0.0000001
 44
0.0000000001
 40
0.0
 40
0.0
 40
0.0
 40
0.0
 40
0.0721197319
 40
0.1609919042
 40
0.2665909547
 40
0.3880400202
 40
0.5240246426
 40
0.672822562
 40
0.8323949686
 40
1.0
 40
1.0
 40
1.0
 40
1.0
 10
9.999738927
 20
8.4428184893
 30
0.0
 10
9.9997033037
 20
8.4435060315
 30
0.0
 10
9.9994225813
 20
8.4450290283
 30
0.0
 10
9.9985976052
 20
8.4474410439
 30
0.0
 10
9.997330657
 20
8.450182728
 30
0.0
 10
9.9956420937
 20
8.4532117228
 30
0.0
 10
9.9935544868
 20
8.4564820668
 30
0.0
 10
9.9910998735
 20
8.4599433309
 30
0.0
 10
9.9883171484
 20
8.4635366773
 30
0.0
 10
9.9863144684
 20
8.4659343706
 30
0.0
 10
9.9852681084
 20
8.4671447697
 30
0.0
  0
LINE
  5
396
100
AcDbEntity
  8
0
100
AcDbLine
 62
9
  6
CONTINUOUS
 10
10.5456415978
 20
8.9887211407
 11
9.999738927
 21
8.4428184893
  0
LINE
  5
397
100
AcDbEntity
  8
0
100
AcDbLine
 62
9
  6
CONTINUOUS
 10
9.9852681084
 20
8.4671447697
 11
10.5204961416
 21
9.0023726941
  0
SPLINE
  5
398
100
AcDbEntity
  8
0
100
AcDbSpline
 62
9
  6
CONTINUOUS
 70
0
 71
3
 72
24
 73
20
 74
0
 42
0.0000001
 43
0.0000001
 44
0.0000000001
 40
0.0
 40
0.0
 40
0.0
 40
0.0
 40
0.0054594791
 40
0.01174145
 40
0.0193957461
 40
0.0287261822
 40
0.0398951817
 40
0.0529915166
 40
0.0680559253
 40
0.0851007994
 40
0.1251160158
 40
0.1729488372
 40
0.2283660501
 40
0.2910548404
 40
0.3606633998
 40
0.4367427674
 40
0.6063750613
 40
0.795804716
 40
1.0
 40
1.0
 40
1.0
 40
1.0
 10
10.7128323863
 20
9.7159752014
 30
0.0
 10
10.7127659029
 20
9.7160416848
 30
0.0
 10
10.7125897415
 20
9.7161532936
 30
0.0
 10
10.712257968
 20
9.716221186
 30
0.0
 10
10.7118551665
 20
9.7162070502
 30
0.0
 10
10.7113780165
 20
9.7161137332
 30
0.0
 10
10.7108248122
 20
9.7159416203
 30
0.0
 10
10.7101953249
 20
9.7156902282
 30
0.0
 10
10.7094900577
 20
9.715359762
 30
0.0
 10
10.7083899153
 20
9.7147824261
 30
0.0
 10
10.706837965
 20
9.7138555803
 30
0.0
 10
10.7047804777
 20
9.7124929666
 30
0.0
 10
10.7024531317
 20
9.7108337871
 30
0.0
 10
10.6998709425
 20
9.7088882973
 30
0.0
 10
10.6970511397
 20
9.7066682816
 30
0.0
 10
10.6928437377
 20
9.7032347713
 30
0.0
 10
10.6871467853
 20
9.6983646726
 30
0.0
 10
10.6799171591
 20
9.6918963559
 30
0.0
 10
10.6749514952
 20
9.6872809752
 30
0.0
 10
10.6723955347
 20
9.6848657032
 30
0.0
  0
LINE
  5
399
100
AcDbEntity
  8
0
100
AcDbLine
 62
9
  6
CONTINUOUS
 10
9.9958528288
 20
8.4389251343
 11
9.8584350082
 21
8.3010602501
  0
SPLINE
  5
39A
100
AcDbEntity
  8
0
100
AcDbSpline
 62
9
  6
CONTINUOUS
 70
0
 71
3
 72
24
 73
20
 74
0
 42
0.0000001
 43
0.0000001
 44
0.0000000001
 40
0.0
 40
0.0
 40
0.0
 40
0.0
 40
0.0049450506
 40
0.010791484
 40
0.0181030313
 40
0.0271673817
 40
0.0381295036
 40
0.0510651754
 40
0.0660058805
 40
0.0829574764
 40
0.1228609361
 40
0.1706619124
 40
0.2261128389
 40
0.2888915672
 40
0.3586397557
 40
0.4349032423
 40
0.6050220142
 40
0.7950728082
 40
1.0
 40
1.0
 40
1.0
 40
1.0
 10
10.7190813024
 20
9.7098953419
 30
0.0
 10
10.7190197635
 20
9.7099535955
 30
0.0
 10
10.7188521996
 20
9.7100471305
 30
0.0
 10
10.7185396122
 20
9.7100844371
 30
0.0
 10
10.7181593819
 20
9.7100396662
 30
0.0
 10
10.717706725
 20
9.7099144576
 30
0.0
 10
10.7171799225
 20
9.7097088892
 30
0.0
 10
10.7165787864
 20
9.7094222932
 30
0.0
 10
10.7159038703
 20
9.7090548803
 30
0.0
 10
10.714848299
 20
9.7084224054
 30
0.0
 10
10.7133573396
 20
9.7074240043
 30
0.0
 10
10.7113781003
 20
9.7059740667
 30
0.0
 10
10.7091360346
 20
9.7042219808
 30
0.0
 10
10.706645622
 20
9.702178636
 30
0.0
 10
10.7039234973
 20
9.6998565443
 30
0.0
 10
10.6998579353
 20
9.6962761811
 30
0.0
 10
10.6943476137
 20
9.6912186279
 30
0.0
 10
10.6873474653
 20
9.6845271233
 30
0.0
 10
10.6825350681
 20
9.6797673299
 30
0.0
 10
10.6800567265
 20
9.6772795064
 30
0.0
  0
SPLINE
  5
39B
100
AcDbEntity
  8
0
100
AcDbSpline
 62
9
  6
CONTINUOUS
 70
0
 71
3
 72
24
 73
20
 74
0
 42
0.0000001
 43
0.0000001
 44
0.0000000001
 40
0.0
 40
0.0
 40
0.0
 40
0.0
 40
0.0049450522
 40
0.0107914867
 40
0.0181030344
 40
0.0271673847
 40
0.0381295061
 40
0.0510651771
 40
0.0660058811
 40
0.0829574757
 40
0.1228609323
 40
0.170661905
 40
0.2261128279
 40
0.2888915526
 40
0.3586397379
 40
0.4349032222
 40
0.6050219929
 40
0.7950727928
 40
1.0
 40
1.0
 40
1.0
 40
1.0
 10
11.156303399
 20
9.7098953258
 30
0.0
 10
11.1563649379
 20
9.7099535794
 30
0.0
 10
11.1565325017
 20
9.7100471144
 30
0.0
 10
11.1568450891
 20
9.710084421
 30
0.0
 10
11.1572253192
 20
9.7100396503
 30
0.0
 10
11.157677976
 20
9.7099144418
 30
0.0
 10
11.1582047782
 20
9.7097088737
 30
0.0
 10
11.1588059142
 20
9.7094222779
 30
0.0
 10
11.1594808299
 20
9.7090548652
 30
0.0
 10
11.1605364009
 20
9.7084223908
 30
0.0
 10
11.1620273596
 20
9.7074239903
 30
0.0
 10
11.1640065981
 20
9.7059740536
 30
0.0
 10
11.166248663
 20
9.7042219687
 30
0.0
 10
11.1687390745
 20
9.702178625
 30
0.0
 10
11.1714611981
 20
9.6998565344
 30
0.0
 10
11.1755267586
 20
9.6962761729
 30
0.0
 10
11.1810370781
 20
9.6912186219
 30
0.0
 10
11.1880372242
 20
9.68452712
 30
0.0
 10
11.1928496198
 20
9.6797673282
 30
0.0
 10
11.1953279606
 20
9.6772795056
 30
0.0
  0
SPLINE
  5
39C
100
AcDbEntity
  8
0
100
AcDbSpline
 62
9
  6
CONTINUOUS
 70
0
 71
3
 72
24
 73
20
 74
0
 42
0.0000001
 43
0.0000001
 44
0.0000000001
 40
0.0
 40
0.0
 40
0.0
 40
0.0
 40
0.0054594788
 40
0.0117414495
 40
0.0193957456
 40
0.0287261818
 40
0.0398951814
 40
0.0529915166
 40
0.0680559254
 40
0.0851007997
 40
0.1251160166
 40
0.1729488383
 40
0.2283660514
 40
0.2910548419
 40
0.3606634013
 40
0.4367427689
 40
0.6063750627
 40
0.7958047168
 40
1.0
 40
1.0
 40
1.0
 40
1.0
 10
11.1625522992
 20
9.7159752014
 30
0.0
 10
11.1626187826
 20
9.7160416848
 30
0.0
 10
11.1627949439
 20
9.7161532935
 30
0.0
 10
11.1631267175
 20
9.7162211859
 30
0.0
 10
11.163529519
 20
9.7162070501
 30
0.0
 10
11.1640066689
 20
9.7161137331
 30
0.0
 10
11.1645598733
 20
9.7159416201
 30
0.0
 10
11.1651893606
 20
9.715690228
 30
0.0
 10
11.1658946277
 20
9.7153597618
 30
0.0
 10
11.1669947701
 20
9.7147824258
 30
0.0
 10
11.1685467204
 20
9.71385558
 30
0.0
 10
11.1706042077
 20
9.7124929662
 30
0.0
 10
11.1729315537
 20
9.7108337866
 30
0.0
 10
11.1755137429
 20
9.7088882969
 30
0.0
 10
11.1783335456
 20
9.7066682811
 30
0.0
 10
11.1825409477
 20
9.7032347708
 30
0.0
 10
11.1882379
 20
9.6983646721
 30
0.0
 10
11.1954675261
 20
9.6918963554
 30
0.0
 10
11.2004331901
 20
9.6872809746
 30
0.0
 10
11.2029891505
 20
9.6848657027
 30
0.0
  0
SPLINE
  5
39D
100
AcDbEntity
  8
0
100
AcDbSpline
 62
9
  6
CONTINUOUS
 70
0
 71
3
 72
20
 73
16
 74
0
 42
0.0000001
 43
0.0000001
 44
0.0000000001
 40
0.0
 40
0.0
 40
0.0
 40
0.0
 40
0.0258177934
 40
0.0539685844
 40
0.0861854827
 40
0.123572541
 40
0.1667262997
 40
0.2159345908
 40
0.2712445455
 40
0.332551078
 40
0.3996619651
 40
0.4722663468
 40
0.6324521278
 40
0.8097915467
 40
1.0
 40
1.0
 40
1.0
 40
1.0
 10
11.6904615477
 20
10.24388445
 30
0.0
 10
11.6908003734
 20
10.2442232473
 30
0.0
 10
11.6916326329
 20
10.2448152058
 30
0.0
 10
11.6931677113
 20
10.2453237177
 30
0.0
 10
11.6949865324
 20
10.2454874047
 30
0.0
 10
11.6970795346
 20
10.2453173396
 30
0.0
 10
11.6994408507
 20
10.24482188
 30
0.0
 10
11.7020597537
 20
10.2440032393
 30
0.0
 10
11.7049222627
 20
10.2428669118
 30
0.0
 10
11.7080113834
 20
10.2414193072
 30
0.0
 10
11.7113071922
 20
10.239668292
 30
0.0
 10
11.7161088522
 20
10.2368509231
 30
0.0
 10
11.7224530094
 20
10.2326341918
 30
0.0
 10
11.7302919143
 20
10.2267560204
 30
0.0
 10
11.7355477873
 20
10.2224034202
 30
0.0
 10
11.7382183345
 20
10.2200948272
 30
0.0
  0
LINE
  5
39E
100
AcDbEntity
  8
0
100
AcDbLine
 62
9
  6
CONTINUOUS
 10
10.0524984741
 20
10.1708529649
 11
9.8857265616
 21
10.3369532558
  0
SPLINE
  5
39F
100
AcDbEntity
  8
0
100
AcDbSpline
 62
9
  6
CONTINUOUS
 70
0
 71
3
 72
18
 73
14
 74
0
 42
0.0000001
 43
0.0000001
 44
0.0000000001
 40
0.0
 40
0.0
 40
0.0
 40
0.0
 40
0.1628374157
 40
0.3216737806
 40
0.4724871945
 40
0.6117813401
 40
0.7363200117
 40
0.7922184879
 40
0.8434987901
 40
0.8899836872
 40
0.9315519304
 40
0.9681849835
 40
1.0
 40
1.0
 40
1.0
 40
1.0
 10
11.8228862009
 20
8.36448605
 30
0.0
 10
11.8202379459
 20
8.3618121491
 30
0.0
 10
11.8148985286
 20
8.3566356702
 30
0.0
 10
11.8067472456
 20
8.3493647098
 30
0.0
 10
11.7986992951
 20
8.3428096285
 30
0.0
 10
11.7909678746
 20
8.3371402162
 30
0.0
 10
11.784748109
 20
8.3331376405
 30
0.0
 10
11.7800736645
 20
8.3305212371
 30
0.0
 10
11.7768946169
 20
8.3289347
 30
0.0
 10
11.7739350574
 20
8.327660551
 30
0.0
 10
11.7712122422
 20
8.3267076076
 30
0.0
 10
11.7687444421
 20
8.326080921
 30
0.0
 10
11.7671710243
 20
8.3258679342
 30
0.0
 10
11.7664367188
 20
8.3258299978
 30
0.0
  0
SPLINE
  5
3A0
100
AcDbEntity
  8
0
100
AcDbSpline
 62
9
  6
CONTINUOUS
 70
0
 71
3
 72
15
 73
11
 74
0
 42
0.0000001
 43
0.0000001
 44
0.0000000001
 40
0.0
 40
0.0
 40
0.0
 40
0.0
 40
0.0721184239
 40
0.1609894857
 40
0.2665878167
 40
0.3880366149
 40
0.5240214438
 40
0.6728200479
 40
0.8323935681
 40
1.0
 40
1.0
 40
1.0
 40
1.0
 10
11.762543098
 20
10.2056228812
 30
0.0
 10
11.7618555715
 20
10.205658482
 30
0.0
 10
11.7603325993
 20
10.2059391642
 30
0.0
 10
11.7579206153
 20
10.206764092
 30
0.0
 10
11.7551789544
 20
10.2080309984
 30
0.0
 10
11.7521499739
 20
10.2097195277
 30
0.0
 10
11.7488796356
 20
10.2118071096
 30
0.0
 10
11.7454183693
 20
10.214261707
 30
0.0
 10
11.7418250146
 20
10.217044425
 30
0.0
 10
11.7394273145
 20
10.2190471038
 30
0.0
 10
11.7382169114
 20
10.2200934643
 30
0.0
  0
LINE
  5
3A1
100
AcDbEntity
  8
0
100
AcDbLine
 62
9
  6
CONTINUOUS
 10
11.7382169114
 20
10.2200934643
 11
11.8642458199
 21
10.3461224322
  0
LINE
  5
3A2
100
AcDbEntity
  8
0
100
AcDbLine
 62
9
  6
CONTINUOUS
 10
11.8228862114
 20
8.3644860393
 11
11.9896581239
 21
8.1983857485
  0
SPLINE
  5
3A3
100
AcDbEntity
  8
0
100
AcDbSpline
 62
9
  6
CONTINUOUS
 70
0
 71
3
 72
15
 73
11
 74
0
 42
0.0000001
 43
0.0000001
 44
0.0000000001
 40
0.0
 40
0.0
 40
0.0
 40
0.0
 40
0.0287938203
 40
0.0629102988
 40
0.1466847089
 40
0.2502374073
 40
0.3719791627
 40
0.5101053333
 40
0.6625096224
 40
1.0
 40
1.0
 40
1.0
 40
1.0
 10
11.2166407042
 20
9.6597202471
 30
0.0
 10
11.2164021272
 20
9.6598369218
 30
0.0
 10
11.2158910922
 20
9.6601127281
 30
0.0
 10
11.2147340566
 20
9.660814571
 30
0.0
 10
11.2130504469
 20
9.661973475
 30
0.0
 10
11.2107750977
 20
9.6636914745
 30
0.0
 10
11.2081642003
 20
9.6657943897
 30
0.0
 10
11.2052599946
 20
9.668249423
 30
0.0
 10
11.2009086407
 20
9.672073294
 30
0.0
 10
11.1975887913
 20
9.6751398001
 30
0.0
 10
11.1953279602
 20
9.6772795058
 30
0.0
  0
LINE
  5
3A4
100
AcDbEntity
  8
0
100
AcDbLine
 62
9
  6
CONTINUOUS
 10
11.2676548477
 20
8.9196958219
 11
11.8192012496
 21
8.3681494755
  0
LINE
  5
3A5
100
AcDbEntity
  8
0
100
AcDbLine
 62
9
  6
CONTINUOUS
 10
10.0561834367
 20
8.3681494766
 11
10.6077309829
 21
8.9196967998
  0
LINE
  5
3A6
100
AcDbEntity
  8
0
100
AcDbLine
 62
9
  6
CONTINUOUS
 10
11.285666023
 20
9.5976320071
 11
11.8372123694
 21
10.149178409
  0
LINE
  5
3A7
100
AcDbEntity
  8
0
100
AcDbLine
 62
9
  6
CONTINUOUS
 10
11.8372123683
 20
8.3861605961
 11
11.2856650451
 21
8.9377081423
  0
LINE
  5
3A8
100
AcDbEntity
  8
0
100
AcDbLine
 62
9
  6
CONTINUOUS
 10
11.7625433555
 20
10.2056229179
 11
11.2166407042
 21
9.6597202471
  0
LINE
  5
3A9
100
AcDbEntity
  8
0
100
AcDbLine
 62
9
  6
CONTINUOUS
 10
11.2029891504
 20
9.6848657029
 11
11.738217075
 21
10.2200937364
  0
SPLINE
  5
3AA
100
AcDbEntity
  8
0
100
AcDbSpline
 62
9
  6
CONTINUOUS
 70
0
 71
3
 72
15
 73
11
 74
0
 42
0.0000001
 43
0.0000001
 44
0.0000000001
 40
0.0
 40
0.0
 40
0.0
 40
0.0
 40
0.0287938199
 40
0.0629102981
 40
0.1466847073
 40
0.250237405
 40
0.3719791599
 40
0.5101053304
 40
0.6625096199
 40
1.0
 40
1.0
 40
1.0
 40
1.0
 10
10.658743983
 20
9.6597202489
 30
0.0
 10
10.6589825601
 20
9.6598369236
 30
0.0
 10
10.659493595
 20
9.6601127299
 30
0.0
 10
10.6606506306
 20
9.6608145727
 30
0.0
 10
10.6623342402
 20
9.6619734767
 30
0.0
 10
10.6646095893
 20
9.663691476
 30
0.0
 10
10.6672204867
 20
9.6657943911
 30
0.0
 10
10.6701246922
 20
9.6682494243
 30
0.0
 10
10.674476046
 20
9.6720732953
 30
0.0
 10
10.6777958953
 20
9.6751398012
 30
0.0
 10
10.6800567264
 20
9.6772795069
 30
0.0
  0
LINE
  5
3AB
100
AcDbEntity
  8
0
100
AcDbLine
 62
9
  6
CONTINUOUS
 10
10.1371676102
 20
10.2200937364
 11
10.6723955347
 21
9.6848657032
  0
SPLINE
  5
3AC
100
AcDbEntity
  8
0
100
AcDbSpline
 62
9
  6
CONTINUOUS
 70
0
 71
3
 72
15
 73
11
 74
0
 42
0.0000001
 43
0.0000001
 44
0.0000000001
 40
0.0
 40
0.0
 40
0.0
 40
0.0
 40
0.0721197319
 40
0.1609919042
 40
0.2665909547
 40
0.3880400202
 40
0.5240246426
 40
0.672822562
 40
0.8323949686
 40
1.0
 40
1.0
 40
1.0
 40
1.0
 10
10.1128413299
 20
10.2056229179
 30
0.0
 10
10.1135288721
 20
10.2056585411
 30
0.0
 10
10.1150518689
 20
10.2059392636
 30
0.0
 10
10.1174638845
 20
10.2067642397
 30
0.0
 10
10.1202055686
 20
10.2080311879
 30
0.0
 10
10.1232345634
 20
10.2097197512
 30
0.0
 10
10.1265049074
 20
10.2118073581
 30
0.0
 10
10.1299661715
 20
10.2142619713
 30
0.0
 10
10.1335595179
 20
10.2170446964
 30
0.0
 10
10.1359572112
 20
10.2190473765
 30
0.0
 10
10.1371676102
 20
10.2200937364
 30
0.0
  0
LINE
  5
3AD
100
AcDbEntity
  8
0
100
AcDbLine
 62
9
  6
CONTINUOUS
 10
10.5897186625
 20
8.9377069972
 11
10.0381723161
 21
8.3861605953
  0
LINE
  5
3AE
100
AcDbEntity
  8
0
100
AcDbLine
 62
9
  6
CONTINUOUS
 10
10.0381723172
 20
10.1491784082
 11
10.5897196404
 21
9.597630862
  0
LINE
  5
3AF
100
AcDbEntity
  8
0
100
AcDbLine
 62
9
  6
CONTINUOUS
 10
10.6077298347
 20
9.6156431854
 11
10.0561834358
 21
10.1671895288
  0
LINE
  5
3B0
100
AcDbEntity
  8
0
100
AcDbLine
 62
9
  6
CONTINUOUS
 10
11.8192012488
 20
10.1671895277
 11
11.2676548515
 21
9.6156431854
  0
ENDSEC
  0
SECTION
  2
OBJECTS
  0
DICTIONARY
  5
C
100
AcDbDictionary
280
0
281
1
  3
ACAD_GROUP
350
D
  3
ACAD_MLINESTYLE
350
17
  3
ACAD_LAYOUT
350
1A
  3
ACAD_PLOTSETTINGS
350
19
  3
ACAD_PLOTSTYLENAME
350
E
  0
DICTIONARY
  5
D
102
{ACAD_REACTORS
330
C
102
}
100
AcDbDictionary
280
0
281
1
  0
ACDBDICTIONARYWDFLT
  5
E
102
{ACAD_REACTORS
330
C
102
}
100
AcDbDictionary
281
1
  3
Normal
350
F
100
AcDbDictionaryWithDefault
340
F
  0
DICTIONARY
  5
17
102
{ACAD_REACTORS
330
C
102
}
100
AcDbDictionary
280
0
281
1
  3
Standard
350
18
  0
DICTIONARY
  5
19
102
{ACAD_REACTORS
330
C
102
}
100
AcDbDictionary
281
1
  0
DICTIONARY
  5
1A
102
{ACAD_REACTORS
330
C
102
}
100
AcDbDictionary
281
1
  3
Model
350
3B1
  3
Layout1
350
3B2
  0
ACDBPLACEHOLDER
  5
F
102
{ACAD_REACTORS
330
E
102
}
  0
MLINESTYLE
  5
18
102
{ACAD_REACTORS
330
17
102
}
100
AcDbMlineStyle
  2
STANDARD
 70
0
  3

 62
256
 51
90.0
 52
90.0
 71
2
 49
0.5
 62
256
  6
BYLAYER
 49
-0.5
 62
256
  6
BYLAYER
  0
LAYOUT
  5
3B1
102
{ACAD_REACTORS
330
1A
102
}
100
AcDbPlotSettings
  1

  2
none_device
  4
ANSI_C_(22.00_x_17.00_Inches)
  6

 40
0.0
 41
0.0
 42
0.0
 43
0.0
 44
558.8
 45
431.8
 46
0.0
 47
0.0
 48
0.0
 49
0.0
140
0.0
141
0.0
142
1.0
143
1.0
 70
1024
 72
0
 73
0
 74
0
  7

 75
0
147
1.0
148
0.0
149
0.0
100
AcDbLayout
  1
Model
 70
0
 71
0
 10
0.0
 20
0.0
 11
22.0
 21
17.0
 12
0.0
 22
0.0
 32
0.0
 14
0.0
 24
0.0
 34
0.0
 15
0.0
 25
0.0
 35
0.0
146
0.0
 13
0.0
 23
0.0
 33
0.0
 16
1.0
 26
0.0
 36
0.0
 17
0.0
 27
1.0
 37
0.0
 76
0
330
205
345
0
346
0
  0
LAYOUT
  5
3B2
102
{ACAD_REACTORS
330
1A
102
}
100
AcDbPlotSettings
  1

  2
none_device
  4
ANSI_C_(22.00_x_17.00_Inches)
  6

 40
0.0
 41
0.0
 42
0.0
 43
0.0
 44
558.8
 45
431.8
 46
0.0
 47
0.0
 48
0.0
 49
0.0
140
0.0
141
0.0
142
1.0
143
1.0
 70
0
 72
0
 73
0
 74
0
  7

 75
0
147
1.0
148
0.0
149
0.0
100
AcDbLayout
  1
Layout1
 70
0
 71
1
 10
0.0
 20
0.0
 11
22.0
 21
17.0
 12
0.0
 22
0.0
 32
0.0
 14
0.0
 24
0.0
 34
0.0
 15
0.0
 25
0.0
 35
0.0
146
0.0
 13
0.0
 23
0.0
 33
0.0
 16
1.0
 26
0.0
 36
0.0
 17
0.0
 27
1.0
 37
0.0
 76
0
330
206
345
0
346
0
  0
ENDSEC
  0
EOF
