999
DXF file: E:\BT Custom\CADOUTPUT\_RIGHT.dxf
999
Pro/ENGINEER 2018400 by Parametric Technology Corporation
  0
SECTION
  2
HEADER
  9
$ACADVER
  1
AC1018
  9
$DWGCODEPAGE
  3
ANSI_1252
  9
$EXTMAX
 10
22.0
 20
17.0
 30
0.0
  9
$EXTMIN
 10
0.0
 20
0.0
 30
0.0
  9
$LIMMIN
 10
0.0
 20
0.0
  9
$LIMMAX
 10
22.0
 20
17.0
  9
$VIEWCTR
 10
11.0
 20
8.5
  9
$VIEWSIZE
 40
17.0
  9
$CLAYER
  8
0
  9
$LTSCALE
 40
1.21
  9
$CELTYPE
  6
BYLAYER
  9
$DIMSCALE
 40
1.0
  9
$DIMASZ
 40
0.1
  9
$DIMEXO
 40
0.0625
  9
$DIMDLI
 40
0.836
  9
$DIMEXE
 40
0.125
  9
$DIMCEN
 40
0.198
  9
$DIMLFAC
 40
1.0
  9
$DIMBLK
  1
_FILLED
  9
$DIMALT
 70
1
  9
$DIMALTD
 70
2
  9
$DIMALTTD
 70
2
  9
$DIMALTF
 40
25.4
  9
$DIMTXT
 40
0.08
  9
$DIMTOL
 70
1
  9
$DIMLIM
 70
0
  9
$DIMTFAC
 40
1.0
  9
$DIMTP
 40
0.001
  9
$DIMTM
 40
0.001
  9
$DIMGAP
 40
0.09
  9
$DIMDSEP
 70
46
  9
$AUNITS
 70
0
  9
$PDMODE
 70
3
  9
$PDSIZE
 40
0.06
  9
$HANDSEED
  5
3B1
  9
$TILEMODE
 70
1
  9
$MEASUREMENT
 70
0
  9
$INSUNITS
 70
1
  0
ENDSEC
  0
SECTION
  2
CLASSES
  0
CLASS
  1
ACDBDICTIONARYWDFLT
  2
AcDbDictionaryWithDefault
  3
AutoCAD 2000
 90
0
 91
1
280
0
281
0
  0
CLASS
  1
ACDBPLACEHOLDER
  2
AcDbPlaceHolder
  3
AutoCAD 2000
 90
0
 91
1
280
0
281
0
  0
CLASS
  1
LAYOUT
  2
AcDbLayout
  3
AutoCAD 2000
 90
0
 91
0
280
0
281
0
  0
ENDSEC
  0
SECTION
  2
TABLES
  0
TABLE
  2
VPORT
  5
8
100
AcDbSymbolTable
 70
2
  0
VPORT
  5
1F4
100
AcDbSymbolTableRecord
100
AcDbViewportTableRecord
  2
*ACTIVE
 70
0
 10
0.0
 20
0.0
 11
1.0
 21
1.0
 12
11.0
 22
8.5
 13
0.0
 23
0.0
 14
1.0
 24
1.0
 15
0.0
 25
0.0
 16
0.0
 26
0.0
 36
1.0
 17
0.0
 27
0.0
 37
0.0
 40
17.0
 41
1.2941176471
 42
50.0
 43
0.0
 44
0.0
 50
0.0
 51
0.0
 71
0
 72
100
 73
1
 74
1
 75
0
 76
0
 77
0
 78
0
  0
ENDTAB
  0
TABLE
  2
LTYPE
  5
5
100
AcDbSymbolTable
 70
6
  0
LTYPE
  5
14
100
AcDbSymbolTableRecord
100
AcDbLinetypeTableRecord
  2
BYBLOCK
 70
0
  3

 72
65
 73
0
 40
0.0
  0
LTYPE
  5
15
100
AcDbSymbolTableRecord
100
AcDbLinetypeTableRecord
  2
BYLAYER
 70
0
  3

 72
65
 73
0
 40
0.0
  0
LTYPE
  5
16
100
AcDbSymbolTableRecord
100
AcDbLinetypeTableRecord
  2
CONTINUOUS
 70
64
  3
Solid line
 72
65
 73
0
 40
0.0
  0
LTYPE
  5
1F5
100
AcDbSymbolTableRecord
100
AcDbLinetypeTableRecord
  2
CENTER
 70
64
  3
____ _ ____ _ ____ _ ____ _ ____ _ ____ _ ____
 72
65
 73
4
 40
0.6
 49
0.375
 74
0
 49
-0.075
 74
0
 49
0.075
 74
0
 49
-0.075
 74
0
  0
LTYPE
  5
1F6
100
AcDbSymbolTableRecord
100
AcDbLinetypeTableRecord
  2
HIDDEN
 70
64
  3
- - - - - - - - - - - - - - - - - - - -
 72
65
 73
2
 40
0.2
 49
0.1
 74
0
 49
-0.1
 74
0
  0
LTYPE
  5
1F7
100
AcDbSymbolTableRecord
100
AcDbLinetypeTableRecord
  2
PHANTOM
 70
64
  3
_____ _ _ _____ _ _ _____ _ _ _____
 72
65
 73
6
 40
0.8
 49
0.45
 74
0
 49
-0.05
 74
0
 49
0.1
 74
0
 49
-0.05
 74
0
 49
0.1
 74
0
 49
-0.05
 74
0
  0
LTYPE
  5
1F8
100
AcDbSymbolTableRecord
100
AcDbLinetypeTableRecord
  2
DOT
 70
64
  3
. . . . . . . . . . . . . . . . . . . .
 72
65
 73
2
 40
0.2
 49
0.1
 74
0
 49
-0.1
 74
0
  0
LTYPE
  5
1F9
100
AcDbSymbolTableRecord
100
AcDbLinetypeTableRecord
  2
DASHED
 70
64
  3
- - - - - - - - - - - - - - - - - - - -
 72
65
 73
2
 40
0.2
 49
0.1
 74
0
 49
-0.1
 74
0
  0
ENDTAB
  0
TABLE
  2
LAYER
  5
2
100
AcDbSymbolTable
 70
36
  0
LAYER
  5
10
100
AcDbSymbolTableRecord
100
AcDbLayerTableRecord
  2
0
 70
0
 62
7
  6
CONTINUOUS
370
-3
390
F
  0
LAYER
  5
1FA
100
AcDbSymbolTableRecord
100
AcDbLayerTableRecord
  2
DEFAULT_1
 70
0
 62
7
  6
CENTER
370
-3
390
F
  0
LAYER
  5
1FB
100
AcDbSymbolTableRecord
100
AcDbLayerTableRecord
  2
DEFAULT_2
 70
0
 62
8
  6
HIDDEN
370
-3
390
F
  0
LAYER
  5
1FC
100
AcDbSymbolTableRecord
100
AcDbLayerTableRecord
  2
DEFAULT_3
 70
0
 62
7
  6
PHANTOM
370
-3
390
F
  0
LAYER
  5
1FD
100
AcDbSymbolTableRecord
100
AcDbLayerTableRecord
  2
ALL_FEATURES
 70
0
 62
7
  6
CONTINUOUS
370
-3
390
F
  0
LAYER
  5
1FE
100
AcDbSymbolTableRecord
100
AcDbLayerTableRecord
  2
AXES_FEATURES
 70
0
 62
7
  6
CONTINUOUS
370
-3
390
F
  0
LAYER
  5
1FF
100
AcDbSymbolTableRecord
100
AcDbLayerTableRecord
  2
DEFAULT_COORDINATE_SYSTEM
 70
0
 62
7
  6
CONTINUOUS
370
-3
390
F
  0
LAYER
  5
200
100
AcDbSymbolTableRecord
100
AcDbLayerTableRecord
  2
DEFAULT_DATUM_AXES
 70
0
 62
7
  6
CONTINUOUS
370
-3
390
F
  0
LAYER
  5
201
100
AcDbSymbolTableRecord
100
AcDbLayerTableRecord
  2
DEFAULT_DATUM_PLANES
 70
0
 62
7
  6
CONTINUOUS
370
-3
390
F
  0
LAYER
  5
202
100
AcDbSymbolTableRecord
100
AcDbLayerTableRecord
  2
DIMENSIONS
 70
0
 62
7
  6
CONTINUOUS
370
-3
390
F
  0
ENDTAB
  0
TABLE
  2
STYLE
  5
3
100
AcDbSymbolTable
 70
1
  0
STYLE
  5
11
100
AcDbSymbolTableRecord
100
AcDbTextStyleTableRecord
  2
STANDARD
 70
0
 40
0.0
 41
0.8
 50
0.0
 71
0
 42
0.2
  3
txt
  4

  0
STYLE
  5
203
100
AcDbSymbolTableRecord
100
AcDbTextStyleTableRecord
  2
TEXTSTYLE_1
 70
0
 40
0.0
 41
0.8
 50
0.0
 71
0
 42
0.2
  3
gdt
  4

  0
ENDTAB
  0
TABLE
  2
VIEW
  5
6
100
AcDbSymbolTable
 70
0
  0
ENDTAB
  0
TABLE
  2
UCS
  5
7
100
AcDbSymbolTable
 70
0
  0
ENDTAB
  0
TABLE
  2
APPID
  5
9
100
AcDbSymbolTable
 70
1
  0
APPID
  5
204
100
AcDbSymbolTableRecord
100
AcDbRegAppTableRecord
  2
ACAD
 70
0
  0
ENDTAB
  0
TABLE
  2
BLOCK_RECORD
  5
1
100
AcDbSymbolTable
 70
0
  0
BLOCK_RECORD
  5
205
100
AcDbSymbolTableRecord
100
AcDbBlockTableRecord
  2
*Model_Space
  0
BLOCK_RECORD
  5
206
100
AcDbSymbolTableRecord
100
AcDbBlockTableRecord
  2
*Paper_Space
  0
BLOCK_RECORD
  5
207
100
AcDbSymbolTableRecord
100
AcDbBlockTableRecord
  2
_FILLED
  0
ENDTAB
  0
TABLE
  2
DIMSTYLE
  5
A
100
AcDbSymbolTable
 70
1
100
AcDbDimStyleTable
 71
0
  0
DIMSTYLE
105
208
100
AcDbSymbolTableRecord
100
AcDbDimStyleTableRecord
  2
STANDARD
 70
0
  3

  4

 40
1.0
 41
0.1
 42
0.0625
 43
0.38
 44
0.125
 45
0.0
 46
0.0
 47
0.001
 48
0.001
140
0.08
141
0.09
142
0.0
143
25.4
144
1.0
145
0.0
146
1.0
147
0.09
 71
1.0
 72
0.0
 73
1
 74
1
 75
0
 76
0
 77
0
 78
4
 79
1
170
1
171
2
172
0
173
0
174
0
175
0
176
0
177
0
178
0
270
2
179
3
271
3
272
3
273
2
274
2
275
0
280
0
281
0
282
0
283
1
284
4
285
0
286
0
287
3
288
0
340
11
278
46
341
207
342
207
343
207
344
207
  0
ENDTAB
  0
ENDSEC
  0
SECTION
  2
BLOCKS
  0
BLOCK
  5
20
100
AcDbEntity
  8
0
100
AcDbBlockBegin
  2
*Model_Space
 70
0
 10
0.0
 20
0.0
 30
0.0
  3
*Model_Space
  1

  0
ENDBLK
  5
21
100
AcDbEntity
  8
0
100
AcDbBlockEnd
  0
BLOCK
  5
1C
100
AcDbEntity
  8
0
100
AcDbBlockBegin
  2
*Paper_Space
 70
0
 10
0.0
 20
0.0
 30
0.0
  3
*Paper_Space
  1

  0
ENDBLK
  5
1D
100
AcDbEntity
  8
0
100
AcDbBlockEnd
  0
BLOCK
  5
209
100
AcDbEntity
  8
0
100
AcDbBlockBegin
  2
_FILLED
 70
64
 10
0.0
 20
0.0
  3
_FILLED
  1

  0
SOLID
  5
20A
100
AcDbEntity
  8
0
  6
BYBLOCK
 62
0
100
AcDbTrace
 10
0.0
 20
0.0
 11
-1.0
 21
0.2
 12
-1.0
 22
-0.2
 13
-1.0
 23
-0.2
  0
ENDBLK
  5
20B
100
AcDbEntity
  8
0
  6
BYBLOCK
 62
0
100
AcDbBlockEnd
  0
ENDSEC
  0
SECTION
  2
ENTITIES
  0
LINE
  5
20C
100
AcDbEntity
  8
0
100
AcDbLine
 62
7
  6
CONTINUOUS
 10
12.0509834891
 20
5.634891804
 11
12.2509834891
 21
5.634891804
  0
LINE
  5
20D
100
AcDbEntity
  8
0
100
AcDbLine
 62
7
  6
CONTINUOUS
 10
12.0509834891
 20
5.759891804
 11
11.9379834891
 21
5.759891804
  0
LINE
  5
20E
100
AcDbEntity
  8
0
100
AcDbLine
 62
9
  6
CONTINUOUS
 10
11.9379834891
 20
6.049891804
 11
12.2509834891
 21
6.049891804
  0
LINE
  5
20F
100
AcDbEntity
  8
0
100
AcDbLine
 62
9
  6
CONTINUOUS
 10
12.2509834891
 20
6.094891804
 11
11.9379834891
 21
6.094891804
  0
LINE
  5
210
100
AcDbEntity
  8
0
100
AcDbLine
 62
7
  6
CONTINUOUS
 10
12.0509834891
 20
6.134891804
 11
12.2509834891
 21
6.134891804
  0
LINE
  5
211
100
AcDbEntity
  8
0
100
AcDbLine
 62
7
  6
CONTINUOUS
 10
12.0509834891
 20
6.259891804
 11
11.9379834891
 21
6.259891804
  0
LINE
  5
212
100
AcDbEntity
  8
0
100
AcDbLine
 62
7
  6
CONTINUOUS
 10
10.6099834891
 20
6.347891804
 11
10.5729834891
 21
6.347891804
  0
LINE
  5
213
100
AcDbEntity
  8
0
100
AcDbLine
 62
7
  6
CONTINUOUS
 10
10.7089834891
 20
6.446391804
 11
10.6899834891
 21
6.446391804
  0
LINE
  5
214
100
AcDbEntity
  8
0
100
AcDbLine
 62
7
  6
CONTINUOUS
 10
10.4929834891
 20
6.446391804
 11
10.4749834891
 21
6.446391804
  0
LINE
  5
215
100
AcDbEntity
  8
0
100
AcDbLine
 62
9
  6
CONTINUOUS
 10
11.9379834891
 20
6.549891804
 11
12.2509834891
 21
6.549891804
  0
LINE
  5
216
100
AcDbEntity
  8
0
100
AcDbLine
 62
7
  6
CONTINUOUS
 10
11.0499834891
 20
6.602391804
 11
10.9921512839
 21
6.602391804
  0
LINE
  5
217
100
AcDbEntity
  8
0
100
AcDbLine
 62
7
  6
CONTINUOUS
 10
11.9379834891
 20
6.603891804
 11
11.6699834891
 21
6.603891804
  0
LINE
  5
218
100
AcDbEntity
  8
0
100
AcDbLine
 62
7
  6
CONTINUOUS
 10
11.0499834891
 20
6.662891804
 11
11.6579834891
 21
6.662891804
  0
LINE
  5
219
100
AcDbEntity
  8
0
100
AcDbLine
 62
7
  6
CONTINUOUS
 10
11.0499834891
 20
7.016891804
 11
11.6579834891
 21
7.016891804
  0
LINE
  5
21A
100
AcDbEntity
  8
0
100
AcDbLine
 62
7
  6
CONTINUOUS
 10
11.9379834891
 20
7.075891804
 11
11.6699834891
 21
7.075891804
  0
LINE
  5
21B
100
AcDbEntity
  8
0
100
AcDbLine
 62
7
  6
CONTINUOUS
 10
11.0499834891
 20
7.077391804
 11
10.9921512839
 21
7.077391804
  0
LINE
  5
21C
100
AcDbEntity
  8
0
100
AcDbLine
 62
7
  6
CONTINUOUS
 10
10.7089834891
 20
7.233391804
 11
10.6899834891
 21
7.233391804
  0
LINE
  5
21D
100
AcDbEntity
  8
0
100
AcDbLine
 62
7
  6
CONTINUOUS
 10
10.4929834891
 20
7.233391804
 11
10.4749834891
 21
7.233391804
  0
LINE
  5
21E
100
AcDbEntity
  8
0
100
AcDbLine
 62
9
  6
CONTINUOUS
 10
9.1920327099
 20
8.6619181238
 11
9.1923505534
 21
8.6573417785
  0
LINE
  5
21F
100
AcDbEntity
  8
0
100
AcDbLine
 62
7
  6
CONTINUOUS
 10
9.1689834891
 20
9.009891804
 11
9.173453773
 21
8.7985086099
  0
LINE
  5
220
100
AcDbEntity
  8
0
100
AcDbLine
 62
7
  6
CONTINUOUS
 10
9.1689834891
 20
9.009891804
 11
9.1734537731
 21
9.2212750006
  0
LINE
  5
221
100
AcDbEntity
  8
0
100
AcDbLine
 62
9
  6
CONTINUOUS
 10
9.1920327562
 20
9.3578654841
 11
9.1923505822
 21
9.3624418253
  0
LWPOLYLINE
  5
222
100
AcDbEntity
  8
0
100
AcDbPolyline
 62
7
  6
CONTINUOUS
 90
3
 70
0
 10
9.1740285258
 20
9.2277398987
 10
9.1735612272
 20
9.2231913084
 10
9.1734538033
 20
9.2212749998
  0
LINE
  5
223
100
AcDbEntity
  8
0
100
AcDbLine
 62
7
  6
CONTINUOUS
 10
9.1923506029
 20
9.3624419768
 11
9.1740285258
 21
9.2277398987
  0
LINE
  5
224
100
AcDbEntity
  8
0
100
AcDbLine
 62
7
  6
CONTINUOUS
 10
9.2247203886
 20
9.5487800718
 11
9.1923505532
 21
9.3624418293
  0
LWPOLYLINE
  5
225
100
AcDbEntity
  8
0
100
AcDbPolyline
 62
7
  6
CONTINUOUS
 90
3
 70
0
 10
9.3322535334
 20
9.9209977324
 10
9.2722290479
 20
9.7384238798
 10
9.2246828199
 20
9.5485638062
  0
LINE
  5
226
100
AcDbEntity
  8
0
100
AcDbLine
 62
7
  6
CONTINUOUS
 10
9.3336704716
 20
9.9248277138
 11
9.3322536048
 21
9.9209978805
  0
LINE
  5
227
100
AcDbEntity
  8
0
100
AcDbLine
 62
7
  6
CONTINUOUS
 10
9.3487256113
 20
9.9566708879
 11
9.3485517806
 21
9.9564271803
  0
LINE
  5
228
100
AcDbEntity
  8
0
100
AcDbLine
 62
7
  6
CONTINUOUS
 10
10.6099834891
 20
7.331891804
 11
10.5729834891
 21
7.331891804
  0
LINE
  5
229
100
AcDbEntity
  8
0
100
AcDbLine
 62
7
  6
CONTINUOUS
 10
9.4481315651
 20
7.9677834307
 11
9.4948367752
 21
7.945885723
  0
LINE
  5
22A
100
AcDbEntity
  8
0
100
AcDbLine
 62
7
  6
CONTINUOUS
 10
9.4076228498
 20
7.9952502996
 11
9.4486993245
 21
7.9674626193
  0
LINE
  5
22B
100
AcDbEntity
  8
0
100
AcDbLine
 62
7
  6
CONTINUOUS
 10
9.3741121928
 20
8.0275211778
 11
9.4081658421
 21
7.9948130407
  0
LINE
  5
22C
100
AcDbEntity
  8
0
100
AcDbLine
 62
7
  6
CONTINUOUS
 10
9.3485517804
 20
8.0633564282
 11
9.3745686065
 21
8.0269950483
  0
LINE
  5
22D
100
AcDbEntity
  8
0
100
AcDbLine
 62
7
  6
CONTINUOUS
 10
9.3336753983
 20
8.0949429075
 11
9.3488749338
 21
8.0627969134
  0
LINE
  5
22E
100
AcDbEntity
  8
0
100
AcDbLine
 62
7
  6
CONTINUOUS
 10
9.3322536048
 20
8.0987857276
 11
9.3336704716
 21
8.0949558943
  0
LINE
  5
22F
100
AcDbEntity
  8
0
100
AcDbLine
 62
7
  6
CONTINUOUS
 10
9.2721070128
 20
8.2817807373
 11
9.3322535334
 21
8.0987858757
  0
LINE
  5
230
100
AcDbEntity
  8
0
100
AcDbLine
 62
7
  6
CONTINUOUS
 10
9.2246304884
 20
8.4714288439
 11
9.2722289453
 21
8.281360082
  0
LINE
  5
231
100
AcDbEntity
  8
0
100
AcDbLine
 62
7
  6
CONTINUOUS
 10
9.1923504291
 20
8.6573426898
 11
9.224682732
 21
8.4712201535
  0
LINE
  5
232
100
AcDbEntity
  8
0
100
AcDbLine
 62
7
  6
CONTINUOUS
 10
9.1740284684
 20
8.7920440959
 11
9.1923503291
 21
8.657343162
  0
LINE
  5
233
100
AcDbEntity
  8
0
100
AcDbLine
 62
9
  6
CONTINUOUS
 10
9.3315573711
 20
8.124697935
 11
9.3315573711
 21
8.1067083412
  0
LINE
  5
234
100
AcDbEntity
  8
0
100
AcDbLine
 62
9
  6
CONTINUOUS
 10
9.3315573711
 20
9.8950856727
 11
9.3315573711
 21
9.9130752665
  0
LINE
  5
235
100
AcDbEntity
  8
0
100
AcDbLine
 62
9
  6
CONTINUOUS
 10
9.570053807
 20
9.5763340584
 11
9.571654948
 21
9.5805117175
  0
LINE
  5
236
100
AcDbEntity
  8
0
100
AcDbLine
 62
7
  6
CONTINUOUS
 10
9.571654948
 20
9.5805117175
 11
9.571702247
 21
9.5806109889
  0
LINE
  5
237
100
AcDbEntity
  8
0
100
AcDbLine
 62
7
  6
CONTINUOUS
 10
9.5717030921
 20
9.5806105743
 11
9.5735912147
 21
9.5834892882
  0
LINE
  5
238
100
AcDbEntity
  8
0
100
AcDbLine
 62
7
  6
CONTINUOUS
 10
9.6425176734
 20
9.5893362303
 11
9.6429383519
 21
9.589976886
  0
LINE
  5
239
100
AcDbEntity
  8
0
100
AcDbLine
 62
7
  6
CONTINUOUS
 10
9.5444773969
 20
7.9308436652
 11
9.5973880634
 21
7.9223327313
  0
LINE
  5
23A
100
AcDbEntity
  8
0
100
AcDbLine
 62
7
  6
CONTINUOUS
 10
9.4943101977
 20
7.9460862981
 11
9.5449054248
 21
7.930745937
  0
LINE
  5
23B
100
AcDbEntity
  8
0
100
AcDbLine
 62
7
  6
CONTINUOUS
 10
9.6429852914
 20
8.4297354415
 11
9.6421898385
 21
8.4309468422
  0
LINE
  5
23C
100
AcDbEntity
  8
0
100
AcDbLine
 62
7
  6
CONTINUOUS
 10
9.573512562
 20
8.43638987
 11
9.5717050177
 21
8.439169281
  0
LINE
  5
23D
100
AcDbEntity
  8
0
100
AcDbLine
 62
7
  6
CONTINUOUS
 10
9.6421898385
 20
8.4309468422
 11
9.6420103567
 21
8.4313476482
  0
LINE
  5
23E
100
AcDbEntity
  8
0
100
AcDbLine
 62
9
  6
CONTINUOUS
 10
9.570055153
 20
8.4434500463
 11
9.5716913982
 21
8.4391977627
  0
LINE
  5
23F
100
AcDbEntity
  8
0
100
AcDbLine
 62
7
  6
CONTINUOUS
 10
9.642543172
 20
9.5886220113
 11
9.6425159187
 21
9.589391527
  0
LINE
  5
240
100
AcDbEntity
  8
0
100
AcDbLine
 62
7
  6
CONTINUOUS
 10
9.6420440714
 20
8.4313479682
 11
9.6420209371
 21
8.4337857026
  0
LINE
  5
241
100
AcDbEntity
  8
0
100
AcDbLine
 62
9
  6
CONTINUOUS
 10
9.6363187157
 20
9.610176138
 11
9.6363248755
 21
9.589673389
  0
LINE
  5
242
100
AcDbEntity
  8
0
100
AcDbLine
 62
7
  6
CONTINUOUS
 10
9.6420207304
 20
9.5859729179
 11
9.6420207217
 21
9.5860368044
  0
LINE
  5
243
100
AcDbEntity
  8
0
100
AcDbLine
 62
9
  6
CONTINUOUS
 10
9.636318717
 20
8.4096074702
 11
9.6363204146
 21
8.4301102191
  0
LINE
  5
244
100
AcDbEntity
  8
0
100
AcDbLine
 62
7
  6
CONTINUOUS
 10
9.6420207217
 20
8.4337467126
 11
9.6420207254
 21
8.4337880292
  0
LINE
  5
245
100
AcDbEntity
  8
0
100
AcDbLine
 62
7
  6
CONTINUOUS
 10
9.6420208434
 20
9.5859788731
 11
9.6420440365
 21
9.5884384212
  0
LINE
  5
246
100
AcDbEntity
  8
0
100
AcDbLine
 62
7
  6
CONTINUOUS
 10
9.6425086498
 20
8.4304613222
 11
9.6425232486
 21
8.430881534
  0
LWPOLYLINE
  5
247
100
AcDbEntity
  8
0
100
AcDbPolyline
 62
7
  6
CONTINUOUS
 90
4
 70
0
 10
9.6418996424
 20
9.5881247434
 10
9.6419172507
 20
9.5881823398
 10
9.6426233194
 20
9.5896084545
 10
9.6429946811
 20
9.5900427632
  0
LINE
  5
248
100
AcDbEntity
  8
0
100
AcDbLine
 62
7
  6
CONTINUOUS
 10
9.9473759829
 20
9.7992459675
 11
9.9474247534
 21
9.7994041051
  0
LINE
  5
249
100
AcDbEntity
  8
0
100
AcDbLine
 62
7
  6
CONTINUOUS
 10
9.8636406883
 20
9.7185432732
 11
9.8636829189
 21
9.7186423925
  0
LWPOLYLINE
  5
24A
100
AcDbEntity
  8
0
100
AcDbPolyline
 62
7
  6
CONTINUOUS
 90
4
 70
0
 10
9.5735912147
 20
9.5834892882
 10
9.5789471625
 20
9.5878410585
 10
9.5841831783
 20
9.5895917557
 10
9.5853274728
 20
9.589673338
  0
LINE
  5
24B
100
AcDbEntity
  8
0
100
AcDbLine
 62
7
  6
CONTINUOUS
 10
9.6507225755
 20
7.9207554475
 11
9.7041094099
 21
7.9260705544
  0
LINE
  5
24C
100
AcDbEntity
  8
0
100
AcDbLine
 62
7
  6
CONTINUOUS
 10
9.5970856489
 20
7.922360498
 11
9.6509221262
 21
7.9207629396
  0
LWPOLYLINE
  5
24D
100
AcDbEntity
  8
0
100
AcDbPolyline
 62
7
  6
CONTINUOUS
 90
8
 70
0
 10
9.8636922226
 20
8.3011172881
 10
9.8592648675
 20
8.3106805202
 10
9.840672637
 20
8.3401176972
 10
9.8157516273
 20
8.3667262023
 10
9.7852055748
 20
8.3895163869
 10
9.7500191964
 20
8.4076980903
 10
9.7113793577
 20
8.4207050828
 10
9.6706661882
 20
8.4281809196
  0
LINE
  5
24E
100
AcDbEntity
  8
0
100
AcDbLine
 62
7
  6
CONTINUOUS
 10
9.8636907916
 20
8.3011227133
 11
9.8636672605
 21
8.3011779928
  0
LWPOLYLINE
  5
24F
100
AcDbEntity
  8
0
100
AcDbPolyline
 62
7
  6
CONTINUOUS
 90
9
 70
0
 10
9.9474247932
 20
8.220379286
 10
9.9358720918
 20
8.2578388462
 10
9.9168613186
 20
8.2935851246
 10
9.8907021946
 20
8.32666433
 10
9.8577351597
 20
8.3563188166
 10
9.8187612481
 20
8.3815872518
 10
9.7752464001
 20
8.4015337284
 10
9.7283461897
 20
8.4157755845
 10
9.7236900887
 20
8.4165610286
  0
LINE
  5
250
100
AcDbEntity
  8
0
100
AcDbLine
 62
7
  6
CONTINUOUS
 10
9.9514050425
 20
8.181080327
 11
9.9473760046
 21
8.2205374829
  0
LINE
  5
251
100
AcDbEntity
  8
0
100
AcDbLine
 62
7
  6
CONTINUOUS
 10
9.9514059706
 20
9.8568629111
 11
9.9514059706
 21
9.8385989621
  0
LINE
  5
252
100
AcDbEntity
  8
0
100
AcDbLine
 62
7
  6
CONTINUOUS
 10
9.9514059706
 20
8.1811846035
 11
9.9514059706
 21
8.1629206543
  0
LWPOLYLINE
  5
253
100
AcDbEntity
  8
0
100
AcDbPolyline
 62
7
  6
CONTINUOUS
 90
4
 70
0
 10
9.6425232486
 20
8.430881534
 10
9.6511292658
 20
8.4769283194
 10
9.6700459245
 20
8.5211129703
 10
9.6989328278
 20
8.5628597991
  0
LWPOLYLINE
  5
254
100
AcDbEntity
  8
0
100
AcDbPolyline
 62
7
  6
CONTINUOUS
 90
7
 70
0
 10
9.7109464377
 20
9.5989677289
 10
9.7496717355
 20
9.6119389142
 10
9.7849408718
 20
9.6301023948
 10
9.8155696364
 20
9.6528954755
 10
9.840569662
 20
9.6795318842
 10
9.8592287398
 20
9.7090281658
 10
9.8636828426
 20
9.7186427257
  0
LINE
  5
255
100
AcDbEntity
  8
0
100
AcDbLine
 62
7
  6
CONTINUOUS
 10
9.703952356
 20
7.9260444021
 11
9.7555244061
 21
7.9381898977
  0
LINE
  5
256
100
AcDbEntity
  8
0
100
AcDbLine
 62
7
  6
CONTINUOUS
 10
9.6703748141
 20
8.4281972828
 11
9.6701434324
 21
8.4282393792
  0
LINE
  5
257
100
AcDbEntity
  8
0
100
AcDbLine
 62
7
  6
CONTINUOUS
 10
9.651293391
 20
9.5423212192
 11
9.642543172
 21
9.5886220113
  0
LWPOLYLINE
  5
258
100
AcDbEntity
  8
0
100
AcDbPolyline
 62
7
  6
CONTINUOUS
 90
18
 70
0
 10
9.9514050453
 20
9.8569602886
 10
9.9472029386
 20
9.8967744562
 10
9.9345106991
 20
9.9359962975
 10
9.9134232844
 20
9.9732766841
 10
9.8841081099
 20
10.0076436165
 10
9.847139006
 20
10.0379037108
 10
9.8037471399
 20
10.0628385065
 10
9.7555244082
 20
10.0815937097
 10
9.7041094127
 20
10.0937130533
 10
9.6509221297
 20
10.0990206684
 10
9.597388067
 20
10.0974508771
 10
9.5449054279
 20
10.0890376718
 10
9.4948367772
 20
10.0738978858
 10
9.4486993251
 20
10.0523209891
 10
9.4081658416
 20
10.024970567
 10
9.3745686055
 20
9.9927885587
 10
9.3488749331
 20
9.9569866935
 10
9.3336753983
 20
9.9248407006
  0
LINE
  5
259
100
AcDbEntity
  8
0
100
AcDbLine
 62
9
  6
CONTINUOUS
 10
10.0319440242
 20
9.184917271
 11
10.0319440241
 21
8.8348663384
  0
LINE
  5
25A
100
AcDbEntity
  8
0
100
AcDbLine
 62
9
  6
CONTINUOUS
 10
10.0319440242
 20
8.6989242083
 11
10.0319440137
 21
8.654891804
  0
LINE
  5
25B
100
AcDbEntity
  8
0
100
AcDbLine
 62
9
  6
CONTINUOUS
 10
10.0319440241
 20
9.3208594
 11
10.0319440137
 21
9.364891804
  0
LINE
  5
25C
100
AcDbEntity
  8
0
100
AcDbLine
 62
9
  6
CONTINUOUS
 10
10.1140207217
 20
9.324659268
 11
10.1140207217
 21
9.1740455236
  0
LINE
  5
25D
100
AcDbEntity
  8
0
100
AcDbLine
 62
9
  6
CONTINUOUS
 10
10.1140207217
 20
8.8457380845
 11
10.1140207217
 21
8.6951243359
  0
LINE
  5
25E
100
AcDbEntity
  8
0
100
AcDbLine
 62
7
  6
CONTINUOUS
 10
10.1569834891
 20
8.6548918041
 11
10.1569834891
 21
9.364891804
  0
LINE
  5
25F
100
AcDbEntity
  8
0
100
AcDbLine
 62
7
  6
CONTINUOUS
 10
10.1879834891
 20
8.659391804
 11
10.1879834891
 21
9.360391804
  0
LINE
  5
260
100
AcDbEntity
  8
0
100
AcDbLine
 62
7
  6
CONTINUOUS
 10
9.9472029386
 20
8.1230091517
 11
9.9514059584
 21
8.1628970433
  0
LINE
  5
261
100
AcDbEntity
  8
0
100
AcDbLine
 62
7
  6
CONTINUOUS
 10
11.9379834891
 20
8.309891804
 11
11.8779834891
 21
8.309891804
  0
LINE
  5
262
100
AcDbEntity
  8
0
100
AcDbLine
 62
9
  6
CONTINUOUS
 10
9.636318717
 20
8.4096074702
 11
9.5278766712
 21
8.4096075357
  0
LINE
  5
263
100
AcDbEntity
  8
0
100
AcDbLine
 62
7
  6
CONTINUOUS
 10
9.6363204147
 20
8.4301102193
 11
9.5853206857
 21
8.4301102193
  0
LINE
  5
264
100
AcDbEntity
  8
0
100
AcDbLine
 62
7
  6
CONTINUOUS
 10
9.6706661882
 20
8.4281809196
 11
9.6363204146
 21
8.4301097321
  0
LWPOLYLINE
  5
265
100
AcDbEntity
  8
0
100
AcDbPolyline
 62
7
  6
CONTINUOUS
 90
4
 70
0
 10
9.585325849
 20
8.4301102382
 10
9.5841481738
 20
8.4301963633
 10
9.5788348933
 20
8.4320031344
 10
9.573512562
 20
8.43638987
  0
LINE
  5
266
100
AcDbEntity
  8
0
100
AcDbLine
 62
7
  6
CONTINUOUS
 10
10.4249834891
 20
7.183391804
 11
10.4249834891
 21
6.496391804
  0
LINE
  5
267
100
AcDbEntity
  8
0
100
AcDbLine
 62
9
  6
CONTINUOUS
 10
10.4749834891
 20
7.233391804
 11
10.4749834891
 21
6.446391804
  0
LINE
  5
268
100
AcDbEntity
  8
0
100
AcDbLine
 62
7
  6
CONTINUOUS
 10
10.4929834891
 20
7.251891804
 11
10.4929834891
 21
6.427891804
  0
LINE
  5
269
100
AcDbEntity
  8
0
100
AcDbLine
 62
7
  6
CONTINUOUS
 10
9.9344136169
 20
8.0835651973
 11
9.9471857528
 21
8.1229313801
  0
LINE
  5
26A
100
AcDbEntity
  8
0
100
AcDbLine
 62
7
  6
CONTINUOUS
 10
9.9132022564
 20
8.046191208
 11
9.9345106987
 21
8.0837873095
  0
LWPOLYLINE
  5
26B
100
AcDbEntity
  8
0
100
AcDbPolyline
 62
7
  6
CONTINUOUS
 90
7
 70
0
 10
9.6989328278
 20
8.5628597991
 10
9.7373014748
 20
8.6011882863
 10
9.7841111008
 20
8.6347657211
 10
9.8370582547
 20
8.6619914095
 10
9.8930480187
 20
8.6817978804
 10
9.9495830542
 20
8.6939983786
 10
9.9705636941
 20
8.6966199243
  0
LINE
  5
26C
100
AcDbEntity
  8
0
100
AcDbLine
 62
7
  6
CONTINUOUS
 10
9.8540722554
 20
8.6404148215
 11
9.8576668917
 21
8.6410448326
  0
LINE
  5
26D
100
AcDbEntity
  8
0
100
AcDbLine
 62
7
  6
CONTINUOUS
 10
9.8576668917
 20
8.6410448326
 11
9.8612484994
 21
8.6416550129
  0
LINE
  5
26E
100
AcDbEntity
  8
0
100
AcDbLine
 62
7
  6
CONTINUOUS
 10
9.8612484994
 20
8.6416550129
 11
9.8648160482
 21
8.6422457217
  0
LINE
  5
26F
100
AcDbEntity
  8
0
100
AcDbLine
 62
7
  6
CONTINUOUS
 10
9.8648160482
 20
8.6422457217
 11
9.8683685137
 21
8.6428173225
  0
LINE
  5
270
100
AcDbEntity
  8
0
100
AcDbLine
 62
7
  6
CONTINUOUS
 10
9.8683685137
 20
8.6428173225
 11
9.8719048458
 21
8.6433701759
  0
LINE
  5
271
100
AcDbEntity
  8
0
100
AcDbLine
 62
7
  6
CONTINUOUS
 10
9.8719048458
 20
8.6433701759
 11
9.8765930289
 21
8.6440787566
  0
LINE
  5
272
100
AcDbEntity
  8
0
100
AcDbLine
 62
7
  6
CONTINUOUS
 10
9.8765930289
 20
8.6440787566
 11
9.8812482643
 21
8.6447554788
  0
LINE
  5
273
100
AcDbEntity
  8
0
100
AcDbLine
 62
7
  6
CONTINUOUS
 10
9.8812482643
 20
8.6447554788
 11
9.8858681565
 21
8.6454011905
  0
LINE
  5
274
100
AcDbEntity
  8
0
100
AcDbLine
 62
7
  6
CONTINUOUS
 10
9.8858681565
 20
8.6454011905
 11
9.8904502896
 21
8.6460167206
  0
LINE
  5
275
100
AcDbEntity
  8
0
100
AcDbLine
 62
7
  6
CONTINUOUS
 10
9.8904502896
 20
8.6460167206
 11
9.8949923515
 21
8.6466029065
  0
LINE
  5
276
100
AcDbEntity
  8
0
100
AcDbLine
 62
7
  6
CONTINUOUS
 10
9.8949923515
 20
8.6466029065
 11
9.8994921143
 21
8.6471605924
  0
LINE
  5
277
100
AcDbEntity
  8
0
100
AcDbLine
 62
7
  6
CONTINUOUS
 10
9.8994921143
 20
8.6471605924
 11
9.9039490168
 21
8.6476907986
  0
LINE
  5
278
100
AcDbEntity
  8
0
100
AcDbLine
 62
7
  6
CONTINUOUS
 10
9.9039490168
 20
8.6476907986
 11
9.9083637062
 21
8.648194645
  0
LINE
  5
279
100
AcDbEntity
  8
0
100
AcDbLine
 62
7
  6
CONTINUOUS
 10
9.9083637062
 20
8.648194645
 11
9.9127368362
 21
8.6486731897
  0
LINE
  5
27A
100
AcDbEntity
  8
0
100
AcDbLine
 62
7
  6
CONTINUOUS
 10
9.9127368362
 20
8.6486731897
 11
9.9170691481
 21
8.6491274398
  0
LINE
  5
27B
100
AcDbEntity
  8
0
100
AcDbLine
 62
7
  6
CONTINUOUS
 10
9.9705647168
 20
8.6966212296
 11
9.9710556721
 21
8.696669825
  0
LINE
  5
27C
100
AcDbEntity
  8
0
100
AcDbLine
 62
7
  6
CONTINUOUS
 10
9.9170691481
 20
8.6491274398
 11
9.9224282766
 21
8.6496625408
  0
LINE
  5
27D
100
AcDbEntity
  8
0
100
AcDbLine
 62
7
  6
CONTINUOUS
 10
9.9224282766
 20
8.6496625408
 11
9.9277263274
 21
8.650162928
  0
LINE
  5
27E
100
AcDbEntity
  8
0
100
AcDbLine
 62
7
  6
CONTINUOUS
 10
9.9277263274
 20
8.650162928
 11
9.9329648877
 21
8.6506302472
  0
LINE
  5
27F
100
AcDbEntity
  8
0
100
AcDbLine
 62
7
  6
CONTINUOUS
 10
9.9329648877
 20
8.6506302472
 11
9.938145601
 21
8.6510660344
  0
LINE
  5
280
100
AcDbEntity
  8
0
100
AcDbLine
 62
7
  6
CONTINUOUS
 10
9.938145601
 20
8.6510660344
 11
9.9432701305
 21
8.6514717253
  0
LINE
  5
281
100
AcDbEntity
  8
0
100
AcDbLine
 62
7
  6
CONTINUOUS
 10
9.9432701305
 20
8.6514717253
 11
9.9483401742
 21
8.6518486594
  0
LINE
  5
282
100
AcDbEntity
  8
0
100
AcDbLine
 62
7
  6
CONTINUOUS
 10
9.9483401742
 20
8.6518486594
 11
9.9533574167
 21
8.6521980848
  0
LINE
  5
283
100
AcDbEntity
  8
0
100
AcDbLine
 62
7
  6
CONTINUOUS
 10
9.9533574167
 20
8.6521980848
 11
9.9583235318
 21
8.6525211639
  0
LINE
  5
284
100
AcDbEntity
  8
0
100
AcDbLine
 62
7
  6
CONTINUOUS
 10
9.9583235318
 20
8.6525211639
 11
9.9632393002
 21
8.6528189276
  0
LINE
  5
285
100
AcDbEntity
  8
0
100
AcDbLine
 62
7
  6
CONTINUOUS
 10
9.9632393002
 20
8.6528189276
 11
9.969064439
 21
8.6531437451
  0
LINE
  5
286
100
AcDbEntity
  8
0
100
AcDbLine
 62
7
  6
CONTINUOUS
 10
9.969064439
 20
8.6531437451
 11
9.9747966586
 21
8.6534340658
  0
LINE
  5
287
100
AcDbEntity
  8
0
100
AcDbLine
 62
7
  6
CONTINUOUS
 10
9.9747966586
 20
8.6534340658
 11
9.9804223229
 21
8.653691048
  0
LINE
  5
288
100
AcDbEntity
  8
0
100
AcDbLine
 62
7
  6
CONTINUOUS
 10
9.9804223229
 20
8.653691048
 11
9.9859270442
 21
8.653915993
  0
LINE
  5
289
100
AcDbEntity
  8
0
100
AcDbLine
 62
9
  6
CONTINUOUS
 10
9.9710556721
 20
8.696669825
 11
10.0319440242
 21
8.698923687
  0
LINE
  5
28A
100
AcDbEntity
  8
0
100
AcDbLine
 62
7
  6
CONTINUOUS
 10
9.9859270442
 20
8.653915993
 11
9.9912951958
 21
8.654110334
  0
LINE
  5
28B
100
AcDbEntity
  8
0
100
AcDbLine
 62
7
  6
CONTINUOUS
 10
9.9912951958
 20
8.654110334
 11
9.9965090084
 21
8.6542756236
  0
LINE
  5
28C
100
AcDbEntity
  8
0
100
AcDbLine
 62
7
  6
CONTINUOUS
 10
9.9965090084
 20
8.6542756236
 11
10.0023669647
 21
8.6544339496
  0
LINE
  5
28D
100
AcDbEntity
  8
0
100
AcDbLine
 62
7
  6
CONTINUOUS
 10
10.0023669647
 20
8.6544339496
 11
10.0079057861
 21
8.6545571639
  0
LINE
  5
28E
100
AcDbEntity
  8
0
100
AcDbLine
 62
7
  6
CONTINUOUS
 10
10.0079057861
 20
8.6545571639
 11
10.0136078144
 21
8.6546572572
  0
LINE
  5
28F
100
AcDbEntity
  8
0
100
AcDbLine
 62
7
  6
CONTINUOUS
 10
10.0202195409
 20
8.6547461637
 11
10.0319440137
 21
8.654891804
  0
LINE
  5
290
100
AcDbEntity
  8
0
100
AcDbLine
 62
7
  6
CONTINUOUS
 10
10.0136078144
 20
8.6546572572
 11
10.0191904177
 21
8.6547291543
  0
LINE
  5
291
100
AcDbEntity
  8
0
100
AcDbLine
 62
7
  6
CONTINUOUS
 10
10.0319440137
 20
8.654891804
 11
10.1569834891
 21
8.654891804
  0
LINE
  5
292
100
AcDbEntity
  8
0
100
AcDbLine
 62
9
  6
CONTINUOUS
 10
10.1140207217
 20
8.6951243359
 11
10.0319440137
 21
8.6951243401
  0
LINE
  5
293
100
AcDbEntity
  8
0
100
AcDbLine
 62
7
  6
CONTINUOUS
 10
10.1879834891
 20
8.756891804
 11
10.1569834891
 21
8.756891804
  0
LINE
  5
294
100
AcDbEntity
  8
0
100
AcDbLine
 62
9
  6
CONTINUOUS
 10
9.6139393097
 20
8.7850318476
 11
9.3384819725
 21
8.7850318476
  0
LWPOLYLINE
  5
295
100
AcDbEntity
  8
0
100
AcDbPolyline
 62
7
  6
CONTINUOUS
 90
4
 70
0
 10
9.7385559394
 20
9.4175410784
 10
9.699727841
 20
9.4559795879
 10
9.6704712983
 20
9.4979087502
 10
9.651293391
 20
9.5423212192
  0
LINE
  5
296
100
AcDbEntity
  8
0
100
AcDbLine
 62
9
  6
CONTINUOUS
 10
10.5729834891
 20
7.331891804
 11
10.5729834891
 21
6.347891804
  0
LINE
  5
297
100
AcDbEntity
  8
0
100
AcDbLine
 62
9
  6
CONTINUOUS
 10
10.6099834891
 20
7.331891804
 11
10.6099834891
 21
6.347891804
  0
LINE
  5
298
100
AcDbEntity
  8
0
100
AcDbLine
 62
7
  6
CONTINUOUS
 10
10.6899834891
 20
7.251891804
 11
10.6899834891
 21
6.427891804
  0
LINE
  5
299
100
AcDbEntity
  8
0
100
AcDbLine
 62
9
  6
CONTINUOUS
 10
10.7089834891
 20
7.233391804
 11
10.7089834891
 21
6.446391804
  0
LINE
  5
29A
100
AcDbEntity
  8
0
100
AcDbLine
 62
7
  6
CONTINUOUS
 10
9.8837984886
 20
8.0118386268
 11
9.9134232832
 21
8.0465069223
  0
LINE
  5
29B
100
AcDbEntity
  8
0
100
AcDbLine
 62
7
  6
CONTINUOUS
 10
9.7914741772
 20
8.6261711021
 11
9.7939925773
 21
8.6268815599
  0
LINE
  5
29C
100
AcDbEntity
  8
0
100
AcDbLine
 62
7
  6
CONTINUOUS
 10
9.7939925773
 20
8.6268815599
 11
9.7965042782
 21
8.6275770426
  0
LINE
  5
29D
100
AcDbEntity
  8
0
100
AcDbLine
 62
7
  6
CONTINUOUS
 10
9.7965042782
 20
8.6275770426
 11
9.7990094526
 21
8.6282579455
  0
LINE
  5
29E
100
AcDbEntity
  8
0
100
AcDbLine
 62
7
  6
CONTINUOUS
 10
9.7990094526
 20
8.6282579455
 11
9.8015082825
 21
8.6289246528
  0
LINE
  5
29F
100
AcDbEntity
  8
0
100
AcDbLine
 62
7
  6
CONTINUOUS
 10
9.8015082825
 20
8.6289246528
 11
9.8040009584
 21
8.6295775381
  0
LINE
  5
2A0
100
AcDbEntity
  8
0
100
AcDbLine
 62
7
  6
CONTINUOUS
 10
9.8040009584
 20
8.6295775381
 11
9.8064876696
 21
8.6302169619
  0
LINE
  5
2A1
100
AcDbEntity
  8
0
100
AcDbLine
 62
7
  6
CONTINUOUS
 10
9.8064876696
 20
8.6302169619
 11
9.8102068994
 21
8.6311515867
  0
LINE
  5
2A2
100
AcDbEntity
  8
0
100
AcDbLine
 62
7
  6
CONTINUOUS
 10
9.8102068994
 20
8.6311515867
 11
9.8139137803
 21
8.6320577884
  0
LINE
  5
2A3
100
AcDbEntity
  8
0
100
AcDbLine
 62
7
  6
CONTINUOUS
 10
9.8139137803
 20
8.6320577884
 11
9.8176091049
 21
8.6329366427
  0
LINE
  5
2A4
100
AcDbEntity
  8
0
100
AcDbLine
 62
7
  6
CONTINUOUS
 10
9.8176091049
 20
8.6329366427
 11
9.821293701
 21
8.63378918
  0
LINE
  5
2A5
100
AcDbEntity
  8
0
100
AcDbLine
 62
7
  6
CONTINUOUS
 10
9.821293701
 20
8.63378918
 11
9.8249684065
 21
8.6346163807
  0
LINE
  5
2A6
100
AcDbEntity
  8
0
100
AcDbLine
 62
7
  6
CONTINUOUS
 10
9.8249684065
 20
8.6346163807
 11
9.8286340112
 21
8.6354191508
  0
LINE
  5
2A7
100
AcDbEntity
  8
0
100
AcDbLine
 62
7
  6
CONTINUOUS
 10
9.8286340112
 20
8.6354191508
 11
9.8322914422
 21
8.6361983677
  0
LINE
  5
2A8
100
AcDbEntity
  8
0
100
AcDbLine
 62
7
  6
CONTINUOUS
 10
9.8322914422
 20
8.6361983677
 11
9.8359416688
 21
8.6369548731
  0
LINE
  5
2A9
100
AcDbEntity
  8
0
100
AcDbLine
 62
7
  6
CONTINUOUS
 10
9.8359416688
 20
8.6369548731
 11
9.8395851957
 21
8.6376893742
  0
LINE
  5
2AA
100
AcDbEntity
  8
0
100
AcDbLine
 62
7
  6
CONTINUOUS
 10
9.8395851957
 20
8.6376893742
 11
9.843221111
 21
8.6384022691
  0
LINE
  5
2AB
100
AcDbEntity
  8
0
100
AcDbLine
 62
7
  6
CONTINUOUS
 10
9.843221111
 20
8.6384022691
 11
9.8468482963
 21
8.6390939021
  0
LINE
  5
2AC
100
AcDbEntity
  8
0
100
AcDbLine
 62
7
  6
CONTINUOUS
 10
9.8468482963
 20
8.6390939021
 11
9.8504656954
 21
8.6397646315
  0
LINE
  5
2AD
100
AcDbEntity
  8
0
100
AcDbLine
 62
7
  6
CONTINUOUS
 10
9.8504656954
 20
8.6397646315
 11
9.8540722554
 21
8.6404148215
  0
LINE
  5
2AE
100
AcDbEntity
  8
0
100
AcDbLine
 62
9
  6
CONTINUOUS
 10
10.0319440137
 20
8.8457380845
 11
10.1140207217
 21
8.8457380845
  0
LINE
  5
2AF
100
AcDbEntity
  8
0
100
AcDbLine
 62
9
  6
CONTINUOUS
 10
10.7512473391
 20
7.210108222
 11
10.7512473391
 21
6.4696753861
  0
LINE
  5
2B0
100
AcDbEntity
  8
0
100
AcDbLine
 62
7
  6
CONTINUOUS
 10
9.8468325765
 20
7.9816708104
 11
9.884108108
 21
8.0121399898
  0
LINE
  5
2B1
100
AcDbEntity
  8
0
100
AcDbLine
 62
7
  6
CONTINUOUS
 10
9.7560116235
 20
8.6146094317
 11
9.7580732209
 21
8.6153700769
  0
LINE
  5
2B2
100
AcDbEntity
  8
0
100
AcDbLine
 62
7
  6
CONTINUOUS
 10
9.7580732209
 20
8.6153700769
 11
9.7606879819
 21
8.6163170159
  0
LINE
  5
2B3
100
AcDbEntity
  8
0
100
AcDbLine
 62
7
  6
CONTINUOUS
 10
9.7606879819
 20
8.6163170159
 11
9.7632950729
 21
8.6172426176
  0
LINE
  5
2B4
100
AcDbEntity
  8
0
100
AcDbLine
 62
7
  6
CONTINUOUS
 10
9.7632950729
 20
8.6172426176
 11
9.7658945003
 21
8.6181474758
  0
LINE
  5
2B5
100
AcDbEntity
  8
0
100
AcDbLine
 62
7
  6
CONTINUOUS
 10
9.7658945003
 20
8.6181474758
 11
9.7684862393
 21
8.6190321507
  0
LINE
  5
2B6
100
AcDbEntity
  8
0
100
AcDbLine
 62
7
  6
CONTINUOUS
 10
9.7684862393
 20
8.6190321507
 11
9.7710702734
 21
8.6198971752
  0
LINE
  5
2B7
100
AcDbEntity
  8
0
100
AcDbLine
 62
7
  6
CONTINUOUS
 10
9.7710702734
 20
8.6198971752
 11
9.7736466579
 21
8.6207430847
  0
LINE
  5
2B8
100
AcDbEntity
  8
0
100
AcDbLine
 62
7
  6
CONTINUOUS
 10
9.7736466579
 20
8.6207430847
 11
9.7762154606
 21
8.6215703996
  0
LINE
  5
2B9
100
AcDbEntity
  8
0
100
AcDbLine
 62
7
  6
CONTINUOUS
 10
9.7762154606
 20
8.6215703996
 11
9.7787767619
 21
8.6223796258
  0
LINE
  5
2BA
100
AcDbEntity
  8
0
100
AcDbLine
 62
7
  6
CONTINUOUS
 10
9.7787767619
 20
8.6223796258
 11
9.7813306539
 21
8.6231712552
  0
LINE
  5
2BB
100
AcDbEntity
  8
0
100
AcDbLine
 62
7
  6
CONTINUOUS
 10
9.7813306539
 20
8.6231712552
 11
9.78387724
 21
8.6239457661
  0
LINE
  5
2BC
100
AcDbEntity
  8
0
100
AcDbLine
 62
7
  6
CONTINUOUS
 10
9.78387724
 20
8.6239457661
 11
9.7864166348
 21
8.6247036235
  0
LINE
  5
2BD
100
AcDbEntity
  8
0
100
AcDbLine
 62
7
  6
CONTINUOUS
 10
9.7864166348
 20
8.6247036235
 11
9.7889489143
 21
8.6254452627
  0
LINE
  5
2BE
100
AcDbEntity
  8
0
100
AcDbLine
 62
7
  6
CONTINUOUS
 10
9.7889489143
 20
8.6254452627
 11
9.7914741772
 21
8.6261711021
  0
LINE
  5
2BF
100
AcDbEntity
  8
0
100
AcDbLine
 62
9
  6
CONTINUOUS
 10
10.1140207217
 20
9.1740455236
 11
10.0319440137
 21
9.1740455236
  0
LINE
  5
2C0
100
AcDbEntity
  8
0
100
AcDbLine
 62
9
  6
CONTINUOUS
 10
9.6139393098
 20
9.2347517605
 11
9.3384819725
 21
9.2347517605
  0
LINE
  5
2C1
100
AcDbEntity
  8
0
100
AcDbLine
 62
7
  6
CONTINUOUS
 10
10.1879834891
 20
9.262891804
 11
10.1569834891
 21
9.262891804
  0
LWPOLYLINE
  5
2C2
100
AcDbEntity
  8
0
100
AcDbPolyline
 62
7
  6
CONTINUOUS
 90
4
 70
0
 10
9.959285689
 20
9.3672024459
 10
9.868271146
 20
9.3769817313
 10
9.7883717101
 20
9.3945061649
 10
9.7516899687
 20
9.4082161442
  0
LWPOLYLINE
  5
2C3
100
AcDbEntity
  8
0
100
AcDbPolyline
 62
7
  6
CONTINUOUS
 90
6
 70
0
 10
9.9703750676
 20
9.3231817358
 10
9.9508966655
 20
9.3255899408
 10
9.8949931404
 20
9.3374416106
 10
9.8390750188
 20
9.3569334354
 10
9.7858372681
 20
9.3839721508
 10
9.7385559394
 20
9.4175410784
  0
LINE
  5
2C4
100
AcDbEntity
  8
0
100
AcDbLine
 62
7
  6
CONTINUOUS
 10
9.8682725145
 20
9.3769815842
 11
9.8648160482
 21
9.3775378863
  0
LINE
  5
2C5
100
AcDbEntity
  8
0
100
AcDbLine
 62
7
  6
CONTINUOUS
 10
9.8648160482
 20
9.3775378863
 11
9.8612484994
 21
9.3781285952
  0
LINE
  5
2C6
100
AcDbEntity
  8
0
100
AcDbLine
 62
7
  6
CONTINUOUS
 10
9.8612484994
 20
9.3781285952
 11
9.8576668917
 21
9.3787387755
  0
LINE
  5
2C7
100
AcDbEntity
  8
0
100
AcDbLine
 62
7
  6
CONTINUOUS
 10
9.8576668917
 20
9.3787387755
 11
9.8540722554
 21
9.3793687866
  0
LINE
  5
2C8
100
AcDbEntity
  8
0
100
AcDbLine
 62
7
  6
CONTINUOUS
 10
9.8540722554
 20
9.3793687866
 11
9.8504656954
 21
9.3800189765
  0
LINE
  5
2C9
100
AcDbEntity
  8
0
100
AcDbLine
 62
7
  6
CONTINUOUS
 10
9.8504656954
 20
9.3800189765
 11
9.8468482963
 21
9.380689706
  0
LINE
  5
2CA
100
AcDbEntity
  8
0
100
AcDbLine
 62
7
  6
CONTINUOUS
 10
9.8468482963
 20
9.380689706
 11
9.843221111
 21
9.381381339
  0
LINE
  5
2CB
100
AcDbEntity
  8
0
100
AcDbLine
 62
7
  6
CONTINUOUS
 10
9.843221111
 20
9.381381339
 11
9.8395851957
 21
9.3820942339
  0
LINE
  5
2CC
100
AcDbEntity
  8
0
100
AcDbLine
 62
7
  6
CONTINUOUS
 10
9.8395851957
 20
9.3820942339
 11
9.8359416688
 21
9.382828735
  0
LINE
  5
2CD
100
AcDbEntity
  8
0
100
AcDbLine
 62
7
  6
CONTINUOUS
 10
9.8359416688
 20
9.382828735
 11
9.8322914422
 21
9.3835852404
  0
LINE
  5
2CE
100
AcDbEntity
  8
0
100
AcDbLine
 62
7
  6
CONTINUOUS
 10
9.8322914422
 20
9.3835852404
 11
9.8286340112
 21
9.3843644573
  0
LINE
  5
2CF
100
AcDbEntity
  8
0
100
AcDbLine
 62
7
  6
CONTINUOUS
 10
9.8286340112
 20
9.3843644573
 11
9.8249684065
 21
9.3851672274
  0
LINE
  5
2D0
100
AcDbEntity
  8
0
100
AcDbLine
 62
7
  6
CONTINUOUS
 10
9.8249684065
 20
9.3851672274
 11
9.821293701
 21
9.3859944281
  0
LINE
  5
2D1
100
AcDbEntity
  8
0
100
AcDbLine
 62
7
  6
CONTINUOUS
 10
9.821293701
 20
9.3859944281
 11
9.8176091049
 21
9.3868469654
  0
LINE
  5
2D2
100
AcDbEntity
  8
0
100
AcDbLine
 62
7
  6
CONTINUOUS
 10
9.8176091049
 20
9.3868469654
 11
9.8139137803
 21
9.3877258197
  0
LINE
  5
2D3
100
AcDbEntity
  8
0
100
AcDbLine
 62
7
  6
CONTINUOUS
 10
9.8139137803
 20
9.3877258197
 11
9.8102068994
 21
9.3886320214
  0
LINE
  5
2D4
100
AcDbEntity
  8
0
100
AcDbLine
 62
7
  6
CONTINUOUS
 10
9.8102068994
 20
9.3886320214
 11
9.8064876696
 21
9.3895666462
  0
LINE
  5
2D5
100
AcDbEntity
  8
0
100
AcDbLine
 62
7
  6
CONTINUOUS
 10
9.8064876696
 20
9.3895666462
 11
9.8040009584
 21
9.39020607
  0
LINE
  5
2D6
100
AcDbEntity
  8
0
100
AcDbLine
 62
7
  6
CONTINUOUS
 10
9.8040009584
 20
9.39020607
 11
9.8015082825
 21
9.3908589553
  0
LINE
  5
2D7
100
AcDbEntity
  8
0
100
AcDbLine
 62
7
  6
CONTINUOUS
 10
9.8015082825
 20
9.3908589553
 11
9.7990094526
 21
9.3915256626
  0
LINE
  5
2D8
100
AcDbEntity
  8
0
100
AcDbLine
 62
7
  6
CONTINUOUS
 10
9.7990094526
 20
9.3915256626
 11
9.7965042782
 21
9.3922065655
  0
LINE
  5
2D9
100
AcDbEntity
  8
0
100
AcDbLine
 62
7
  6
CONTINUOUS
 10
9.7965042782
 20
9.3922065655
 11
9.7939925773
 21
9.3929020482
  0
LINE
  5
2DA
100
AcDbEntity
  8
0
100
AcDbLine
 62
7
  6
CONTINUOUS
 10
9.7939925773
 20
9.3929020482
 11
9.7914741772
 21
9.393612506
  0
LWPOLYLINE
  5
2DB
100
AcDbEntity
  8
0
100
AcDbPolyline
 62
7
  6
CONTINUOUS
 90
3
 70
0
 10
9.7914741772
 20
9.393612506
 10
9.7889489143
 20
9.3943383454
 10
9.7883777242
 20
9.3945048458
  0
LINE
  5
2DC
100
AcDbEntity
  8
0
100
AcDbLine
 62
9
  6
CONTINUOUS
 10
10.9921512839
 20
7.077391804
 11
10.9921512839
 21
6.602391804
  0
LINE
  5
2DD
100
AcDbEntity
  8
0
100
AcDbLine
 62
7
  6
CONTINUOUS
 10
11.0499834891
 20
7.077391804
 11
11.0499834891
 21
6.602391804
  0
LINE
  5
2DE
100
AcDbEntity
  8
0
100
AcDbLine
 62
7
  6
CONTINUOUS
 10
9.8035059507
 20
7.9568312942
 11
9.8471390039
 21
7.9818798959
  0
LINE
  5
2DF
100
AcDbEntity
  8
0
100
AcDbLine
 62
9
  6
CONTINUOUS
 10
10.0319440137
 20
9.324659268
 11
10.1140207217
 21
9.324659268
  0
LINE
  5
2E0
100
AcDbEntity
  8
0
100
AcDbLine
 62
7
  6
CONTINUOUS
 10
10.0319440137
 20
9.364891804
 11
10.1569834891
 21
9.364891804
  0
LINE
  5
2E1
100
AcDbEntity
  8
0
100
AcDbLine
 62
7
  6
CONTINUOUS
 10
10.0202195409
 20
9.3650374444
 11
10.0319440137
 21
9.364891804
  0
LINE
  5
2E2
100
AcDbEntity
  8
0
100
AcDbLine
 62
7
  6
CONTINUOUS
 10
10.0192774648
 20
9.3650534462
 11
10.0115710978
 21
9.3651589951
  0
LINE
  5
2E3
100
AcDbEntity
  8
0
100
AcDbLine
 62
7
  6
CONTINUOUS
 10
10.0115710978
 20
9.3651589951
 11
10.010140798
 21
9.3651839866
  0
LINE
  5
2E4
100
AcDbEntity
  8
0
100
AcDbLine
 62
7
  6
CONTINUOUS
 10
10.0202202068
 20
9.3650365578
 11
10.0193404275
 21
9.3650527331
  0
LINE
  5
2E5
100
AcDbEntity
  8
0
100
AcDbLine
 62
9
  6
CONTINUOUS
 10
10.0319440241
 20
9.3208599248
 11
9.9704169822
 21
9.3231770972
  0
LINE
  5
2E6
100
AcDbEntity
  8
0
100
AcDbLine
 62
7
  6
CONTINUOUS
 10
9.7553488224
 20
7.9381360303
 11
9.8037471379
 21
7.9569451007
  0
LWPOLYLINE
  5
2E7
100
AcDbEntity
  8
0
100
AcDbPolyline
 62
7
  6
CONTINUOUS
 90
10
 70
0
 10
9.7237345916
 20
9.6032511695
 10
9.7287494073
 20
9.604102798
 10
9.7755661737
 20
9.6183710336
 10
9.818925797
 20
9.63828625
 10
9.8576736298
 20
9.6634172994
 10
9.8906338846
 20
9.6930472093
 10
9.916776906
 20
9.7260709389
 10
9.9357761656
 20
9.7617146187
 10
9.9473590927
 20
9.7990805578
 10
9.951405048
 20
9.8387035276
  0
LINE
  5
2E8
100
AcDbEntity
  8
0
100
AcDbLine
 62
7
  6
CONTINUOUS
 10
9.6703748141
 20
9.5915863253
 11
9.6706661882
 21
9.5916026885
  0
LWPOLYLINE
  5
2E9
100
AcDbEntity
  8
0
100
AcDbPolyline
 62
7
  6
CONTINUOUS
 90
3
 70
0
 10
9.6363248753
 20
9.5896738886
 10
9.6701434324
 20
9.5915442289
 10
9.7113793577
 20
9.5990785253
  0
LINE
  5
2EA
100
AcDbEntity
  8
0
100
AcDbLine
 62
7
  6
CONTINUOUS
 10
9.5853199758
 20
9.5896733888
 11
9.6363248758
 21
9.5896733888
  0
LINE
  5
2EB
100
AcDbEntity
  8
0
100
AcDbLine
 62
9
  6
CONTINUOUS
 10
9.5278764485
 20
9.6101759141
 11
9.6363187157
 21
9.610176138
  0
LINE
  5
2EC
100
AcDbEntity
  8
0
100
AcDbLine
 62
7
  6
CONTINUOUS
 10
11.9379834891
 20
9.709891804
 11
11.8779834891
 21
9.709891804
  0
LINE
  5
2ED
100
AcDbEntity
  8
0
100
AcDbLine
 62
7
  6
CONTINUOUS
 10
11.6579834891
 20
6.6158979218
 11
11.6579834891
 21
7.0638856863
  0
LINE
  5
2EE
100
AcDbEntity
  8
0
100
AcDbLine
 62
9
  6
CONTINUOUS
 10
11.6699834891
 20
6.603891804
 11
11.6699834891
 21
7.075891804
  0
LINE
  5
2EF
100
AcDbEntity
  8
0
100
AcDbLine
 62
7
  6
CONTINUOUS
 10
11.8379834891
 20
8.3498947681
 11
11.8379834891
 21
9.66988884
  0
LINE
  5
2F0
100
AcDbEntity
  8
0
100
AcDbLine
 62
9
  6
CONTINUOUS
 10
11.8779834891
 20
8.309891804
 11
11.8779834891
 21
9.709891804
  0
LINE
  5
2F1
100
AcDbEntity
  8
0
100
AcDbLine
 62
7
  6
CONTINUOUS
 10
11.9379834891
 20
5.759891804
 11
11.9379834891
 21
12.259891804
  0
LINE
  5
2F2
100
AcDbEntity
  8
0
100
AcDbLine
 62
7
  6
CONTINUOUS
 10
12.0509834891
 20
5.634891804
 11
12.0509834891
 21
12.384891804
  0
LINE
  5
2F3
100
AcDbEntity
  8
0
100
AcDbLine
 62
7
  6
CONTINUOUS
 10
12.2509834891
 20
5.634891804
 11
12.2509834891
 21
12.384891804
  0
LINE
  5
2F4
100
AcDbEntity
  8
0
100
AcDbLine
 62
9
  6
CONTINUOUS
 10
11.9379834891
 20
11.469891804
 11
12.2509834891
 21
11.469891804
  0
LINE
  5
2F5
100
AcDbEntity
  8
0
100
AcDbLine
 62
7
  6
CONTINUOUS
 10
12.0509834891
 20
11.759891804
 11
11.9379834891
 21
11.759891804
  0
LINE
  5
2F6
100
AcDbEntity
  8
0
100
AcDbLine
 62
7
  6
CONTINUOUS
 10
12.0509834891
 20
11.884891804
 11
12.2509834891
 21
11.884891804
  0
LINE
  5
2F7
100
AcDbEntity
  8
0
100
AcDbLine
 62
9
  6
CONTINUOUS
 10
12.2509834891
 20
11.924891804
 11
11.9379834891
 21
11.924891804
  0
LINE
  5
2F8
100
AcDbEntity
  8
0
100
AcDbLine
 62
9
  6
CONTINUOUS
 10
11.9379834891
 20
11.969891804
 11
12.2509834891
 21
11.969891804
  0
LINE
  5
2F9
100
AcDbEntity
  8
0
100
AcDbLine
 62
7
  6
CONTINUOUS
 10
12.0509834891
 20
12.259891804
 11
11.9379834891
 21
12.259891804
  0
LINE
  5
2FA
100
AcDbEntity
  8
0
100
AcDbLine
 62
7
  6
CONTINUOUS
 10
12.0509834891
 20
12.384891804
 11
12.2509834891
 21
12.384891804
  0
ARC
  5
2FB
100
AcDbEntity
  8
0
100
AcDbCircle
 62
7
  6
CONTINUOUS
 10
10.1879834891
 20
3.2140089915
 40
5.4453828125
100
AcDbArc
 50
72.3615794038
 51
90.0
  0
ARC
  5
2FC
100
AcDbEntity
  8
0
100
AcDbCircle
 62
9
  6
CONTINUOUS
 10
9.9692128791
 20
6.4556156339
 40
2.2441854996
100
AcDbArc
 50
86.300372574
 51
88.398217045
  0
ARC
  5
2FD
100
AcDbEntity
  8
0
100
AcDbCircle
 62
9
  6
CONTINUOUS
 10
10.4408229305
 20
8.5191720489
 40
1.1834679511
100
AcDbArc
 50
200.2077855838
 51
200.3968936707
  0
ARC
  5
2FE
100
AcDbEntity
  8
0
100
AcDbCircle
 62
9
  6
CONTINUOUS
 10
10.1969203338
 20
8.8735217493
 40
0.9343077432
100
AcDbArc
 50
187.4575659223
 51
187.9316536241
  0
ARC
  5
2FF
100
AcDbEntity
  8
0
100
AcDbCircle
 62
9
  6
CONTINUOUS
 10
10.0319990629
 20
8.0814827898
 40
0.6136523199
100
AcDbArc
 50
90.0051398597
 51
95.6788089034
  0
ARC
  5
300
100
AcDbEntity
  8
0
100
AcDbCircle
 62
9
  6
CONTINUOUS
 10
10.0660653043
 20
8.2710822743
 40
0.6006744901
100
AcDbArc
 50
123.0232956985
 51
131.6829528292
  0
ARC
  5
301
100
AcDbEntity
  8
0
100
AcDbCircle
 62
9
  6
CONTINUOUS
 10
10.0298996825
 20
8.0966951647
 40
0.5983056966
100
AcDbArc
 50
95.7772282215
 51
106.812348304
  0
ARC
  5
302
100
AcDbEntity
  8
0
100
AcDbCircle
 62
9
  6
CONTINUOUS
 10
9.9524159487
 20
8.372639722
 40
0.3237287965
100
AcDbArc
 50
134.7986506441
 51
136.5025772919
  0
ARC
  5
303
100
AcDbEntity
  8
0
100
AcDbCircle
 62
9
  6
CONTINUOUS
 10
9.6374565927
 20
8.8358014289
 40
0.3032546354
100
AcDbArc
 50
188.4420450238
 51
189.6375951404
  0
ARC
  5
304
100
AcDbEntity
  8
0
100
AcDbCircle
 62
9
  6
CONTINUOUS
 10
9.8791323045
 20
8.4165883294
 40
0.2371114607
100
AcDbArc
 50
174.3114133408
 51
176.4486307433
  0
ARC
  5
305
100
AcDbEntity
  8
0
100
AcDbCircle
 62
9
  6
CONTINUOUS
 10
9.5918797679
 20
8.2631833066
 40
0.2260961609
100
AcDbArc
 50
200.2193511491
 51
201.2744790281
  0
ARC
  5
306
100
AcDbEntity
  8
0
100
AcDbCircle
 62
9
  6
CONTINUOUS
 10
9.5089682086
 20
8.1914299753
 40
0.1896009374
100
AcDbArc
 50
207.6682307348
 51
208.9121418503
  0
ARC
  5
307
100
AcDbEntity
  8
0
100
AcDbCircle
 62
9
  6
CONTINUOUS
 10
9.5017292288
 20
8.1877191975
 40
0.1814666379
100
AcDbArc
 50
200.3215523414
 51
207.6919024705
  0
ARC
  5
308
100
AcDbEntity
  8
0
100
AcDbCircle
 62
9
  6
CONTINUOUS
 10
9.4977516555
 20
8.1684588039
 40
0.1772978037
100
AcDbArc
 50
202.7284664915
 51
204.0270024578
  0
ARC
  5
309
100
AcDbEntity
  8
0
100
AcDbCircle
 62
9
  6
CONTINUOUS
 10
9.4941600922
 20
8.1669783349
 40
0.1734131397
100
AcDbArc
 50
200.3376257179
 51
202.7357838516
  0
ARC
  5
30A
100
AcDbEntity
  8
0
100
AcDbCircle
 62
9
  6
CONTINUOUS
 10
9.7920868718
 20
8.1812377061
 40
0.1593209708
100
AcDbArc
 50
353.4646349406
 51
355.40619642
  0
ARC
  5
30B
100
AcDbEntity
  8
0
100
AcDbCircle
 62
9
  6
CONTINUOUS
 10
9.7928176381
 20
8.1811786049
 40
0.1585878186
100
AcDbArc
 50
355.4063349733
 51
359.9916637529
  0
ARC
  5
30C
100
AcDbEntity
  8
0
100
AcDbCircle
 62
7
  6
CONTINUOUS
 10
9.2433911917
 20
8.8014679811
 40
0.0699999891
100
AcDbArc
 50
182.4230004776
 51
187.7370501001
  0
ARC
  5
30D
100
AcDbEntity
  8
0
100
AcDbCircle
 62
7
  6
CONTINUOUS
 10
10.4749834891
 20
7.183391804
 40
0.05
100
AcDbArc
 50
90.0
 51
180.0
  0
ARC
  5
30E
100
AcDbEntity
  8
0
100
AcDbCircle
 62
7
  6
CONTINUOUS
 10
10.4749834891
 20
6.496391804
 40
0.05
100
AcDbArc
 50
180.0
 51
270.0
  0
ARC
  5
30F
100
AcDbEntity
  8
0
100
AcDbCircle
 62
9
  6
CONTINUOUS
 10
9.6026009552
 20
8.4558667078
 40
0.034843481
100
AcDbArc
 50
215.0935629086
 51
215.9319032564
  0
ARC
  5
310
100
AcDbEntity
  8
0
100
AcDbCircle
 62
9
  6
CONTINUOUS
 10
9.6020542119
 20
8.4555337982
 40
0.0342047594
100
AcDbArc
 50
200.6881532812
 51
215.1638136002
  0
ARC
  5
311
100
AcDbEntity
  8
0
100
AcDbCircle
 62
9
  6
CONTINUOUS
 10
9.3646506746
 20
8.1064754421
 40
0.0330526309
100
AcDbArc
 50
197.857494405
 51
200.396934984
  0
ARC
  5
312
100
AcDbEntity
  8
0
100
AcDbCircle
 62
9
  6
CONTINUOUS
 10
9.609120182
 20
8.4293586588
 40
0.0329416566
100
AcDbArc
 50
2.7175614569
 51
3.6619238055
  0
ARC
  5
313
100
AcDbEntity
  8
0
100
AcDbCircle
 62
9
  6
CONTINUOUS
 10
9.3629261718
 20
8.1100750572
 40
0.0326842818
100
AcDbArc
 50
197.8358121919
 51
200.2064058013
  0
ARC
  5
314
100
AcDbEntity
  8
0
100
AcDbCircle
 62
7
  6
CONTINUOUS
 10
10.1879834891
 20
14.8057746165
 40
5.4453828125
100
AcDbArc
 50
270.0
 51
287.6384205962
  0
ARC
  5
315
100
AcDbEntity
  8
0
100
AcDbCircle
 62
9
  6
CONTINUOUS
 10
9.9692128052
 20
11.5641696826
 40
2.2441872092
100
AcDbArc
 50
271.6017836215
 51
273.6996248284
  0
ARC
  5
316
100
AcDbEntity
  8
0
100
AcDbCircle
 62
9
  6
CONTINUOUS
 10
10.0268326047
 20
11.5868806753
 40
2.2218446839
100
AcDbArc
 50
268.3659529591
 51
269.5993337876
  0
ARC
  5
317
100
AcDbEntity
  8
0
100
AcDbCircle
 62
9
  6
CONTINUOUS
 10
10.0168670145
 20
11.2174681625
 40
1.8522983072
100
AcDbArc
 50
268.1054877448
 51
268.3482444021
  0
ARC
  5
318
100
AcDbEntity
  8
0
100
AcDbCircle
 62
9
  6
CONTINUOUS
 10
10.0316757081
 20
10.9007435755
 40
1.5357422026
100
AcDbArc
 50
269.2812771856
 51
269.4190539807
  0
ARC
  5
319
100
AcDbEntity
  8
0
100
AcDbCircle
 62
9
  6
CONTINUOUS
 10
10.4366881031
 20
9.5021412415
 40
1.1790592469
100
AcDbArc
 50
159.6027514873
 51
159.7925667217
  0
ARC
  5
31A
100
AcDbEntity
  8
0
100
AcDbCircle
 62
9
  6
CONTINUOUS
 10
10.1921969202
 20
9.1468996526
 40
0.9295415066
100
AcDbArc
 50
172.0671074275
 51
172.5436257162
  0
ARC
  5
31B
100
AcDbEntity
  8
0
100
AcDbCircle
 62
9
  6
CONTINUOUS
 10
10.0320331992
 20
9.9389863675
 40
0.6143378732
100
AcDbArc
 50
264.2609452628
 51
269.9916821797
  0
ARC
  5
31C
100
AcDbEntity
  8
0
100
AcDbCircle
 62
9
  6
CONTINUOUS
 10
10.0660618487
 20
9.7486968052
 40
0.6006688099
100
AcDbArc
 50
228.3170060893
 51
236.9767452862
  0
ARC
  5
31D
100
AcDbEntity
  8
0
100
AcDbCircle
 62
9
  6
CONTINUOUS
 10
10.0298828401
 20
9.9229873667
 40
0.598203438
100
AcDbArc
 50
253.1265721537
 51
264.2234067157
  0
ARC
  5
31E
100
AcDbEntity
  8
0
100
AcDbCircle
 62
9
  6
CONTINUOUS
 10
9.6332549512
 20
9.1846516987
 40
0.2990002093
100
AcDbArc
 50
170.3540978426
 51
171.5666227138
  0
ARC
  5
31F
100
AcDbEntity
  8
0
100
AcDbCircle
 62
9
  6
CONTINUOUS
 10
9.8791017587
 20
9.6031920097
 40
0.2370808504
100
AcDbArc
 50
183.2131787778
 51
185.59226798
  0
ARC
  5
320
100
AcDbEntity
  8
0
100
AcDbCircle
 62
9
  6
CONTINUOUS
 10
9.5916633121
 20
9.756682286
 40
0.2258647098
100
AcDbArc
 50
158.7249782134
 51
159.7811871841
  0
ARC
  5
321
100
AcDbEntity
  8
0
100
AcDbCircle
 62
9
  6
CONTINUOUS
 10
9.5085604805
 20
9.8285728008
 40
0.1891380752
100
AcDbArc
 50
151.0866021131
 51
152.3332421155
  0
ARC
  5
322
100
AcDbEntity
  8
0
100
AcDbCircle
 62
9
  6
CONTINUOUS
 10
9.4993953332
 20
9.8331039701
 40
0.1789170561
100
AcDbArc
 50
152.2555695801
 51
159.7310692655
  0
ARC
  5
323
100
AcDbEntity
  8
0
100
AcDbCircle
 62
9
  6
CONTINUOUS
 10
9.4981652889
 20
9.8511457955
 40
0.1777484628
100
AcDbArc
 50
155.974578366
 51
157.2698737525
  0
ARC
  5
324
100
AcDbEntity
  8
0
100
AcDbCircle
 62
9
  6
CONTINUOUS
 10
9.4948997209
 20
9.8525129483
 40
0.1742082593
100
AcDbArc
 50
157.2696062496
 51
159.6567692259
  0
ARC
  5
325
100
AcDbEntity
  8
0
100
AcDbCircle
 62
9
  6
CONTINUOUS
 10
9.7920970797
 20
9.8385468996
 40
0.1593107221
100
AcDbArc
 50
4.5962628784
 51
6.5012328038
  0
ARC
  5
326
100
AcDbEntity
  8
0
100
AcDbCircle
 62
9
  6
CONTINUOUS
 10
9.7927826366
 20
9.8386036715
 40
0.1586228206
100
AcDbArc
 50
0.0308708469
 51
4.5956658026
  0
ARC
  5
327
100
AcDbEntity
  8
0
100
AcDbCircle
 62
9
  6
CONTINUOUS
 10
9.3646506162
 20
9.913308171
 40
0.0330526298
100
AcDbArc
 50
159.6030352255
 51
162.1424806841
  0
ARC
  5
328
100
AcDbEntity
  8
0
100
AcDbCircle
 62
9
  6
CONTINUOUS
 10
9.3629260305
 20
9.9097086267
 40
0.032684139
100
AcDbArc
 50
159.793708664
 51
162.16424831
  0
ARC
  5
329
100
AcDbEntity
  8
0
100
AcDbCircle
 62
9
  6
CONTINUOUS
 10
9.609750247
 20
9.5903895559
 40
0.0323104687
100
AcDbArc
 50
355.7209457493
 51
357.293411826
  0
ARC
  5
32A
100
AcDbEntity
  8
0
100
AcDbCircle
 62
9
  6
CONTINUOUS
 10
10.684473479
 20
4.2238247888
 40
4.6569838802
100
AcDbArc
 50
97.0360625152
 51
98.0547016353
  0
ARC
  5
32B
100
AcDbEntity
  8
0
100
AcDbCircle
 62
9
  6
CONTINUOUS
 10
11.7043243191
 20
8.9976398879
 40
2.5354920315
100
AcDbArc
 50
171.7404109941
 51
172.2431362621
  0
ARC
  5
32C
100
AcDbEntity
  8
0
100
AcDbCircle
 62
7
  6
CONTINUOUS
 10
10.9921512839
 20
7.362391804
 40
0.285
100
AcDbArc
 50
212.2983737807
 51
270.0
  0
ARC
  5
32D
100
AcDbEntity
  8
0
100
AcDbCircle
 62
7
  6
CONTINUOUS
 10
10.9921512839
 20
6.317391804
 40
0.285
100
AcDbArc
 50
90.0
 51
147.7016262193
  0
ARC
  5
32E
100
AcDbEntity
  8
0
100
AcDbCircle
 62
7
  6
CONTINUOUS
 10
10.6099834891
 20
7.251891804
 40
0.08
100
AcDbArc
 50
0.0
 51
90.0
  0
ARC
  5
32F
100
AcDbEntity
  8
0
100
AcDbCircle
 62
7
  6
CONTINUOUS
 10
10.6099834891
 20
6.427891804
 40
0.08
100
AcDbArc
 50
270.0
 51
360.0
  0
ARC
  5
330
100
AcDbEntity
  8
0
100
AcDbCircle
 62
7
  6
CONTINUOUS
 10
10.5729834891
 20
7.251891804
 40
0.08
100
AcDbArc
 50
90.0
 51
180.0
  0
ARC
  5
331
100
AcDbEntity
  8
0
100
AcDbCircle
 62
7
  6
CONTINUOUS
 10
10.5729834891
 20
6.427891804
 40
0.08
100
AcDbArc
 50
180.0
 51
270.0
  0
ARC
  5
332
100
AcDbEntity
  8
0
100
AcDbCircle
 62
7
  6
CONTINUOUS
 10
10.7089834891
 20
7.183391804
 40
0.05
100
AcDbArc
 50
32.2983737807
 51
90.0
  0
ARC
  5
333
100
AcDbEntity
  8
0
100
AcDbCircle
 62
7
  6
CONTINUOUS
 10
10.7089834891
 20
6.496391804
 40
0.05
100
AcDbArc
 50
270.0
 51
327.7016262193
  0
ARC
  5
334
100
AcDbEntity
  8
0
100
AcDbCircle
 62
7
  6
CONTINUOUS
 10
11.8779834891
 20
8.349891804
 40
0.04
100
AcDbArc
 50
180.0
 51
270.0
  0
ARC
  5
335
100
AcDbEntity
  8
0
100
AcDbCircle
 62
7
  6
CONTINUOUS
 10
11.6699834891
 20
6.615891804
 40
0.012
100
AcDbArc
 50
180.0
 51
270.0
  0
ARC
  5
336
100
AcDbEntity
  8
0
100
AcDbCircle
 62
7
  6
CONTINUOUS
 10
11.6699834891
 20
7.063891804
 40
0.012
100
AcDbArc
 50
90.0
 51
180.0
  0
ARC
  5
337
100
AcDbEntity
  8
0
100
AcDbCircle
 62
9
  6
CONTINUOUS
 10
10.6831774996
 20
13.7861742283
 40
4.6471142258
100
AcDbArc
 50
261.9442157531
 51
262.9650183371
  0
ARC
  5
338
100
AcDbEntity
  8
0
100
AcDbCircle
 62
9
  6
CONTINUOUS
 10
11.498425378
 20
12.0163799922
 40
3.161556813
100
AcDbArc
 50
242.5809144958
 51
244.0308584777
  0
ARC
  5
339
100
AcDbEntity
  8
0
100
AcDbCircle
 62
9
  6
CONTINUOUS
 10
11.705220473
 20
9.0222697721
 40
2.5363969869
100
AcDbArc
 50
187.756926779
 51
188.2594988808
  0
ARC
  5
33A
100
AcDbEntity
  8
0
100
AcDbCircle
 62
7
  6
CONTINUOUS
 10
11.8779834891
 20
9.669891804
 40
0.04
100
AcDbArc
 50
90.0
 51
180.0
  0
SPLINE
  5
33B
100
AcDbEntity
  8
0
100
AcDbSpline
 62
9
  6
CONTINUOUS
 70
0
 71
3
 72
34
 73
30
 74
0
 42
0.0000001
 43
0.0000001
 44
0.0000000001
 40
0.0
 40
0.0
 40
0.0
 40
0.0
 40
0.0252262995
 40
0.0506550512
 40
0.0764725697
 40
0.102845653
 40
0.1299136836
 40
0.15778493
 40
0.1865348022
 40
0.2162052373
 40
0.2468078603
 40
0.2783241927
 40
0.3107113828
 40
0.3439021572
 40
0.3778113102
 40
0.4123356381
 40
0.4473599199
 40
0.4827572879
 40
0.5540968691
 40
0.625277824
 40
0.6951995334
 40
0.7628629995
 40
0.7956089971
 40
0.8275102307
 40
0.8885341784
 40
0.9176797263
 40
0.9459233018
 40
0.9733345316
 40
1.0
 40
1.0
 40
1.0
 40
1.0
 10
9.951405456
 20
9.8568833306
 30
0.0
 10
9.9514048624
 20
9.863452325
 30
0.0
 10
9.9505695692
 20
9.8766577659
 30
0.0
 10
9.9468323668
 20
9.8962668882
 30
0.0
 10
9.9406435476
 20
9.9155600626
 30
0.0
 10
9.9320572506
 20
9.9343782259
 30
0.0
 10
9.9211460505
 20
9.9525733362
 30
0.0
 10
9.9080023913
 20
9.9700045752
 30
0.0
 10
9.8927306718
 20
9.9865354591
 30
0.0
 10
9.8754559739
 20
10.0020420187
 30
0.0
 10
9.8563117858
 20
10.0164016116
 30
0.0
 10
9.8354516334
 20
10.0295085274
 30
0.0
 10
9.8130358926
 20
10.0412571231
 30
0.0
 10
9.7892421789
 20
10.0515619452
 30
0.0
 10
9.764254063
 20
10.0603383347
 30
0.0
 10
9.7382684332
 20
10.0675230078
 30
0.0
 10
9.7114857108
 20
10.0730563598
 30
0.0
 10
9.6749085866
 20
10.0781908375
 30
0.0
 10
9.6284924092
 20
10.0802631701
 30
0.0
 10
9.5732061398
 20
10.075841686
 30
0.0
 10
9.5198543889
 20
10.0646552709
 30
0.0
 10
9.4778941388
 20
10.0498022108
 30
0.0
 10
9.4468423384
 20
10.0348016069
 30
0.0
 10
9.4185284801
 20
10.0183499949
 30
0.0
 10
9.3929830908
 20
9.9991200635
 30
0.0
 10
9.3711107404
 20
9.9773308438
 30
0.0
 10
9.3570250617
 20
9.9602741193
 30
0.0
 10
9.345130284
 20
9.9423950901
 30
0.0
 10
9.3386430868
 20
9.9298568732
 30
0.0
 10
9.3358160816
 20
9.9235146486
 30
0.0
  0
SPLINE
  5
33C
100
AcDbEntity
  8
0
100
AcDbSpline
 62
9
  6
CONTINUOUS
 70
0
 71
3
 72
15
 73
11
 74
0
 42
0.0000001
 43
0.0000001
 44
0.0000000001
 40
0.0
 40
0.0
 40
0.0
 40
0.0
 40
0.1197989167
 40
0.2402451774
 40
0.3618241926
 40
0.4849919588
 40
0.610117101
 40
0.737508581
 40
0.8674085014
 40
1.0
 40
1.0
 40
1.0
 40
1.0
 10
9.6431495291
 20
9.5800859193
 30
0.0
 10
9.6438707881
 20
9.5727196439
 30
0.0
 10
9.6460107992
 20
9.5580058375
 30
0.0
 10
9.6512824904
 20
9.5362506133
 30
0.0
 10
9.6585899849
 20
9.5148709622
 30
0.0
 10
9.6679014511
 20
9.4939698788
 30
0.0
 10
9.6791687796
 20
9.4736447717
 30
0.0
 10
9.6923435402
 20
9.4539992407
 30
0.0
 10
9.7073600329
 20
9.4351332775
 30
0.0
 10
9.7184392251
 20
9.4232642165
 30
0.0
 10
9.7242501795
 20
9.4174901873
 30
0.0
  0
SPLINE
  5
33D
100
AcDbEntity
  8
0
100
AcDbSpline
 62
9
  6
CONTINUOUS
 70
0
 71
3
 72
23
 73
19
 74
0
 42
0.0000001
 43
0.0000001
 44
0.0000000001
 40
0.0
 40
0.0
 40
0.0
 40
0.0
 40
0.1146780336
 40
0.2331229551
 40
0.3551924737
 40
0.4175248747
 40
0.4806493546
 40
0.5444685167
 40
0.6088411774
 40
0.6736710233
 40
0.706265142
 40
0.738982465
 40
0.7718237772
 40
0.8047513682
 40
0.8705640947
 40
0.9033370731
 40
0.9359154117
 40
1.0
 40
1.0
 40
1.0
 40
1.0
 10
9.7242501795
 20
9.4174901873
 30
0.0
 10
9.7336623817
 20
9.4081377939
 30
0.0
 10
9.7539704218
 20
9.3902746975
 30
0.0
 10
9.7877744811
 20
9.3667659584
 30
0.0
 10
9.8186082333
 20
9.3499650661
 30
0.0
 10
9.8447626558
 20
9.3382707945
 30
0.0
 10
9.8652017866
 20
9.3303775488
 30
0.0
 10
9.8862496053
 20
9.3234898322
 30
0.0
 10
9.9078296032
 20
9.3176947714
 30
0.0
 10
9.9261629534
 20
9.3138577021
 30
0.0
 10
9.9410131026
 20
9.3113576771
 30
0.0
 10
9.9522579749
 20
9.309759926
 30
0.0
 10
9.9635769502
 20
9.3084329179
 30
0.0
 10
9.9787391139
 20
9.3070470111
 30
0.0
 10
9.9939526718
 20
9.3063337032
 30
0.0
 10
10.0091320393
 20
9.3064850167
 30
0.0
 10
10.0240914274
 20
9.3072446987
 30
0.0
 10
10.035223312
 20
9.3085091852
 30
0.0
 10
10.0425427032
 20
9.3096948739
 30
0.0
  0
SPLINE
  5
33E
100
AcDbEntity
  8
0
100
AcDbSpline
 62
9
  6
CONTINUOUS
 70
0
 71
3
 72
31
 73
27
 74
0
 42
0.0000001
 43
0.0000001
 44
0.0000000001
 40
0.0
 40
0.0
 40
0.0
 40
0.0
 40
0.0270123602
 40
0.0547698421
 40
0.0833429508
 40
0.1127720043
 40
0.1741595787
 40
0.2061156416
 40
0.2388305073
 40
0.306195449
 40
0.3755556709
 40
0.4460175724
 40
0.5166070645
 40
0.586340939
 40
0.6542979924
 40
0.6873761014
 40
0.7197313881
 40
0.7819868922
 40
0.8118609475
 40
0.8408733371
 40
0.8690460335
 40
0.8964292507
 40
0.9230994797
 40
0.9491616945
 40
0.9747448262
 40
1.0
 40
1.0
 40
1.0
 40
1.0
 10
9.3429981839
 20
9.9200186177
 30
0.0
 10
9.3462549504
 20
9.9259155338
 30
0.0
 10
9.353498293
 20
9.9375290099
 30
0.0
 10
9.3662142559
 20
9.9540080079
 30
0.0
 10
9.3808303142
 20
9.9696641703
 30
0.0
 10
9.4030136294
 20
9.9895694256
 30
0.0
 10
9.4283263647
 20
10.0070644394
 30
0.0
 10
9.4560132585
 20
10.0219930264
 30
0.0
 10
9.4860553244
 20
10.0355356821
 30
0.0
 10
9.5262798826
 20
10.0489037997
 30
0.0
 10
9.5770947437
 20
10.058933644
 30
0.0
 10
9.629547273
 20
10.0628476534
 30
0.0
 10
9.6821874479
 20
10.0605382356
 30
0.0
 10
9.7335601634
 20
10.0520698739
 30
0.0
 10
9.7745216638
 20
10.0399549825
 30
0.0
 10
9.8053365784
 20
10.0273580923
 30
0.0
 10
9.8339227326
 20
10.0132878973
 30
0.0
 10
9.8602689105
 20
9.9965920465
 30
0.0
 10
9.8836364749
 20
9.977397414
 30
0.0
 10
9.8991927931
 20
9.9622101309
 30
0.0
 10
9.9129003636
 20
9.9461419803
 30
0.0
 10
9.9246641106
 20
9.9293045973
 30
0.0
 10
9.9343947726
 20
9.9118130168
 30
0.0
 10
9.9420230486
 20
9.8937903713
 30
0.0
 10
9.9474869158
 20
9.8753661587
 30
0.0
 10
9.9496703261
 20
9.8628425641
 30
0.0
 10
9.9503833414
 20
9.8565847911
 30
0.0
  0
SPLINE
  5
33F
100
AcDbEntity
  8
0
100
AcDbSpline
 62
9
  6
CONTINUOUS
 70
0
 71
3
 72
20
 73
16
 74
0
 42
0.0000001
 43
0.0000001
 44
0.0000000001
 40
0.0
 40
0.0
 40
0.0
 40
0.0
 40
0.0642063639
 40
0.0968559074
 40
0.1296389184
 40
0.1953067756
 40
0.2281381389
 40
0.2609186642
 40
0.3262466513
 40
0.391174784
 40
0.5193579064
 40
0.6447449529
 40
0.7668325513
 40
0.8853041373
 40
1.0
 40
1.0
 40
1.0
 40
1.0
 10
10.0425427088
 20
8.7100887367
 30
0.0
 10
10.0352119382
 20
8.7112747253
 30
0.0
 10
10.0240519286
 20
8.7124705897
 30
0.0
 10
10.009072325
 20
8.7131583501
 30
0.0
 10
9.9939069196
 20
8.7133052142
 30
0.0
 10
9.9787234505
 20
8.7126891967
 30
0.0
 10
9.963593421
 20
8.7113951268
 30
0.0
 10
9.9485445138
 20
8.7096814128
 30
0.0
 10
9.9299025848
 20
8.7067727688
 30
0.0
 10
9.900652226
 20
8.7005599533
 30
0.0
 10
9.8652768852
 20
8.6900202405
 30
0.0
 10
9.8250744932
 20
8.673342877
 30
0.0
 10
9.787833139
 20
8.6530567553
 30
0.0
 10
9.7540329233
 20
8.6295545437
 30
0.0
 10
9.7337238703
 20
8.6117010767
 30
0.0
 10
9.7243109738
 20
8.6023535747
 30
0.0
  0
SPLINE
  5
340
100
AcDbEntity
  8
0
100
AcDbSpline
 62
9
  6
CONTINUOUS
 70
0
 71
3
 72
14
 73
10
 74
0
 42
0.0000001
 43
0.0000001
 44
0.0000000001
 40
0.0
 40
0.0
 40
0.0
 40
0.0
 40
0.2614331704
 40
0.3886559327
 40
0.5137825148
 40
0.6371009263
 40
0.7589608597
 40
0.8797815494
 40
1.0
 40
1.0
 40
1.0
 40
1.0
 10
9.7175813529
 20
8.5954693572
 30
0.0
 10
9.7070622261
 20
8.5843815932
 30
0.0
 10
9.6925716229
 20
8.5667309052
 30
0.0
 10
9.6763782102
 20
8.5414059711
 30
0.0
 10
9.6660656332
 20
8.5219861149
 30
0.0
 10
9.6575266127
 20
8.5020654883
 30
0.0
 10
9.6507980583
 20
8.4817257731
 30
0.0
 10
9.6459068746
 20
8.4610551105
 30
0.0
 10
9.6438853987
 20
8.4470872901
 30
0.0
 10
9.6431887708
 20
8.4400937983
 30
0.0
  0
SPLINE
  5
341
100
AcDbEntity
  8
0
100
AcDbSpline
 62
9
  6
CONTINUOUS
 70
0
 71
3
 72
9
 73
5
 74
0
 42
0.0000001
 43
0.0000001
 44
0.0000000001
 40
0.0
 40
0.0
 40
0.0
 40
0.0
 40
0.5019852815
 40
1.0
 40
1.0
 40
1.0
 40
1.0
 10
10.1140207217
 20
8.6951243401
 30
0.0
 10
10.1021718301
 20
8.6981233602
 30
0.0
 10
10.0784533995
 20
8.7036561494
 30
0.0
 10
10.0545143246
 20
8.7081608249
 30
0.0
 10
10.0425427088
 20
8.7100887367
 30
0.0
  0
SPLINE
  5
342
100
AcDbEntity
  8
0
100
AcDbSpline
 62
9
  6
CONTINUOUS
 70
0
 71
3
 72
9
 73
5
 74
0
 42
0.0000001
 43
0.0000001
 44
0.0000000001
 40
0.0
 40
0.0
 40
0.0
 40
0.0
 40
0.5018962114
 40
1.0
 40
1.0
 40
1.0
 40
1.0
 10
10.0425427032
 20
8.8097975917
 30
0.0
 10
10.0544313812
 20
8.8159472563
 30
0.0
 10
10.0781759061
 20
8.8280903633
 30
0.0
 10
10.1020699638
 20
8.8399379868
 30
0.0
 10
10.1140207217
 20
8.8457380845
 30
0.0
  0
SPLINE
  5
343
100
AcDbEntity
  8
0
100
AcDbSpline
 62
9
  6
CONTINUOUS
 70
0
 71
3
 72
32
 73
28
 74
0
 42
0.0000001
 43
0.0000001
 44
0.0000000001
 40
0.0
 40
0.0
 40
0.0
 40
0.0
 40
0.0360392233
 40
0.0722895652
 40
0.1085423961
 40
0.1266403186
 40
0.1447107116
 40
0.1627474516
 40
0.1807442991
 40
0.2165867494
 40
0.2521748601
 40
0.2874487716
 40
0.3223657556
 40
0.3568935459
 40
0.3910060806
 40
0.4246759728
 40
0.4578786705
 40
0.4905942445
 40
0.5228071082
 40
0.554505893
 40
0.6759592749
 40
0.7337088989
 40
0.7896090821
 40
0.8438765082
 40
0.8967955907
 40
0.9487191863
 40
1.0
 40
1.0
 40
1.0
 40
1.0
 10
10.0425427088
 20
9.2099860186
 30
0.0
 10
10.0363194634
 20
9.2132216954
 30
0.0
 10
10.0236422308
 20
9.2193403671
 30
0.0
 10
10.0042634661
 20
9.2277569286
 30
0.0
 10
9.9879405146
 20
9.2344287513
 30
0.0
 10
9.9748734455
 20
9.239712626
 30
0.0
 10
9.9650995076
 20
9.2436833672
 30
0.0
 10
9.9553682239
 20
9.2477065462
 30
0.0
 10
9.9424896877
 20
9.2531689313
 30
0.0
 10
9.9265552719
 20
9.2601730005
 30
0.0
 10
9.9076907249
 20
9.2688595167
 30
0.0
 10
9.8891428691
 20
9.2777962356
 30
0.0
 10
9.8709711911
 20
9.287029081
 30
0.0
 10
9.8532329335
 20
9.2966036666
 30
0.0
 10
9.835985601
 20
9.3065606068
 30
0.0
 10
9.819265222
 20
9.3168970505
 30
0.0
 10
9.8031100053
 20
9.3276128266
 30
0.0
 10
9.7875592029
 20
9.3387064774
 30
0.0
 10
9.7726445202
 20
9.3501712282
 30
0.0
 10
9.7448880893
 20
9.3732133581
 30
0.0
 10
9.7157857085
 20
9.402527915
 30
0.0
 10
9.6884869613
 20
9.4393271274
 30
0.0
 10
9.6717533988
 20
9.4674721914
 30
0.0
 10
9.6585731071
 20
9.4964199759
 30
0.0
 10
9.6490647338
 20
9.5259689452
 30
0.0
 10
9.6433186681
 20
9.555881315
 30
0.0
 10
9.6420242737
 20
9.5759894853
 30
0.0
 10
9.6420209267
 20
9.585970045
 30
0.0
  0
SPLINE
  5
344
100
AcDbEntity
  8
0
100
AcDbSpline
 62
9
  6
CONTINUOUS
 70
0
 71
3
 72
9
 73
5
 74
0
 42
0.0000001
 43
0.0000001
 44
0.0000000001
 40
0.0
 40
0.0
 40
0.0
 40
0.0
 40
0.4980147334
 40
1.0
 40
1.0
 40
1.0
 40
1.0
 10
10.0425427032
 20
9.3096948739
 30
0.0
 10
10.0545143193
 20
9.3116227914
 30
0.0
 10
10.0784533984
 20
9.3161274528
 30
0.0
 10
10.1021718295
 20
9.3216602483
 30
0.0
 10
10.1140207217
 20
9.324659268
 30
0.0
  0
SPLINE
  5
345
100
AcDbEntity
  8
0
100
AcDbSpline
 62
9
  6
CONTINUOUS
 70
0
 71
3
 72
14
 73
10
 74
0
 42
0.0000001
 43
0.0000001
 44
0.0000000001
 40
0.0
 40
0.0
 40
0.0
 40
0.0
 40
0.1086220047
 40
0.2224807557
 40
0.3412923005
 40
0.464685479
 40
0.5924921637
 40
0.7244993747
 40
1.0
 40
1.0
 40
1.0
 40
1.0
 10
9.5853215529
 20
8.4301107305
 30
0.0
 10
9.5830860125
 20
8.430110534
 30
0.0
 10
9.5785049296
 20
8.4298244789
 30
0.0
 10
9.5715630871
 20
8.4286977809
 30
0.0
 10
9.5644459026
 20
8.4269206795
 30
0.0
 10
9.5572043064
 20
8.4245462851
 30
0.0
 10
9.549881356
 20
8.4216035561
 30
0.0
 10
9.5399148491
 20
8.4168974907
 30
0.0
 10
9.5326389834
 20
8.4126844473
 30
0.0
 10
9.5278764061
 20
8.4096075357
 30
0.0
  0
SPLINE
  5
346
100
AcDbEntity
  8
0
100
AcDbSpline
 62
9
  6
CONTINUOUS
 70
0
 71
3
 72
35
 73
31
 74
0
 42
0.0000001
 43
0.0000001
 44
0.0000000001
 40
0.0
 40
0.0
 40
0.0
 40
0.0
 40
0.0265028731
 40
0.052536043
 40
0.0783301278
 40
0.1041312679
 40
0.1301860235
 40
0.1567252493
 40
0.1839493081
 40
0.2120206731
 40
0.2410549301
 40
0.2711232475
 40
0.3022498283
 40
0.334418078
 40
0.3675732734
 40
0.4016274423
 40
0.4364656652
 40
0.4719487075
 40
0.5079208323
 40
0.5442117085
 40
0.6169896266
 40
0.6888867154
 40
0.7585530522
 40
0.7922191823
 40
0.8249428763
 40
0.8872343939
 40
0.916833529
 40
0.945427399
 40
0.9731128897
 40
1.0
 40
1.0
 40
1.0
 40
1.0
 10
9.8636831106
 20
9.7186420796
 30
0.0
 10
9.8659293204
 20
9.7239196145
 30
0.0
 10
9.8697223781
 20
9.7346788875
 30
0.0
 10
9.8731720935
 20
9.7513278421
 30
0.0
 10
9.8742829613
 20
9.7681463874
 30
0.0
 10
9.8730367236
 20
9.7849593725
 30
0.0
 10
9.8694498904
 20
9.8015961866
 30
0.0
 10
9.8635553077
 20
9.8178866173
 30
0.0
 10
9.8554209347
 20
9.8336706588
 30
0.0
 10
9.8451250818
 20
9.8487908468
 30
0.0
 10
9.8327759285
 20
9.8631039374
 30
0.0
 10
9.8184925093
 20
9.8764696459
 30
0.0
 10
9.8024163964
 20
9.8887607823
 30
0.0
 10
9.7847041263
 20
9.8998583617
 30
0.0
 10
9.765527815
 20
9.9096528065
 30
0.0
 10
9.7450763224
 20
9.9180510984
 30
0.0
 10
9.7235486628
 20
9.924966175
 30
0.0
 10
9.7011585465
 20
9.9303341233
 30
0.0
 10
9.6781244653
 20
9.9340969959
 30
0.0
 10
9.646841702
 20
9.9369303993
 30
0.0
 10
9.6075394715
 20
9.936315381
 30
0.0
 10
9.5615735014
 20
9.9290430782
 30
0.0
 10
9.5252370538
 20
9.9176273596
 30
0.0
 10
9.4983927981
 20
9.9054488446
 30
0.0
 10
9.4740769608
 20
9.8918284494
 30
0.0
 10
9.4523316689
 20
9.8755423388
 30
0.0
 10
9.434114928
 20
9.8568278952
 30
0.0
 10
9.4226645954
 20
9.8421348687
 30
0.0
 10
9.4133280828
 20
9.8266987982
 30
0.0
 10
9.4085036391
 20
9.8158766381
 30
0.0
 10
9.4064926302
 20
9.8104163732
 30
0.0
  0
SPLINE
  5
347
100
AcDbEntity
  8
0
100
AcDbSpline
 62
9
  6
CONTINUOUS
 70
0
 71
3
 72
29
 73
25
 74
0
 42
0.0000001
 43
0.0000001
 44
0.0000000001
 40
0.0
 40
0.0
 40
0.0
 40
0.0
 40
0.0512817981
 40
0.1032067681
 40
0.1561268722
 40
0.2103951774
 40
0.2662957976
 40
0.3240459444
 40
0.4455025001
 40
0.5094003862
 40
0.5753143367
 40
0.6089894906
 40
0.6431062171
 40
0.6776343897
 40
0.7125469307
 40
0.7478135267
 40
0.7833949144
 40
0.8192352959
 40
0.8372328163
 40
0.855270927
 40
0.8914424273
 40
0.9277007818
 40
0.9639598043
 40
1.0
 40
1.0
 40
1.0
 40
1.0
 10
9.642020917
 20
8.4337909949
 30
0.0
 10
9.6420233019
 20
8.4437718335
 30
0.0
 10
9.6433159473
 20
8.4638807579
 30
0.0
 10
9.6490595223
 20
8.493794559
 30
0.0
 10
9.6585658636
 20
8.5233451324
 30
0.0
 10
9.6717445232
 20
8.5522945666
 30
0.0
 10
9.6884763135
 20
8.580441037
 30
0.0
 10
9.7157762044
 20
8.6172434414
 30
0.0
 10
9.7493081878
 20
8.6510289029
 30
0.0
 10
9.7875818956
 20
8.6815085857
 30
0.0
 10
9.8138406616
 20
8.699531516
 30
0.0
 10
9.8359736841
 20
8.7132226313
 30
0.0
 10
9.8532192414
 20
8.7231874316
 30
0.0
 10
9.8709546927
 20
8.7327676102
 30
0.0
 10
9.889128078
 20
8.7419929057
 30
0.0
 10
9.9076826286
 20
8.7509080993
 30
0.0
 10
9.9265611215
 20
8.7595572072
 30
0.0
 10
9.9424994437
 20
8.7665482709
 30
0.0
 10
9.9553706814
 20
8.7720279519
 30
0.0
 10
9.9683401741
 20
8.7774405292
 30
0.0
 10
9.9846422289
 20
8.7840940939
 30
0.0
 10
10.0042052544
 20
8.7921427642
 30
0.0
 10
10.0236198706
 20
8.800481628
 30
0.0
 10
10.0363209529
 20
8.8065584985
 30
0.0
 10
10.0425427032
 20
8.8097975917
 30
0.0
  0
SPLINE
  5
348
100
AcDbEntity
  8
0
100
AcDbSpline
 62
9
  6
CONTINUOUS
 70
0
 71
3
 72
9
 73
5
 74
0
 42
0.0000001
 43
0.0000001
 44
0.0000000001
 40
0.0
 40
0.0
 40
0.0
 40
0.0
 40
0.5125434904
 40
1.0
 40
1.0
 40
1.0
 40
1.0
 10
9.6139084476
 20
8.4400764811
 30
0.0
 10
9.6153820449
 20
8.4379989552
 30
0.0
 10
9.6186218769
 20
8.4341890017
 30
0.0
 10
9.6225520378
 20
8.431080059
 30
0.0
 10
9.6246091583
 20
8.4298008737
 30
0.0
  0
SPLINE
  5
349
100
AcDbEntity
  8
0
100
AcDbSpline
 62
9
  6
CONTINUOUS
 70
0
 71
3
 72
31
 73
27
 74
0
 42
0.0000001
 43
0.0000001
 44
0.0000000001
 40
0.0
 40
0.0
 40
0.0
 40
0.0
 40
0.0252556753
 40
0.0508400368
 40
0.0769040409
 40
0.1035764571
 40
0.1309620932
 40
0.1591373085
 40
0.1881521953
 40
0.2180286479
 40
0.2802883476
 40
0.3126452712
 40
0.3457246609
 40
0.4136830862
 40
0.4834166203
 40
0.5540042491
 40
0.6244631708
 40
0.6938197339
 40
0.7611807902
 40
0.7938937574
 40
0.8258480181
 40
0.8872324386
 40
0.9166601594
 40
0.9452320828
 40
0.9729885219
 40
1.0
 40
1.0
 40
1.0
 40
1.0
 10
9.950372542
 20
8.163104357
 30
0.0
 10
9.9496558806
 20
8.1568476881
 30
0.0
 10
9.9474654113
 20
8.1443265604
 30
0.0
 10
9.9419918837
 20
8.125906897
 30
0.0
 10
9.9343549272
 20
8.1078892738
 30
0.0
 10
9.9246165133
 20
8.0904031506
 30
0.0
 10
9.9128460464
 20
8.073571542
 30
0.0
 10
9.8991327267
 20
8.057509451
 30
0.0
 10
9.8835716888
 20
8.0423283811
 30
0.0
 10
9.8601991753
 20
8.0231423521
 30
0.0
 10
9.8338501327
 20
8.00645485
 30
0.0
 10
9.8052626931
 20
7.9923925298
 30
0.0
 10
9.7744480271
 20
7.9798035395
 30
0.0
 10
9.733489022
 20
7.9676977259
 30
0.0
 10
9.6821217741
 20
7.9592388197
 30
0.0
 10
9.6294893614
 20
7.9569372223
 30
0.0
 10
9.5770462057
 20
7.9608570365
 30
0.0
 10
9.5262415235
 20
7.9708903586
 30
0.0
 10
9.4860255904
 20
7.9842596018
 30
0.0
 10
9.455990166
 20
7.9978020809
 30
0.0
 10
9.4283093925
 20
8.0127299044
 30
0.0
 10
9.403002283
 20
8.030223283
 30
0.0
 10
9.3808237691
 20
8.0501260293
 30
0.0
 10
9.3662106904
 20
8.0657799834
 30
0.0
 10
9.3534971152
 20
8.0822564585
 30
0.0
 10
9.3462550045
 20
8.0938680569
 30
0.0
 10
9.3429987354
 20
8.0997640089
 30
0.0
  0
SPLINE
  5
34A
100
AcDbEntity
  8
0
100
AcDbSpline
 62
9
  6
CONTINUOUS
 70
0
 71
3
 72
9
 73
5
 74
0
 42
0.0000001
 43
0.0000001
 44
0.0000000001
 40
0.0
 40
0.0
 40
0.0
 40
0.0
 40
0.5125438613
 40
1.0
 40
1.0
 40
1.0
 40
1.0
 10
9.6139086137
 20
9.5797077435
 30
0.0
 10
9.6153820574
 20
9.5817851152
 30
0.0
 10
9.6186215396
 20
9.5855948048
 30
0.0
 10
9.6225512877
 20
9.5887035797
 30
0.0
 10
9.6246081964
 20
9.5899827124
 30
0.0
  0
SPLINE
  5
34B
100
AcDbEntity
  8
0
100
AcDbSpline
 62
9
  6
CONTINUOUS
 70
0
 71
3
 72
9
 73
5
 74
0
 42
0.0000001
 43
0.0000001
 44
0.0000000001
 40
0.0
 40
0.0
 40
0.0
 40
0.0
 40
0.2669908059
 40
1.0
 40
1.0
 40
1.0
 40
1.0
 10
9.6419945811
 20
8.4314626136
 30
0.0
 10
9.6419663337
 20
8.4319035804
 30
0.0
 10
9.6418264944
 20
8.4335524321
 30
0.0
 10
9.6415463733
 20
8.4351924545
 30
0.0
 10
9.6412343847
 20
8.436364783
 30
0.0
  0
SPLINE
  5
34C
100
AcDbEntity
  8
0
100
AcDbSpline
 62
9
  6
CONTINUOUS
 70
0
 71
3
 72
19
 73
15
 74
0
 42
0.0000001
 43
0.0000001
 44
0.0000000001
 40
0.0
 40
0.0
 40
0.0
 40
0.0
 40
0.0741285321
 40
0.1409061712
 40
0.2018564237
 40
0.2587350842
 40
0.3133342645
 40
0.3671271445
 40
0.4213179452
 40
0.476796503
 40
0.5933420899
 40
0.7192602455
 40
0.8548911627
 40
1.0
 40
1.0
 40
1.0
 40
1.0
 10
9.6412343847
 20
8.436364783
 30
0.0
 10
9.641024134
 20
8.4371548208
 30
0.0
 10
9.6405297488
 20
8.4386344401
 30
0.0
 10
9.6395106974
 20
8.4406240797
 30
0.0
 10
9.6382828313
 20
8.4422617136
 30
0.0
 10
9.6368743923
 20
8.443555802
 30
0.0
 10
9.6353189526
 20
8.4445251606
 30
0.0
 10
9.6336466858
 20
8.4451953655
 30
0.0
 10
9.6318806314
 20
8.4455906176
 30
0.0
 10
9.6293866916
 20
8.445786331
 30
0.0
 10
9.6260917988
 20
8.4454392238
 30
0.0
 10
9.6220740884
 20
8.4442700566
 30
0.0
 10
9.6179606329
 20
8.4424580276
 30
0.0
 10
9.6152664289
 20
8.4409225325
 30
0.0
 10
9.6139081858
 20
8.4400761872
 30
0.0
  0
LINE
  5
34D
100
AcDbEntity
  8
0
100
AcDbLine
 62
9
  6
CONTINUOUS
 10
10.0202474801
 20
8.6547470193
 11
10.0159933804
 21
8.6547256261
  0
LINE
  5
34E
100
AcDbEntity
  8
0
100
AcDbLine
 62
9
  6
CONTINUOUS
 10
10.0159933804
 20
8.6547256261
 11
10.0130994479
 21
8.6547066315
  0
SPLINE
  5
34F
100
AcDbEntity
  8
0
100
AcDbSpline
 62
9
  6
CONTINUOUS
 70
0
 71
3
 72
15
 73
11
 74
0
 42
0.0000001
 43
0.0000001
 44
0.0000000001
 40
0.0
 40
0.0
 40
0.0
 40
0.0
 40
0.1216331943
 40
0.246709638
 40
0.3722866362
 40
0.497986962
 40
0.6236675456
 40
0.7492439209
 40
0.8746766685
 40
1.0
 40
1.0
 40
1.0
 40
1.0
 10
10.0130994479
 20
8.6547066315
 30
0.0
 10
10.0035678005
 20
8.6546384421
 30
0.0
 10
9.9842351889
 20
8.6543987021
 30
0.0
 10
9.955068923
 20
8.6536630022
 30
0.0
 10
9.9255994406
 20
8.6524366927
 30
0.0
 10
9.8961147015
 20
8.6505724335
 30
0.0
 10
9.8666926205
 20
8.6478740804
 30
0.0
 10
9.8374064908
 20
8.6440998736
 30
0.0
 10
9.8083529427
 20
8.6389656219
 30
0.0
 10
9.7892185201
 20
8.6344175447
 30
0.0
 10
9.7797510509
 20
8.631805939
 30
0.0
  0
LINE
  5
350
100
AcDbEntity
  8
0
100
AcDbLine
 62
9
  6
CONTINUOUS
 10
10.01852738
 20
9.3650575392
 11
10.0161044384
 21
9.3650803154
  0
LINE
  5
351
100
AcDbEntity
  8
0
100
AcDbLine
 62
9
  6
CONTINUOUS
 10
9.1734537743
 20
8.7985086199
 11
9.1743106557
 21
8.7922003216
  0
LINE
  5
352
100
AcDbEntity
  8
0
100
AcDbLine
 62
9
  6
CONTINUOUS
 10
9.1743106557
 20
8.7922003216
 11
9.1749580752
 21
8.7874345382
  0
LINE
  5
353
100
AcDbEntity
  8
0
100
AcDbLine
 62
9
  6
CONTINUOUS
 10
9.1749580752
 20
8.7874345382
 11
9.1920327095
 21
8.6619181238
  0
SPLINE
  5
354
100
AcDbEntity
  8
0
100
AcDbSpline
 62
9
  6
CONTINUOUS
 70
0
 71
3
 72
11
 73
7
 74
0
 42
0.0000001
 43
0.0000001
 44
0.0000000001
 40
0.0
 40
0.0
 40
0.0
 40
0.0
 40
0.2058815059
 40
0.4393364158
 40
0.7036903689
 40
1.0
 40
1.0
 40
1.0
 40
1.0
 10
10.0319450799
 20
8.6989238324
 30
0.0
 10
10.0329091028
 20
8.6993873273
 30
0.0
 10
10.0348485406
 20
8.7006267686
 30
0.0
 10
10.0375406972
 20
8.7031197201
 30
0.0
 10
10.0401616812
 20
8.7063194012
 30
0.0
 10
10.0417561054
 20
8.7087633714
 30
0.0
 10
10.0425431317
 20
8.7100864661
 30
0.0
  0
SPLINE
  5
355
100
AcDbEntity
  8
0
100
AcDbSpline
 62
9
  6
CONTINUOUS
 70
0
 71
3
 72
9
 73
5
 74
0
 42
0.0000001
 43
0.0000001
 44
0.0000000001
 40
0.0
 40
0.0
 40
0.0
 40
0.0
 40
0.5036879698
 40
1.0
 40
1.0
 40
1.0
 40
1.0
 10
9.3315574284
 20
8.1067083519
 30
0.0
 10
9.331567103
 20
8.1049409
 30
0.0
 10
9.3318441216
 20
8.101427876
 30
0.0
 10
9.3326563972
 20
8.0979975263
 30
0.0
 10
9.3331904481
 20
8.0963398336
 30
0.0
  0
SPLINE
  5
356
100
AcDbEntity
  8
0
100
AcDbSpline
 62
9
  6
CONTINUOUS
 70
0
 71
3
 72
9
 73
5
 74
0
 42
0.0000001
 43
0.0000001
 44
0.0000000001
 40
0.0
 40
0.0
 40
0.0
 40
0.0
 40
0.5037074359
 40
1.0
 40
1.0
 40
1.0
 40
1.0
 10
9.3302020549
 20
8.1103717774
 30
0.0
 10
9.3302081864
 20
8.1086149031
 30
0.0
 10
9.3304778539
 20
8.105122471
 30
0.0
 10
9.3312825712
 20
8.1017120059
 30
0.0
 10
9.3318127575
 20
8.1000641765
 30
0.0
  0
SPLINE
  5
357
100
AcDbEntity
  8
0
100
AcDbSpline
 62
9
  6
CONTINUOUS
 70
0
 71
3
 72
34
 73
30
 74
0
 42
0.0000001
 43
0.0000001
 44
0.0000000001
 40
0.0
 40
0.0
 40
0.0
 40
0.0
 40
0.0266649362
 40
0.0540755113
 40
0.0823182996
 40
0.111462976
 40
0.1724848821
 40
0.2043849362
 40
0.2371297021
 40
0.3047907363
 40
0.3747102902
 40
0.4458896103
 40
0.5172282183
 40
0.5526253919
 40
0.5876497096
 40
0.6221743396
 40
0.6560840685
 40
0.6892756858
 40
0.7216639646
 40
0.7531815997
 40
0.7837856963
 40
0.8134577149
 40
0.8422092385
 40
0.8700821319
 40
0.897151709
 40
0.9235261127
 40
0.949344599
 40
0.9747738297
 40
1.0
 40
1.0
 40
1.0
 40
1.0
 10
9.335816056
 20
8.0962689651
 30
0.0
 10
9.338642775
 20
8.0899273693
 30
0.0
 10
9.3451292503
 20
8.0773903984
 30
0.0
 10
9.357022522
 20
8.059513046
 30
0.0
 10
9.3711062761
 20
8.0424578055
 30
0.0
 10
9.3929754692
 20
8.0206702734
 30
0.0
 10
9.4185170976
 20
8.0014413968
 30
0.0
 10
9.4468268756
 20
7.9849902584
 30
0.0
 10
9.4778742572
 20
7.9699897236
 30
0.0
 10
9.519828822
 20
7.9551358229
 30
0.0
 10
9.5731739425
 20
7.9439469568
 30
0.0
 10
9.6284541837
 20
7.9395213907
 30
0.0
 10
9.6748661051
 20
7.9415891802
 30
0.0
 10
9.7114405599
 20
7.9467193896
 30
0.0
 10
9.7382217915
 20
7.9522493668
 30
0.0
 10
9.7642064407
 20
7.9594304116
 30
0.0
 10
9.7891941198
 20
7.9682030174
 30
0.0
 10
9.8129880264
 20
7.9785038229
 30
0.0
 10
9.8354046084
 20
7.99024827
 30
0.0
 10
9.8562662886
 20
8.0033509398
 30
0.0
 10
9.8754127131
 20
8.0177062485
 30
0.0
 10
9.8926903709
 20
8.0332085591
 30
0.0
 10
9.907965783
 20
8.0497353041
 30
0.0
 10
9.9211138375
 20
8.0671626117
 30
0.0
 10
9.9320301595
 20
8.0853540313
 30
0.0
 10
9.9406222445
 20
8.1041688205
 30
0.0
 10
9.9468175387
 20
8.1234589612
 30
0.0
 10
9.9505618058
 20
8.1430654515
 30
0.0
 10
9.9514022321
 20
8.1562695932
 30
0.0
 10
9.9514054377
 20
8.1628380307
 30
0.0
  0
LINE
  5
358
100
AcDbEntity
  8
0
100
AcDbLine
 62
9
  6
CONTINUOUS
 10
9.1920327095
 20
8.6619181238
 11
9.1926507353
 21
8.6574112551
  0
SPLINE
  5
359
100
AcDbEntity
  8
0
100
AcDbSpline
 62
9
  6
CONTINUOUS
 70
0
 71
3
 72
11
 73
7
 74
0
 42
0.0000001
 43
0.0000001
 44
0.0000000001
 40
0.0
 40
0.0
 40
0.0
 40
0.0
 40
0.2477134962
 40
0.4967245738
 40
0.74737837
 40
1.0
 40
1.0
 40
1.0
 40
1.0
 10
9.1926507353
 20
8.6574112551
 30
0.0
 10
9.1990314482
 20
8.6111890634
 30
0.0
 10
9.2143899749
 20
8.5188365257
 30
0.0
 10
9.2450483746
 20
8.3813672763
 30
0.0
 10
9.2833311648
 20
8.2448638582
 30
0.0
 10
9.3137653159
 20
8.1550279083
 30
0.0
 10
9.3302020549
 20
8.1103717774
 30
0.0
  0
LINE
  5
35A
100
AcDbEntity
  8
0
100
AcDbLine
 62
9
  6
CONTINUOUS
 10
9.3302020549
 20
9.8914007109
 11
9.3315573711
 21
9.8950856727
  0
SPLINE
  5
35B
100
AcDbEntity
  8
0
100
AcDbSpline
 62
9
  6
CONTINUOUS
 70
0
 71
3
 72
11
 73
7
 74
0
 42
0.0000001
 43
0.0000001
 44
0.0000000001
 40
0.0
 40
0.0
 40
0.0
 40
0.0
 40
0.2477521695
 40
0.4967884184
 40
0.7474374579
 40
1.0
 40
1.0
 40
1.0
 40
1.0
 10
9.1951320385
 20
9.3618842303
 30
0.0
 10
9.20162626
 20
9.4066221061
 30
0.0
 10
9.2170482383
 20
9.4959994563
 30
0.0
 10
9.2473193765
 20
9.6290427756
 30
0.0
 10
9.2847356016
 20
9.7611675552
 30
0.0
 10
9.3142836253
 20
9.8481527532
 30
0.0
 10
9.3302020549
 20
9.8914007109
 30
0.0
  0
SPLINE
  5
35C
100
AcDbEntity
  8
0
100
AcDbSpline
 62
9
  6
CONTINUOUS
 70
0
 71
3
 72
11
 73
7
 74
0
 42
0.0000001
 43
0.0000001
 44
0.0000000001
 40
0.0
 40
0.0
 40
0.0
 40
0.0
 40
0.2288883124
 40
0.4727825392
 40
0.7302628998
 40
1.0
 40
1.0
 40
1.0
 40
1.0
 10
9.1920325652
 20
8.6799304442
 30
0.0
 10
9.1908694578
 20
8.6884693022
 30
0.0
 10
9.188650074
 20
8.7061320614
 30
0.0
 10
9.1856987588
 20
8.7334689623
 30
0.0
 10
9.1830328277
 20
8.7623799275
 30
0.0
 10
9.1814890661
 20
8.7821703932
 30
0.0
 10
9.18076356
 20
8.7923001232
 30
0.0
  0
SPLINE
  5
35D
100
AcDbEntity
  8
0
100
AcDbSpline
 62
9
  6
CONTINUOUS
 70
0
 71
3
 72
15
 73
11
 74
0
 42
0.0000001
 43
0.0000001
 44
0.0000000001
 40
0.0
 40
0.0
 40
0.0
 40
0.0
 40
0.1184772608
 40
0.2425105495
 40
0.3703051544
 40
0.5000004637
 40
0.6296956639
 40
0.7574899702
 40
0.8815230059
 40
1.0
 40
1.0
 40
1.0
 40
1.0
 10
9.18076356
 20
8.7923001232
 30
0.0
 10
9.1795348421
 20
8.8094558427
 30
0.0
 10
9.1773959942
 20
8.8445994738
 30
0.0
 10
9.1751321248
 20
8.8983126574
 30
0.0
 10
9.1737595949
 20
8.9536851018
 30
0.0
 10
9.1732997087
 20
9.009894449
 30
0.0
 10
9.1737596788
 20
9.0661037522
 30
0.0
 10
9.1751323002
 20
9.1214760984
 30
0.0
 10
9.1773962523
 20
9.1751891595
 30
0.0
 10
9.1795351494
 20
9.2103327123
 30
0.0
 10
9.1807639094
 20
9.2274883899
 30
0.0
  0
SPLINE
  5
35E
100
AcDbEntity
  8
0
100
AcDbSpline
 62
9
  6
CONTINUOUS
 70
0
 71
3
 72
11
 73
7
 74
0
 42
0.0000001
 43
0.0000001
 44
0.0000000001
 40
0.0
 40
0.0
 40
0.0
 40
0.0
 40
0.269736455
 40
0.5272195797
 40
0.7711144476
 40
1.0
 40
1.0
 40
1.0
 40
1.0
 10
9.1807639094
 20
9.2274883899
 30
0.0
 10
9.1814894162
 20
9.2376177564
 30
0.0
 10
9.1830331829
 20
9.257407638
 30
0.0
 10
9.1856989763
 20
9.2863177492
 30
0.0
 10
9.1886503545
 20
9.3136537479
 30
0.0
 10
9.1908697291
 20
9.3313158283
 30
0.0
 10
9.1920327095
 20
9.339854309
 30
0.0
  0
SPLINE
  5
35F
100
AcDbEntity
  8
0
100
AcDbSpline
 62
9
  6
CONTINUOUS
 70
0
 71
3
 72
11
 73
7
 74
0
 42
0.0000001
 43
0.0000001
 44
0.0000000001
 40
0.0
 40
0.0
 40
0.0
 40
0.0
 40
0.2525625097
 40
0.5032114945
 40
0.7522477459
 40
1.0
 40
1.0
 40
1.0
 40
1.0
 10
9.3302020545
 20
8.128382898
 30
0.0
 10
9.3142836305
 20
8.1716308508
 30
0.0
 10
9.284735612
 20
8.2586160323
 30
0.0
 10
9.2473193816
 20
8.3907407925
 30
0.0
 10
9.2170482461
 20
8.523784117
 30
0.0
 10
9.2016262734
 20
8.6131614831
 30
0.0
 10
9.1951320506
 20
8.6578993736
 30
0.0
  0
LINE
  5
360
100
AcDbEntity
  8
0
100
AcDbLine
 62
9
  6
CONTINUOUS
 10
9.3315573711
 20
8.124697935
 11
9.3302020545
 21
8.128382898
  0
SPLINE
  5
361
100
AcDbEntity
  8
0
100
AcDbSpline
 62
9
  6
CONTINUOUS
 70
0
 71
3
 72
11
 73
7
 74
0
 42
0.0000001
 43
0.0000001
 44
0.0000000001
 40
0.0
 40
0.0
 40
0.0
 40
0.0
 40
0.2058865632
 40
0.4393435987
 40
0.7036960755
 40
1.0
 40
1.0
 40
1.0
 40
1.0
 10
10.0319430869
 20
9.3208593438
 30
0.0
 10
10.0329072892
 20
9.3203957681
 30
0.0
 10
10.0348470764
 20
9.3191561216
 30
0.0
 10
10.0375396759
 20
9.3166627405
 30
0.0
 10
10.0401610115
 20
9.3134625278
 30
0.0
 10
10.0417556073
 20
9.3110181575
 30
0.0
 10
10.042542699
 20
9.3096948508
 30
0.0
  0
SPLINE
  5
362
100
AcDbEntity
  8
0
100
AcDbSpline
 62
9
  6
CONTINUOUS
 70
0
 71
3
 72
9
 73
5
 74
0
 42
0.0000001
 43
0.0000001
 44
0.0000000001
 40
0.0
 40
0.0
 40
0.0
 40
0.0
 40
0.5037074778
 40
1.0
 40
1.0
 40
1.0
 40
1.0
 10
9.3302020566
 20
9.9094118292
 30
0.0
 10
9.3302081843
 20
9.9111687033
 30
0.0
 10
9.3304778448
 20
9.9146611355
 30
0.0
 10
9.3312825573
 20
9.9180716012
 30
0.0
 10
9.3318127417
 20
9.9197194307
 30
0.0
  0
SPLINE
  5
363
100
AcDbEntity
  8
0
100
AcDbSpline
 62
9
  6
CONTINUOUS
 70
0
 71
3
 72
9
 73
5
 74
0
 42
0.0000001
 43
0.0000001
 44
0.0000000001
 40
0.0
 40
0.0
 40
0.0
 40
0.0
 40
0.5036879672
 40
1.0
 40
1.0
 40
1.0
 40
1.0
 10
9.3315573711
 20
9.9130752665
 30
0.0
 10
9.331567046
 20
9.9148427198
 30
0.0
 10
9.3318440656
 20
9.9183557467
 30
0.0
 10
9.3326563431
 20
9.9217860989
 30
0.0
 10
9.3331903952
 20
9.9234437928
 30
0.0
  0
LINE
  5
364
100
AcDbEntity
  8
0
100
AcDbLine
 62
9
  6
CONTINUOUS
 10
9.1920327099
 20
9.3578654873
 11
9.1749385165
 21
9.2322050852
  0
LINE
  5
365
100
AcDbEntity
  8
0
100
AcDbLine
 62
9
  6
CONTINUOUS
 10
9.1749385165
 20
9.2322050852
 11
9.1734537744
 21
9.2212749907
  0
SPLINE
  5
366
100
AcDbEntity
  8
0
100
AcDbSpline
 62
9
  6
CONTINUOUS
 70
0
 71
3
 72
11
 73
7
 74
0
 42
0.0000001
 43
0.0000001
 44
0.0000000001
 40
0.0
 40
0.0
 40
0.0
 40
0.0
 40
0.2526216292
 40
0.5032754263
 40
0.7522865027
 40
1.0
 40
1.0
 40
1.0
 40
1.0
 10
9.3302020545
 20
9.9094118296
 30
0.0
 10
9.3137653225
 20
9.8647557091
 30
0.0
 10
9.2833311766
 20
9.774919783
 30
0.0
 10
9.2450483917
 20
9.6384164008
 30
0.0
 10
9.2143899962
 20
9.5009471869
 30
0.0
 10
9.1990314678
 20
9.4085946735
 30
0.0
 10
9.1926507547
 20
9.3623724936
 30
0.0
  0
LINE
  5
367
100
AcDbEntity
  8
0
100
AcDbLine
 62
9
  6
CONTINUOUS
 10
9.1926507547
 20
9.3623724936
 11
9.1920327099
 21
9.3578654873
  0
SPLINE
  5
368
100
AcDbEntity
  8
0
100
AcDbSpline
 62
9
  6
CONTINUOUS
 70
0
 71
3
 72
23
 73
19
 74
0
 42
0.0000001
 43
0.0000001
 44
0.0000000001
 40
0.0
 40
0.0
 40
0.0
 40
0.0
 40
0.0693179091
 40
0.1371400523
 40
0.2034687035
 40
0.268376056
 40
0.3319830264
 40
0.3944321737
 40
0.4558847949
 40
0.516527725
 40
0.5765736806
 40
0.6362523233
 40
0.6958024435
 40
0.7554661494
 40
0.8154914568
 40
0.8761235914
 40
0.9375754136
 40
1.0
 40
1.0
 40
1.0
 40
1.0
 10
9.6139393098
 20
9.2347517605
 30
0.0
 10
9.6067427942
 20
9.2411616887
 30
0.0
 10
9.5929071524
 20
9.2543044846
 30
0.0
 10
9.573744364
 20
9.2751428241
 30
0.0
 10
9.5564865847
 20
9.2968093072
 30
0.0
 10
9.5412101112
 20
9.319211174
 30
0.0
 10
9.5279775088
 20
9.3422600151
 30
0.0
 10
9.5168453738
 20
9.3658652501
 30
0.0
 10
9.5078606832
 20
9.3899308319
 30
0.0
 10
9.5010714019
 20
9.4143602515
 30
0.0
 10
9.496504873
 20
9.4390512919
 30
0.0
 10
9.4941916183
 20
9.4639024878
 30
0.0
 10
9.4941399751
 20
9.4888081448
 30
0.0
 10
9.4963567351
 20
9.5136634386
 30
0.0
 10
9.5008362158
 20
9.5383642531
 30
0.0
 10
9.5075626579
 20
9.562807579
 30
0.0
 10
9.5165090406
 20
9.5868814113
 30
0.0
 10
9.5238604945
 20
9.6024820657
 30
0.0
 10
9.5278764485
 20
9.6101759141
 30
0.0
  0
SPLINE
  5
369
100
AcDbEntity
  8
0
100
AcDbSpline
 62
9
  6
CONTINUOUS
 70
0
 71
3
 72
11
 73
7
 74
0
 42
0.0000001
 43
0.0000001
 44
0.0000000001
 40
0.0
 40
0.0
 40
0.0
 40
0.0
 40
0.2526115436
 40
0.5032645103
 40
0.7522809199
 40
1.0
 40
1.0
 40
1.0
 40
1.0
 10
9.4715776353
 20
9.7626610105
 30
0.0
 10
9.4557142248
 20
9.7195623007
 30
0.0
 10
9.4263275991
 20
9.6328630888
 30
0.0
 10
9.3893172459
 20
9.5011341865
 30
0.0
 10
9.3596218639
 20
9.3684764721
 30
0.0
 10
9.3446980076
 20
9.2793567006
 30
0.0
 10
9.3384819725
 20
9.2347517605
 30
0.0
  0
SPLINE
  5
36A
100
AcDbEntity
  8
0
100
AcDbSpline
 62
9
  6
CONTINUOUS
 70
0
 71
3
 72
33
 73
29
 74
0
 42
0.0000001
 43
0.0000001
 44
0.0000000001
 40
0.0
 40
0.0
 40
0.0
 40
0.0
 40
0.1420059559
 40
0.1762408473
 40
0.2096141172
 40
0.2733053266
 40
0.3035859933
 40
0.3327959589
 40
0.3609907356
 40
0.3882728891
 40
0.4147958832
 40
0.4407561693
 40
0.4663880686
 40
0.4919479622
 40
0.5176981914
 40
0.5438895502
 40
0.570742519
 40
0.5984389381
 40
0.6271095492
 40
0.6568372056
 40
0.6876517987
 40
0.7195392464
 40
0.7862032412
 40
0.8208227819
 40
0.8560886919
 40
0.8918313174
 40
0.9278672709
 40
1.0
 40
1.0
 40
1.0
 40
1.0
 10
9.6363187157
 20
9.610176138
 30
0.0
 10
9.6593693272
 20
9.6101792995
 30
0.0
 10
9.6883021125
 20
9.6143379262
 30
0.0
 10
9.72034865
 20
9.6258175757
 30
0.0
 10
9.7397639774
 20
9.6346558072
 30
0.0
 10
9.7574360748
 20
9.6456519999
 30
0.0
 10
9.77265431
 20
9.6586680727
 30
0.0
 10
9.7824466633
 20
9.6690382797
 30
0.0
 10
9.7907042578
 20
9.6800679656
 30
0.0
 10
9.7973385766
 20
9.691647843
 30
0.0
 10
9.802280589
 20
9.7036569232
 30
0.0
 10
9.8054687905
 20
9.7159718841
 30
0.0
 10
9.8068698348
 20
9.7284599623
 30
0.0
 10
9.8064583096
 20
9.7409859854
 30
0.0
 10
9.8042437993
 20
9.7534129174
 30
0.0
 10
9.8002439344
 20
9.7656040728
 30
0.0
 10
9.7945098109
 20
9.7774308107
 30
0.0
 10
9.7870987418
 20
9.7887657484
 30
0.0
 10
9.7780949341
 20
9.7994941549
 30
0.0
 10
9.7675901103
 20
9.8095018187
 30
0.0
 10
9.7556955272
 20
9.8186885949
 30
0.0
 10
9.737892131
 20
9.8298722673
 30
0.0
 10
9.7180679532
 20
9.8388063233
 30
0.0
 10
9.6968996059
 20
9.845427436
 30
0.0
 10
9.6801683549
 20
9.8492577099
 30
0.0
 10
9.6629685993
 20
9.8518419116
 30
0.0
 10
9.63966036
 20
9.853594277
 30
0.0
 10
9.6220290213
 20
9.8529787403
 30
0.0
 10
9.6103899477
 20
9.8517038457
 30
0.0
  0
SPLINE
  5
36B
100
AcDbEntity
  8
0
100
AcDbSpline
 62
9
  6
CONTINUOUS
 70
0
 71
3
 72
23
 73
19
 74
0
 42
0.0000001
 43
0.0000001
 44
0.0000000001
 40
0.0
 40
0.0
 40
0.0
 40
0.0
 40
0.062424594
 40
0.1238764435
 40
0.1845085878
 40
0.244533898
 40
0.3041976049
 40
0.363747721
 40
0.4234263577
 40
0.4834723062
 40
0.5441152269
 40
0.6055678417
 40
0.6680169868
 40
0.731623945
 40
0.7965312714
 40
0.8628599118
 40
0.9306820794
 40
1.0
 40
1.0
 40
1.0
 40
1.0
 10
9.5278766712
 20
8.4096075357
 30
0.0
 10
9.5238607261
 20
8.4173013953
 30
0.0
 10
9.5165092461
 20
8.4329020505
 30
0.0
 10
9.5075627609
 20
8.4569758666
 30
0.0
 10
9.5008362589
 20
8.4814191982
 30
0.0
 10
9.4963567655
 20
8.5061200273
 30
0.0
 10
9.4941399992
 20
8.5309753341
 30
0.0
 10
9.494191628
 20
8.5558810034
 30
0.0
 10
9.496504863
 20
8.5807322125
 30
0.0
 10
9.5010713679
 20
8.6054232683
 30
0.0
 10
9.5078606361
 20
8.6298527035
 30
0.0
 10
9.5168453387
 20
8.6539182939
 30
0.0
 10
9.5279774858
 20
8.6775235353
 30
0.0
 10
9.5412100666
 20
8.7005723981
 30
0.0
 10
9.5564865046
 20
8.7229742995
 30
0.0
 10
9.5737442891
 20
8.7446407978
 30
0.0
 10
9.5929071277
 20
8.7654791181
 30
0.0
 10
9.6067427917
 20
8.7786219115
 30
0.0
 10
9.6139393097
 20
8.7850318476
 30
0.0
  0
SPLINE
  5
36C
100
AcDbEntity
  8
0
100
AcDbSpline
 62
9
  6
CONTINUOUS
 70
0
 71
3
 72
32
 73
28
 74
0
 42
0.0000001
 43
0.0000001
 44
0.0000000001
 40
0.0
 40
0.0
 40
0.0
 40
0.0
 40
0.027029818
 40
0.0548978449
 40
0.0837192375
 40
0.1135920269
 40
0.1765586036
 40
0.2096722429
 40
0.2437434363
 40
0.3141993196
 40
0.3867396944
 40
0.4598685342
 40
0.5320229493
 40
0.6017514337
 40
0.6678939109
 40
0.6994207974
 40
0.7298454271
 40
0.759186094
 40
0.7875115135
 40
0.8149409541
 40
0.8416452186
 40
0.8678374963
 40
0.8937655063
 40
0.9196930738
 40
0.9458837926
 40
0.9725826262
 40
1.0
 40
1.0
 40
1.0
 40
1.0
 10
9.4715776355
 20
8.257122599
 30
0.0
 10
9.473074135
 20
8.2530604946
 30
0.0
 10
9.4766849034
 20
8.245010551
 30
0.0
 10
9.4837122877
 20
8.2335529302
 30
0.0
 10
9.4923633657
 20
8.2226771013
 30
0.0
 10
9.5061578123
 20
8.2088694176
 30
0.0
 10
9.5226341218
 20
8.1969617942
 30
0.0
 10
9.5410369459
 20
8.1871361008
 30
0.0
 10
9.5613314577
 20
8.1784638028
 30
0.0
 10
9.5887138007
 20
8.1706066296
 30
0.0
 10
9.6231663946
 20
8.1661746684
 30
0.0
 10
9.6581710388
 20
8.1668082555
 30
0.0
 10
9.6922673165
 20
8.1724847926
 30
0.0
 10
9.724035212
 20
8.1829666024
 30
0.0
 10
9.7478766425
 20
8.195572151
 30
0.0
 10
9.7644712468
 20
8.2076840806
 30
0.0
 10
9.7753657555
 20
8.2174765961
 30
0.0
 10
9.7847892705
 20
8.2280162477
 30
0.0
 10
9.7926433229
 20
8.2391949894
 30
0.0
 10
9.7988430978
 20
8.2508971032
 30
0.0
 10
9.8033228271
 20
8.2629990876
 30
0.0
 10
9.8060296803
 20
8.275372758
 30
0.0
 10
9.8069374919
 20
8.2878830891
 30
0.0
 10
9.8060326406
 20
8.3003931133
 30
0.0
 10
9.8033334539
 20
8.3127674013
 30
0.0
 10
9.7988689715
 20
8.3248696197
 30
0.0
 10
9.7948135545
 20
8.3325608229
 30
0.0
 10
9.7925312877
 20
8.3363121842
 30
0.0
  0
SPLINE
  5
36D
100
AcDbEntity
  8
0
100
AcDbSpline
 62
9
  6
CONTINUOUS
 70
0
 71
3
 72
11
 73
7
 74
0
 42
0.0000001
 43
0.0000001
 44
0.0000000001
 40
0.0
 40
0.0
 40
0.0
 40
0.0
 40
0.2477190802
 40
0.49673549
 40
0.7473884558
 40
1.0
 40
1.0
 40
1.0
 40
1.0
 10
9.3384819725
 20
8.7850318476
 30
0.0
 10
9.3446980061
 20
8.7404269074
 30
0.0
 10
9.3596218644
 20
8.6513071363
 30
0.0
 10
9.3893172485
 20
8.5186494229
 30
0.0
 10
9.4263275964
 20
8.3869205196
 30
0.0
 10
9.4557142202
 20
8.3002213071
 30
0.0
 10
9.4715776355
 20
8.257122599
 30
0.0
  0
SPLINE
  5
36E
100
AcDbEntity
  8
0
100
AcDbSpline
 62
9
  6
CONTINUOUS
 70
0
 71
3
 72
10
 73
6
 74
0
 42
0.0000001
 43
0.0000001
 44
0.0000000001
 40
0.0
 40
0.0
 40
0.0
 40
0.0
 40
0.2404603552
 40
0.488014298
 40
1.0
 40
1.0
 40
1.0
 40
1.0
 10
9.6139393097
 20
8.7850318476
 30
0.0
 10
9.6203020235
 20
8.7896785945
 30
0.0
 10
9.6332700736
 20
8.7990347751
 30
0.0
 10
9.6601222719
 20
8.8178111144
 30
0.0
 10
9.6809365241
 20
8.8314776319
 30
0.0
 10
9.6952213576
 20
8.8402732912
 30
0.0
  0
SPLINE
  5
36F
100
AcDbEntity
  8
0
100
AcDbSpline
 62
9
  6
CONTINUOUS
 70
0
 71
3
 72
19
 73
15
 74
0
 42
0.0000001
 43
0.0000001
 44
0.0000000001
 40
0.0
 40
0.0
 40
0.0
 40
0.0
 40
0.052363384
 40
0.1086691401
 40
0.1684120424
 40
0.2310992796
 40
0.3630973391
 40
0.4999996944
 40
0.6369021494
 40
0.7689004206
 40
0.83158774
 40
0.891330725
 40
0.9476365649
 40
1.0
 40
1.0
 40
1.0
 40
1.0
 10
9.3374878116
 20
9.2285028595
 30
0.0
 10
9.3363639286
 20
9.2209332571
 30
0.0
 10
9.3342518109
 20
9.2051910022
 30
0.0
 10
9.3315424085
 20
9.1807264647
 30
0.0
 10
9.3291990886
 20
9.1547089148
 30
0.0
 10
9.326550771
 20
9.1176185395
 30
0.0
 10
9.3243526192
 20
9.0691995957
 30
0.0
 10
9.3234732319
 20
9.0098920191
 30
0.0
 10
9.3243526996
 20
8.9505844138
 30
0.0
 10
9.3265507791
 20
8.9021654109
 30
0.0
 10
9.329199006
 20
8.8650749731
 30
0.0
 10
9.3315423934
 20
8.8390573929
 30
0.0
 10
9.3342516781
 20
8.8145928121
 30
0.0
 10
9.336363764
 20
8.7988505299
 30
0.0
 10
9.3374877614
 20
8.791280937
 30
0.0
  0
SPLINE
  5
370
100
AcDbEntity
  8
0
100
AcDbSpline
 62
9
  6
CONTINUOUS
 70
0
 71
3
 72
10
 73
6
 74
0
 42
0.0000001
 43
0.0000001
 44
0.0000000001
 40
0.0
 40
0.0
 40
0.0
 40
0.0
 40
0.5119860028
 40
0.7595405433
 40
1.0
 40
1.0
 40
1.0
 40
1.0
 10
9.6952213576
 20
9.179510317
 30
0.0
 10
9.6809366457
 20
9.1883061942
 30
0.0
 10
9.6601224151
 20
9.2019727652
 30
0.0
 10
9.6332697176
 20
9.220748401
 30
0.0
 10
9.620301891
 20
9.2301048813
 30
0.0
 10
9.6139393098
 20
9.2347517605
 30
0.0
  0
SPLINE
  5
371
100
AcDbEntity
  8
0
100
AcDbSpline
 62
9
  6
CONTINUOUS
 70
0
 71
3
 72
75
 73
71
 74
0
 42
0.0000001
 43
0.0000001
 44
0.0000000001
 40
0.0
 40
0.0
 40
0.0
 40
0.0
 40
0.0607162499
 40
0.1223769978
 40
0.1534576662
 40
0.1846636998
 40
0.215971205
 40
0.2473606364
 40
0.2788159469
 40
0.310323938
 40
0.3418736847
 40
0.3576613177
 40
0.373456089
 40
0.3892570785
 40
0.4050634339
 40
0.4208743604
 40
0.4366891113
 40
0.4445977025
 40
0.4525069888
 40
0.4604168847
 40
0.4683273001
 40
0.4722826976
 40
0.4762381983
 40
0.4801937937
 40
0.4841494461
 40
0.4861273843
 40
0.4881053514
 40
0.4900832742
 40
0.4920616439
 40
0.4940399606
 40
0.4950286648
 40
0.4960178755
 40
0.4970124056
 40
0.4980097204
 40
0.4989997833
 40
0.4999967805
 40
0.5009971959
 40
0.5019889296
 40
0.502983993
 40
0.5039811019
 40
0.5049717655
 40
0.5059604976
 40
0.5079382659
 40
0.5099168676
 40
0.5118948711
 40
0.5138728224
 40
0.5158507655
 40
0.5198064381
 40
0.5237620338
 40
0.5277175364
 40
0.5316729345
 40
0.5395833517
 40
0.5474932483
 40
0.5554025351
 40
0.5633111265
 40
0.5791258777
 40
0.5949368047
 40
0.6107431603
 40
0.6265441503
 40
0.6423389219
 40
0.6581265552
 40
0.6896763024
 40
0.7211842934
 40
0.7526396015
 40
0.7840290294
 40
0.815336528
 40
0.8465425492
 40
0.8776231969
 40
0.9392838833
 40
1.0
 40
1.0
 40
1.0
 40
1.0
 10
9.6952213576
 20
8.8402732912
 30
0.0
 10
9.7078398807
 20
8.8480437379
 30
0.0
 10
9.7335037987
 20
8.8633335981
 30
0.0
 10
9.7661776232
 20
8.8816520189
 30
0.0
 10
9.7928187407
 20
8.8959862901
 30
0.0
 10
9.8130509926
 20
8.9065934496
 30
0.0
 10
9.8334538134
 20
8.9170349478
 30
0.0
 10
9.8540033531
 20
8.9273211747
 30
0.0
 10
9.8746778456
 20
8.9374653299
 30
0.0
 10
9.895457088
 20
8.9474834469
 30
0.0
 10
9.9128396552
 20
8.955740536
 30
0.0
 10
9.926779981
 20
8.9623054814
 30
0.0
 10
9.9372517821
 20
8.967213628
 30
0.0
 10
9.9477343686
 20
8.9721094964
 30
0.0
 10
9.9582242219
 20
8.9769991131
 30
0.0
 10
9.9687166383
 20
8.9818911751
 30
0.0
 10
9.9774563229
 20
8.9859808519
 30
0.0
 10
9.9844396378
 20
8.9892735292
 30
0.0
 10
9.9896702485
 20
8.9917594703
 30
0.0
 10
9.9948893214
 20
8.9942705884
 30
0.0
 10
9.9992228112
 20
8.9963963477
 30
0.0
 10
10.0026726228
 20
8.9981314475
 30
0.0
 10
10.0052480808
 20
8.9994565165
 30
0.0
 10
10.0078062353
 20
9.0008148847
 30
0.0
 10
10.0099164289
 20
9.0019871675
 30
0.0
 10
10.011582468
 20
9.0029636017
 30
0.0
 10
10.0128167693
 20
9.0037214775
 30
0.0
 10
10.01403046
 20
9.0045123805
 30
0.0
 10
10.0152124126
 20
9.0053504805
 30
0.0
 10
10.0161552721
 20
9.0061060336
 30
0.0
 10
10.0168676217
 20
9.0067585267
 30
0.0
 10
10.0173703039
 20
9.007282643
 30
0.0
 10
10.0178257321
 20
9.0078515901
 30
0.0
 10
10.0182115252
 20
9.008471703
 30
0.0
 10
10.0184751183
 20
9.009157969
 30
0.0
 10
10.0185553233
 20
9.0098902374
 30
0.0
 10
10.0184683654
 20
9.0106211882
 30
0.0
 10
10.0182119107
 20
9.0113102864
 30
0.0
 10
10.0178293536
 20
9.011933535
 30
0.0
 10
10.0173724619
 20
9.0125018672
 30
0.0
 10
10.016869763
 20
9.0130273336
 30
0.0
 10
10.0161550803
 20
9.013677701
 30
0.0
 10
10.0152113853
 20
9.0144318773
 30
0.0
 10
10.0140306919
 20
9.0152716602
 30
0.0
 10
10.0128167741
 20
9.0160623951
 30
0.0
 10
10.0115821232
 20
9.0168197179
 30
0.0
 10
10.0099162529
 20
9.0177964398
 30
0.0
 10
10.0078060804
 20
9.0189687825
 30
0.0
 10
10.00524792
 20
9.0203271489
 30
0.0
 10
10.0026724633
 20
9.0216522227
 30
0.0
 10
9.9992226491
 20
9.0233873194
 30
0.0
 10
9.9948891632
 20
9.0255130882
 30
0.0
 10
9.9896700936
 20
9.0280242149
 30
0.0
 10
9.9844394812
 20
9.0305101533
 30
0.0
 10
9.977456165
 20
9.0338028284
 30
0.0
 10
9.9687164786
 20
9.0378925018
 30
0.0
 10
9.9582240631
 20
9.0427845665
 30
0.0
 10
9.9477342105
 20
9.0476741854
 30
0.0
 10
9.9372516249
 20
9.0525700563
 30
0.0
 10
9.926779824
 20
9.057478204
 30
0.0
 10
9.9128394976
 20
9.0640431487
 30
0.0
 10
9.8954569288
 20
9.0723002347
 30
0.0
 10
9.8746776863
 20
9.0823183505
 30
0.0
 10
9.854003195
 20
9.0924625048
 30
0.0
 10
9.8334536595
 20
9.1027487331
 30
0.0
 10
9.8130508463
 20
9.1131902342
 30
0.0
 10
9.7928186071
 20
9.1237973973
 30
0.0
 10
9.7661775196
 20
9.1381316754
 30
0.0
 10
9.7335037341
 20
9.1564500576
 30
0.0
 10
9.7078398552
 20
9.171739891
 30
0.0
 10
9.6952213576
 20
9.179510317
 30
0.0
  0
LINE
  5
372
100
AcDbEntity
  8
0
100
AcDbLine
 62
9
  6
CONTINUOUS
 10
10.0112236298
 20
8.654646065
 11
10.0185274263
 21
8.6547260689
  0
LINE
  5
373
100
AcDbEntity
  8
0
100
AcDbLine
 62
9
  6
CONTINUOUS
 10
9.9712771121
 20
8.6921234489
 11
9.9707891366
 21
8.692074748
  0
LINE
  5
374
100
AcDbEntity
  8
0
100
AcDbLine
 62
9
  6
CONTINUOUS
 10
9.9707891366
 20
8.692074748
 11
9.9696737038
 21
8.6919619436
  0
SPLINE
  5
375
100
AcDbEntity
  8
0
100
AcDbSpline
 62
9
  6
CONTINUOUS
 70
0
 71
3
 72
67
 73
63
 74
0
 42
0.0000001
 43
0.0000001
 44
0.0000000001
 40
0.0
 40
0.0
 40
0.0
 40
0.0
 40
0.0608854235
 40
0.1227773949
 40
0.1539573891
 40
0.1852401947
 40
0.2165973486
 40
0.248007341
 40
0.279454224
 40
0.3109263813
 40
0.3424155
 40
0.3581645241
 40
0.373915762
 40
0.3896687647
 40
0.405423163
 40
0.4211786523
 40
0.4369349769
 40
0.4448133979
 40
0.4526919668
 40
0.4605706184
 40
0.4684494659
 40
0.4723887941
 40
0.4763282511
 40
0.4802686273
 40
0.4842075868
 40
0.4861766543
 40
0.4881469842
 40
0.490120864
 40
0.4920950727
 40
0.494065934
 40
0.4960418693
 40
0.4980197527
 40
0.5000014013
 40
0.501984868
 40
0.5029733898
 40
0.5039579179
 40
0.5059284238
 40
0.5079114789
 40
0.5118558387
 40
0.5157910035
 40
0.5197333673
 40
0.5236729416
 40
0.5315512692
 40
0.5394300739
 40
0.5473087457
 40
0.5551873081
 40
0.5630657275
 40
0.5788220531
 40
0.5945775423
 40
0.6103319403
 40
0.6260849427
 40
0.64183618
 40
0.6575852033
 40
0.68907432
 40
0.7205464731
 40
0.7519933504
 40
0.783403327
 40
0.8147604547
 40
0.8460432287
 40
0.8772231644
 40
0.9391149772
 40
1.0
 40
1.0
 40
1.0
 40
1.0
 10
9.738709605
 20
8.7747171689
 30
0.0
 10
9.7500556009
 20
8.7844299193
 30
0.0
 10
9.7730863616
 20
8.8038397602
 30
0.0
 10
9.8022583101
 20
8.8278263095
 30
0.0
 10
9.8259467533
 20
8.8470462649
 30
0.0
 10
9.843870036
 20
8.8614832086
 30
0.0
 10
9.8618773202
 20
8.8759056291
 30
0.0
 10
9.8799455722
 20
8.8903162197
 30
0.0
 10
9.8980556585
 20
8.9047195548
 30
0.0
 10
9.916191392
 20
8.9191218093
 30
0.0
 10
9.931312374
 20
8.9311283069
 30
0.0
 10
9.9434077306
 20
8.9407436405
 30
0.0
 10
9.9524765585
 20
8.9479629478
 30
0.0
 10
9.9615387873
 20
8.9551926531
 30
0.0
 10
9.9705900444
 20
8.9624377696
 30
0.0
 10
9.9796232993
 20
8.9697066238
 30
0.0
 10
9.9871259323
 20
8.9757957962
 30
0.0
 10
9.9931000772
 20
8.9807017761
 30
0.0
 10
9.9975604967
 20
8.9844060083
 30
0.0
 10
10.001990622
 20
8.9881466127
 30
0.0
 10
10.0056432913
 20
8.9913098651
 30
0.0
 10
10.0085238989
 20
8.9938875425
 30
0.0
 10
10.0106550091
 20
8.9958535358
 30
0.0
 10
10.0127469045
 20
8.9978612271
 30
0.0
 10
10.0144353371
 20
8.9995901777
 30
0.0
 10
10.0157337821
 20
9.0010219345
 30
0.0
 10
10.016674629
 20
9.0021263154
 30
0.0
 10
10.0175781042
 20
9.0032631975
 30
0.0
 10
10.0184237412
 20
9.0044447397
 30
0.0
 10
10.0191646331
 20
9.0056971782
 30
0.0
 10
10.0197490452
 20
9.0070324318
 30
0.0
 10
10.0201399341
 20
9.0084411063
 30
0.0
 10
10.020290454
 20
9.0098985281
 30
0.0
 10
10.0201977472
 20
9.0111174254
 30
0.0
 10
10.0199917336
 20
9.0120671583
 30
0.0
 10
10.0196941146
 20
9.0129892087
 30
0.0
 10
10.0191683377
 20
9.014086144
 30
0.0
 10
10.0181377849
 20
9.0157281636
 30
0.0
 10
10.0167000647
 20
9.0176787064
 30
0.0
 10
10.0147808362
 20
9.0198561935
 30
0.0
 10
10.0127420658
 20
9.0219177757
 30
0.0
 10
10.009958733
 20
9.0246013289
 30
0.0
 10
10.0063726296
 20
9.0278409431
 30
0.0
 10
10.0019904325
 20
9.0316375053
 30
0.0
 10
9.99755999
 20
9.035377826
 30
0.0
 10
9.9930996831
 20
9.0390821691
 30
0.0
 10
9.9871255541
 20
9.0439881757
 30
0.0
 10
9.9796228751
 20
9.0500772863
 30
0.0
 10
9.9705896465
 20
9.0573461747
 30
0.0
 10
9.9615383779
 20
9.0645912762
 30
0.0
 10
9.9524761528
 20
9.0718209858
 30
0.0
 10
9.9434073231
 20
9.0790402903
 30
0.0
 10
9.9313119656
 20
9.0886556214
 30
0.0
 10
9.9161909872
 20
9.1006621206
 30
0.0
 10
9.8980552565
 20
9.115064374
 30
0.0
 10
9.8799451778
 20
9.1294677085
 30
0.0
 10
9.8618769376
 20
9.1438782952
 30
0.0
 10
9.8438696698
 20
9.1583007073
 30
0.0
 10
9.8259464122
 20
9.1727376366
 30
0.0
 10
9.8022580172
 20
9.1919575548
 30
0.0
 10
9.7730861921
 20
9.2159440147
 30
0.0
 10
9.7500554999
 20
9.2353537249
 30
0.0
 10
9.7387096036
 20
9.2450664404
 30
0.0
  0
SPLINE
  5
376
100
AcDbEntity
  8
0
100
AcDbSpline
 62
9
  6
CONTINUOUS
 70
0
 71
3
 72
14
 73
10
 74
0
 42
0.0000001
 43
0.0000001
 44
0.0000000001
 40
0.0
 40
0.0
 40
0.0
 40
0.0
 40
0.1301145959
 40
0.2597350794
 40
0.3882732166
 40
0.5152765199
 40
0.6403081837
 40
0.7629906596
 40
1.0
 40
1.0
 40
1.0
 40
1.0
 10
10.0319440137
 20
9.1740661682
 30
0.0
 10
10.0187255274
 20
9.1740666307
 30
0.0
 10
9.992332231
 20
9.1748211589
 30
0.0
 10
9.9530143489
 20
9.1782487277
 30
0.0
 10
9.9142812475
 20
9.1839667926
 30
0.0
 10
9.8764185675
 20
9.1919038585
 30
0.0
 10
9.8396860201
 20
9.2020057266
 30
0.0
 10
9.7931195656
 20
9.2180809187
 30
0.0
 10
9.7597761168
 20
9.233406503
 30
0.0
 10
9.7387096036
 20
9.2450664404
 30
0.0
  0
SPLINE
  5
377
100
AcDbEntity
  8
0
100
AcDbSpline
 62
9
  6
CONTINUOUS
 70
0
 71
3
 72
14
 73
10
 74
0
 42
0.0000001
 43
0.0000001
 44
0.0000000001
 40
0.0
 40
0.0
 40
0.0
 40
0.0
 40
0.2370093405
 40
0.3596918162
 40
0.4847234806
 40
0.6117267842
 40
0.7402649212
 40
0.8698854041
 40
1.0
 40
1.0
 40
1.0
 40
1.0
 10
9.738709605
 20
8.7747171689
 30
0.0
 10
9.759776118
 20
8.7863771063
 30
0.0
 10
9.793119567
 20
8.8017026901
 30
0.0
 10
9.8396860215
 20
8.8177778811
 30
0.0
 10
9.8764185685
 20
8.8278797499
 30
0.0
 10
9.9142812482
 20
8.8358168166
 30
0.0
 10
9.9530143494
 20
8.8415348813
 30
0.0
 10
9.9923322314
 20
8.8449624479
 30
0.0
 10
10.0187255275
 20
8.8457169758
 30
0.0
 10
10.0319440137
 20
8.8457174398
 30
0.0
  0
SPLINE
  5
378
100
AcDbEntity
  8
0
100
AcDbSpline
 62
9
  6
CONTINUOUS
 70
0
 71
3
 72
11
 73
7
 74
0
 42
0.0000001
 43
0.0000001
 44
0.0000000001
 40
0.0
 40
0.0
 40
0.0
 40
0.0
 40
0.2495761847
 40
0.4995616967
 40
0.7498560052
 40
1.0
 40
1.0
 40
1.0
 40
1.0
 10
9.7800611014
 20
9.3878922672
 30
0.0
 10
9.7942814108
 20
9.3839815621
 30
0.0
 10
9.8231739553
 20
9.3776771731
 30
0.0
 10
9.8670991854
 20
9.3716403564
 30
0.0
 10
9.911310547
 20
9.3680089381
 30
0.0
 10
9.9408573382
 20
9.3666713756
 30
0.0
 10
9.9556310481
 20
9.3661823457
 30
0.0
  0
LINE
  5
379
100
AcDbEntity
  8
0
100
AcDbLine
 62
9
  6
CONTINUOUS
 10
10.0112954945
 20
9.3650903168
 11
10.0202013874
 21
9.3650370889
  0
LINE
  5
37A
100
AcDbEntity
  8
0
100
AcDbLine
 62
9
  6
CONTINUOUS
 10
9.9696737503
 20
9.3278216597
 11
9.9706006467
 21
9.3277277774
  0
SPLINE
  5
37B
100
AcDbEntity
  8
0
100
AcDbSpline
 62
9
  6
CONTINUOUS
 70
0
 71
3
 72
15
 73
11
 74
0
 42
0.0000001
 43
0.0000001
 44
0.0000000001
 40
0.0
 40
0.0
 40
0.0
 40
0.0
 40
0.1213317598
 40
0.248215902
 40
0.378409037
 40
0.509684598
 40
0.6396651505
 40
0.7660414633
 40
0.8867820666
 40
1.0
 40
1.0
 40
1.0
 40
1.0
 10
9.6139393096
 20
9.2347517919
 30
0.0
 10
9.6169679961
 20
9.2364521203
 30
0.0
 10
9.6229703772
 20
9.2402836212
 30
0.0
 10
9.6314960598
 20
9.2469907779
 30
0.0
 10
9.639575366
 20
9.2546498073
 30
0.0
 10
9.647001507
 20
9.2630613262
 30
0.0
 10
9.6535843315
 20
9.2720132025
 30
0.0
 10
9.6591587843
 20
9.2812772919
 30
0.0
 10
9.6635792498
 20
9.290616435
 30
0.0
 10
9.6657643059
 20
9.2969677924
 30
0.0
 10
9.6666120637
 20
9.3000960179
 30
0.0
  0
SPLINE
  5
37C
100
AcDbEntity
  8
0
100
AcDbSpline
 62
9
  6
CONTINUOUS
 70
0
 71
3
 72
22
 73
18
 74
0
 42
0.0000001
 43
0.0000001
 44
0.0000000001
 40
0.0
 40
0.0
 40
0.0
 40
0.0
 40
0.1833420932
 40
0.350898454
 40
0.5016100581
 40
0.5703600236
 40
0.6345024402
 40
0.6937852275
 40
0.7480521081
 40
0.7971471429
 40
0.8411235683
 40
0.8806495888
 40
0.8992724833
 40
0.9176133561
 40
0.936227525
 40
0.955736331
 40
1.0
 40
1.0
 40
1.0
 40
1.0
 10
9.5278764734
 20
9.6101761276
 30
0.0
 10
9.5297381412
 20
9.6069353525
 30
0.0
 10
9.5334608788
 20
9.6008219256
 30
0.0
 10
9.5392979023
 20
9.5924188918
 30
0.0
 10
9.5442543915
 20
9.5862675677
 30
0.0
 10
9.5482014746
 20
9.5820401153
 30
0.0
 10
9.5510324177
 20
9.5793286738
 30
0.0
 10
9.5538163856
 20
9.5770058279
 30
0.0
 10
9.5565371591
 20
9.575102634
 30
0.0
 10
9.5591810945
 20
9.573659354
 30
0.0
 10
9.5617334746
 20
9.5727333187
 30
0.0
 10
9.56382218
 20
9.5724467548
 30
0.0
 10
9.5653809504
 20
9.5725990809
 30
0.0
 10
9.5664780301
 20
9.5729064771
 30
0.0
 10
9.5675142771
 20
9.5734241637
 30
0.0
 10
9.5688515726
 20
9.5744550285
 30
0.0
 10
9.5696287665
 20
9.575538329
 30
0.0
 10
9.5700549798
 20
9.5763336388
 30
0.0
  0
SPLINE
  5
37D
100
AcDbEntity
  8
0
100
AcDbSpline
 62
9
  6
CONTINUOUS
 70
0
 71
3
 72
15
 73
11
 74
0
 42
0.0000001
 43
0.0000001
 44
0.0000000001
 40
0.0
 40
0.0
 40
0.0
 40
0.0
 40
0.1255558892
 40
0.2562386648
 40
0.389251463
 40
0.5220414329
 40
0.6519634131
 40
0.7764516397
 40
0.8932207946
 40
1.0
 40
1.0
 40
1.0
 40
1.0
 10
9.6952213576
 20
9.179510099
 30
0.0
 10
9.6976264298
 20
9.1818003782
 30
0.0
 10
9.702383428
 20
9.1866352549
 30
0.0
 10
9.7091792466
 20
9.1943765864
 30
0.0
 10
9.7156646168
 20
9.2026249424
 30
0.0
 10
9.7216906284
 20
9.2111898594
 30
0.0
 10
9.7271244376
 20
9.2198776657
 30
0.0
 10
9.7318430495
 20
9.2284947544
 30
0.0
 10
9.7357381461
 20
9.2368432537
 30
0.0
 10
9.7378371663
 20
9.2423800864
 30
0.0
 10
9.7387097667
 20
9.245066354
 30
0.0
  0
SPLINE
  5
37E
100
AcDbEntity
  8
0
100
AcDbSpline
 62
9
  6
CONTINUOUS
 70
0
 71
3
 72
15
 73
11
 74
0
 42
0.0000001
 43
0.0000001
 44
0.0000000001
 40
0.0
 40
0.0
 40
0.0
 40
0.0
 40
0.1255555723
 40
0.2562380517
 40
0.3892506086
 40
0.5220404251
 40
0.6519623734
 40
0.7764507279
 40
0.8932202122
 40
1.0
 40
1.0
 40
1.0
 40
1.0
 10
9.6952213576
 20
8.8402732614
 30
0.0
 10
9.6976264231
 20
8.8379829985
 30
0.0
 10
9.7023834114
 20
8.8331481571
 30
0.0
 10
9.7091792212
 20
8.8254068799
 30
0.0
 10
9.7156645868
 20
8.8171585745
 30
0.0
 10
9.7216905942
 20
8.8085936981
 30
0.0
 10
9.7271243966
 20
8.7999059172
 30
0.0
 10
9.7318429955
 20
8.7912888342
 30
0.0
 10
9.735738068
 20
8.7829403164
 30
0.0
 10
9.7378370576
 20
8.7774034603
 30
0.0
 10
9.7387096388
 20
8.7747171773
 30
0.0
  0
SPLINE
  5
37F
100
AcDbEntity
  8
0
100
AcDbSpline
 62
9
  6
CONTINUOUS
 70
0
 71
3
 72
15
 73
11
 74
0
 42
0.0000001
 43
0.0000001
 44
0.0000000001
 40
0.0
 40
0.0
 40
0.0
 40
0.0
 40
0.1213322755
 40
0.2482168306
 40
0.3784102304
 40
0.5096858876
 40
0.6396663591
 40
0.7660424217
 40
0.8867826163
 40
1.0
 40
1.0
 40
1.0
 40
1.0
 10
9.6139393096
 20
8.7850325573
 30
0.0
 10
9.6169680042
 20
8.7833321783
 30
0.0
 10
9.6229703945
 20
8.7795005778
 30
0.0
 10
9.631496078
 20
8.7727932814
 30
0.0
 10
9.6395753706
 20
8.7651341264
 30
0.0
 10
9.6470014865
 20
8.7567225017
 30
0.0
 10
9.6535842793
 20
8.7477705432
 30
0.0
 10
9.6591586988
 20
8.7385063971
 30
0.0
 10
9.6635791349
 20
8.7291672229
 30
0.0
 10
9.665764179
 20
8.7228158561
 30
0.0
 10
9.6666119329
 20
8.7196876294
 30
0.0
  0
SPLINE
  5
380
100
AcDbEntity
  8
0
100
AcDbSpline
 62
9
  6
CONTINUOUS
 70
0
 71
3
 72
22
 73
18
 74
0
 42
0.0000001
 43
0.0000001
 44
0.0000000001
 40
0.0
 40
0.0
 40
0.0
 40
0.0
 40
0.0442639519
 40
0.0637722178
 40
0.0823858227
 40
0.1007263597
 40
0.1193491592
 40
0.1588754476
 40
0.2028523864
 40
0.2519478356
 40
0.3062147657
 40
0.3654975228
 40
0.4296399069
 40
0.4983897593
 40
0.6491013128
 40
0.816658183
 40
1.0
 40
1.0
 40
1.0
 40
1.0
 10
9.5700550238
 20
8.4434500019
 30
0.0
 10
9.5696288008
 20
8.4442453118
 30
0.0
 10
9.5688516153
 20
8.4453286104
 30
0.0
 10
9.5675143219
 20
8.446359449
 30
0.0
 10
9.566478093
 20
8.4468771024
 30
0.0
 10
9.5653810292
 20
8.4471844731
 30
0.0
 10
9.5638222634
 20
8.447336782
 30
0.0
 10
9.5617335494
 20
8.4470502386
 30
0.0
 10
9.5591811184
 20
8.4461242873
 30
0.0
 10
9.5565371209
 20
8.4446810832
 30
0.0
 10
9.5538163226
 20
8.442777912
 30
0.0
 10
9.5510323907
 20
8.4404550286
 30
0.0
 10
9.5482015049
 20
8.4377435406
 30
0.0
 10
9.5442544777
 20
8.4335160528
 30
0.0
 10
9.5392979922
 20
8.4273647355
 30
0.0
 10
9.5334608408
 20
8.4189618032
 30
0.0
 10
9.5297381265
 20
8.4128483598
 30
0.0
 10
9.5278765646
 20
8.409607536
 30
0.0
  0
SPLINE
  5
381
100
AcDbEntity
  8
0
100
AcDbSpline
 62
9
  6
CONTINUOUS
 70
0
 71
3
 72
36
 73
32
 74
0
 42
0.0000001
 43
0.0000001
 44
0.0000000001
 40
0.0
 40
0.0
 40
0.0
 40
0.0
 40
0.0270899847
 40
0.0550165647
 40
0.0838892991
 40
0.1138018588
 40
0.1767781347
 40
0.2098528477
 40
0.2438587649
 40
0.2786784891
 40
0.3141706531
 40
0.350174493
 40
0.3865144941
 40
0.4594146536
 40
0.495646518
 40
0.5314728174
 40
0.6011904873
 40
0.6348492939
 40
0.6675405806
 40
0.6991905065
 40
0.7297646758
 40
0.7592699499
 40
0.7877615927
 40
0.8153440714
 40
0.8421705535
 40
0.8684399451
 40
0.8943857123
 40
0.9202632896
 40
0.9463324651
 40
0.9728391317
 40
1.0
 40
1.0
 40
1.0
 40
1.0
 10
9.3811913954
 20
9.8386361719
 30
0.0
 10
9.3836066104
 20
9.8448392662
 30
0.0
 10
9.3893709544
 20
9.8571178587
 30
0.0
 10
9.4004397844
 20
9.8745652223
 30
0.0
 10
9.4139426265
 20
9.8911114355
 30
0.0
 10
9.4353411459
 20
9.9120926865
 30
0.0
 10
9.4607451465
 20
9.9301778889
 30
0.0
 10
9.489026187
 20
9.9451128304
 30
0.0
 10
9.5121105202
 20
9.954895619
 30
0.0
 10
9.536467479
 20
9.9629666042
 30
0.0
 10
9.561851525
 20
9.9692476405
 30
0.0
 10
9.5880038386
 20
9.9736707722
 30
0.0
 10
9.6235585501
 20
9.9770373649
 30
0.0
 10
9.6594495535
 20
9.9765426052
 30
0.0
 10
9.6948294477
 20
9.9721897626
 30
0.0
 10
9.7290215144
 20
9.965392423
 30
0.0
 10
9.7617741836
 20
9.954954692
 30
0.0
 10
9.7921526327
 20
9.9409096233
 30
0.0
 10
9.813080088
 20
9.9289280096
 30
0.0
 10
9.8321920247
 20
9.9154988891
 30
0.0
 10
9.8492970458
 20
9.90075914
 30
0.0
 10
9.8642159326
 20
9.8848526731
 30
0.0
 10
9.8767957992
 20
9.8679406848
 30
0.0
 10
9.8869027936
 20
9.8501920607
 30
0.0
 10
9.8944252511
 20
9.8317867926
 30
0.0
 10
9.8992826217
 20
9.8129169922
 30
0.0
 10
9.9014141407
 20
9.7937810786
 30
0.0
 10
9.9008000546
 20
9.7745856817
 30
0.0
 10
9.8974465432
 20
9.7555361841
 30
0.0
 10
9.8913964367
 20
9.7368394236
 30
0.0
 10
9.8856917196
 20
9.7249018465
 30
0.0
 10
9.8824467991
 20
9.7190696661
 30
0.0
  0
SPLINE
  5
382
100
AcDbEntity
  8
0
100
AcDbSpline
 62
9
  6
CONTINUOUS
 70
0
 71
3
 72
11
 73
7
 74
0
 42
0.0000001
 43
0.0000001
 44
0.0000000001
 40
0.0
 40
0.0
 40
0.0
 40
0.0
 40
0.2477038774
 40
0.4967085562
 40
0.7473634087
 40
1.0
 40
1.0
 40
1.0
 40
1.0
 10
9.2429600951
 20
9.2888401655
 30
0.0
 10
9.2492432868
 20
9.3349671006
 30
0.0
 10
9.2644227004
 20
9.4271319784
 30
0.0
 10
9.294859765
 20
9.564321513
 30
0.0
 10
9.3329677534
 20
9.7005430411
 30
0.0
 10
9.3633152461
 20
9.7901853156
 30
0.0
 10
9.3797156793
 20
9.8347428169
 30
0.0
  0
SPLINE
  5
383
100
AcDbEntity
  8
0
100
AcDbSpline
 62
9
  6
CONTINUOUS
 70
0
 71
3
 72
14
 73
10
 74
0
 42
0.0000001
 43
0.0000001
 44
0.0000000001
 40
0.0
 40
0.0
 40
0.0
 40
0.0
 40
0.1363169904
 40
0.2714702386
 40
0.4040365494
 40
0.5330317071
 40
0.6576704297
 40
0.7773731463
 40
1.0
 40
1.0
 40
1.0
 40
1.0
 10
9.3797156793
 20
9.8347428169
 30
0.0
 10
9.3812906355
 20
9.8341314397
 30
0.0
 10
9.3843755749
 20
9.8327761795
 30
0.0
 10
9.388772998
 20
9.8303678441
 30
0.0
 10
9.3928591555
 20
9.8276204026
 30
0.0
 10
9.396567598
 20
9.8245831039
 30
0.0
 10
9.3998408838
 20
9.8212987934
 30
0.0
 10
9.4034639496
 20
9.8167792679
 30
0.0
 10
9.4055380999
 20
9.8130057499
 30
0.0
 10
9.4064914485
 20
9.8104165365
 30
0.0
  0
SPLINE
  5
384
100
AcDbEntity
  8
0
100
AcDbSpline
 62
9
  6
CONTINUOUS
 70
0
 71
3
 72
11
 73
7
 74
0
 42
0.0000001
 43
0.0000001
 44
0.0000000001
 40
0.0
 40
0.0
 40
0.0
 40
0.0
 40
0.2526114446
 40
0.5032644019
 40
0.7522808822
 40
1.0
 40
1.0
 40
1.0
 40
1.0
 10
9.4064914485
 20
9.8104165365
 30
0.0
 10
9.3904080677
 20
9.7667203699
 30
0.0
 10
9.3606144008
 20
9.6788191065
 30
0.0
 10
9.3230910233
 20
9.5452639979
 30
0.0
 10
9.2929836756
 20
9.4107672401
 30
0.0
 10
9.2778529641
 20
9.3204119357
 30
0.0
 10
9.2715507583
 20
9.275188612
 30
0.0
  0
SPLINE
  5
385
100
AcDbEntity
  8
0
100
AcDbSpline
 62
9
  6
CONTINUOUS
 70
0
 71
3
 72
21
 73
17
 74
0
 42
0.0000001
 43
0.0000001
 44
0.0000000001
 40
0.0
 40
0.0
 40
0.0
 40
0.0
 40
0.0518374669
 40
0.1078246436
 40
0.1674282669
 40
0.2301276628
 40
0.2953503431
 40
0.3624904802
 40
0.4999998363
 40
0.6375092806
 40
0.7046495164
 40
0.769872199
 40
0.8325717866
 40
0.8921757485
 40
0.9481624206
 40
1.0
 40
1.0
 40
1.0
 40
1.0
 10
9.2705156555
 20
9.2675274204
 30
0.0
 10
9.2693597791
 20
9.2586804174
 30
0.0
 10
9.2671912504
 20
9.2402469908
 30
0.0
 10
9.2644182109
 20
9.2115615649
 30
0.0
 10
9.2620218367
 20
9.1809666531
 30
0.0
 10
9.2600265248
 20
9.1487504457
 30
0.0
 10
9.258452059
 20
9.1152123386
 30
0.0
 10
9.2569257154
 20
9.0687861443
 30
0.0
 10
9.2561748833
 20
9.0098919256
 30
0.0
 10
9.2569257503
 20
8.9509976907
 30
0.0
 10
9.2584520861
 20
8.9045714637
 30
0.0
 10
9.2600265336
 20
8.8710333052
 30
0.0
 10
9.2620218266
 20
8.8388170049
 30
0.0
 10
9.2644181697
 20
8.808222086
 30
0.0
 10
9.2671912591
 20
8.7795366734
 30
0.0
 10
9.2693598207
 20
8.7611033199
 30
0.0
 10
9.2705156534
 20
8.7522562916
 30
0.0
  0
SPLINE
  5
386
100
AcDbEntity
  8
0
100
AcDbSpline
 62
9
  6
CONTINUOUS
 70
0
 71
3
 72
23
 73
19
 74
0
 42
0.0000001
 43
0.0000001
 44
0.0000000001
 40
0.0
 40
0.0
 40
0.0
 40
0.0
 40
0.0515453906
 40
0.1073500371
 40
0.1668712613
 40
0.22957395
 40
0.2948704562
 40
0.362138939
 40
0.4307352018
 40
0.5000000183
 40
0.5692648301
 40
0.6378610483
 40
0.7051295188
 40
0.7704262114
 40
0.8331287904
 40
0.8926495412
 40
0.9484547371
 40
1.0
 40
1.0
 40
1.0
 40
1.0
 10
9.2429600972
 20
8.7309436097
 30
0.0
 10
9.241663517
 20
8.7404630728
 30
0.0
 10
9.2392328051
 20
8.7603257845
 30
0.0
 10
9.236129405
 20
8.7912750377
 30
0.0
 10
9.2334484778
 20
8.8243504917
 30
0.0
 10
9.2312168021
 20
8.8592319229
 30
0.0
 10
9.2294564131
 20
8.8955859141
 30
0.0
 10
9.2281862714
 20
8.9330593488
 30
0.0
 10
9.2274189496
 20
8.971286171
 30
0.0
 10
9.2271620871
 20
9.0098918968
 30
0.0
 10
9.2274189639
 20
9.0484976141
 30
0.0
 10
9.2281862805
 20
9.0867244248
 30
0.0
 10
9.2294564056
 20
9.1241978843
 30
0.0
 10
9.2312168085
 20
9.1605518869
 30
0.0
 10
9.2334484806
 20
9.1954332441
 30
0.0
 10
9.2361293894
 20
9.2285086932
 30
0.0
 10
9.2392327232
 20
9.2594579426
 30
0.0
 10
9.241663433
 20
9.2793207357
 30
0.0
 10
9.242960095
 20
9.2888401636
 30
0.0
  0
SPLINE
  5
387
100
AcDbEntity
  8
0
100
AcDbSpline
 62
9
  6
CONTINUOUS
 70
0
 71
3
 72
12
 73
8
 74
0
 42
0.0000001
 43
0.0000001
 44
0.0000000001
 40
0.0
 40
0.0
 40
0.0
 40
0.0
 40
0.2756996789
 40
0.5370789893
 40
0.6607388465
 40
0.7791829572
 40
1.0
 40
1.0
 40
1.0
 40
1.0
 10
9.242960095
 20
9.2888401636
 30
0.0
 10
9.2461575861
 20
9.2879877481
 30
0.0
 10
9.25225443
 20
9.2857682591
 30
0.0
 10
9.2590963339
 20
9.2816381857
 30
0.0
 10
9.2636770892
 20
9.2776738485
 30
0.0
 10
9.2674128698
 20
9.2735514219
 30
0.0
 10
9.2695455432
 20
9.2699939164
 30
0.0
 10
9.2705156555
 20
9.2675274204
 30
0.0
  0
SPLINE
  5
388
100
AcDbEntity
  8
0
100
AcDbSpline
 62
9
  6
CONTINUOUS
 70
0
 71
3
 72
11
 73
7
 74
0
 42
0.0000001
 43
0.0000001
 44
0.0000000001
 40
0.0
 40
0.0
 40
0.0
 40
0.0
 40
0.2477191171
 40
0.4967355992
 40
0.7473885524
 40
1.0
 40
1.0
 40
1.0
 40
1.0
 10
9.2715507582
 20
8.7445949964
 30
0.0
 10
9.2778529631
 20
8.6993716726
 30
0.0
 10
9.2929836672
 20
8.6090163666
 30
0.0
 10
9.3230910358
 20
8.4745196137
 30
0.0
 10
9.360614394
 20
8.340964501
 30
0.0
 10
9.3904080354
 20
8.2530632272
 30
0.0
 10
9.4064914482
 20
8.2093670718
 30
0.0
  0
SPLINE
  5
389
100
AcDbEntity
  8
0
100
AcDbSpline
 62
9
  6
CONTINUOUS
 70
0
 71
3
 72
11
 73
7
 74
0
 42
0.0000001
 43
0.0000001
 44
0.0000000001
 40
0.0
 40
0.0
 40
0.0
 40
0.0
 40
0.2526365904
 40
0.5032914431
 40
0.7522961212
 40
1.0
 40
1.0
 40
1.0
 40
1.0
 10
9.3797156791
 20
8.1850407913
 30
0.0
 10
9.3633152468
 20
8.2295982928
 30
0.0
 10
9.3329677575
 20
8.3192405684
 30
0.0
 10
9.2948597606
 20
8.455462094
 30
0.0
 10
9.264422701
 20
8.5926516308
 30
0.0
 10
9.2492433042
 20
8.6848165114
 30
0.0
 10
9.2429601094
 20
8.7309434464
 30
0.0
  0
SPLINE
  5
38A
100
AcDbEntity
  8
0
100
AcDbSpline
 62
9
  6
CONTINUOUS
 70
0
 71
3
 72
12
 73
8
 74
0
 42
0.0000001
 43
0.0000001
 44
0.0000000001
 40
0.0
 40
0.0
 40
0.0
 40
0.0
 40
0.2756996907
 40
0.5370790055
 40
0.6607388627
 40
0.7791829694
 40
1.0
 40
1.0
 40
1.0
 40
1.0
 10
9.2429601094
 20
8.7309434464
 30
0.0
 10
9.2461575997
 20
8.7317958626
 30
0.0
 10
9.2522544418
 20
8.7340153528
 30
0.0
 10
9.2590963432
 20
8.7381454272
 30
0.0
 10
9.2636770963
 20
8.742109765
 30
0.0
 10
9.2674128748
 20
8.7462321916
 30
0.0
 10
9.2695455466
 20
8.7497896968
 30
0.0
 10
9.2705156578
 20
8.7522561925
 30
0.0
  0
SPLINE
  5
38B
100
AcDbEntity
  8
0
100
AcDbSpline
 62
9
  6
CONTINUOUS
 70
0
 71
3
 72
35
 73
31
 74
0
 42
0.0000001
 43
0.0000001
 44
0.0000000001
 40
0.0
 40
0.0
 40
0.0
 40
0.0
 40
0.0268871138
 40
0.0545723438
 40
0.0831658696
 40
0.112764709
 40
0.1750553754
 40
0.2077785206
 40
0.2414441415
 40
0.3111094759
 40
0.3830056855
 40
0.4557830196
 40
0.4920737639
 40
0.5280458848
 40
0.5635290718
 40
0.5983675689
 40
0.6324221641
 40
0.6655778752
 40
0.6977467747
 40
0.7288740479
 40
0.7589431338
 40
0.7879781493
 40
0.8160502572
 40
0.8432749859
 40
0.8698147576
 40
0.8958699015
 40
0.9216711913
 40
0.9474651463
 40
0.973497873
 40
1.0
 40
1.0
 40
1.0
 40
1.0
 10
9.4064926316
 20
8.2093672354
 30
0.0
 10
9.4085037883
 20
8.2039072155
 30
0.0
 10
9.4133279668
 20
8.1930854379
 30
0.0
 10
9.4226637104
 20
8.1776496888
 30
0.0
 10
9.4341135646
 20
8.1629572548
 30
0.0
 10
9.4523293088
 20
8.144243443
 30
0.0
 10
9.4740732207
 20
8.1279575039
 30
0.0
 10
9.4983877808
 20
8.1143374283
 30
0.0
 10
9.5252305025
 20
8.1021588396
 30
0.0
 10
9.5615649891
 20
8.0907425517
 30
0.0
 10
9.6075287791
 20
8.0834691445
 30
0.0
 10
9.6468294201
 20
8.0828526942
 30
0.0
 10
9.6781111664
 20
8.0856848402
 30
0.0
 10
9.7011446916
 20
8.0894466471
 30
0.0
 10
9.7235344315
 20
8.094813499
 30
0.0
 10
9.7450619226
 20
8.1017273981
 30
0.0
 10
9.765513505
 20
8.1101243615
 30
0.0
 10
9.784690114
 20
8.1199175059
 30
0.0
 10
9.8024030017
 20
8.131013635
 30
0.0
 10
9.8184799091
 20
8.1433034462
 30
0.0
 10
9.8327644731
 20
8.1566677419
 30
0.0
 10
9.8451149285
 20
8.1709795809
 30
0.0
 10
9.8554123984
 20
8.1860985432
 30
0.0
 10
9.8635485688
 20
8.2018815147
 30
0.0
 10
9.8694451584
 20
8.2181710102
 30
0.0
 10
9.8730342322
 20
8.2348070402
 30
0.0
 10
9.8742828128
 20
8.2516194122
 30
0.0
 10
9.8731745431
 20
8.2684375125
 30
0.0
 10
9.8697274698
 20
8.2850861857
 30
0.0
 10
9.8659362704
 20
8.2958454663
 30
0.0
 10
9.8636909781
 20
8.3011230237
 30
0.0
  0
SPLINE
  5
38C
100
AcDbEntity
  8
0
100
AcDbSpline
 62
9
  6
CONTINUOUS
 70
0
 71
3
 72
31
 73
27
 74
0
 42
0.0000001
 43
0.0000001
 44
0.0000000001
 40
0.0
 40
0.0
 40
0.0
 40
0.0
 40
0.0655798178
 40
0.0970990342
 40
0.1277449704
 40
0.1575373136
 40
0.1865207906
 40
0.2147655755
 40
0.2423669081
 40
0.2694444239
 40
0.2961381427
 40
0.3226047962
 40
0.3490109826
 40
0.3755261262
 40
0.4023155031
 40
0.4295319435
 40
0.4573117425
 40
0.4857679997
 40
0.514990441
 40
0.5759039024
 40
0.6403200354
 40
0.7080723665
 40
0.7786909972
 40
0.8514745873
 40
0.9255617824
 40
1.0
 40
1.0
 40
1.0
 40
1.0
 10
9.7972873445
 20
8.3810353235
 30
0.0
 10
9.8083474013
 20
8.3749895405
 30
0.0
 10
9.8241490529
 20
8.364889062
 30
0.0
 10
9.8431512405
 20
8.3493089834
 30
0.0
 10
9.8558693543
 20
8.3370036295
 30
0.0
 10
9.8671523528
 20
8.3240087272
 30
0.0
 10
9.876926963
 20
8.3104059446
 30
0.0
 10
9.8851297394
 20
8.2962840713
 30
0.0
 10
9.891702633
 20
8.2817327775
 30
0.0
 10
9.8966038303
 20
8.2668483377
 30
0.0
 10
9.8997938874
 20
8.2517273064
 30
0.0
 10
9.9012548942
 20
8.236471356
 30
0.0
 10
9.9009694866
 20
8.2211823572
 30
0.0
 10
9.8989454587
 20
8.2059630475
 30
0.0
 10
9.8951900937
 20
8.1909165539
 30
0.0
 10
9.8897357922
 20
8.1761414922
 30
0.0
 10
9.882614562
 20
8.1617376414
 30
0.0
 10
9.873878984
 20
8.1477959189
 30
0.0
 10
9.8599659294
 20
8.1297038055
 30
0.0
 10
9.8386826514
 20
8.1087493167
 30
0.0
 10
9.8082793251
 20
8.087228468
 30
0.0
 10
9.7734374506
 20
8.0694806158
 30
0.0
 10
9.7350594241
 20
8.0559503915
 30
0.0
 10
9.694128789
 20
8.0469735407
 30
0.0
 10
9.6517092533
 20
8.0427778645
 30
0.0
 10
9.6230915185
 20
8.0432418852
 30
0.0
 10
9.6088234788
 20
8.0443000493
 30
0.0
  0
SPLINE
  5
38D
100
AcDbEntity
  8
0
100
AcDbSpline
 62
9
  6
CONTINUOUS
 70
0
 71
3
 72
14
 73
10
 74
0
 42
0.0000001
 43
0.0000001
 44
0.0000000001
 40
0.0
 40
0.0
 40
0.0
 40
0.0
 40
0.1363167234
 40
0.2714697997
 40
0.4040360866
 40
0.5330313347
 40
0.6576701872
 40
0.7773730406
 40
1.0
 40
1.0
 40
1.0
 40
1.0
 10
9.3797164782
 20
8.1850410487
 30
0.0
 10
9.3812914483
 20
8.1856524111
 30
0.0
 10
9.3843764174
 20
8.1870076439
 30
0.0
 10
9.3887738887
 20
8.1894159465
 30
0.0
 10
9.3928600987
 20
8.1921633642
 30
0.0
 10
9.3965685966
 20
8.1952006478
 30
0.0
 10
9.399841937
 20
8.1984849523
 30
0.0
 10
9.4034650675
 20
8.2030044794
 30
0.0
 10
9.4055392616
 20
8.2067780097
 30
0.0
 10
9.4064926316
 20
8.2093672354
 30
0.0
  0
SPLINE
  5
38E
100
AcDbEntity
  8
0
100
AcDbSpline
 62
9
  6
CONTINUOUS
 70
0
 71
3
 72
34
 73
30
 74
0
 42
0.0000001
 43
0.0000001
 44
0.0000000001
 40
0.0
 40
0.0
 40
0.0
 40
0.0
 40
0.0371000056
 40
0.0556476551
 40
0.0741753516
 40
0.0926710771
 40
0.1111251369
 40
0.1295301132
 40
0.1478791154
 40
0.1843817204
 40
0.2205839363
 40
0.256437122
 40
0.2918966569
 40
0.326923983
 40
0.3614850167
 40
0.4290744582
 40
0.4944937352
 40
0.5576385889
 40
0.618491612
 40
0.6771331021
 40
0.7337481111
 40
0.7886302639
 40
0.8421767321
 40
0.8686134468
 40
0.8949026298
 40
0.9211164711
 40
0.9473287642
 40
0.9736047486
 40
1.0
 40
1.0
 40
1.0
 40
1.0
 10
10.0319440241
 20
8.834865666
 30
0.0
 10
10.0237747062
 20
8.8335500773
 30
0.0
 10
10.0115180346
 20
8.8315963772
 30
0.0
 10
9.9952004962
 20
8.8288698056
 30
0.0
 10
9.9829929346
 20
8.8267255757
 30
0.0
 10
9.9708315214
 20
8.8244430194
 30
0.0
 10
9.9587324943
 20
8.8219834687
 30
0.0
 10
9.9467044922
 20
8.8193458935
 30
0.0
 10
9.9308012091
 20
8.815596607
 30
0.0
 10
9.9111485063
 20
8.8104632746
 30
0.0
 10
9.8879366581
 20
8.8035593135
 30
0.0
 10
9.8652023451
 20
8.7959159796
 30
0.0
 10
9.8430120382
 20
8.7875269009
 30
0.0
 10
9.8214307837
 20
8.7783897628
 30
0.0
 10
9.7937517649
 20
8.7653381501
 30
0.0
 10
9.7609535059
 20
8.7473165612
 30
0.0
 10
9.7245844558
 20
8.7228909823
 30
0.0
 10
9.6918757174
 20
8.6960425692
 30
0.0
 10
9.6631751883
 20
8.6670249057
 30
0.0
 10
9.6387945591
 20
8.6361161989
 30
0.0
 10
9.6190095688
 20
8.6036179405
 30
0.0
 10
9.6040579124
 20
8.5698633209
 30
0.0
 10
9.5957511954
 20
8.5408389613
 30
0.0
 10
9.5917320914
 20
8.5174619437
 30
0.0
 10
9.5900225556
 20
8.4999223123
 30
0.0
 10
9.5896111973
 20
8.4823550963
 30
0.0
 10
9.5905037547
 20
8.464808143
 30
0.0
 10
9.5926967636
 20
8.4473363227
 30
0.0
 10
9.5950134834
 20
8.4358069251
 30
0.0
 10
9.5963819289
 20
8.4300811368
 30
0.0
  0
LINE
  5
38F
100
AcDbEntity
  8
0
100
AcDbLine
 62
9
  6
CONTINUOUS
 10
9.5866947306
 20
8.4300748673
 11
9.5845323273
 21
8.4310153329
  0
SPLINE
  5
390
100
AcDbEntity
  8
0
100
AcDbSpline
 62
9
  6
CONTINUOUS
 70
0
 71
3
 72
11
 73
7
 74
0
 42
0.0000001
 43
0.0000001
 44
0.0000000001
 40
0.0
 40
0.0
 40
0.0
 40
0.0
 40
0.2709895844
 40
0.5211993566
 40
0.7604594969
 40
1.0
 40
1.0
 40
1.0
 40
1.0
 10
9.5845323273
 20
8.4310153329
 30
0.0
 10
9.5840148369
 20
8.4312221216
 30
0.0
 10
9.5830045423
 20
8.4315822207
 30
0.0
 10
9.5815144951
 20
8.4320564172
 30
0.0
 10
9.5800988216
 20
8.4325516854
 30
0.0
 10
9.5792028057
 20
8.4329674484
 30
0.0
 10
9.5787724184
 20
8.4332070839
 30
0.0
  0
SPLINE
  5
391
100
AcDbEntity
  8
0
100
AcDbSpline
 62
9
  6
CONTINUOUS
 70
0
 71
3
 72
13
 73
9
 74
0
 42
0.0000001
 43
0.0000001
 44
0.0000000001
 40
0.0
 40
0.0
 40
0.0
 40
0.0
 40
0.1251800981
 40
0.2565221151
 40
0.3906537387
 40
0.5234092559
 40
0.7727941357
 40
1.0
 40
1.0
 40
1.0
 40
1.0
 10
9.5787724184
 20
8.4332070839
 30
0.0
 10
9.5782754152
 20
8.4334838106
 30
0.0
 10
9.5773027272
 20
8.4341342599
 30
0.0
 10
9.5759477436
 20
8.4352849107
 30
0.0
 10
9.5746730238
 20
8.4365721024
 30
0.0
 10
9.5731380012
 20
8.4383476743
 30
0.0
 10
9.5715010178
 20
8.4405891025
 30
0.0
 10
9.5704659981
 20
8.4425024916
 30
0.0
 10
9.570053926
 20
8.4434491763
 30
0.0
  0
SPLINE
  5
392
100
AcDbEntity
  8
0
100
AcDbSpline
 62
9
  6
CONTINUOUS
 70
0
 71
3
 72
19
 73
15
 74
0
 42
0.0000001
 43
0.0000001
 44
0.0000000001
 40
0.0
 40
0.0
 40
0.0
 40
0.0
 40
0.0601636275
 40
0.119936538
 40
0.1794543847
 40
0.2388738914
 40
0.298375523
 40
0.3581375869
 40
0.418327025
 40
0.4790977426
 40
0.6028656992
 40
0.7304925815
 40
0.8627401774
 40
1.0
 40
1.0
 40
1.0
 40
1.0
 10
9.570053926
 20
8.4434491763
 30
0.0
 10
9.5684338788
 20
8.4494243494
 30
0.0
 10
9.5656458071
 20
8.4614609275
 30
0.0
 10
9.562844008
 20
8.4797302531
 30
0.0
 10
9.561447697
 20
8.4980849012
 30
0.0
 10
9.5614625211
 20
8.5164643542
 30
0.0
 10
9.5628821439
 20
8.5348140746
 30
0.0
 10
9.5657024191
 20
8.5530809499
 30
0.0
 10
9.5699110603
 20
8.5712130913
 30
0.0
 10
9.5773948687
 20
8.5952781272
 30
0.0
 10
9.5902489843
 20
8.6248422357
 30
0.0
 10
9.6108017408
 20
8.658676959
 30
0.0
 10
9.6363193269
 20
8.6907221011
 30
0.0
 10
9.6560645504
 20
8.7102936759
 30
0.0
 10
9.6666118558
 20
8.7196876527
 30
0.0
  0
SPLINE
  5
393
100
AcDbEntity
  8
0
100
AcDbSpline
 62
9
  6
CONTINUOUS
 70
0
 71
3
 72
9
 73
5
 74
0
 42
0.0000001
 43
0.0000001
 44
0.0000000001
 40
0.0
 40
0.0
 40
0.0
 40
0.0
 40
0.4927969461
 40
1.0
 40
1.0
 40
1.0
 40
1.0
 10
9.570053807
 20
9.5763340584
 30
0.0
 10
9.5705133962
 20
9.5774183458
 30
0.0
 10
9.5716493423
 20
9.5795369517
 30
0.0
 10
9.5731300828
 20
9.5814283219
 30
0.0
 10
9.5739507566
 20
9.5823203246
 30
0.0
  0
SPLINE
  5
394
100
AcDbEntity
  8
0
100
AcDbSpline
 62
9
  6
CONTINUOUS
 70
0
 71
3
 72
9
 73
5
 74
0
 42
0.0000001
 43
0.0000001
 44
0.0000000001
 40
0.0
 40
0.0
 40
0.0
 40
0.0
 40
0.2422772947
 40
1.0
 40
1.0
 40
1.0
 40
1.0
 10
9.5739507566
 20
9.5823203246
 30
0.0
 10
9.5743741341
 20
9.5827804999
 30
0.0
 10
9.5761993006
 20
9.5846079318
 30
0.0
 10
9.5783113401
 20
9.5861402719
 30
0.0
 10
9.5799990096
 20
9.587128373
 30
0.0
  0
SPLINE
  5
395
100
AcDbEntity
  8
0
100
AcDbSpline
 62
9
  6
CONTINUOUS
 70
0
 71
3
 72
9
 73
5
 74
0
 42
0.0000001
 43
0.0000001
 44
0.0000000001
 40
0.0
 40
0.0
 40
0.0
 40
0.0
 40
0.2434263115
 40
1.0
 40
1.0
 40
1.0
 40
1.0
 10
9.5799990096
 20
9.587128373
 30
0.0
 10
9.5804535809
 20
9.5873945166
 30
0.0
 10
9.5823497455
 20
9.5884383371
 30
0.0
 10
9.5843515276
 20
9.5892868607
 30
0.0
 10
9.5858977359
 20
9.5898249271
 30
0.0
  0
SPLINE
  5
396
100
AcDbEntity
  8
0
100
AcDbSpline
 62
9
  6
CONTINUOUS
 70
0
 71
3
 72
33
 73
29
 74
0
 42
0.0000001
 43
0.0000001
 44
0.0000000001
 40
0.0
 40
0.0
 40
0.0
 40
0.0
 40
0.0263956265
 40
0.0526719953
 40
0.0788846526
 40
0.1050988416
 40
0.131388356
 40
0.1578253853
 40
0.2113725187
 40
0.2662553849
 40
0.322871069
 40
0.381513317
 40
0.4423671134
 40
0.5055127473
 40
0.5709331408
 40
0.6385229021
 40
0.6730842172
 40
0.7081122466
 40
0.779413658
 40
0.8156155308
 40
0.8521180426
 40
0.8704672796
 40
0.8888726691
 40
0.907327256
 40
0.9258235007
 40
0.9443516101
 40
0.9628995591
 40
1.0
 40
1.0
 40
1.0
 40
1.0
 10
9.5963822347
 20
9.5897024613
 30
0.0
 10
9.5950138121
 20
9.5839766607
 30
0.0
 10
9.5926970426
 20
9.5724472616
 30
0.0
 10
9.590503813
 20
9.5549754493
 30
0.0
 10
9.5896110713
 20
9.5374284879
 30
0.0
 10
9.5900223727
 20
9.5198612644
 30
0.0
 10
9.5917319452
 20
9.5023216432
 30
0.0
 10
9.5957512266
 20
9.47894467
 30
0.0
 10
9.6040582473
 20
9.4499204228
 30
0.0
 10
9.6190098228
 20
9.4161658116
 30
0.0
 10
9.6387946568
 20
9.3836674755
 30
0.0
 10
9.6631750357
 20
9.3527586239
 30
0.0
 10
9.6918753649
 20
9.3237406968
 30
0.0
 10
9.7245850185
 20
9.2968934287
 30
0.0
 10
9.760952556
 20
9.2724657594
 30
0.0
 10
9.7937511409
 20
9.2544449154
 30
0.0
 10
9.8214325835
 20
9.2413978095
 30
0.0
 10
9.8503764999
 20
9.2291460193
 30
0.0
 10
9.88035793
 20
9.2184749876
 30
0.0
 10
9.9111460393
 20
9.2093147197
 30
0.0
 10
9.9308000957
 20
9.2041860112
 30
0.0
 10
9.9467042668
 20
9.2004411398
 30
0.0
 10
9.9587330287
 20
9.1978065168
 30
0.0
 10
9.9708326353
 20
9.1953490521
 30
0.0
 10
9.9829941901
 20
9.1930664153
 30
0.0
 10
9.9952015223
 20
9.190920255
 30
0.0
 10
10.0115185008
 20
9.1881900974
 30
0.0
 10
10.0237747744
 20
9.186233882
 30
0.0
 10
10.0319440242
 20
9.1849179399
 30
0.0
  0
SPLINE
  5
397
100
AcDbEntity
  8
0
100
AcDbSpline
 62
9
  6
CONTINUOUS
 70
0
 71
3
 72
19
 73
15
 74
0
 42
0.0000001
 43
0.0000001
 44
0.0000000001
 40
0.0
 40
0.0
 40
0.0
 40
0.0
 40
0.1372598338
 40
0.2695074409
 40
0.3971343288
 40
0.5209022959
 40
0.5816730189
 40
0.6418624595
 40
0.7016245221
 40
0.7611261492
 40
0.8205456501
 40
0.8800634881
 40
0.9398363848
 40
1.0
 40
1.0
 40
1.0
 40
1.0
 10
9.6666118559
 20
9.3000959554
 30
0.0
 10
9.6560645594
 20
9.3094899169
 30
0.0
 10
9.6363193646
 20
9.3290614746
 30
0.0
 10
9.6108018044
 20
9.361106573
 30
0.0
 10
9.5902490512
 20
9.3949412429
 30
0.0
 10
9.5773949367
 20
9.4245053095
 30
0.0
 10
9.5699111167
 20
9.4485703101
 30
0.0
 10
9.5657024634
 20
9.4667024252
 30
0.0
 10
9.5628821743
 20
9.4849692743
 30
0.0
 10
9.5614625363
 20
9.5033189689
 30
0.0
 10
9.5614476898
 20
9.5216983964
 30
0.0
 10
9.5628439623
 20
9.5400530208
 30
0.0
 10
9.5656457201
 20
9.5583223256
 30
0.0
 10
9.568433777
 20
9.5703588889
 30
0.0
 10
9.5700538228
 20
9.576334053
 30
0.0
  0
SPLINE
  5
398
100
AcDbEntity
  8
0
100
AcDbSpline
 62
9
  6
CONTINUOUS
 70
0
 71
3
 72
14
 73
10
 74
0
 42
0.0000001
 43
0.0000001
 44
0.0000000001
 40
0.0
 40
0.0
 40
0.0
 40
0.0
 40
0.1332225142
 40
0.2674946496
 40
0.400840881
 40
0.5315529331
 40
0.6579882387
 40
0.778810506
 40
1.0
 40
1.0
 40
1.0
 40
1.0
 10
9.4715776355
 20
8.257122599
 30
0.0
 10
9.4679096219
 20
8.2564471404
 30
0.0
 10
9.4606164965
 20
8.254666903
 30
0.0
 10
9.450052517
 20
8.2508183704
 30
0.0
 10
9.4400366644
 20
8.2458614768
 30
0.0
 10
9.4308273668
 20
8.2399284243
 30
0.0
 10
9.4226536319
 20
8.2331568946
 30
0.0
 10
9.4136982496
 20
8.2235579271
 30
0.0
 10
9.4086328944
 20
8.2151768334
 30
0.0
 10
9.4064932903
 20
8.2093658123
 30
0.0
  0
SPLINE
  5
399
100
AcDbEntity
  8
0
100
AcDbSpline
 62
9
  6
CONTINUOUS
 70
0
 71
3
 72
15
 73
11
 74
0
 42
0.0000001
 43
0.0000001
 44
0.0000000001
 40
0.0
 40
0.0
 40
0.0
 40
0.0
 40
0.1028369214
 40
0.211839017
 40
0.3279503961
 40
0.4514185448
 40
0.5816829566
 40
0.7175922181
 40
0.8576878534
 40
1.0
 40
1.0
 40
1.0
 40
1.0
 10
9.3315573711
 20
8.124697935
 30
0.0
 10
9.3315724064
 20
8.1274183062
 30
0.0
 10
9.3322484955
 20
8.1330321327
 30
0.0
 10
9.3350027434
 20
8.1413097556
 30
0.0
 10
9.339430776
 20
8.1494473849
 30
0.0
 10
9.345402606
 20
8.157240884
 30
0.0
 10
9.3527632069
 20
8.1644989101
 30
0.0
 10
9.3613213987
 20
8.1710434117
 30
0.0
 10
9.3708563001
 20
8.1767045959
 30
0.0
 10
9.3776808269
 20
8.1797877693
 30
0.0
 10
9.3811913967
 20
8.1811474353
 30
0.0
  0
SPLINE
  5
39A
100
AcDbEntity
  8
0
100
AcDbSpline
 62
9
  6
CONTINUOUS
 70
0
 71
3
 72
15
 73
11
 74
0
 42
0.0000001
 43
0.0000001
 44
0.0000000001
 40
0.0
 40
0.0
 40
0.0
 40
0.0
 40
0.103173991
 40
0.212411338
 40
0.3286441533
 40
0.452123567
 40
0.5823026115
 40
0.718049899
 40
0.8579302937
 40
1.0
 40
1.0
 40
1.0
 40
1.0
 10
9.3302020566
 20
8.1283828984
 30
0.0
 10
9.3302115759
 20
8.1311156892
 30
0.0
 10
9.3308750964
 20
8.1367532264
 30
0.0
 10
9.3336109094
 20
8.1450679521
 30
0.0
 10
9.3380209586
 20
8.1532399191
 30
0.0
 10
9.3439757768
 20
8.16106394
 30
0.0
 10
9.3513207731
 20
8.1683478752
 30
0.0
 10
9.3598651971
 20
8.1749131307
 30
0.0
 10
9.3693886445
 20
8.1805895227
 30
0.0
 10
9.3762076481
 20
8.1836790729
 30
0.0
 10
9.3797156645
 20
8.1850408311
 30
0.0
  0
SPLINE
  5
39B
100
AcDbEntity
  8
0
100
AcDbSpline
 62
9
  6
CONTINUOUS
 70
0
 71
3
 72
15
 73
11
 74
0
 42
0.0000001
 43
0.0000001
 44
0.0000000001
 40
0.0
 40
0.0
 40
0.0
 40
0.0
 40
0.1050202062
 40
0.2141699458
 40
0.3291295247
 40
0.4509283682
 40
0.5797158885
 40
0.7149304786
 40
0.8555729089
 40
1.0
 40
1.0
 40
1.0
 40
1.0
 10
9.1920325691
 20
8.6799304445
 30
0.0
 10
9.1920422482
 20
8.6826296057
 30
0.0
 10
9.1927055531
 20
8.68814893
 30
0.0
 10
9.1955187297
 20
8.6961874648
 30
0.0
 10
9.2000671164
 20
8.7038867903
 30
0.0
 10
9.2062097906
 20
8.7110515992
 30
0.0
 10
9.2137825237
 20
8.7175082674
 30
0.0
 10
9.2225867734
 20
8.723102533
 30
0.0
 10
9.2323946907
 20
8.727691481
 30
0.0
 10
9.2393734274
 20
8.7299868798
 30
0.0
 10
9.2429601604
 20
8.7309430469
 30
0.0
  0
SPLINE
  5
39C
100
AcDbEntity
  8
0
100
AcDbSpline
 62
9
  6
CONTINUOUS
 70
0
 71
3
 72
15
 73
11
 74
0
 42
0.0000001
 43
0.0000001
 44
0.0000000001
 40
0.0
 40
0.0
 40
0.0
 40
0.0
 40
0.1050222937
 40
0.21417373
 40
0.3291343795
 40
0.4509335557
 40
0.5797206607
 40
0.7149341603
 40
0.8555749452
 40
1.0
 40
1.0
 40
1.0
 40
1.0
 10
9.1920327099
 20
9.339854309
 30
0.0
 10
9.1920423862
 20
9.3371550576
 30
0.0
 10
9.1927056794
 20
9.3316355612
 30
0.0
 10
9.1955188294
 20
9.3235967652
 30
0.0
 10
9.2000671852
 20
9.3158971895
 30
0.0
 10
9.2062098278
 20
9.3087321515
 30
0.0
 10
9.2137825301
 20
9.3022752847
 30
0.0
 10
9.2225867503
 20
9.2966808579
 30
0.0
 10
9.2323946406
 20
9.2920917925
 30
0.0
 10
9.2393733681
 20
9.2897963463
 30
0.0
 10
9.242960095
 20
9.2888401648
 30
0.0
  0
SPLINE
  5
39D
100
AcDbEntity
  8
0
100
AcDbSpline
 62
9
  6
CONTINUOUS
 70
0
 71
3
 72
15
 73
11
 74
0
 42
0.0000001
 43
0.0000001
 44
0.0000000001
 40
0.0
 40
0.0
 40
0.0
 40
0.0
 40
0.1031737601
 40
0.212410974
 40
0.3286437642
 40
0.4521232419
 40
0.5823024036
 40
0.7180498073
 40
0.857930298
 40
1.0
 40
1.0
 40
1.0
 40
1.0
 10
9.3302020549
 20
9.8914007109
 30
0.0
 10
9.3302115803
 20
9.8886679004
 30
0.0
 10
9.3308751253
 20
9.883030321
 30
0.0
 10
9.3336110029
 20
9.8747155398
 30
0.0
 10
9.338021142
 20
9.8665435238
 30
0.0
 10
9.3439760706
 20
9.8587194648
 30
0.0
 10
9.3513211926
 20
9.8514355061
 30
0.0
 10
9.3598657513
 20
9.8448702442
 30
0.0
 10
9.3693893362
 20
9.8391938672
 30
0.0
 10
9.3762084305
 20
9.8361043396
 30
0.0
 10
9.3797164909
 20
9.834742597
 30
0.0
  0
SPLINE
  5
39E
100
AcDbEntity
  8
0
100
AcDbSpline
 62
9
  6
CONTINUOUS
 70
0
 71
3
 72
15
 73
11
 74
0
 42
0.0000001
 43
0.0000001
 44
0.0000000001
 40
0.0
 40
0.0
 40
0.0
 40
0.0
 40
0.1028369279
 40
0.2118390246
 40
0.3279504001
 40
0.4514185424
 40
0.581682948
 40
0.7175922063
 40
0.8576878439
 40
1.0
 40
1.0
 40
1.0
 40
1.0
 10
9.3315574286
 20
9.8950856622
 30
0.0
 10
9.3315724635
 20
9.8923652927
 30
0.0
 10
9.3322485509
 20
9.8867514697
 30
0.0
 10
9.3350027942
 20
9.8784738516
 30
0.0
 10
9.3394308205
 20
9.8703362264
 30
0.0
 10
9.345402643
 20
9.8625427306
 30
0.0
 10
9.3527632354
 20
9.8552847066
 30
0.0
 10
9.3613214184
 20
9.8487402061
 30
0.0
 10
9.3708563109
 20
9.8430790214
 30
0.0
 10
9.3776808318
 20
9.8399958469
 30
0.0
 10
9.3811913988
 20
9.8386361801
 30
0.0
  0
SPLINE
  5
39F
100
AcDbEntity
  8
0
100
AcDbSpline
 62
9
  6
CONTINUOUS
 70
0
 71
3
 72
15
 73
11
 74
0
 42
0.0000001
 43
0.0000001
 44
0.0000000001
 40
0.0
 40
0.0
 40
0.0
 40
0.0
 40
0.1373511421
 40
0.2740678714
 40
0.4082695666
 40
0.5384595435
 40
0.6633174469
 40
0.7819505709
 40
0.8940957013
 40
1.0
 40
1.0
 40
1.0
 40
1.0
 10
9.3384819725
 20
8.7850318476
 30
0.0
 10
9.3347341775
 20
8.7847707063
 30
0.0
 10
9.3272789409
 20
8.7838221135
 30
0.0
 10
9.3164080198
 20
8.7811680189
 30
0.0
 10
9.3060978921
 20
8.7773419951
 30
0.0
 10
9.2966130558
 20
8.7724438338
 30
0.0
 10
9.2881946972
 20
8.7665916765
 30
0.0
 10
9.2810550969
 20
8.759929095
 30
0.0
 10
9.2753860509
 20
8.752619402
 30
0.0
 10
9.2726149093
 20
8.7472891866
 30
0.0
 10
9.271550759
 20
8.7445949963
 30
0.0
  0
SPLINE
  5
3A0
100
AcDbEntity
  8
0
100
AcDbSpline
 62
9
  6
CONTINUOUS
 70
0
 71
3
 72
9
 73
5
 74
0
 42
0.0000001
 43
0.0000001
 44
0.0000000001
 40
0.0
 40
0.0
 40
0.0
 40
0.0
 40
0.5217190539
 40
1.0
 40
1.0
 40
1.0
 40
1.0
 10
10.0319450799
 20
9.1849177834
 30
0.0
 10
10.0337172985
 20
9.189307114
 30
0.0
 10
10.0371763318
 20
9.1976953823
 30
0.0
 10
10.0407765419
 20
9.2060243213
 30
0.0
 10
10.0425432347
 20
9.2099878948
 30
0.0
  0
SPLINE
  5
3A1
100
AcDbEntity
  8
0
100
AcDbSpline
 62
9
  6
CONTINUOUS
 70
0
 71
3
 72
10
 73
6
 74
0
 42
0.0000001
 43
0.0000001
 44
0.0000000001
 40
0.0
 40
0.0
 40
0.0
 40
0.0
 40
0.2685079964
 40
0.5238011971
 40
1.0
 40
1.0
 40
1.0
 40
1.0
 10
9.600224575
 20
9.5896593149
 30
0.0
 10
9.6014354294
 20
9.5887491458
 30
0.0
 10
9.6037726584
 20
9.5869405184
 30
0.0
 10
9.6082536085
 20
9.5835144981
 30
0.0
 10
9.6116287524
 20
9.5811291874
 30
0.0
 10
9.6139084668
 20
9.5797079084
 30
0.0
  0
SPLINE
  5
3A2
100
AcDbEntity
  8
0
100
AcDbSpline
 62
9
  6
CONTINUOUS
 70
0
 71
3
 72
20
 73
16
 74
0
 42
0.0000001
 43
0.0000001
 44
0.0000000001
 40
0.0
 40
0.0
 40
0.0
 40
0.0
 40
0.1424350106
 40
0.2749928442
 40
0.3974500979
 40
0.4550774509
 40
0.5106127546
 40
0.5644729205
 40
0.6174154281
 40
0.6706239326
 40
0.7255797598
 40
0.7841418494
 40
0.8482992601
 40
0.9197676559
 40
1.0
 40
1.0
 40
1.0
 40
1.0
 10
9.6139084668
 20
9.5797079084
 30
0.0
 10
9.6153409079
 20
9.5788157825
 30
0.0
 10
9.6181802487
 20
9.5772054863
 30
0.0
 10
9.6225159203
 20
9.5753417067
 30
0.0
 10
9.6261135859
 20
9.5743765452
 30
0.0
 10
9.6288933002
 20
9.5740689231
 30
0.0
 10
9.6308773645
 20
9.5740806291
 30
0.0
 10
9.6327880132
 20
9.5743564184
 30
0.0
 10
9.6346055911
 20
9.5749267519
 30
0.0
 10
9.6363052213
 20
9.5758197427
 30
0.0
 10
9.6378541342
 20
9.5770661644
 30
0.0
 10
9.6392125379
 20
9.5786912654
 30
0.0
 10
9.6403441105
 20
9.5807078977
 30
0.0
 10
9.6412191968
 20
9.5831212575
 30
0.0
 10
9.6415867419
 20
9.5848865722
 30
0.0
 10
9.6417295604
 20
9.5858263555
 30
0.0
  0
LINE
  5
3A3
100
AcDbEntity
  8
0
100
AcDbLine
 62
9
  6
CONTINUOUS
 10
9.6417295604
 20
9.5858263555
 11
9.6419706495
 21
9.5879787368
  0
SPLINE
  5
3A4
100
AcDbEntity
  8
0
100
AcDbSpline
 62
9
  6
CONTINUOUS
 70
0
 71
3
 72
9
 73
5
 74
0
 42
0.0000001
 43
0.0000001
 44
0.0000000001
 40
0.0
 40
0.0
 40
0.0
 40
0.0
 40
0.521728396
 40
1.0
 40
1.0
 40
1.0
 40
1.0
 10
10.0319430869
 20
8.8348662129
 30
0.0
 10
10.0337156149
 20
8.8304770697
 30
0.0
 10
10.0371751855
 20
8.8220893188
 30
0.0
 10
10.0407758547
 20
8.8137608772
 30
0.0
 10
10.042542699
 20
8.8097976071
 30
0.0
  0
SPLINE
  5
3A5
100
AcDbEntity
  8
0
100
AcDbSpline
 62
9
  6
CONTINUOUS
 70
0
 71
3
 72
11
 73
7
 74
0
 42
0.0000001
 43
0.0000001
 44
0.0000000001
 40
0.0
 40
0.0
 40
0.0
 40
0.0
 40
0.2325589863
 40
0.4762440029
 40
0.7315327375
 40
1.0
 40
1.0
 40
1.0
 40
1.0
 10
9.6139081858
 20
8.4400761872
 30
0.0
 10
9.6127944921
 20
8.4393822417
 30
0.0
 10
9.6105546332
 20
8.4378952693
 30
0.0
 10
9.6072123515
 20
8.4354721028
 30
0.0
 10
9.6037706254
 20
8.4328440399
 30
0.0
 10
9.601433967
 20
8.431034585
 30
0.0
 10
9.6002234362
 20
8.4301239411
 30
0.0
  0
SPLINE
  5
3A6
100
AcDbEntity
  8
0
100
AcDbSpline
 62
9
  6
CONTINUOUS
 70
0
 71
3
 72
15
 73
11
 74
0
 42
0.0000001
 43
0.0000001
 44
0.0000000001
 40
0.0
 40
0.0
 40
0.0
 40
0.0
 40
0.1385855497
 40
0.2763243559
 40
0.4112390024
 40
0.54175332
 40
0.6664868953
 40
0.7845159017
 40
0.8955835708
 40
1.0
 40
1.0
 40
1.0
 40
1.0
 10
9.3374877614
 20
8.7912809371
 30
0.0
 10
9.3337416353
 20
8.7910405042
 30
0.0
 10
9.326292471
 20
8.7901467865
 30
0.0
 10
9.3154235248
 20
8.7876102188
 30
0.0
 10
9.3051138805
 20
8.7839348826
 30
0.0
 10
9.2956273326
 20
8.7792164668
 30
0.0
 10
9.2872042455
 20
8.7735683031
 30
0.0
 10
9.2800561269
 20
8.7671280444
 30
0.0
 10
9.2743741557
 20
8.7600520875
 30
0.0
 10
9.2715861752
 20
8.7548741795
 30
0.0
 10
9.2705156443
 20
8.752256306
 30
0.0
  0
SPLINE
  5
3A7
100
AcDbEntity
  8
0
100
AcDbSpline
 62
9
  6
CONTINUOUS
 70
0
 71
3
 72
15
 73
11
 74
0
 42
0.0000001
 43
0.0000001
 44
0.0000000001
 40
0.0
 40
0.0
 40
0.0
 40
0.0
 40
0.1385856078
 40
0.2763244628
 40
0.4112391454
 40
0.5417534831
 40
0.6664870574
 40
0.7845160388
 40
0.8955836548
 40
1.0
 40
1.0
 40
1.0
 40
1.0
 10
9.3374878116
 20
9.2285028444
 30
0.0
 10
9.3337416832
 20
9.2287432733
 30
0.0
 10
9.3262925141
 20
9.2296369838
 30
0.0
 10
9.3154235603
 20
9.2321735426
 30
0.0
 10
9.3051139089
 20
9.2358488714
 30
0.0
 10
9.2956273548
 20
9.2405672813
 30
0.0
 10
9.2872042626
 20
9.2462154394
 30
0.0
 10
9.2800561405
 20
9.252655693
 30
0.0
 10
9.2743741676
 20
9.2597316444
 30
0.0
 10
9.2715861867
 20
9.2649095489
 30
0.0
 10
9.2705156562
 20
9.2675274205
 30
0.0
  0
SPLINE
  5
3A8
100
AcDbEntity
  8
0
100
AcDbSpline
 62
9
  6
CONTINUOUS
 70
0
 71
3
 72
14
 73
10
 74
0
 42
0.0000001
 43
0.0000001
 44
0.0000000001
 40
0.0
 40
0.0
 40
0.0
 40
0.0
 40
0.2755011331
 40
0.4075075615
 40
0.5353142153
 40
0.6587076954
 40
0.7775192808
 40
0.8913779139
 40
1.0
 40
1.0
 40
1.0
 40
1.0
 10
9.5278765951
 20
9.6101759141
 30
0.0
 10
9.5326392667
 20
9.607099233
 30
0.0
 10
9.5399149932
 20
9.6028861691
 30
0.0
 10
9.5498813299
 20
9.5981800018
 30
0.0
 10
9.5572041999
 20
9.5952373075
 30
0.0
 10
9.5644457392
 20
9.5928629625
 30
0.0
 10
9.571562855
 20
9.5910858719
 30
0.0
 10
9.5785046233
 20
9.5899591539
 30
0.0
 10
9.5830856588
 20
9.5896730835
 30
0.0
 10
9.5853211787
 20
9.589672876
 30
0.0
  0
SPLINE
  5
3A9
100
AcDbEntity
  8
0
100
AcDbSpline
 62
9
  6
CONTINUOUS
 70
0
 71
3
 72
14
 73
10
 74
0
 42
0.0000001
 43
0.0000001
 44
0.0000000001
 40
0.0
 40
0.0
 40
0.0
 40
0.0
 40
0.1332238469
 40
0.2674963924
 40
0.4008422713
 40
0.531553454
 40
0.6579877213
 40
0.778809216
 40
1.0
 40
1.0
 40
1.0
 40
1.0
 10
9.4715776353
 20
9.7626610105
 30
0.0
 10
9.4679094824
 20
9.7633361466
 30
0.0
 10
9.4606160673
 20
9.7651157624
 30
0.0
 10
9.4500516148
 20
9.7689634846
 30
0.0
 10
9.4400353085
 20
9.7739196992
 30
0.0
 10
9.4308255975
 20
9.7798522271
 30
0.0
 10
9.4226515124
 20
9.7866234121
 30
0.0
 10
9.4136957466
 20
9.7962222101
 30
0.0
 10
9.4086302931
 20
9.8046034428
 30
0.0
 10
9.406490733
 20
9.8104145917
 30
0.0
  0
SPLINE
  5
3AA
100
AcDbEntity
  8
0
100
AcDbSpline
 62
9
  6
CONTINUOUS
 70
0
 71
3
 72
15
 73
11
 74
0
 42
0.0000001
 43
0.0000001
 44
0.0000000001
 40
0.0
 40
0.0
 40
0.0
 40
0.0
 40
0.1373511418
 40
0.274067871
 40
0.4082695662
 40
0.5384595433
 40
0.6633174468
 40
0.781950571
 40
0.8940957015
 40
1.0
 40
1.0
 40
1.0
 40
1.0
 10
9.3384819725
 20
9.2347517605
 30
0.0
 10
9.3347341776
 20
9.2350129018
 30
0.0
 10
9.3272789408
 20
9.2359614946
 30
0.0
 10
9.3164080197
 20
9.2386155892
 30
0.0
 10
9.3060978919
 20
9.242441613
 30
0.0
 10
9.2966130556
 20
9.2473397743
 30
0.0
 10
9.2881946968
 20
9.2531919317
 30
0.0
 10
9.2810550964
 20
9.2598545133
 30
0.0
 10
9.2753860504
 20
9.2671642063
 30
0.0
 10
9.2726149087
 20
9.2724944218
 30
0.0
 10
9.2715507585
 20
9.2751886121
 30
0.0
  0
SPLINE
  5
3AB
100
AcDbEntity
  8
0
100
AcDbSpline
 62
9
  6
CONTINUOUS
 70
0
 71
3
 72
15
 73
11
 74
0
 42
0.0000001
 43
0.0000001
 44
0.0000000001
 40
0.0
 40
0.0
 40
0.0
 40
0.0
 40
0.1413592298
 40
0.2797028992
 40
0.4137852686
 40
0.542624949
 40
0.6655922317
 40
0.7824914461
 40
0.8936905823
 40
1.0
 40
1.0
 40
1.0
 40
1.0
 10
9.6103899477
 20
9.8517038457
 30
0.0
 10
9.6022837174
 20
9.8508159237
 30
0.0
 10
9.5863216304
 20
9.8482247028
 30
0.0
 10
9.5632625741
 20
9.8418776791
 30
0.0
 10
9.5417323603
 20
9.8332311842
 30
0.0
 10
9.5221806028
 20
9.8224634917
 30
0.0
 10
9.5050132073
 20
9.809791747
 30
0.0
 10
9.490578167
 20
9.7954718788
 30
0.0
 10
9.4791937711
 20
9.7797899498
 30
0.0
 10
9.4736975273
 20
9.7684157363
 30
0.0
 10
9.4715776353
 20
9.7626610105
 30
0.0
  0
SPLINE
  5
3AC
100
AcDbEntity
  8
0
100
AcDbSpline
 62
9
  6
CONTINUOUS
 70
0
 71
3
 72
15
 73
11
 74
0
 42
0.0000001
 43
0.0000001
 44
0.0000000001
 40
0.0
 40
0.0
 40
0.0
 40
0.0
 40
0.107372765
 40
0.2202535903
 40
0.3389342055
 40
0.4632342522
 40
0.5925593193
 40
0.7259477931
 40
0.8622601592
 40
1.0
 40
1.0
 40
1.0
 40
1.0
 10
9.7925312877
 20
8.3363121842
 30
0.0
 10
9.7891882885
 20
8.3418070709
 30
0.0
 10
9.7813055667
 20
8.3524790025
 30
0.0
 10
9.7667501063
 20
8.3667375927
 30
0.0
 10
9.7494827854
 20
8.3793541389
 30
0.0
 10
9.7298553565
 20
8.390067003
 30
0.0
 10
9.7082641038
 20
8.3986532912
 30
0.0
 10
9.6851494742
 20
8.4049309632
 30
0.0
 10
9.660999044
 20
8.4087513679
 30
0.0
 10
9.6445696901
 20
8.4096063642
 30
0.0
 10
9.636318717
 20
8.4096074702
 30
0.0
  0
SPLINE
  5
3AD
100
AcDbEntity
  8
0
100
AcDbSpline
 62
9
  6
CONTINUOUS
 70
0
 71
3
 72
11
 73
7
 74
0
 42
0.0000001
 43
0.0000001
 44
0.0000000001
 40
0.0
 40
0.0
 40
0.0
 40
0.0
 40
0.2330148839
 40
0.4769524784
 40
0.7326365195
 40
1.0
 40
1.0
 40
1.0
 40
1.0
 10
9.8824467991
 20
9.7190696661
 30
0.0
 10
9.8779689388
 20
9.7110214909
 30
0.0
 10
9.867378183
 20
9.6953092627
 30
0.0
 10
9.8476454637
 20
9.6739824443
 30
0.0
 10
9.8240969266
 20
9.6547515422
 30
0.0
 10
9.8065025455
 20
9.6437826482
 30
0.0
 10
9.7972285935
 20
9.6387161713
 30
0.0
  0
SPLINE
  5
3AE
100
AcDbEntity
  8
0
100
AcDbSpline
 62
9
  6
CONTINUOUS
 70
0
 71
3
 72
15
 73
11
 74
0
 42
0.0000001
 43
0.0000001
 44
0.0000000001
 40
0.0
 40
0.0
 40
0.0
 40
0.0
 40
0.1408290823
 40
0.2790350592
 40
0.4132540775
 40
0.5423747858
 40
0.665641117
 40
0.7827387175
 40
0.8939202773
 40
1.0
 40
1.0
 40
1.0
 40
1.0
 10
9.6088234788
 20
8.0443000493
 30
0.0
 10
9.595760404
 20
8.0452688492
 30
0.0
 10
9.5699566751
 20
8.0485631559
 30
0.0
 10
9.5325118596
 20
8.0575762354
 30
0.0
 10
9.4973537521
 20
8.0704379802
 30
0.0
 10
9.4652596955
 20
8.0868722488
 30
0.0
 10
9.4369351242
 20
8.1065314594
 30
0.0
 10
9.4130018212
 20
8.1290066708
 30
0.0
 10
9.3940146314
 20
8.153820776
 30
0.0
 10
9.3847713371
 20
8.1719529889
 30
0.0
 10
9.3811913965
 20
8.1811474357
 30
0.0
  0
ENDSEC
  0
SECTION
  2
OBJECTS
  0
DICTIONARY
  5
C
100
AcDbDictionary
280
0
281
1
  3
ACAD_GROUP
350
D
  3
ACAD_MLINESTYLE
350
17
  3
ACAD_LAYOUT
350
1A
  3
ACAD_PLOTSETTINGS
350
19
  3
ACAD_PLOTSTYLENAME
350
E
  0
DICTIONARY
  5
D
102
{ACAD_REACTORS
330
C
102
}
100
AcDbDictionary
280
0
281
1
  0
ACDBDICTIONARYWDFLT
  5
E
102
{ACAD_REACTORS
330
C
102
}
100
AcDbDictionary
281
1
  3
Normal
350
F
100
AcDbDictionaryWithDefault
340
F
  0
DICTIONARY
  5
17
102
{ACAD_REACTORS
330
C
102
}
100
AcDbDictionary
280
0
281
1
  3
Standard
350
18
  0
DICTIONARY
  5
19
102
{ACAD_REACTORS
330
C
102
}
100
AcDbDictionary
281
1
  0
DICTIONARY
  5
1A
102
{ACAD_REACTORS
330
C
102
}
100
AcDbDictionary
281
1
  3
Model
350
3AF
  3
Layout1
350
3B0
  0
ACDBPLACEHOLDER
  5
F
102
{ACAD_REACTORS
330
E
102
}
  0
MLINESTYLE
  5
18
102
{ACAD_REACTORS
330
17
102
}
100
AcDbMlineStyle
  2
STANDARD
 70
0
  3

 62
256
 51
90.0
 52
90.0
 71
2
 49
0.5
 62
256
  6
BYLAYER
 49
-0.5
 62
256
  6
BYLAYER
  0
LAYOUT
  5
3AF
102
{ACAD_REACTORS
330
1A
102
}
100
AcDbPlotSettings
  1

  2
none_device
  4
ANSI_C_(22.00_x_17.00_Inches)
  6

 40
0.0
 41
0.0
 42
0.0
 43
0.0
 44
558.8
 45
431.8
 46
0.0
 47
0.0
 48
0.0
 49
0.0
140
0.0
141
0.0
142
1.0
143
1.0
 70
1024
 72
0
 73
0
 74
0
  7

 75
0
147
1.0
148
0.0
149
0.0
100
AcDbLayout
  1
Model
 70
0
 71
0
 10
0.0
 20
0.0
 11
22.0
 21
17.0
 12
0.0
 22
0.0
 32
0.0
 14
0.0
 24
0.0
 34
0.0
 15
0.0
 25
0.0
 35
0.0
146
0.0
 13
0.0
 23
0.0
 33
0.0
 16
1.0
 26
0.0
 36
0.0
 17
0.0
 27
1.0
 37
0.0
 76
0
330
205
345
0
346
0
  0
LAYOUT
  5
3B0
102
{ACAD_REACTORS
330
1A
102
}
100
AcDbPlotSettings
  1

  2
none_device
  4
ANSI_C_(22.00_x_17.00_Inches)
  6

 40
0.0
 41
0.0
 42
0.0
 43
0.0
 44
558.8
 45
431.8
 46
0.0
 47
0.0
 48
0.0
 49
0.0
140
0.0
141
0.0
142
1.0
143
1.0
 70
0
 72
0
 73
0
 74
0
  7

 75
0
147
1.0
148
0.0
149
0.0
100
AcDbLayout
  1
Layout1
 70
0
 71
1
 10
0.0
 20
0.0
 11
22.0
 21
17.0
 12
0.0
 22
0.0
 32
0.0
 14
0.0
 24
0.0
 34
0.0
 15
0.0
 25
0.0
 35
0.0
146
0.0
 13
0.0
 23
0.0
 33
0.0
 16
1.0
 26
0.0
 36
0.0
 17
0.0
 27
1.0
 37
0.0
 76
0
330
206
345
0
346
0
  0
ENDSEC
  0
EOF
