999
DXF file: E:\BT Custom\CADOUTPUT\_TOP.dxf
999
Pro/ENGINEER 2018400 by Parametric Technology Corporation
  0
SECTION
  2
HEADER
  9
$ACADVER
  1
AC1018
  9
$DWGCODEPAGE
  3
ANSI_1252
  9
$EXTMAX
 10
22.0
 20
17.0
 30
0.0
  9
$EXTMIN
 10
0.0
 20
0.0
 30
0.0
  9
$LIMMIN
 10
0.0
 20
0.0
  9
$LIMMAX
 10
22.0
 20
17.0
  9
$VIEWCTR
 10
11.0
 20
8.5
  9
$VIEWSIZE
 40
17.0
  9
$CLAYER
  8
0
  9
$LTSCALE
 40
1.21
  9
$CELTYPE
  6
BYLAYER
  9
$DIMSCALE
 40
1.0
  9
$DIMASZ
 40
0.1
  9
$DIMEXO
 40
0.0625
  9
$DIMDLI
 40
0.836
  9
$DIMEXE
 40
0.125
  9
$DIMCEN
 40
0.198
  9
$DIMLFAC
 40
1.0
  9
$DIMBLK
  1
_FILLED
  9
$DIMALT
 70
1
  9
$DIMALTD
 70
2
  9
$DIMALTTD
 70
2
  9
$DIMALTF
 40
25.4
  9
$DIMTXT
 40
0.08
  9
$DIMTOL
 70
1
  9
$DIMLIM
 70
0
  9
$DIMTFAC
 40
1.0
  9
$DIMTP
 40
0.001
  9
$DIMTM
 40
0.001
  9
$DIMGAP
 40
0.09
  9
$DIMDSEP
 70
46
  9
$AUNITS
 70
0
  9
$PDMODE
 70
3
  9
$PDSIZE
 40
0.06
  9
$HANDSEED
  5
3A2
  9
$TILEMODE
 70
1
  9
$MEASUREMENT
 70
0
  9
$INSUNITS
 70
1
  0
ENDSEC
  0
SECTION
  2
CLASSES
  0
CLASS
  1
ACDBDICTIONARYWDFLT
  2
AcDbDictionaryWithDefault
  3
AutoCAD 2000
 90
0
 91
1
280
0
281
0
  0
CLASS
  1
ACDBPLACEHOLDER
  2
AcDbPlaceHolder
  3
AutoCAD 2000
 90
0
 91
1
280
0
281
0
  0
CLASS
  1
LAYOUT
  2
AcDbLayout
  3
AutoCAD 2000
 90
0
 91
0
280
0
281
0
  0
ENDSEC
  0
SECTION
  2
TABLES
  0
TABLE
  2
VPORT
  5
8
100
AcDbSymbolTable
 70
2
  0
VPORT
  5
1F4
100
AcDbSymbolTableRecord
100
AcDbViewportTableRecord
  2
*ACTIVE
 70
0
 10
0.0
 20
0.0
 11
1.0
 21
1.0
 12
11.0
 22
8.5
 13
0.0
 23
0.0
 14
1.0
 24
1.0
 15
0.0
 25
0.0
 16
0.0
 26
0.0
 36
1.0
 17
0.0
 27
0.0
 37
0.0
 40
17.0
 41
1.2941176471
 42
50.0
 43
0.0
 44
0.0
 50
0.0
 51
0.0
 71
0
 72
100
 73
1
 74
1
 75
0
 76
0
 77
0
 78
0
  0
ENDTAB
  0
TABLE
  2
LTYPE
  5
5
100
AcDbSymbolTable
 70
6
  0
LTYPE
  5
14
100
AcDbSymbolTableRecord
100
AcDbLinetypeTableRecord
  2
BYBLOCK
 70
0
  3

 72
65
 73
0
 40
0.0
  0
LTYPE
  5
15
100
AcDbSymbolTableRecord
100
AcDbLinetypeTableRecord
  2
BYLAYER
 70
0
  3

 72
65
 73
0
 40
0.0
  0
LTYPE
  5
16
100
AcDbSymbolTableRecord
100
AcDbLinetypeTableRecord
  2
CONTINUOUS
 70
64
  3
Solid line
 72
65
 73
0
 40
0.0
  0
LTYPE
  5
1F5
100
AcDbSymbolTableRecord
100
AcDbLinetypeTableRecord
  2
CENTER
 70
64
  3
____ _ ____ _ ____ _ ____ _ ____ _ ____ _ ____
 72
65
 73
4
 40
0.6
 49
0.375
 74
0
 49
-0.075
 74
0
 49
0.075
 74
0
 49
-0.075
 74
0
  0
LTYPE
  5
1F6
100
AcDbSymbolTableRecord
100
AcDbLinetypeTableRecord
  2
HIDDEN
 70
64
  3
- - - - - - - - - - - - - - - - - - - -
 72
65
 73
2
 40
0.2
 49
0.1
 74
0
 49
-0.1
 74
0
  0
LTYPE
  5
1F7
100
AcDbSymbolTableRecord
100
AcDbLinetypeTableRecord
  2
PHANTOM
 70
64
  3
_____ _ _ _____ _ _ _____ _ _ _____
 72
65
 73
6
 40
0.8
 49
0.45
 74
0
 49
-0.05
 74
0
 49
0.1
 74
0
 49
-0.05
 74
0
 49
0.1
 74
0
 49
-0.05
 74
0
  0
LTYPE
  5
1F8
100
AcDbSymbolTableRecord
100
AcDbLinetypeTableRecord
  2
DOT
 70
64
  3
. . . . . . . . . . . . . . . . . . . .
 72
65
 73
2
 40
0.2
 49
0.1
 74
0
 49
-0.1
 74
0
  0
LTYPE
  5
1F9
100
AcDbSymbolTableRecord
100
AcDbLinetypeTableRecord
  2
DASHED
 70
64
  3
- - - - - - - - - - - - - - - - - - - -
 72
65
 73
2
 40
0.2
 49
0.1
 74
0
 49
-0.1
 74
0
  0
ENDTAB
  0
TABLE
  2
LAYER
  5
2
100
AcDbSymbolTable
 70
36
  0
LAYER
  5
10
100
AcDbSymbolTableRecord
100
AcDbLayerTableRecord
  2
0
 70
0
 62
7
  6
CONTINUOUS
370
-3
390
F
  0
LAYER
  5
1FA
100
AcDbSymbolTableRecord
100
AcDbLayerTableRecord
  2
DEFAULT_1
 70
0
 62
7
  6
CENTER
370
-3
390
F
  0
LAYER
  5
1FB
100
AcDbSymbolTableRecord
100
AcDbLayerTableRecord
  2
DEFAULT_2
 70
0
 62
8
  6
HIDDEN
370
-3
390
F
  0
LAYER
  5
1FC
100
AcDbSymbolTableRecord
100
AcDbLayerTableRecord
  2
DEFAULT_3
 70
0
 62
7
  6
PHANTOM
370
-3
390
F
  0
LAYER
  5
1FD
100
AcDbSymbolTableRecord
100
AcDbLayerTableRecord
  2
ALL_FEATURES
 70
0
 62
7
  6
CONTINUOUS
370
-3
390
F
  0
LAYER
  5
1FE
100
AcDbSymbolTableRecord
100
AcDbLayerTableRecord
  2
AXES_FEATURES
 70
0
 62
7
  6
CONTINUOUS
370
-3
390
F
  0
LAYER
  5
1FF
100
AcDbSymbolTableRecord
100
AcDbLayerTableRecord
  2
DEFAULT_COORDINATE_SYSTEM
 70
0
 62
7
  6
CONTINUOUS
370
-3
390
F
  0
LAYER
  5
200
100
AcDbSymbolTableRecord
100
AcDbLayerTableRecord
  2
DEFAULT_DATUM_AXES
 70
0
 62
7
  6
CONTINUOUS
370
-3
390
F
  0
LAYER
  5
201
100
AcDbSymbolTableRecord
100
AcDbLayerTableRecord
  2
DEFAULT_DATUM_PLANES
 70
0
 62
7
  6
CONTINUOUS
370
-3
390
F
  0
LAYER
  5
202
100
AcDbSymbolTableRecord
100
AcDbLayerTableRecord
  2
DIMENSIONS
 70
0
 62
7
  6
CONTINUOUS
370
-3
390
F
  0
ENDTAB
  0
TABLE
  2
STYLE
  5
3
100
AcDbSymbolTable
 70
1
  0
STYLE
  5
11
100
AcDbSymbolTableRecord
100
AcDbTextStyleTableRecord
  2
STANDARD
 70
0
 40
0.0
 41
0.8
 50
0.0
 71
0
 42
0.2
  3
txt
  4

  0
STYLE
  5
203
100
AcDbSymbolTableRecord
100
AcDbTextStyleTableRecord
  2
TEXTSTYLE_1
 70
0
 40
0.0
 41
0.8
 50
0.0
 71
0
 42
0.2
  3
gdt
  4

  0
ENDTAB
  0
TABLE
  2
VIEW
  5
6
100
AcDbSymbolTable
 70
0
  0
ENDTAB
  0
TABLE
  2
UCS
  5
7
100
AcDbSymbolTable
 70
0
  0
ENDTAB
  0
TABLE
  2
APPID
  5
9
100
AcDbSymbolTable
 70
1
  0
APPID
  5
204
100
AcDbSymbolTableRecord
100
AcDbRegAppTableRecord
  2
ACAD
 70
0
  0
ENDTAB
  0
TABLE
  2
BLOCK_RECORD
  5
1
100
AcDbSymbolTable
 70
0
  0
BLOCK_RECORD
  5
205
100
AcDbSymbolTableRecord
100
AcDbBlockTableRecord
  2
*Model_Space
  0
BLOCK_RECORD
  5
206
100
AcDbSymbolTableRecord
100
AcDbBlockTableRecord
  2
*Paper_Space
  0
BLOCK_RECORD
  5
207
100
AcDbSymbolTableRecord
100
AcDbBlockTableRecord
  2
_FILLED
  0
ENDTAB
  0
TABLE
  2
DIMSTYLE
  5
A
100
AcDbSymbolTable
 70
1
100
AcDbDimStyleTable
 71
0
  0
DIMSTYLE
105
208
100
AcDbSymbolTableRecord
100
AcDbDimStyleTableRecord
  2
STANDARD
 70
0
  3

  4

 40
1.0
 41
0.1
 42
0.0625
 43
0.38
 44
0.125
 45
0.0
 46
0.0
 47
0.001
 48
0.001
140
0.08
141
0.09
142
0.0
143
25.4
144
1.0
145
0.0
146
1.0
147
0.09
 71
1.0
 72
0.0
 73
1
 74
1
 75
0
 76
0
 77
0
 78
4
 79
1
170
1
171
2
172
0
173
0
174
0
175
0
176
0
177
0
178
0
270
2
179
3
271
3
272
3
273
2
274
2
275
0
280
0
281
0
282
0
283
1
284
4
285
0
286
0
287
3
288
0
340
11
278
46
341
207
342
207
343
207
344
207
  0
ENDTAB
  0
ENDSEC
  0
SECTION
  2
BLOCKS
  0
BLOCK
  5
20
100
AcDbEntity
  8
0
100
AcDbBlockBegin
  2
*Model_Space
 70
0
 10
0.0
 20
0.0
 30
0.0
  3
*Model_Space
  1

  0
ENDBLK
  5
21
100
AcDbEntity
  8
0
100
AcDbBlockEnd
  0
BLOCK
  5
1C
100
AcDbEntity
  8
0
100
AcDbBlockBegin
  2
*Paper_Space
 70
0
 10
0.0
 20
0.0
 30
0.0
  3
*Paper_Space
  1

  0
ENDBLK
  5
1D
100
AcDbEntity
  8
0
100
AcDbBlockEnd
  0
BLOCK
  5
209
100
AcDbEntity
  8
0
100
AcDbBlockBegin
  2
_FILLED
 70
64
 10
0.0
 20
0.0
  3
_FILLED
  1

  0
SOLID
  5
20A
100
AcDbEntity
  8
0
  6
BYBLOCK
 62
0
100
AcDbTrace
 10
0.0
 20
0.0
 11
-1.0
 21
0.2
 12
-1.0
 22
-0.2
 13
-1.0
 23
-0.2
  0
ENDBLK
  5
20B
100
AcDbEntity
  8
0
  6
BYBLOCK
 62
0
100
AcDbBlockEnd
  0
ENDSEC
  0
SECTION
  2
ENTITIES
  0
LINE
  5
20C
100
AcDbEntity
  8
0
100
AcDbLine
 62
7
  6
CONTINUOUS
 10
7.6723183383
 20
8.8233318604
 11
7.6723183383
 21
9.0233318604
  0
LINE
  5
20D
100
AcDbEntity
  8
0
100
AcDbLine
 62
7
  6
CONTINUOUS
 10
7.7973183383
 20
8.8233318604
 11
7.7973183383
 21
8.7103318604
  0
LINE
  5
20E
100
AcDbEntity
  8
0
100
AcDbLine
 62
9
  6
CONTINUOUS
 10
8.0873183383
 20
8.7103318604
 11
8.0873183383
 21
9.0233318604
  0
LINE
  5
20F
100
AcDbEntity
  8
0
100
AcDbLine
 62
9
  6
CONTINUOUS
 10
8.1323183383
 20
9.0233318604
 11
8.1323183383
 21
8.7103318604
  0
LINE
  5
210
100
AcDbEntity
  8
0
100
AcDbLine
 62
7
  6
CONTINUOUS
 10
8.1723183383
 20
8.8233318604
 11
8.1723183383
 21
9.0233318604
  0
LINE
  5
211
100
AcDbEntity
  8
0
100
AcDbLine
 62
7
  6
CONTINUOUS
 10
8.2973183383
 20
8.8233318604
 11
8.2973183383
 21
8.7103318604
  0
LINE
  5
212
100
AcDbEntity
  8
0
100
AcDbLine
 62
9
  6
CONTINUOUS
 10
8.5873183383
 20
8.7103318604
 11
8.5873183383
 21
9.0233318604
  0
LINE
  5
213
100
AcDbEntity
  8
0
100
AcDbLine
 62
7
  6
CONTINUOUS
 10
11.5857812984
 20
5.9969788597
 11
11.7758500603
 21
6.0445773166
  0
LINE
  5
214
100
AcDbEntity
  8
0
100
AcDbLine
 62
7
  6
CONTINUOUS
 10
11.3998674538
 20
5.9646988005
 11
11.5859899889
 21
5.9970311033
  0
LINE
  5
215
100
AcDbEntity
  8
0
100
AcDbLine
 62
7
  6
CONTINUOUS
 10
11.2651664022
 20
5.9463768959
 11
11.3998685845
 21
5.9646989682
  0
LINE
  5
216
100
AcDbEntity
  8
0
100
AcDbLine
 62
9
  6
CONTINUOUS
 10
11.3952920185
 20
5.9643810812
 11
11.3998683752
 21
5.9646989263
  0
LINE
  5
217
100
AcDbEntity
  8
0
100
AcDbLine
 62
7
  6
CONTINUOUS
 10
11.0473183383
 20
5.9413318604
 11
11.2587014415
 21
5.9458021404
  0
LINE
  5
218
100
AcDbEntity
  8
0
100
AcDbLine
 62
7
  6
CONTINUOUS
 10
11.0473183383
 20
5.9413318604
 11
10.8359352351
 21
5.9458021404
  0
LINE
  5
219
100
AcDbEntity
  8
0
100
AcDbLine
 62
9
  6
CONTINUOUS
 10
10.6993456362
 20
5.9643809404
 11
10.6947701363
 21
5.9646986506
  0
LINE
  5
21A
100
AcDbEntity
  8
0
100
AcDbLine
 62
7
  6
CONTINUOUS
 10
10.6947701363
 20
5.9646986506
 11
10.8294702743
 21
5.9463768959
  0
LINE
  5
21B
100
AcDbEntity
  8
0
100
AcDbLine
 62
7
  6
CONTINUOUS
 10
10.5084307844
 20
5.9970686089
 11
10.6947692228
 21
5.9646988005
  0
LWPOLYLINE
  5
21C
100
AcDbEntity
  8
0
100
AcDbPolyline
 62
7
  6
CONTINUOUS
 90
3
 70
0
 10
10.13621241
 20
6.1046019047
 10
10.3187866163
 20
6.0445773166
 10
10.5086466877
 20
5.9970311033
  0
LINE
  5
21D
100
AcDbEntity
  8
0
100
AcDbLine
 62
7
  6
CONTINUOUS
 10
10.1323824285
 20
6.1060188429
 11
10.1362122619
 21
6.1046019761
  0
LINE
  5
21E
100
AcDbEntity
  8
0
100
AcDbLine
 62
7
  6
CONTINUOUS
 10
10.1005392544
 20
6.1210739826
 11
10.1007829621
 21
6.1209001519
  0
LINE
  5
21F
100
AcDbEntity
  8
0
100
AcDbLine
 62
9
  6
CONTINUOUS
 10
10.1621244697
 20
6.1039057424
 11
10.1441348759
 21
6.1039057424
  0
LINE
  5
220
100
AcDbEntity
  8
0
100
AcDbLine
 62
9
  6
CONTINUOUS
 10
11.9325122073
 20
6.1039057424
 11
11.9505018011
 21
6.1039057424
  0
LINE
  5
221
100
AcDbEntity
  8
0
100
AcDbLine
 62
9
  6
CONTINUOUS
 10
10.4808760841
 20
6.3424021782
 11
10.4766984258
 21
6.3440033188
  0
LINE
  5
222
100
AcDbEntity
  8
0
100
AcDbLine
 62
7
  6
CONTINUOUS
 10
10.4766984258
 20
6.3440033188
 11
10.476599157
 21
6.3440506166
  0
LINE
  5
223
100
AcDbEntity
  8
0
100
AcDbLine
 62
7
  6
CONTINUOUS
 10
10.4765995698
 20
6.3440514591
 11
10.4737208546
 21
6.3459395825
  0
LINE
  5
224
100
AcDbEntity
  8
0
100
AcDbLine
 62
7
  6
CONTINUOUS
 10
10.467880004
 20
6.4148620442
 11
10.4672332506
 21
6.4152867267
  0
LINE
  5
225
100
AcDbEntity
  8
0
100
AcDbLine
 62
7
  6
CONTINUOUS
 10
10.4685881617
 20
6.4148915455
 11
10.467818612
 21
6.4148642909
  0
LINE
  5
226
100
AcDbEntity
  8
0
100
AcDbLine
 62
7
  6
CONTINUOUS
 10
11.62586213
 20
6.4143923716
 11
11.6234042164
 21
6.4143692023
  0
LINE
  5
227
100
AcDbEntity
  8
0
100
AcDbLine
 62
9
  6
CONTINUOUS
 10
10.4470340043
 20
6.408667087
 11
10.4675367534
 21
6.4086732468
  0
LINE
  5
228
100
AcDbEntity
  8
0
100
AcDbLine
 62
7
  6
CONTINUOUS
 10
10.4712372111
 20
6.4143691017
 11
10.4711733362
 21
6.414369093
  0
LINE
  5
229
100
AcDbEntity
  8
0
100
AcDbLine
 62
9
  6
CONTINUOUS
 10
11.6476026721
 20
6.4086670883
 11
11.6270999232
 21
6.4086687858
  0
LINE
  5
22A
100
AcDbEntity
  8
0
100
AcDbLine
 62
7
  6
CONTINUOUS
 10
11.6234633433
 20
6.414369093
 11
11.6233982159
 21
6.414369102
  0
LINE
  5
22B
100
AcDbEntity
  8
0
100
AcDbLine
 62
7
  6
CONTINUOUS
 10
10.4712312593
 20
6.4143692148
 11
10.4687717215
 21
6.4143924068
  0
LINE
  5
22C
100
AcDbEntity
  8
0
100
AcDbLine
 62
7
  6
CONTINUOUS
 10
11.6267627683
 20
6.4148660472
 11
11.6260542034
 21
6.4148911316
  0
LWPOLYLINE
  5
22D
100
AcDbEntity
  8
0
100
AcDbPolyline
 62
7
  6
CONTINUOUS
 90
4
 70
0
 10
10.4690853972
 20
6.4142480138
 10
10.4690278006
 20
6.4142656222
 10
10.4676016857
 20
6.4149716911
 10
10.4671673792
 20
6.4153430509
  0
LINE
  5
22E
100
AcDbEntity
  8
0
100
AcDbLine
 62
7
  6
CONTINUOUS
 10
10.2579641481
 20
6.7197243625
 11
10.2578060375
 21
6.7197731247
  0
LINE
  5
22F
100
AcDbEntity
  8
0
100
AcDbLine
 62
7
  6
CONTINUOUS
 10
10.3386668692
 20
6.6359890596
 11
10.3385677498
 21
6.6360312901
  0
LWPOLYLINE
  5
230
100
AcDbEntity
  8
0
100
AcDbPolyline
 62
7
  6
CONTINUOUS
 90
4
 70
0
 10
10.4737208546
 20
6.3459395825
 10
10.4693690816
 20
6.3512955356
 10
10.4676183868
 20
6.3565315462
 10
10.4675368043
 20
6.3576758425
  0
LINE
  5
231
100
AcDbEntity
  8
0
100
AcDbLine
 62
7
  6
CONTINUOUS
 10
10.5148890127
 20
6.4236417902
 11
10.4685881617
 21
6.4148915455
  0
LINE
  5
232
100
AcDbEntity
  8
0
100
AcDbLine
 62
7
  6
CONTINUOUS
 10
11.8761298151
 20
6.7237534137
 11
11.8366725287
 21
6.7197243625
  0
LINE
  5
233
100
AcDbEntity
  8
0
100
AcDbLine
 62
7
  6
CONTINUOUS
 10
10.2003472312
 20
6.7237543419
 11
10.2186111809
 21
6.7237543419
  0
LINE
  5
234
100
AcDbEntity
  8
0
100
AcDbLine
 62
7
  6
CONTINUOUS
 10
11.8760255393
 20
6.7237543419
 11
11.8942894874
 21
6.7237543419
  0
LWPOLYLINE
  5
235
100
AcDbEntity
  8
0
100
AcDbPolyline
 62
7
  6
CONTINUOUS
 90
4
 70
0
 10
11.6260542034
 20
6.4148911316
 10
11.5797616703
 20
6.4236374479
 10
11.5353568889
 20
6.4428075532
 10
11.4934326283
 20
6.4720538037
  0
LWPOLYLINE
  5
236
100
AcDbEntity
  8
0
100
AcDbPolyline
 62
7
  6
CONTINUOUS
 90
7
 70
0
 10
10.4582424135
 20
6.483294809
 10
10.4452712282
 20
6.5220201068
 10
10.4271077475
 20
6.557289243
 10
10.4043146668
 20
6.5879180076
 10
10.3776782581
 20
6.6129180332
 10
10.3481819765
 20
6.6315771111
 10
10.3385674166
 20
6.6360312138
  0
LWPOLYLINE
  5
237
100
AcDbEntity
  8
0
100
AcDbPolyline
 62
7
  6
CONTINUOUS
 90
10
 70
0
 10
10.4539589584
 20
6.4960830061
 10
10.4531073161
 20
6.5010978971
 10
10.438839042
 20
6.5479147188
 10
10.4189238041
 20
6.5912743317
 10
10.3937928063
 20
6.6300220512
 10
10.3641630073
 20
6.6629821813
 10
10.3311392816
 20
6.6891252232
 10
10.2954955296
 20
6.7081245372
 10
10.258129538
 20
6.7197074742
 10
10.2185068612
 20
6.7237534137
  0
LINE
  5
238
100
AcDbEntity
  8
0
100
AcDbLine
 62
7
  6
CONTINUOUS
 10
10.465623817
 20
6.4427231854
 11
10.4656074538
 21
6.4430145595
  0
LWPOLYLINE
  5
239
100
AcDbEntity
  8
0
100
AcDbPolyline
 62
7
  6
CONTINUOUS
 90
3
 70
0
 10
10.4675362537
 20
6.4086732465
 10
10.4656659135
 20
6.4424918036
 10
10.458131617
 20
6.483727729
  0
LINE
  5
23A
100
AcDbEntity
  8
0
100
AcDbLine
 62
7
  6
CONTINUOUS
 10
10.3473183383
 20
8.7103318604
 11
10.3473183383
 21
8.6503318604
  0
LINE
  5
23B
100
AcDbEntity
  8
0
100
AcDbLine
 62
9
  6
CONTINUOUS
 10
10.4470342282
 20
6.3002248155
 11
10.4470340043
 21
6.408667087
  0
LINE
  5
23C
100
AcDbEntity
  8
0
100
AcDbLine
 62
7
  6
CONTINUOUS
 10
10.4675367535
 20
6.3576662495
 11
10.4675367535
 21
6.4086732471
  0
LINE
  5
23D
100
AcDbEntity
  8
0
100
AcDbLine
 62
7
  6
CONTINUOUS
 10
10.5553183383
 20
7.3453318604
 11
10.5553183383
 21
7.3823318604
  0
LWPOLYLINE
  5
23E
100
AcDbEntity
  8
0
100
AcDbPolyline
 62
7
  6
CONTINUOUS
 90
18
 70
0
 10
10.2002498537
 20
6.7237534165
 10
10.1604356861
 20
6.7195513099
 10
10.1212138448
 20
6.7068590704
 10
10.0839334583
 20
6.6857716557
 10
10.0495665258
 20
6.6564564811
 10
10.0193064315
 20
6.6194873773
 10
9.9943716359
 20
6.5760955112
 10
9.9756164326
 20
6.5278727795
 10
9.9634970891
 20
6.4764577839
 10
9.9581894739
 20
6.4232705009
 10
9.9597592652
 20
6.3697364383
 10
9.9681724705
 20
6.3172537992
 10
9.9833122565
 20
6.2671851485
 10
10.0048891532
 20
6.2210476964
 10
10.0322395753
 20
6.1805142128
 10
10.0644215837
 20
6.1469169768
 10
10.1002234489
 20
6.1212233044
 10
10.1323694417
 20
6.1060237696
  0
LINE
  5
23F
100
AcDbEntity
  8
0
100
AcDbLine
 62
9
  6
CONTINUOUS
 10
11.222343804
 20
6.8042923954
 11
10.8722928715
 21
6.8042923954
  0
LINE
  5
240
100
AcDbEntity
  8
0
100
AcDbLine
 62
9
  6
CONTINUOUS
 10
10.7363507424
 20
6.8042923954
 11
10.6923183383
 21
6.804292385
  0
LINE
  5
241
100
AcDbEntity
  8
0
100
AcDbLine
 62
9
  6
CONTINUOUS
 10
11.358285934
 20
6.8042923954
 11
11.4023183383
 21
6.804292385
  0
LINE
  5
242
100
AcDbEntity
  8
0
100
AcDbLine
 62
9
  6
CONTINUOUS
 10
10.7325508743
 20
6.886369093
 11
10.8831646268
 21
6.886369093
  0
LINE
  5
243
100
AcDbEntity
  8
0
100
AcDbLine
 62
9
  6
CONTINUOUS
 10
11.2114720578
 20
6.886369093
 11
11.3620858022
 21
6.886369093
  0
LINE
  5
244
100
AcDbEntity
  8
0
100
AcDbLine
 62
7
  6
CONTINUOUS
 10
10.6923183383
 20
6.9293318604
 11
11.4023183383
 21
6.9293318604
  0
LINE
  5
245
100
AcDbEntity
  8
0
100
AcDbLine
 62
7
  6
CONTINUOUS
 10
10.6968183383
 20
6.9603318604
 11
11.3978183383
 21
6.9603318604
  0
LINE
  5
246
100
AcDbEntity
  8
0
100
AcDbLine
 62
7
  6
CONTINUOUS
 10
11.9342008732
 20
6.7195513409
 11
11.8943119746
 21
6.723754331
  0
LINE
  5
247
100
AcDbEntity
  8
0
100
AcDbLine
 62
7
  6
CONTINUOUS
 10
10.6538183383
 20
7.2473318604
 11
10.6538183383
 21
7.2653318604
  0
LINE
  5
248
100
AcDbEntity
  8
0
100
AcDbLine
 62
7
  6
CONTINUOUS
 10
10.6538183383
 20
7.4623318604
 11
10.6538183383
 21
7.4813318604
  0
LINE
  5
249
100
AcDbEntity
  8
0
100
AcDbLine
 62
7
  6
CONTINUOUS
 10
10.6923183383
 20
6.804292385
 11
10.6923183383
 21
6.9293318604
  0
LINE
  5
24A
100
AcDbEntity
  8
0
100
AcDbLine
 62
9
  6
CONTINUOUS
 10
10.7325508743
 20
6.804292385
 11
10.7325508743
 21
6.886369093
  0
LINE
  5
24B
100
AcDbEntity
  8
0
100
AcDbLine
 62
7
  6
CONTINUOUS
 10
10.7943183383
 20
6.9603318604
 11
10.7943183383
 21
6.9293318604
  0
LINE
  5
24C
100
AcDbEntity
  8
0
100
AcDbLine
 62
9
  6
CONTINUOUS
 10
10.8224583819
 20
6.3862876811
 11
10.8224583819
 21
6.1108303438
  0
LINE
  5
24D
100
AcDbEntity
  8
0
100
AcDbLine
 62
7
  6
CONTINUOUS
 10
10.6921726979
 20
6.7925679122
 11
10.6923183383
 21
6.804292385
  0
LINE
  5
24E
100
AcDbEntity
  8
0
100
AcDbLine
 62
7
  6
CONTINUOUS
 10
10.6921566961
 20
6.7916258358
 11
10.6920511472
 21
6.7839194691
  0
LINE
  5
24F
100
AcDbEntity
  8
0
100
AcDbLine
 62
7
  6
CONTINUOUS
 10
10.6920511472
 20
6.7839194691
 11
10.6920261558
 21
6.7824891692
  0
LINE
  5
250
100
AcDbEntity
  8
0
100
AcDbLine
 62
7
  6
CONTINUOUS
 10
10.6921735845
 20
6.7925685781
 11
10.6921574092
 21
6.7916887987
  0
LINE
  5
251
100
AcDbEntity
  8
0
100
AcDbLine
 62
9
  6
CONTINUOUS
 10
10.7363502176
 20
6.8042923954
 11
10.7340330446
 21
6.7427653477
  0
LWPOLYLINE
  5
252
100
AcDbEntity
  8
0
100
AcDbPolyline
 62
7
  6
CONTINUOUS
 90
4
 70
0
 10
10.6900076964
 20
6.7316340603
 10
10.680228411
 20
6.6406195173
 10
10.6627039774
 20
6.5607200814
 10
10.6489939813
 20
6.524038295
  0
LWPOLYLINE
  5
253
100
AcDbEntity
  8
0
100
AcDbPolyline
 62
7
  6
CONTINUOUS
 90
6
 70
0
 10
10.7340284055
 20
6.7427234262
 10
10.7316202067
 20
6.7232450695
 10
10.7197685619
 20
6.6673416212
 10
10.7002767759
 20
6.6114235624
 10
10.6732381193
 20
6.558185852
 10
10.6396692412
 20
6.5109045182
  0
LINE
  5
254
100
AcDbEntity
  8
0
100
AcDbLine
 62
7
  6
CONTINUOUS
 10
10.6802285581
 20
6.6406208858
 11
10.679672256
 21
6.6371644194
  0
LINE
  5
255
100
AcDbEntity
  8
0
100
AcDbLine
 62
7
  6
CONTINUOUS
 10
10.679672256
 20
6.6371644194
 11
10.6790815472
 21
6.6335968706
  0
LINE
  5
256
100
AcDbEntity
  8
0
100
AcDbLine
 62
7
  6
CONTINUOUS
 10
10.6790815472
 20
6.6335968706
 11
10.6784713669
 21
6.6300152629
  0
LINE
  5
257
100
AcDbEntity
  8
0
100
AcDbLine
 62
7
  6
CONTINUOUS
 10
10.6784713669
 20
6.6300152629
 11
10.6778413557
 21
6.6264206266
  0
LINE
  5
258
100
AcDbEntity
  8
0
100
AcDbLine
 62
9
  6
CONTINUOUS
 10
10.6857688183
 20
7.2473318604
 11
10.6538183383
 21
7.2473318604
  0
LINE
  5
259
100
AcDbEntity
  8
0
100
AcDbLine
 62
9
  6
CONTINUOUS
 10
11.4088678583
 20
7.2473318604
 11
11.4408183383
 21
7.2473318604
  0
LINE
  5
25A
100
AcDbEntity
  8
0
100
AcDbLine
 62
7
  6
CONTINUOUS
 10
10.685075817
 20
7.2653318604
 11
10.6353183383
 21
7.2653318604
  0
LINE
  5
25B
100
AcDbEntity
  8
0
100
AcDbLine
 62
7
  6
CONTINUOUS
 10
11.4095608595
 20
7.2653318604
 11
11.4593183383
 21
7.2653318604
  0
LINE
  5
25C
100
AcDbEntity
  8
0
100
AcDbLine
 62
7
  6
CONTINUOUS
 10
11.9736446931
 20
6.7067620926
 11
11.9342784217
 21
6.7195341962
  0
LINE
  5
25D
100
AcDbEntity
  8
0
100
AcDbLine
 62
7
  6
CONTINUOUS
 10
12.0110184848
 20
6.6855509466
 11
11.9734219153
 21
6.7068594738
  0
LWPOLYLINE
  5
25E
100
AcDbEntity
  8
0
100
AcDbPolyline
 62
7
  6
CONTINUOUS
 90
7
 70
0
 10
11.4934326283
 20
6.4720538037
 10
11.4549942105
 20
6.5108725578
 10
11.4214201976
 20
6.5581499133
 10
11.3943727141
 20
6.6113936191
 10
11.3748748167
 20
6.6673167677
 10
11.3630189701
 20
6.7232282902
 10
11.3606086819
 20
6.7427173531
  0
LINE
  5
25F
100
AcDbEntity
  8
0
100
AcDbLine
 62
9
  6
CONTINUOUS
 10
10.8831646268
 20
6.886369093
 11
10.8831646187
 21
6.804292385
  0
LINE
  5
260
100
AcDbEntity
  8
0
100
AcDbLine
 62
7
  6
CONTINUOUS
 10
10.6778413557
 20
6.6264206266
 11
10.6771911658
 21
6.6228140666
  0
LINE
  5
261
100
AcDbEntity
  8
0
100
AcDbLine
 62
7
  6
CONTINUOUS
 10
10.6771911658
 20
6.6228140666
 11
10.6765204363
 21
6.6191966675
  0
LINE
  5
262
100
AcDbEntity
  8
0
100
AcDbLine
 62
7
  6
CONTINUOUS
 10
10.6765204363
 20
6.6191966675
 11
10.6758288033
 21
6.6155694822
  0
LINE
  5
263
100
AcDbEntity
  8
0
100
AcDbLine
 62
7
  6
CONTINUOUS
 10
10.6758288033
 20
6.6155694822
 11
10.6751159084
 21
6.6119335669
  0
LINE
  5
264
100
AcDbEntity
  8
0
100
AcDbLine
 62
7
  6
CONTINUOUS
 10
10.6751159084
 20
6.6119335669
 11
10.6743814073
 21
6.6082900401
  0
LINE
  5
265
100
AcDbEntity
  8
0
100
AcDbLine
 62
7
  6
CONTINUOUS
 10
10.6743814073
 20
6.6082900401
 11
10.6736249019
 21
6.6046398134
  0
LINE
  5
266
100
AcDbEntity
  8
0
100
AcDbLine
 62
7
  6
CONTINUOUS
 10
10.6736249019
 20
6.6046398134
 11
10.672845685
 21
6.6009823824
  0
LINE
  5
267
100
AcDbEntity
  8
0
100
AcDbLine
 62
7
  6
CONTINUOUS
 10
10.672845685
 20
6.6009823824
 11
10.6720429149
 21
6.5973167777
  0
LINE
  5
268
100
AcDbEntity
  8
0
100
AcDbLine
 62
7
  6
CONTINUOUS
 10
10.6720429149
 20
6.5973167777
 11
10.6712157142
 21
6.5936420723
  0
LINE
  5
269
100
AcDbEntity
  8
0
100
AcDbLine
 62
7
  6
CONTINUOUS
 10
10.6712157142
 20
6.5936420723
 11
10.670363177
 21
6.5899574762
  0
LINE
  5
26A
100
AcDbEntity
  8
0
100
AcDbLine
 62
7
  6
CONTINUOUS
 10
10.670363177
 20
6.5899574762
 11
10.6694843226
 21
6.5862621516
  0
LINE
  5
26B
100
AcDbEntity
  8
0
100
AcDbLine
 62
7
  6
CONTINUOUS
 10
10.6694843226
 20
6.5862621516
 11
10.6685781209
 21
6.5825552706
  0
LINE
  5
26C
100
AcDbEntity
  8
0
100
AcDbLine
 62
7
  6
CONTINUOUS
 10
10.6685781209
 20
6.5825552706
 11
10.6676434961
 21
6.5788360408
  0
LINE
  5
26D
100
AcDbEntity
  8
0
100
AcDbLine
 62
7
  6
CONTINUOUS
 10
10.6676434961
 20
6.5788360408
 11
10.6670040723
 21
6.5763493297
  0
LINE
  5
26E
100
AcDbEntity
  8
0
100
AcDbLine
 62
7
  6
CONTINUOUS
 10
10.6670040723
 20
6.5763493297
 11
10.666351187
 21
6.5738566538
  0
LINE
  5
26F
100
AcDbEntity
  8
0
100
AcDbLine
 62
7
  6
CONTINUOUS
 10
10.666351187
 20
6.5738566538
 11
10.6656844797
 21
6.5713578239
  0
LINE
  5
270
100
AcDbEntity
  8
0
100
AcDbLine
 62
7
  6
CONTINUOUS
 10
10.6656844797
 20
6.5713578239
 11
10.6650035769
 21
6.5688526494
  0
LINE
  5
271
100
AcDbEntity
  8
0
100
AcDbLine
 62
7
  6
CONTINUOUS
 10
10.6650035769
 20
6.5688526494
 11
10.6643080942
 21
6.5663409486
  0
LINE
  5
272
100
AcDbEntity
  8
0
100
AcDbLine
 62
7
  6
CONTINUOUS
 10
10.6643080942
 20
6.5663409486
 11
10.6635976363
 21
6.5638225485
  0
LWPOLYLINE
  5
273
100
AcDbEntity
  8
0
100
AcDbPolyline
 62
7
  6
CONTINUOUS
 90
3
 70
0
 10
10.6635976363
 20
6.5638225485
 10
10.6628717969
 20
6.5612972855
 10
10.6627052965
 20
6.5607260955
  0
LINE
  5
274
100
AcDbEntity
  8
0
100
AcDbLine
 62
9
  6
CONTINUOUS
 10
10.6819958115
 20
7.3453318604
 11
10.5553183383
 21
7.3453318604
  0
LINE
  5
275
100
AcDbEntity
  8
0
100
AcDbLine
 62
9
  6
CONTINUOUS
 10
11.4126408651
 20
7.3453318604
 11
11.5393183383
 21
7.3453318604
  0
LINE
  5
276
100
AcDbEntity
  8
0
100
AcDbLine
 62
9
  6
CONTINUOUS
 10
10.6803137318
 20
7.3823318604
 11
10.5553183383
 21
7.3823318604
  0
LINE
  5
277
100
AcDbEntity
  8
0
100
AcDbLine
 62
9
  6
CONTINUOUS
 10
11.4143229448
 20
7.3823318604
 11
11.5393183383
 21
7.3823318604
  0
LINE
  5
278
100
AcDbEntity
  8
0
100
AcDbLine
 62
7
  6
CONTINUOUS
 10
10.6710370291
 20
7.4623318604
 11
10.6353183383
 21
7.4623318604
  0
LINE
  5
279
100
AcDbEntity
  8
0
100
AcDbLine
 62
7
  6
CONTINUOUS
 10
11.4235996475
 20
7.4623318604
 11
11.4593183383
 21
7.4623318604
  0
LINE
  5
27A
100
AcDbEntity
  8
0
100
AcDbLine
 62
9
  6
CONTINUOUS
 10
10.6688338122
 20
7.4813318604
 11
10.6538183383
 21
7.4813318604
  0
LINE
  5
27B
100
AcDbEntity
  8
0
100
AcDbLine
 62
9
  6
CONTINUOUS
 10
11.4258028644
 20
7.4813318604
 11
11.4408183383
 21
7.4813318604
  0
LINE
  5
27C
100
AcDbEntity
  8
0
100
AcDbLine
 62
7
  6
CONTINUOUS
 10
12.0453704535
 20
6.6561479609
 11
12.010701703
 21
6.685772713
  0
LINE
  5
27D
100
AcDbEntity
  8
0
100
AcDbLine
 62
7
  6
CONTINUOUS
 10
11.4087731262
 20
6.6829037925
 11
11.408306852
 21
6.6872564174
  0
LWPOLYLINE
  5
27E
100
AcDbEntity
  8
0
100
AcDbPolyline
 62
7
  6
CONTINUOUS
 90
3
 70
0
 10
11.408306852
 20
6.6872564174
 10
11.4078643864
 20
6.6915686028
 10
11.4077573803
 20
6.6926404158
  0
LINE
  5
27F
100
AcDbEntity
  8
0
100
AcDbLine
 62
9
  6
CONTINUOUS
 10
11.2114720578
 20
6.804292385
 11
11.2114720578
 21
6.886369093
  0
LINE
  5
280
100
AcDbEntity
  8
0
100
AcDbLine
 62
9
  6
CONTINUOUS
 10
11.2721782947
 20
6.386287681
 11
11.2721782947
 21
6.1108303437
  0
LINE
  5
281
100
AcDbEntity
  8
0
100
AcDbLine
 62
7
  6
CONTINUOUS
 10
11.3003183383
 20
6.9603318604
 11
11.3003183383
 21
6.9293318604
  0
LINE
  5
282
100
AcDbEntity
  8
0
100
AcDbLine
 62
7
  6
CONTINUOUS
 10
12.0755377605
 20
6.619183247
 11
12.0450685655
 21
6.6564580969
  0
LINE
  5
283
100
AcDbEntity
  8
0
100
AcDbLine
 62
7
  6
CONTINUOUS
 10
11.4426283294
 20
6.5282856134
 11
11.4418400654
 21
6.5304215921
  0
LINE
  5
284
100
AcDbEntity
  8
0
100
AcDbLine
 62
7
  6
CONTINUOUS
 10
11.4418400654
 20
6.5304215921
 11
11.4408931264
 21
6.5330363532
  0
LINE
  5
285
100
AcDbEntity
  8
0
100
AcDbLine
 62
7
  6
CONTINUOUS
 10
11.4408931264
 20
6.5330363532
 11
11.4399675248
 21
6.5356434442
  0
LINE
  5
286
100
AcDbEntity
  8
0
100
AcDbLine
 62
7
  6
CONTINUOUS
 10
11.4399675248
 20
6.5356434442
 11
11.4390626665
 21
6.5382428716
  0
LINE
  5
287
100
AcDbEntity
  8
0
100
AcDbLine
 62
7
  6
CONTINUOUS
 10
11.4390626665
 20
6.5382428716
 11
11.4381779916
 21
6.5408346106
  0
LINE
  5
288
100
AcDbEntity
  8
0
100
AcDbLine
 62
7
  6
CONTINUOUS
 10
11.4381779916
 20
6.5408346106
 11
11.4373129671
 21
6.5434186447
  0
LINE
  5
289
100
AcDbEntity
  8
0
100
AcDbLine
 62
7
  6
CONTINUOUS
 10
11.4373129671
 20
6.5434186447
 11
11.4364670576
 21
6.5459950291
  0
LINE
  5
28A
100
AcDbEntity
  8
0
100
AcDbLine
 62
7
  6
CONTINUOUS
 10
11.4364670576
 20
6.5459950291
 11
11.4356397427
 21
6.5485638319
  0
LINE
  5
28B
100
AcDbEntity
  8
0
100
AcDbLine
 62
7
  6
CONTINUOUS
 10
11.4356397427
 20
6.5485638319
 11
11.4348305166
 21
6.5511251332
  0
LINE
  5
28C
100
AcDbEntity
  8
0
100
AcDbLine
 62
7
  6
CONTINUOUS
 10
11.4348305166
 20
6.5511251332
 11
11.4340388871
 21
6.5536790252
  0
LINE
  5
28D
100
AcDbEntity
  8
0
100
AcDbLine
 62
7
  6
CONTINUOUS
 10
11.4340388871
 20
6.5536790252
 11
11.4332643762
 21
6.5562256113
  0
LINE
  5
28E
100
AcDbEntity
  8
0
100
AcDbLine
 62
7
  6
CONTINUOUS
 10
11.4332643762
 20
6.5562256113
 11
11.4325065188
 21
6.5587650061
  0
LINE
  5
28F
100
AcDbEntity
  8
0
100
AcDbLine
 62
7
  6
CONTINUOUS
 10
11.4325065188
 20
6.5587650061
 11
11.4317648797
 21
6.5612972856
  0
LINE
  5
290
100
AcDbEntity
  8
0
100
AcDbLine
 62
7
  6
CONTINUOUS
 10
11.4317648797
 20
6.5612972856
 11
11.4310390402
 21
6.5638225485
  0
LINE
  5
291
100
AcDbEntity
  8
0
100
AcDbLine
 62
7
  6
CONTINUOUS
 10
11.4310390402
 20
6.5638225485
 11
11.4303285824
 21
6.5663409486
  0
LINE
  5
292
100
AcDbEntity
  8
0
100
AcDbLine
 62
7
  6
CONTINUOUS
 10
11.4303285824
 20
6.5663409486
 11
11.4296330997
 21
6.5688526495
  0
LINE
  5
293
100
AcDbEntity
  8
0
100
AcDbLine
 62
7
  6
CONTINUOUS
 10
11.4296330997
 20
6.5688526495
 11
11.4289521968
 21
6.5713578239
  0
LINE
  5
294
100
AcDbEntity
  8
0
100
AcDbLine
 62
7
  6
CONTINUOUS
 10
11.4289521968
 20
6.5713578239
 11
11.4282854896
 21
6.5738566538
  0
LINE
  5
295
100
AcDbEntity
  8
0
100
AcDbLine
 62
7
  6
CONTINUOUS
 10
11.4282854896
 20
6.5738566538
 11
11.4276326043
 21
6.5763493297
  0
LINE
  5
296
100
AcDbEntity
  8
0
100
AcDbLine
 62
7
  6
CONTINUOUS
 10
11.4276326043
 20
6.5763493297
 11
11.4269931805
 21
6.5788360408
  0
LINE
  5
297
100
AcDbEntity
  8
0
100
AcDbLine
 62
7
  6
CONTINUOUS
 10
11.4269931805
 20
6.5788360408
 11
11.4260585557
 21
6.5825552707
  0
LINE
  5
298
100
AcDbEntity
  8
0
100
AcDbLine
 62
7
  6
CONTINUOUS
 10
11.4260585557
 20
6.5825552707
 11
11.4251523539
 21
6.5862621516
  0
LINE
  5
299
100
AcDbEntity
  8
0
100
AcDbLine
 62
7
  6
CONTINUOUS
 10
11.4251523539
 20
6.5862621516
 11
11.4242734996
 21
6.5899574762
  0
LINE
  5
29A
100
AcDbEntity
  8
0
100
AcDbLine
 62
7
  6
CONTINUOUS
 10
11.4242734996
 20
6.5899574762
 11
11.4234209624
 21
6.5936420723
  0
LINE
  5
29B
100
AcDbEntity
  8
0
100
AcDbLine
 62
7
  6
CONTINUOUS
 10
11.4234209624
 20
6.5936420723
 11
11.4225937616
 21
6.5973167777
  0
LINE
  5
29C
100
AcDbEntity
  8
0
100
AcDbLine
 62
7
  6
CONTINUOUS
 10
11.4225937616
 20
6.5973167777
 11
11.4217909915
 21
6.6009823825
  0
LINE
  5
29D
100
AcDbEntity
  8
0
100
AcDbLine
 62
7
  6
CONTINUOUS
 10
11.4217909915
 20
6.6009823825
 11
11.4210117747
 21
6.6046398134
  0
LINE
  5
29E
100
AcDbEntity
  8
0
100
AcDbLine
 62
7
  6
CONTINUOUS
 10
11.4210117747
 20
6.6046398134
 11
11.4202552693
 21
6.6082900401
  0
LINE
  5
29F
100
AcDbEntity
  8
0
100
AcDbLine
 62
7
  6
CONTINUOUS
 10
11.4202552693
 20
6.6082900401
 11
11.4195207682
 21
6.611933567
  0
LINE
  5
2A0
100
AcDbEntity
  8
0
100
AcDbLine
 62
7
  6
CONTINUOUS
 10
11.4195207682
 20
6.611933567
 11
11.4188078732
 21
6.6155694822
  0
LINE
  5
2A1
100
AcDbEntity
  8
0
100
AcDbLine
 62
7
  6
CONTINUOUS
 10
11.4188078732
 20
6.6155694822
 11
11.4181162402
 21
6.6191966676
  0
LINE
  5
2A2
100
AcDbEntity
  8
0
100
AcDbLine
 62
7
  6
CONTINUOUS
 10
11.4181162402
 20
6.6191966676
 11
11.4174455108
 21
6.6228140667
  0
LINE
  5
2A3
100
AcDbEntity
  8
0
100
AcDbLine
 62
7
  6
CONTINUOUS
 10
11.4174455108
 20
6.6228140667
 11
11.4167953208
 21
6.6264206267
  0
LINE
  5
2A4
100
AcDbEntity
  8
0
100
AcDbLine
 62
7
  6
CONTINUOUS
 10
11.4167953208
 20
6.6264206267
 11
11.4161653097
 21
6.6300152629
  0
LINE
  5
2A5
100
AcDbEntity
  8
0
100
AcDbLine
 62
7
  6
CONTINUOUS
 10
11.4161653097
 20
6.6300152629
 11
11.4155551294
 21
6.6335968706
  0
LINE
  5
2A6
100
AcDbEntity
  8
0
100
AcDbLine
 62
7
  6
CONTINUOUS
 10
11.4155551294
 20
6.6335968706
 11
11.4149644206
 21
6.6371644195
  0
LINE
  5
2A7
100
AcDbEntity
  8
0
100
AcDbLine
 62
7
  6
CONTINUOUS
 10
11.4149644206
 20
6.6371644195
 11
11.4143928198
 21
6.640716885
  0
LINE
  5
2A8
100
AcDbEntity
  8
0
100
AcDbLine
 62
7
  6
CONTINUOUS
 10
11.4143928198
 20
6.640716885
 11
11.4138399665
 21
6.644253217
  0
LINE
  5
2A9
100
AcDbEntity
  8
0
100
AcDbLine
 62
7
  6
CONTINUOUS
 10
11.4138399665
 20
6.644253217
 11
11.4131313858
 21
6.6489414001
  0
LINE
  5
2AA
100
AcDbEntity
  8
0
100
AcDbLine
 62
7
  6
CONTINUOUS
 10
11.4131313858
 20
6.6489414001
 11
11.4124546636
 21
6.6535966355
  0
LINE
  5
2AB
100
AcDbEntity
  8
0
100
AcDbLine
 62
7
  6
CONTINUOUS
 10
11.4124546636
 20
6.6535966355
 11
11.4118089518
 21
6.6582165278
  0
LINE
  5
2AC
100
AcDbEntity
  8
0
100
AcDbLine
 62
7
  6
CONTINUOUS
 10
11.4118089518
 20
6.6582165278
 11
11.4111934217
 21
6.6627986609
  0
LINE
  5
2AD
100
AcDbEntity
  8
0
100
AcDbLine
 62
7
  6
CONTINUOUS
 10
11.4111934217
 20
6.6627986609
 11
11.4106072359
 21
6.6673407228
  0
LINE
  5
2AE
100
AcDbEntity
  8
0
100
AcDbLine
 62
7
  6
CONTINUOUS
 10
11.4106072359
 20
6.6673407228
 11
11.41004955
 21
6.6718404856
  0
LINE
  5
2AF
100
AcDbEntity
  8
0
100
AcDbLine
 62
7
  6
CONTINUOUS
 10
11.41004955
 20
6.6718404856
 11
11.4095193438
 21
6.6762973881
  0
LINE
  5
2B0
100
AcDbEntity
  8
0
100
AcDbLine
 62
7
  6
CONTINUOUS
 10
11.4095193438
 20
6.6762973881
 11
11.4090154973
 21
6.6807120775
  0
LINE
  5
2B1
100
AcDbEntity
  8
0
100
AcDbLine
 62
7
  6
CONTINUOUS
 10
11.4090154973
 20
6.6807120775
 11
11.4087731262
 21
6.6829037925
  0
LINE
  5
2B2
100
AcDbEntity
  8
0
100
AcDbLine
 62
7
  6
CONTINUOUS
 10
11.4077573803
 20
6.6926404158
 11
11.4072433117
 21
6.6979627042
  0
LINE
  5
2B3
100
AcDbEntity
  8
0
100
AcDbLine
 62
7
  6
CONTINUOUS
 10
11.4072433117
 20
6.6979627042
 11
11.4067629551
 21
6.7032248709
  0
LINE
  5
2B4
100
AcDbEntity
  8
0
100
AcDbLine
 62
7
  6
CONTINUOUS
 10
11.4067629551
 20
6.7032248709
 11
11.4063147333
 21
6.7084285214
  0
LINE
  5
2B5
100
AcDbEntity
  8
0
100
AcDbLine
 62
7
  6
CONTINUOUS
 10
11.4063147333
 20
6.7084285214
 11
11.4058971695
 21
6.7135753238
  0
LINE
  5
2B6
100
AcDbEntity
  8
0
100
AcDbLine
 62
7
  6
CONTINUOUS
 10
11.4058971695
 20
6.7135753238
 11
11.4055088876
 21
6.7186669588
  0
LINE
  5
2B7
100
AcDbEntity
  8
0
100
AcDbLine
 62
7
  6
CONTINUOUS
 10
11.4055088876
 20
6.7186669588
 11
11.4051486029
 21
6.7237051185
  0
LINE
  5
2B8
100
AcDbEntity
  8
0
100
AcDbLine
 62
7
  6
CONTINUOUS
 10
11.4051486029
 20
6.7237051185
 11
11.4048151194
 21
6.7286914879
  0
LINE
  5
2B9
100
AcDbEntity
  8
0
100
AcDbLine
 62
7
  6
CONTINUOUS
 10
11.4048151194
 20
6.7286914879
 11
11.4045073316
 21
6.733627593
  0
LINE
  5
2BA
100
AcDbEntity
  8
0
100
AcDbLine
 62
7
  6
CONTINUOUS
 10
11.4045073316
 20
6.733627593
 11
11.4041707839
 21
6.7394807626
  0
LINE
  5
2BB
100
AcDbEntity
  8
0
100
AcDbLine
 62
7
  6
CONTINUOUS
 10
11.4041707839
 20
6.7394807626
 11
11.4038690856
 21
6.7452454422
  0
LINE
  5
2BC
100
AcDbEntity
  8
0
100
AcDbLine
 62
7
  6
CONTINUOUS
 10
11.4038690856
 20
6.7452454422
 11
11.4036011283
 21
6.7509081783
  0
LINE
  5
2BD
100
AcDbEntity
  8
0
100
AcDbLine
 62
7
  6
CONTINUOUS
 10
11.4036011283
 20
6.7509081783
 11
11.4033656573
 21
6.7564548751
  0
LINE
  5
2BE
100
AcDbEntity
  8
0
100
AcDbLine
 62
9
  6
CONTINUOUS
 10
11.3606057122
 20
6.7427445074
 11
11.3582864555
 21
6.8042923955
  0
LINE
  5
2BF
100
AcDbEntity
  8
0
100
AcDbLine
 62
7
  6
CONTINUOUS
 10
11.4033656573
 20
6.7564548751
 11
11.4031612818
 21
6.7618703977
  0
LINE
  5
2C0
100
AcDbEntity
  8
0
100
AcDbLine
 62
7
  6
CONTINUOUS
 10
11.4031612818
 20
6.7618703977
 11
11.4029864875
 21
6.7671378247
  0
LINE
  5
2C1
100
AcDbEntity
  8
0
100
AcDbLine
 62
7
  6
CONTINUOUS
 10
11.4029864875
 20
6.7671378247
 11
11.4028177787
 21
6.7730687547
  0
LINE
  5
2C2
100
AcDbEntity
  8
0
100
AcDbLine
 62
7
  6
CONTINUOUS
 10
11.4028177787
 20
6.7730687547
 11
11.4026846828
 21
6.7787131549
  0
LINE
  5
2C3
100
AcDbEntity
  8
0
100
AcDbLine
 62
7
  6
CONTINUOUS
 10
11.4026846828
 20
6.7787131549
 11
11.4025740052
 21
6.7846140742
  0
LINE
  5
2C4
100
AcDbEntity
  8
0
100
AcDbLine
 62
7
  6
CONTINUOUS
 10
11.4024639786
 20
6.7925679121
 11
11.4023183383
 21
6.804292385
  0
LINE
  5
2C5
100
AcDbEntity
  8
0
100
AcDbLine
 62
7
  6
CONTINUOUS
 10
11.4025740052
 20
6.7846140742
 11
11.4024992901
 21
6.7899134063
  0
LINE
  5
2C6
100
AcDbEntity
  8
0
100
AcDbLine
 62
7
  6
CONTINUOUS
 10
11.4024992901
 20
6.7899134063
 11
11.402480988
 21
6.7915387889
  0
LINE
  5
2C7
100
AcDbEntity
  8
0
100
AcDbLine
 62
9
  6
CONTINUOUS
 10
11.3620858022
 20
6.886369093
 11
11.3620858022
 21
6.804292385
  0
LINE
  5
2C8
100
AcDbEntity
  8
0
100
AcDbLine
 62
7
  6
CONTINUOUS
 10
11.4023183383
 20
6.804292385
 11
11.4023183383
 21
6.9293318604
  0
LINE
  5
2C9
100
AcDbEntity
  8
0
100
AcDbLine
 62
7
  6
CONTINUOUS
 10
11.4408183383
 20
7.2473318604
 11
11.4408183383
 21
7.2653318604
  0
LINE
  5
2CA
100
AcDbEntity
  8
0
100
AcDbLine
 62
7
  6
CONTINUOUS
 10
11.4408183383
 20
7.4623318604
 11
11.4408183383
 21
7.4813318604
  0
LINE
  5
2CB
100
AcDbEntity
  8
0
100
AcDbLine
 62
7
  6
CONTINUOUS
 10
11.5393183383
 20
7.3453318604
 11
11.5393183383
 21
7.3823318604
  0
LWPOLYLINE
  5
2CC
100
AcDbEntity
  8
0
100
AcDbPolyline
 62
7
  6
CONTINUOUS
 90
4
 70
0
 10
10.6396692412
 20
6.5109045182
 10
10.6012307332
 20
6.4720763653
 10
10.5593015387
 20
6.4428197513
 10
10.5148890127
 20
6.4236417902
  0
LINE
  5
2CD
100
AcDbEntity
  8
0
100
AcDbLine
 62
7
  6
CONTINUOUS
 10
12.1003774212
 20
6.5758573243
 11
12.0753290093
 21
6.6194891796
  0
LINE
  5
2CE
100
AcDbEntity
  8
0
100
AcDbLine
 62
7
  6
CONTINUOUS
 10
11.6270999231
 20
6.408668786
 11
11.6270999231
 21
6.3576690594
  0
LINE
  5
2CF
100
AcDbEntity
  8
0
100
AcDbLine
 62
9
  6
CONTINUOUS
 10
11.6476026721
 20
6.4086670883
 11
11.6476026066
 21
6.3002250298
  0
LINE
  5
2D0
100
AcDbEntity
  8
0
100
AcDbLine
 62
7
  6
CONTINUOUS
 10
11.7473183383
 20
8.7103318604
 11
11.7473183383
 21
8.6503318604
  0
LINE
  5
2D1
100
AcDbEntity
  8
0
100
AcDbLine
 62
7
  6
CONTINUOUS
 10
11.6290292228
 20
6.4430145595
 11
11.6271004103
 21
6.4086687859
  0
LWPOLYLINE
  5
2D2
100
AcDbEntity
  8
0
100
AcDbPolyline
 62
7
  6
CONTINUOUS
 90
4
 70
0
 10
11.6270999043
 20
6.357674216
 10
11.6270137779
 20
6.356496531
 10
11.6252070143
 20
6.3511832717
 10
11.6208202703
 20
6.3458609246
  0
LINE
  5
2D3
100
AcDbEntity
  8
0
100
AcDbLine
 62
7
  6
CONTINUOUS
 10
11.6290128596
 20
6.4427231854
 11
11.6289707631
 21
6.4424918036
  0
LINE
  5
2D4
100
AcDbEntity
  8
0
100
AcDbLine
 62
7
  6
CONTINUOUS
 10
12.1190732554
 20
6.5276999534
 11
12.1002642187
 21
6.576097249
  0
LINE
  5
2D5
100
AcDbEntity
  8
0
100
AcDbLine
 62
7
  6
CONTINUOUS
 10
12.1364546506
 20
6.4230720454
 11
12.1311391906
 21
6.4764602049
  0
LWPOLYLINE
  5
2D6
100
AcDbEntity
  8
0
100
AcDbPolyline
 62
7
  6
CONTINUOUS
 90
9
 70
0
 10
11.8368306393
 20
6.7197731247
 10
11.7993712168
 20
6.708220428
 10
11.7636250806
 20
6.6892097269
 10
11.7305459608
 20
6.6630507063
 10
11.7008914647
 20
6.6300837155
 10
11.6756229477
 20
6.591109725
 10
11.6556764119
 20
6.547594762
 10
11.6414345351
 20
6.5006944626
 10
11.6406491042
 20
6.4960384316
  0
LINE
  5
2D7
100
AcDbEntity
  8
0
100
AcDbLine
 62
7
  6
CONTINUOUS
 10
12.1311654104
 20
6.4763026789
 11
12.1190196805
 21
6.5278746241
  0
LINE
  5
2D8
100
AcDbEntity
  8
0
100
AcDbLine
 62
7
  6
CONTINUOUS
 10
12.1348497093
 20
6.3694347114
 11
12.1364471003
 21
6.4232735393
  0
LINE
  5
2D9
100
AcDbEntity
  8
0
100
AcDbLine
 62
7
  6
CONTINUOUS
 10
12.1263666352
 20
6.3168264342
 11
12.1348777125
 21
6.3697396339
  0
LINE
  5
2DA
100
AcDbEntity
  8
0
100
AcDbLine
 62
7
  6
CONTINUOUS
 10
11.627474693
 20
6.4153335235
 11
11.6262632362
 21
6.4145380358
  0
LINE
  5
2DB
100
AcDbEntity
  8
0
100
AcDbLine
 62
7
  6
CONTINUOUS
 10
11.6208202703
 20
6.3458609246
 11
11.6180408536
 21
6.3440533773
  0
LWPOLYLINE
  5
2DC
100
AcDbEntity
  8
0
100
AcDbPolyline
 62
7
  6
CONTINUOUS
 90
8
 70
0
 10
11.7560928542
 20
6.6360405939
 10
11.7465296222
 20
6.6316132387
 10
11.7170924452
 20
6.6130210082
 10
11.69048394
 20
6.5880999986
 10
11.6676937554
 20
6.5575539461
 10
11.649512052
 20
6.5223675677
 10
11.6365050596
 20
6.483727729
 10
11.6290292228
 20
6.4430145595
  0
LINE
  5
2DD
100
AcDbEntity
  8
0
100
AcDbLine
 62
7
  6
CONTINUOUS
 10
11.6262632362
 20
6.4145380358
 11
11.6258624487
 21
6.4143585626
  0
LINE
  5
2DE
100
AcDbEntity
  8
0
100
AcDbLine
 62
7
  6
CONTINUOUS
 10
11.7560874291
 20
6.6360391628
 11
11.7560321495
 21
6.6360156317
  0
LINE
  5
2DF
100
AcDbEntity
  8
0
100
AcDbLine
 62
9
  6
CONTINUOUS
 10
11.6137605958
 20
6.3424021796
 11
11.6180144266
 21
6.3440395726
  0
LINE
  5
2E0
100
AcDbEntity
  8
0
100
AcDbLine
 62
7
  6
CONTINUOUS
 10
11.7073183383
 20
8.6103318604
 11
10.3873213023
 21
8.6103318604
  0
LINE
  5
2E1
100
AcDbEntity
  8
0
100
AcDbLine
 62
9
  6
CONTINUOUS
 10
10.3473183383
 20
8.6503318604
 11
11.7473183383
 21
8.6503318604
  0
LINE
  5
2E2
100
AcDbEntity
  8
0
100
AcDbLine
 62
7
  6
CONTINUOUS
 10
14.2973183383
 20
8.7103318604
 11
7.7973183383
 21
8.7103318604
  0
LINE
  5
2E3
100
AcDbEntity
  8
0
100
AcDbLine
 62
7
  6
CONTINUOUS
 10
12.1111241348
 20
6.2666593161
 11
12.1264648329
 21
6.3172565475
  0
LINE
  5
2E4
100
AcDbEntity
  8
0
100
AcDbLine
 62
7
  6
CONTINUOUS
 10
12.0894271335
 20
6.2204806771
 11
12.1113250868
 21
6.2671869121
  0
LINE
  5
2E5
100
AcDbEntity
  8
0
100
AcDbLine
 62
7
  6
CONTINUOUS
 10
14.4223183383
 20
8.8233318604
 11
7.6723183383
 21
8.8233318604
  0
LINE
  5
2E6
100
AcDbEntity
  8
0
100
AcDbLine
 62
7
  6
CONTINUOUS
 10
12.0619603518
 20
6.1799718534
 11
12.0897478216
 21
6.2210482306
  0
LINE
  5
2E7
100
AcDbEntity
  8
0
100
AcDbLine
 62
7
  6
CONTINUOUS
 10
12.0296894691
 20
6.1464610009
 11
12.0623967451
 21
6.1805137699
  0
LINE
  5
2E8
100
AcDbEntity
  8
0
100
AcDbLine
 62
7
  6
CONTINUOUS
 10
11.9938540573
 20
6.120900349
 11
12.0302141235
 21
6.1469161324
  0
LINE
  5
2E9
100
AcDbEntity
  8
0
100
AcDbLine
 62
7
  6
CONTINUOUS
 10
11.9622672375
 20
6.1060237708
 11
11.9944121863
 21
6.1212227011
  0
LINE
  5
2EA
100
AcDbEntity
  8
0
100
AcDbLine
 62
7
  6
CONTINUOUS
 10
11.9584244147
 20
6.1046019761
 11
11.962254248
 21
6.1060188429
  0
LINE
  5
2EB
100
AcDbEntity
  8
0
100
AcDbLine
 62
7
  6
CONTINUOUS
 10
11.775429405
 20
6.0444553841
 11
11.9584242666
 21
6.1046019047
  0
LINE
  5
2EC
100
AcDbEntity
  8
0
100
AcDbLine
 62
7
  6
CONTINUOUS
 10
7.6723183383
 20
9.0233318604
 11
14.4223183383
 21
9.0233318604
  0
LINE
  5
2ED
100
AcDbEntity
  8
0
100
AcDbLine
 62
9
  6
CONTINUOUS
 10
13.5073183383
 20
8.7103318604
 11
13.5073183383
 21
9.0233318604
  0
LINE
  5
2EE
100
AcDbEntity
  8
0
100
AcDbLine
 62
7
  6
CONTINUOUS
 10
13.7973183383
 20
8.8233318604
 11
13.7973183383
 21
8.7103318604
  0
LINE
  5
2EF
100
AcDbEntity
  8
0
100
AcDbLine
 62
7
  6
CONTINUOUS
 10
13.9223183383
 20
8.8233318604
 11
13.9223183383
 21
9.0233318604
  0
LINE
  5
2F0
100
AcDbEntity
  8
0
100
AcDbLine
 62
9
  6
CONTINUOUS
 10
13.9623183383
 20
9.0233318604
 11
13.9623183383
 21
8.7103318604
  0
LINE
  5
2F1
100
AcDbEntity
  8
0
100
AcDbLine
 62
9
  6
CONTINUOUS
 10
14.0073183383
 20
8.7103318604
 11
14.0073183383
 21
9.0233318604
  0
LINE
  5
2F2
100
AcDbEntity
  8
0
100
AcDbLine
 62
7
  6
CONTINUOUS
 10
14.2973183383
 20
8.8233318604
 11
14.2973183383
 21
8.7103318604
  0
LINE
  5
2F3
100
AcDbEntity
  8
0
100
AcDbLine
 62
7
  6
CONTINUOUS
 10
14.4223183383
 20
8.8233318604
 11
14.4223183383
 21
9.0233318604
  0
ARC
  5
2F4
100
AcDbEntity
  8
0
100
AcDbCircle
 62
7
  6
CONTINUOUS
 10
5.2514355258
 20
6.9603318604
 40
5.4453828125
100
AcDbArc
 50
0.0
 51
17.6384205962
  0
ARC
  5
2F5
100
AcDbEntity
  8
0
100
AcDbCircle
 62
9
  6
CONTINUOUS
 10
8.4932047395
 20
6.7415687805
 40
2.2440227811
100
AcDbArc
 50
1.601706795
 51
3.6997017253
  0
ARC
  5
2F6
100
AcDbEntity
  8
0
100
AcDbCircle
 62
9
  6
CONTINUOUS
 10
8.4703295107
 20
6.7991809751
 40
2.2218446401
100
AcDbArc
 50
358.3659528785
 51
359.599333726
  0
ARC
  5
2F7
100
AcDbEntity
  8
0
100
AcDbCircle
 62
9
  6
CONTINUOUS
 10
8.839742022
 20
6.7892153844
 40
1.8522982651
100
AcDbArc
 50
358.1054876604
 51
358.3482443207
  0
ARC
  5
2F8
100
AcDbEntity
  8
0
100
AcDbCircle
 62
9
  6
CONTINUOUS
 10
9.1564667632
 20
6.8040240772
 40
1.5357420062
100
AcDbArc
 50
359.2812772748
 51
359.4190540781
  0
ARC
  5
2F9
100
AcDbEntity
  8
0
100
AcDbCircle
 62
9
  6
CONTINUOUS
 10
10.5550689005
 20
7.2090364734
 40
1.1790592459
100
AcDbArc
 50
249.6027514872
 51
249.7925667217
  0
ARC
  5
2FA
100
AcDbEntity
  8
0
100
AcDbCircle
 62
9
  6
CONTINUOUS
 10
10.9103105068
 20
6.9645454147
 40
0.929541631
100
AcDbArc
 50
262.0671074321
 51
262.5436256566
  0
ARC
  5
2FB
100
AcDbEntity
  8
0
100
AcDbCircle
 62
9
  6
CONTINUOUS
 10
10.118223775
 20
6.8043815705
 40
0.614337873
100
AcDbArc
 50
354.2609440842
 51
359.9916821804
  0
ARC
  5
2FC
100
AcDbEntity
  8
0
100
AcDbCircle
 62
9
  6
CONTINUOUS
 10
10.3085133372
 20
6.83841022
 40
0.6006688099
100
AcDbArc
 50
318.3170060893
 51
326.9767452862
  0
ARC
  5
2FD
100
AcDbEntity
  8
0
100
AcDbCircle
 62
9
  6
CONTINUOUS
 10
10.1342227827
 20
6.8022312102
 40
0.5982034309
100
AcDbArc
 50
343.1265678822
 51
354.22340676
  0
ARC
  5
2FE
100
AcDbEntity
  8
0
100
AcDbCircle
 62
9
  6
CONTINUOUS
 10
10.8725584306
 20
6.405603245
 40
0.2990001307
100
AcDbArc
 50
260.3540978181
 51
261.5666229037
  0
ARC
  5
2FF
100
AcDbEntity
  8
0
100
AcDbCircle
 62
9
  6
CONTINUOUS
 10
10.4540181374
 20
6.6514500752
 40
0.2370807957
100
AcDbArc
 50
273.2132178585
 51
275.5922664843
  0
ARC
  5
300
100
AcDbEntity
  8
0
100
AcDbCircle
 62
9
  6
CONTINUOUS
 10
10.3005278563
 20
6.3640116834
 40
0.2258647098
100
AcDbArc
 50
248.7249782133
 51
249.7811871841
  0
ARC
  5
301
100
AcDbEntity
  8
0
100
AcDbCircle
 62
9
  6
CONTINUOUS
 10
10.2286373421
 20
6.2809088521
 40
0.1891380758
100
AcDbArc
 50
241.0866020715
 51
242.333242067
  0
ARC
  5
302
100
AcDbEntity
  8
0
100
AcDbCircle
 62
9
  6
CONTINUOUS
 10
10.2241061679
 20
6.2717436949
 40
0.1789170456
100
AcDbArc
 50
242.2555694473
 51
249.7310695079
  0
ARC
  5
303
100
AcDbEntity
  8
0
100
AcDbCircle
 62
9
  6
CONTINUOUS
 10
10.2060643468
 20
6.2705136601
 40
0.1777484627
100
AcDbArc
 50
245.9745783676
 51
247.269873754
  0
ARC
  5
304
100
AcDbEntity
  8
0
100
AcDbCircle
 62
9
  6
CONTINUOUS
 10
10.204697194
 20
6.2672480922
 40
0.1742082593
100
AcDbArc
 50
247.2696062511
 51
249.656769226
  0
ARC
  5
305
100
AcDbEntity
  8
0
100
AcDbCircle
 62
9
  6
CONTINUOUS
 10
10.2186632422
 20
6.5644454592
 40
0.1593107139
100
AcDbArc
 50
94.5962750605
 51
96.5012329323
  0
ARC
  5
306
100
AcDbEntity
  8
0
100
AcDbCircle
 62
9
  6
CONTINUOUS
 10
10.2186064703
 20
6.5651310143
 40
0.1586228141
100
AcDbArc
 50
90.0307944373
 51
94.5956780088
  0
ARC
  5
307
100
AcDbEntity
  8
0
100
AcDbCircle
 62
7
  6
CONTINUOUS
 10
10.8388946049
 20
6.0157395589
 40
0.0699999893
100
AcDbArc
 50
262.2625820341
 51
267.5770007249
  0
ARC
  5
308
100
AcDbEntity
  8
0
100
AcDbCircle
 62
7
  6
CONTINUOUS
 10
10.7038183383
 20
7.2473318604
 40
0.05
100
AcDbArc
 50
180.0
 51
270.0
  0
ARC
  5
309
100
AcDbEntity
  8
0
100
AcDbCircle
 62
9
  6
CONTINUOUS
 10
10.1439019714
 20
6.1369989874
 40
0.0330526298
100
AcDbArc
 50
249.6030352253
 51
252.1424806842
  0
ARC
  5
30A
100
AcDbEntity
  8
0
100
AcDbCircle
 62
9
  6
CONTINUOUS
 10
10.1475015156
 20
6.1352744018
 40
0.032684139
100
AcDbArc
 50
249.793708665
 51
252.16424831
  0
ARC
  5
30B
100
AcDbEntity
  8
0
100
AcDbCircle
 62
9
  6
CONTINUOUS
 10
10.466820586
 20
6.3820986302
 40
0.0323104568
100
AcDbArc
 50
85.7209459391
 51
87.2934078213
  0
ARC
  5
30C
100
AcDbEntity
  8
0
100
AcDbCircle
 62
9
  6
CONTINUOUS
 10
6.2711604249
 20
7.4555093666
 40
4.6469886308
100
AcDbArc
 50
351.9442021021
 51
352.9650330906
  0
ARC
  5
30D
100
AcDbEntity
  8
0
100
AcDbCircle
 62
9
  6
CONTINUOUS
 10
11.0349414534
 20
8.4775611861
 40
2.5363892643
100
AcDbArc
 50
277.7569520434
 51
278.2594996898
  0
ARC
  5
30E
100
AcDbEntity
  8
0
100
AcDbCircle
 62
7
  6
CONTINUOUS
 10
10.6353183383
 20
7.3453318604
 40
0.08
100
AcDbArc
 50
180.0
 51
270.0
  0
ARC
  5
30F
100
AcDbEntity
  8
0
100
AcDbCircle
 62
7
  6
CONTINUOUS
 10
10.6353183383
 20
7.3823318604
 40
0.08
100
AcDbArc
 50
90.0
 51
180.0
  0
ARC
  5
310
100
AcDbEntity
  8
0
100
AcDbCircle
 62
7
  6
CONTINUOUS
 10
10.7038183383
 20
7.4813318604
 40
0.05
100
AcDbArc
 50
122.2983737807
 51
180.0
  0
ARC
  5
311
100
AcDbEntity
  8
0
100
AcDbCircle
 62
7
  6
CONTINUOUS
 10
10.3873183383
 20
8.6503318604
 40
0.04
100
AcDbArc
 50
180.0
 51
270.0
  0
ARC
  5
312
100
AcDbEntity
  8
0
100
AcDbCircle
 62
7
  6
CONTINUOUS
 10
16.8432011508
 20
6.9603318604
 40
5.4453828125
100
AcDbArc
 50
162.3615794038
 51
180.0
  0
ARC
  5
313
100
AcDbEntity
  8
0
100
AcDbCircle
 62
9
  6
CONTINUOUS
 10
13.6014253617
 20
6.7415690792
 40
2.2440162001
100
AcDbArc
 50
176.3002950536
 51
178.398296136
  0
ARC
  5
314
100
AcDbEntity
  8
0
100
AcDbCircle
 62
9
  6
CONTINUOUS
 10
11.5380380936
 20
7.2131713013
 40
1.1834679506
100
AcDbArc
 50
290.2077855838
 51
290.3968936708
  0
ARC
  5
315
100
AcDbEntity
  8
0
100
AcDbCircle
 62
9
  6
CONTINUOUS
 10
11.1836570051
 20
6.9694982535
 40
0.9345394269
100
AcDbArc
 50
277.4576477387
 51
277.9316175686
  0
ARC
  5
316
100
AcDbEntity
  8
0
100
AcDbCircle
 62
9
  6
CONTINUOUS
 10
11.9757425122
 20
6.8043479163
 40
0.6136674797
100
AcDbArc
 50
180.0051847401
 51
185.7427539351
  0
ARC
  5
317
100
AcDbEntity
  8
0
100
AcDbCircle
 62
9
  6
CONTINUOUS
 10
11.786127868
 20
6.8384136756
 40
0.6006744901
100
AcDbArc
 50
213.0232956985
 51
221.6829528292
  0
ARC
  5
318
100
AcDbEntity
  8
0
100
AcDbCircle
 62
9
  6
CONTINUOUS
 10
11.9604157629
 20
6.8022315188
 40
0.5982053214
100
AcDbArc
 50
185.7766091145
 51
196.8722390068
  0
ARC
  5
319
100
AcDbEntity
  8
0
100
AcDbCircle
 62
9
  6
CONTINUOUS
 10
11.2214503525
 20
6.4095499837
 40
0.3029962829
100
AcDbArc
 50
278.4413718585
 51
279.6379045625
  0
ARC
  5
31A
100
AcDbEntity
  8
0
100
AcDbCircle
 62
9
  6
CONTINUOUS
 10
11.6406200198
 20
6.6514738421
 40
0.2371046071
100
AcDbArc
 50
264.4115294504
 51
266.4479530818
  0
ARC
  5
31B
100
AcDbEntity
  8
0
100
AcDbCircle
 62
9
  6
CONTINUOUS
 10
11.7940268357
 20
6.3642281392
 40
0.2260961609
100
AcDbArc
 50
290.2193511491
 51
291.274479028
  0
ARC
  5
31C
100
AcDbEntity
  8
0
100
AcDbCircle
 62
9
  6
CONTINUOUS
 10
11.8657801684
 20
6.2813165755
 40
0.1896009329
100
AcDbArc
 50
297.6682308975
 51
298.9121419266
  0
ARC
  5
31D
100
AcDbEntity
  8
0
100
AcDbCircle
 62
9
  6
CONTINUOUS
 10
11.8694909537
 20
6.2740775811
 40
0.1814666171
100
AcDbArc
 50
290.3215518
 51
297.6919026843
  0
ARC
  5
31E
100
AcDbEntity
  8
0
100
AcDbCircle
 62
9
  6
CONTINUOUS
 10
11.8887513351
 20
6.2701000336
 40
0.1772978113
100
AcDbArc
 50
292.7284666429
 51
294.0270025636
  0
ARC
  5
31F
100
AcDbEntity
  8
0
100
AcDbCircle
 62
9
  6
CONTINUOUS
 10
11.8902318035
 20
6.2665084719
 40
0.173413149
100
AcDbArc
 50
290.3376259741
 51
292.7357839988
  0
ARC
  5
320
100
AcDbEntity
  8
0
100
AcDbCircle
 62
9
  6
CONTINUOUS
 10
11.8759733306
 20
6.5644449227
 40
0.1593112506
100
AcDbArc
 50
83.4987405702
 51
85.4062537475
  0
ARC
  5
321
100
AcDbEntity
  8
0
100
AcDbCircle
 62
9
  6
CONTINUOUS
 10
11.8760315376
 20
6.5651660065
 40
0.1585878214
100
AcDbArc
 50
85.4063507145
 51
89.9913330714
  0
ARC
  5
322
100
AcDbEntity
  8
0
100
AcDbCircle
 62
7
  6
CONTINUOUS
 10
11.2557420717
 20
6.0157395589
 40
0.0699999893
100
AcDbArc
 50
272.4229992751
 51
277.7374179659
  0
ARC
  5
323
100
AcDbEntity
  8
0
100
AcDbCircle
 62
7
  6
CONTINUOUS
 10
11.3908183383
 20
7.2473318604
 40
0.05
100
AcDbArc
 50
270.0
 51
360.0
  0
ARC
  5
324
100
AcDbEntity
  8
0
100
AcDbCircle
 62
9
  6
CONTINUOUS
 10
11.9507347003
 20
6.136999046
 40
0.0330526309
100
AcDbArc
 50
287.8574943331
 51
290.3969349048
  0
ARC
  5
325
100
AcDbEntity
  8
0
100
AcDbCircle
 62
9
  6
CONTINUOUS
 10
11.6278513925
 20
6.3814686939
 40
0.0329413583
100
AcDbArc
 50
92.7173888565
 51
93.6619108411
  0
ARC
  5
326
100
AcDbEntity
  8
0
100
AcDbCircle
 62
9
  6
CONTINUOUS
 10
11.9471350852
 20
6.1352745431
 40
0.0326842818
100
AcDbArc
 50
287.8358121917
 51
290.2064058016
  0
ARC
  5
327
100
AcDbEntity
  8
0
100
AcDbCircle
 62
9
  6
CONTINUOUS
 10
15.8333853535
 20
7.4568218502
 40
4.6569838803
100
AcDbArc
 50
187.0360625152
 51
188.0547016353
  0
ARC
  5
328
100
AcDbEntity
  8
0
100
AcDbCircle
 62
9
  6
CONTINUOUS
 10
11.0595702411
 20
8.4766725937
 40
2.535491934
100
AcDbArc
 50
261.7404316664
 51
262.2431361959
  0
ARC
  5
329
100
AcDbEntity
  8
0
100
AcDbCircle
 62
7
  6
CONTINUOUS
 10
11.4593183383
 20
7.3453318604
 40
0.08
100
AcDbArc
 50
270.0
 51
360.0
  0
ARC
  5
32A
100
AcDbEntity
  8
0
100
AcDbCircle
 62
7
  6
CONTINUOUS
 10
11.4593183383
 20
7.3823318604
 40
0.08
100
AcDbArc
 50
0.0
 51
90.0
  0
ARC
  5
32B
100
AcDbEntity
  8
0
100
AcDbCircle
 62
7
  6
CONTINUOUS
 10
11.3908183383
 20
7.4813318604
 40
0.05
100
AcDbArc
 50
0.0
 51
57.7016262193
  0
ARC
  5
32C
100
AcDbEntity
  8
0
100
AcDbCircle
 62
7
  6
CONTINUOUS
 10
11.7073183383
 20
8.6503318604
 40
0.04
100
AcDbArc
 50
270.0
 51
360.0
  0
SPLINE
  5
32D
100
AcDbEntity
  8
0
100
AcDbSpline
 62
9
  6
CONTINUOUS
 70
0
 71
3
 72
31
 73
27
 74
0
 42
0.0000001
 43
0.0000001
 44
0.0000000001
 40
0.0
 40
0.0
 40
0.0
 40
0.0
 40
0.025255227
 40
0.0508384215
 40
0.0769006838
 40
0.1035709329
 40
0.1309541384
 40
0.1591267986
 40
0.1881391456
 40
0.2180131783
 40
0.2802687367
 40
0.3126240924
 40
0.345702288
 40
0.4136595042
 40
0.4833933921
 40
0.5539827522
 40
0.624444475
 40
0.6938045277
 40
0.7611693536
 40
0.7938841912
 40
0.8258402517
 40
0.8872278964
 40
0.9166570052
 40
0.9452301458
 40
0.9729876301
 40
1.0
 40
1.0
 40
1.0
 40
1.0
 10
11.8940113555
 20
6.7227317012
 30
0.0
 10
11.9002691315
 20
6.7220186828
 30
0.0
 10
11.9127927345
 20
6.7198352716
 30
0.0
 10
11.9312169597
 20
6.7143714117
 30
0.0
 10
11.9492396152
 20
6.7067431557
 30
0.0
 10
11.966731188
 20
6.6970125156
 30
0.0
 10
11.9835685423
 20
6.6852487956
 30
0.0
 10
11.9996366392
 20
6.6715412471
 30
0.0
 10
12.0148238514
 20
6.6559849428
 30
0.0
 10
12.0340184142
 20
6.6326173876
 30
0.0
 10
12.0507142447
 20
6.6062712282
 30
0.0
 10
12.0647844535
 20
6.5776850796
 30
0.0
 10
12.0773814401
 20
6.5468701773
 30
0.0
 10
12.0894964693
 20
6.5059087164
 30
0.0
 10
12.0979648288
 20
6.454536066
 30
0.0
 10
12.1002741411
 20
6.4018960423
 30
0.0
 10
12.0963600785
 20
6.3494437274
 30
0.0
 10
12.08633042
 20
6.2986290376
 30
0.0
 10
12.072962496
 20
6.258404569
 30
0.0
 10
12.0594200049
 20
6.2283625264
 30
0.0
 10
12.0444915478
 20
6.2006756074
 30
0.0
 10
12.0269966176
 20
6.1753628337
 30
0.0
 10
12.00709143
 20
6.1531794696
 30
0.0
 10
11.9914353516
 20
6.1385633407
 30
0.0
 10
11.9749564535
 20
6.125847284
 30
0.0
 10
11.9633430269
 20
6.1186038957
 30
0.0
 10
11.9574461329
 20
6.1153471063
 30
0.0
  0
LINE
  5
32E
100
AcDbEntity
  8
0
100
AcDbLine
 62
9
  6
CONTINUOUS
 10
11.402463123
 20
6.7925958514
 11
11.4024845162
 21
6.7883417517
  0
LINE
  5
32F
100
AcDbEntity
  8
0
100
AcDbLine
 62
9
  6
CONTINUOUS
 10
11.4024845162
 20
6.7883417517
 11
11.4025035108
 21
6.7854478192
  0
SPLINE
  5
330
100
AcDbEntity
  8
0
100
AcDbSpline
 62
9
  6
CONTINUOUS
 70
0
 71
3
 72
15
 73
11
 74
0
 42
0.0000001
 43
0.0000001
 44
0.0000000001
 40
0.0
 40
0.0
 40
0.0
 40
0.0
 40
0.1216292792
 40
0.2467041759
 40
0.3722807591
 40
0.4979813607
 40
0.6236628911
 40
0.7492408608
 40
0.8746755082
 40
1.0
 40
1.0
 40
1.0
 40
1.0
 10
11.4025035108
 20
6.7854478192
 30
0.0
 10
11.4025715938
 20
6.7759310557
 30
0.0
 10
11.4028108025
 20
6.7566284381
 30
0.0
 10
11.4035444468
 20
6.7275072192
 30
0.0
 10
11.4047668335
 20
6.6980828624
 30
0.0
 10
11.4066244458
 20
6.6686429315
 30
0.0
 10
11.4093122858
 20
6.6392650743
 30
0.0
 10
11.4130707089
 20
6.6100221576
 30
0.0
 10
11.4181822467
 20
6.5810101419
 30
0.0
 10
11.4227093429
 20
6.5619015412
 30
0.0
 10
11.4253087112
 20
6.5524461872
 30
0.0
  0
LINE
  5
331
100
AcDbEntity
  8
0
100
AcDbLine
 62
9
  6
CONTINUOUS
 10
10.6921526031
 20
6.7908757513
 11
10.6921298269
 21
6.7884528121
  0
SPLINE
  5
332
100
AcDbEntity
  8
0
100
AcDbSpline
 62
9
  6
CONTINUOUS
 70
0
 71
3
 72
34
 73
30
 74
0
 42
0.0000001
 43
0.0000001
 44
0.0000000001
 40
0.0
 40
0.0
 40
0.0
 40
0.0
 40
0.0266649344
 40
0.0540755075
 40
0.0823182934
 40
0.1114629669
 40
0.1724848661
 40
0.2043849165
 40
0.2371296784
 40
0.3047907043
 40
0.3747102507
 40
0.4458895648
 40
0.5172281692
 40
0.5526253422
 40
0.5876496603
 40
0.6221742915
 40
0.6560840227
 40
0.6892756428
 40
0.7216639252
 40
0.7531815648
 40
0.7837856667
 40
0.8134576912
 40
0.8422092209
 40
0.8700821201
 40
0.8971517024
 40
0.9235261104
 40
0.9493445994
 40
0.9747738308
 40
1.0
 40
1.0
 40
1.0
 40
1.0
 10
11.9609411773
 20
6.1081644274
 30
0.0
 10
11.9672827711
 20
6.1109911454
 30
0.0
 10
11.9798197379
 20
6.1174776183
 30
0.0
 10
11.997697085
 20
6.1293708851
 30
0.0
 10
12.0147523207
 20
6.1434546328
 30
0.0
 10
12.0365398471
 20
6.1653238158
 30
0.0
 10
12.0557687199
 20
6.1908654321
 30
0.0
 10
12.0722198571
 20
6.2191751966
 30
0.0
 10
12.0872203916
 20
6.2502225638
 30
0.0
 10
12.1020742943
 20
6.2921771101
 30
0.0
 10
12.1132631699
 20
6.3455222082
 30
0.0
 10
12.1176887498
 20
6.4008024294
 30
0.0
 10
12.115620974
 20
6.4472143366
 30
0.0
 10
12.1104907778
 20
6.4837887825
 30
0.0
 10
12.1049608115
 20
6.5105700094
 30
0.0
 10
12.0977797784
 20
6.5365546556
 30
0.0
 10
12.0890071852
 20
6.5615423336
 30
0.0
 10
12.0787063934
 20
6.5853362412
 30
0.0
 10
12.0669619604
 20
6.6077528264
 30
0.0
 10
12.0538593045
 20
6.6286145118
 30
0.0
 10
12.0395040093
 20
6.6477609438
 30
0.0
 10
12.0240017118
 20
6.6650386113
 30
0.0
 10
12.0074749797
 20
6.6803140354
 30
0.0
 10
11.9900476845
 20
6.6934621043
 30
0.0
 10
11.9718562767
 20
6.7043784429
 30
0.0
 10
11.9530414986
 20
6.7129705466
 30
0.0
 10
11.9337513681
 20
6.7191658618
 30
0.0
 10
11.9141448869
 20
6.7229101519
 30
0.0
 10
11.9009407498
 20
6.7237505948
 30
0.0
 10
11.8943723143
 20
6.7237538089
 30
0.0
  0
SPLINE
  5
333
100
AcDbEntity
  8
0
100
AcDbSpline
 62
9
  6
CONTINUOUS
 70
0
 71
3
 72
31
 73
27
 74
0
 42
0.0000001
 43
0.0000001
 44
0.0000000001
 40
0.0
 40
0.0
 40
0.0
 40
0.0
 40
0.0270123603
 40
0.0547698423
 40
0.083342951
 40
0.1127720043
 40
0.1741595787
 40
0.2061156417
 40
0.2388305073
 40
0.3061954489
 40
0.3755556714
 40
0.4460175733
 40
0.5166070657
 40
0.5863409407
 40
0.6542979941
 40
0.6873761027
 40
0.7197313887
 40
0.7819868922
 40
0.8118609475
 40
0.8408733373
 40
0.869046034
 40
0.8964292514
 40
0.9230994806
 40
0.9491616955
 40
0.9747448269
 40
1.0
 40
1.0
 40
1.0
 40
1.0
 10
10.1371915248
 20
6.1153465551
 30
0.0
 10
10.1312946087
 20
6.1186033216
 30
0.0
 10
10.1196811325
 20
6.1258466642
 30
0.0
 10
10.1032021345
 20
6.138562627
 30
0.0
 10
10.0875459721
 20
6.1531786853
 30
0.0
 10
10.067640717
 20
6.1753620007
 30
0.0
 10
10.0501457031
 20
6.2006747358
 30
0.0
 10
10.0352171161
 20
6.2283616297
 30
0.0
 10
10.0216744605
 20
6.2584036957
 30
0.0
 10
10.0083063436
 20
6.2986282542
 30
0.0
 10
9.9982764979
 20
6.3494431151
 30
0.0
 10
9.9943624877
 20
6.4018956448
 30
0.0
 10
9.9966719068
 20
6.4545358199
 30
0.0
 10
10.0051402694
 20
6.5059085355
 30
0.0
 10
10.0172551614
 20
6.5468700356
 30
0.0
 10
10.0298520509
 20
6.5776849502
 30
0.0
 10
10.043922245
 20
6.6062711044
 30
0.0
 10
10.0606180954
 20
6.6326172823
 30
0.0
 10
10.079812728
 20
6.6559848464
 30
0.0
 10
10.0950000115
 20
6.6715411644
 30
0.0
 10
10.1110681624
 20
6.6852487349
 30
0.0
 10
10.1279055455
 20
6.697012482
 30
0.0
 10
10.1453971262
 20
6.7067431439
 30
0.0
 10
10.1634197717
 20
6.7143714198
 30
0.0
 10
10.181843984
 20
6.719835287
 30
0.0
 10
10.1943675784
 20
6.7220186973
 30
0.0
 10
10.2006253512
 20
6.7227317127
 30
0.0
  0
SPLINE
  5
334
100
AcDbEntity
  8
0
100
AcDbSpline
 62
9
  6
CONTINUOUS
 70
0
 71
3
 72
23
 73
19
 74
0
 42
0.0000001
 43
0.0000001
 44
0.0000000001
 40
0.0
 40
0.0
 40
0.0
 40
0.0
 40
0.0640892439
 40
0.0966631977
 40
0.1294322534
 40
0.195243053
 40
0.2281717562
 40
0.2610147447
 40
0.293733488
 40
0.3263286532
 40
0.3911591753
 40
0.4555308073
 40
0.519348611
 40
0.5824726715
 40
0.6448053865
 40
0.7668759629
 40
0.8853212448
 40
1.0
 40
1.0
 40
1.0
 40
1.0
 10
11.3471214056
 20
6.8148910801
 30
0.0
 10
11.3459386859
 20
6.8075710195
 30
0.0
 10
11.3446740861
 20
6.7964398792
 30
0.0
 10
11.3439118179
 20
6.7814817325
 30
0.0
 10
11.3437580482
 20
6.7663042924
 30
0.0
 10
11.3444705327
 20
6.751091913
 30
0.0
 10
11.3458566961
 20
6.7359303961
 30
0.0
 10
11.3471845204
 20
6.7246115672
 30
0.0
 10
11.3487830673
 20
6.7133668699
 30
0.0
 10
11.3512839819
 20
6.6985172273
 30
0.0
 10
11.355121283
 20
6.6801847798
 30
0.0
 10
11.3609149126
 20
6.6586057213
 30
0.0
 10
11.3678008857
 20
6.6375587738
 30
0.0
 10
11.3756929257
 20
6.6171204631
 30
0.0
 10
11.3873862304
 20
6.5909669707
 30
0.0
 10
11.4041857891
 20
6.5601341876
 30
0.0
 10
11.427692122
 20
6.526330559
 30
0.0
 10
11.4455535226
 20
6.5060225755
 30
0.0
 10
11.4549050578
 20
6.4966102907
 30
0.0
  0
SPLINE
  5
335
100
AcDbEntity
  8
0
100
AcDbSpline
 62
9
  6
CONTINUOUS
 70
0
 71
3
 72
15
 73
11
 74
0
 42
0.0000001
 43
0.0000001
 44
0.0000000001
 40
0.0
 40
0.0
 40
0.0
 40
0.0
 40
0.132592916
 40
0.2624936207
 40
0.389885382
 40
0.5150103714
 40
0.6381776975
 40
0.7597560721
 40
0.8802016272
 40
1.0
 40
1.0
 40
1.0
 40
1.0
 10
11.4549050578
 20
6.4966102907
 30
0.0
 10
11.4606798597
 20
6.4907979744
 30
0.0
 10
11.4725505825
 20
6.4797162204
 30
0.0
 10
11.4914194636
 20
6.4646964082
 30
0.0
 10
11.5110681921
 20
6.4515189207
 30
0.0
 10
11.5313967586
 20
6.4402495243
 30
0.0
 10
11.5523014988
 20
6.4309366609
 30
0.0
 10
11.5736849525
 20
6.4236284622
 30
0.0
 10
11.5954440721
 20
6.4183567836
 30
0.0
 10
11.6101604914
 20
6.4162172654
 30
0.0
 10
11.6175280608
 20
6.4154963726
 30
0.0
  0
SPLINE
  5
336
100
AcDbEntity
  8
0
100
AcDbSpline
 62
9
  6
CONTINUOUS
 70
0
 71
3
 72
9
 73
5
 74
0
 42
0.0000001
 43
0.0000001
 44
0.0000000001
 40
0.0
 40
0.0
 40
0.0
 40
0.0
 40
0.5019859927
 40
1.0
 40
1.0
 40
1.0
 40
1.0
 10
11.362085802
 20
6.886369093
 30
0.0
 10
11.3590865622
 20
6.8745202397
 30
0.0
 10
11.3535542556
 20
6.8508016939
 30
0.0
 10
11.349049296
 20
6.8268626812
 30
0.0
 10
11.3471214056
 20
6.8148910801
 30
0.0
  0
SPLINE
  5
337
100
AcDbEntity
  8
0
100
AcDbSpline
 62
9
  6
CONTINUOUS
 70
0
 71
3
 72
9
 73
5
 74
0
 42
0.0000001
 43
0.0000001
 44
0.0000000001
 40
0.0
 40
0.0
 40
0.0
 40
0.0
 40
0.5018962114
 40
1.0
 40
1.0
 40
1.0
 40
1.0
 10
11.2474125506
 20
6.8148910745
 30
0.0
 10
11.241262886
 20
6.8267797524
 30
0.0
 10
11.2291197791
 20
6.8505242774
 30
0.0
 10
11.2172721555
 20
6.8744183351
 30
0.0
 10
11.2114720578
 20
6.886369093
 30
0.0
  0
SPLINE
  5
338
100
AcDbEntity
  8
0
100
AcDbSpline
 62
9
  6
CONTINUOUS
 70
0
 71
3
 72
32
 73
28
 74
0
 42
0.0000001
 43
0.0000001
 44
0.0000000001
 40
0.0
 40
0.0
 40
0.0
 40
0.0
 40
0.0360392236
 40
0.0722895675
 40
0.1085423996
 40
0.1266403226
 40
0.1447107161
 40
0.1627474567
 40
0.1807443047
 40
0.2165867551
 40
0.2521748639
 40
0.2874487722
 40
0.3223657531
 40
0.3568935416
 40
0.3910060763
 40
0.4246759697
 40
0.4578786686
 40
0.4905942433
 40
0.5228071069
 40
0.5545058912
 40
0.6759592719
 40
0.7337088957
 40
0.789609079
 40
0.8438765047
 40
0.8967955868
 40
0.948719184
 40
1.0
 40
1.0
 40
1.0
 40
1.0
 10
10.8472241237
 20
6.8148910801
 30
0.0
 10
10.8439884469
 20
6.8086678345
 30
0.0
 10
10.8378697881
 20
6.7959905945
 30
0.0
 10
10.8294532499
 20
6.7766118187
 30
0.0
 10
10.822781418
 20
6.76028887
 30
0.0
 10
10.8174975279
 20
6.7472218063
 30
0.0
 10
10.813526774
 20
6.737447873
 30
0.0
 10
10.8095035835
 20
6.7277165935
 30
0.0
 10
10.8040411902
 20
6.7148380603
 30
0.0
 10
10.7970371209
 20
6.6989036445
 30
0.0
 10
10.7883506139
 20
6.6800390939
 30
0.0
 10
10.7794139034
 20
6.6614912353
 30
0.0
 10
10.7701810635
 20
6.6433195559
 30
0.0
 10
10.7606064788
 20
6.6255812984
 30
0.0
 10
10.7506495367
 20
6.6083339666
 30
0.0
 10
10.7403130906
 20
6.591613588
 30
0.0
 10
10.729597312
 20
6.5754583718
 30
0.0
 10
10.71850366
 20
6.5599075694
 30
0.0
 10
10.7070389091
 20
6.5449928864
 30
0.0
 10
10.6839967794
 20
6.5172364547
 30
0.0
 10
10.6546822214
 20
6.4881340743
 30
0.0
 10
10.6178830079
 20
6.4608353275
 30
0.0
 10
10.5897379428
 20
6.4441017658
 30
0.0
 10
10.5607901574
 20
6.4309214749
 30
0.0
 10
10.5312411871
 20
6.4214131023
 30
0.0
 10
10.5013288156
 20
6.4156670379
 30
0.0
 10
10.4812206441
 20
6.4143726445
 30
0.0
 10
10.4712400838
 20
6.414369298
 30
0.0
  0
SPLINE
  5
339
100
AcDbEntity
  8
0
100
AcDbSpline
 62
9
  6
CONTINUOUS
 70
0
 71
3
 72
9
 73
5
 74
0
 42
0.0000001
 43
0.0000001
 44
0.0000000001
 40
0.0
 40
0.0
 40
0.0
 40
0.0
 40
0.4981037922
 40
1.0
 40
1.0
 40
1.0
 40
1.0
 10
10.8831646187
 20
6.886369093
 30
0.0
 10
10.8773645203
 20
6.874418336
 30
0.0
 10
10.8655169051
 20
6.8505242756
 30
0.0
 10
10.8533737808
 20
6.8267797611
 30
0.0
 10
10.8472241237
 20
6.8148910801
 30
0.0
  0
SPLINE
  5
33A
100
AcDbEntity
  8
0
100
AcDbSpline
 62
9
  6
CONTINUOUS
 70
0
 71
3
 72
9
 73
5
 74
0
 42
0.0000001
 43
0.0000001
 44
0.0000000001
 40
0.0
 40
0.0
 40
0.0
 40
0.0
 40
0.4980140439
 40
1.0
 40
1.0
 40
1.0
 40
1.0
 10
10.7475152684
 20
6.8148910745
 30
0.0
 10
10.7455873704
 20
6.8268626761
 30
0.0
 10
10.7410824334
 20
6.8508016946
 30
0.0
 10
10.7355501119
 20
6.8745202391
 30
0.0
 10
10.7325508745
 20
6.886369093
 30
0.0
  0
SPLINE
  5
33B
100
AcDbEntity
  8
0
100
AcDbSpline
 62
9
  6
CONTINUOUS
 70
0
 71
3
 72
35
 73
31
 74
0
 42
0.0000001
 43
0.0000001
 44
0.0000000001
 40
0.0
 40
0.0
 40
0.0
 40
0.0
 40
0.0265028731
 40
0.052536043
 40
0.0783301278
 40
0.1041312679
 40
0.1301860235
 40
0.1567252493
 40
0.1839493081
 40
0.2120206731
 40
0.2410549301
 40
0.2711232475
 40
0.3022498283
 40
0.334418078
 40
0.3675732734
 40
0.4016274423
 40
0.4364656652
 40
0.4719487075
 40
0.5079208323
 40
0.5442117085
 40
0.6169896266
 40
0.6888867154
 40
0.7585530522
 40
0.7922191823
 40
0.8249428763
 40
0.8872343939
 40
0.916833529
 40
0.945427399
 40
0.9731128897
 40
1.0
 40
1.0
 40
1.0
 40
1.0
 10
10.3385680627
 20
6.6360314818
 30
0.0
 10
10.3332905278
 20
6.6382776917
 30
0.0
 10
10.3225312548
 20
6.6420707494
 30
0.0
 10
10.3058823002
 20
6.6455204648
 30
0.0
 10
10.2890637549
 20
6.6466313326
 30
0.0
 10
10.2722507698
 20
6.6453850949
 30
0.0
 10
10.2556139557
 20
6.6417982617
 30
0.0
 10
10.2393235251
 20
6.635903679
 30
0.0
 10
10.2235394836
 20
6.627769306
 30
0.0
 10
10.2084192955
 20
6.6174734531
 30
0.0
 10
10.1941062049
 20
6.6051242998
 30
0.0
 10
10.1807404964
 20
6.5908408806
 30
0.0
 10
10.16844936
 20
6.5747647676
 30
0.0
 10
10.1573517806
 20
6.5570524976
 30
0.0
 10
10.1475573359
 20
6.5378761863
 30
0.0
 10
10.1391590439
 20
6.5174246937
 30
0.0
 10
10.1322439673
 20
6.4958970341
 30
0.0
 10
10.126876019
 20
6.4735069178
 30
0.0
 10
10.1231131464
 20
6.4504728365
 30
0.0
 10
10.120279743
 20
6.4191900733
 30
0.0
 10
10.1208947613
 20
6.3798878428
 30
0.0
 10
10.1281670641
 20
6.3339218726
 30
0.0
 10
10.1395827827
 20
6.297585425
 30
0.0
 10
10.1517612977
 20
6.2707411694
 30
0.0
 10
10.1653816929
 20
6.246425332
 30
0.0
 10
10.1816678035
 20
6.2246800402
 30
0.0
 10
10.2003822471
 20
6.2064632992
 30
0.0
 10
10.2150752737
 20
6.1950129667
 30
0.0
 10
10.2305113441
 20
6.1856764541
 30
0.0
 10
10.2413335043
 20
6.1808520104
 30
0.0
 10
10.2467937692
 20
6.1788410014
 30
0.0
  0
SPLINE
  5
33C
100
AcDbEntity
  8
0
100
AcDbSpline
 62
9
  6
CONTINUOUS
 70
0
 71
3
 72
34
 73
30
 74
0
 42
0.0000001
 43
0.0000001
 44
0.0000000001
 40
0.0
 40
0.0
 40
0.0
 40
0.0
 40
0.0252262995
 40
0.0506550512
 40
0.0764725697
 40
0.102845653
 40
0.1299136836
 40
0.15778493
 40
0.1865348022
 40
0.2162052373
 40
0.2468078603
 40
0.2783241927
 40
0.3107113828
 40
0.3439021572
 40
0.3778113102
 40
0.4123356381
 40
0.4473599198
 40
0.4827572878
 40
0.5540968691
 40
0.6252778239
 40
0.6951995334
 40
0.7628629994
 40
0.7956089971
 40
0.8275102307
 40
0.8885341784
 40
0.9176797263
 40
0.9459233018
 40
0.9733345316
 40
1.0
 40
1.0
 40
1.0
 40
1.0
 10
10.2003268117
 20
6.7237538273
 30
0.0
 10
10.1937578174
 20
6.7237532337
 30
0.0
 10
10.1805523764
 20
6.7229179405
 30
0.0
 10
10.1609432541
 20
6.7191807381
 30
0.0
 10
10.1416500798
 20
6.7129919189
 30
0.0
 10
10.1228319164
 20
6.7044056219
 30
0.0
 10
10.1046368062
 20
6.6934944218
 30
0.0
 10
10.0872055671
 20
6.6803507626
 30
0.0
 10
10.0706746832
 20
6.6650790431
 30
0.0
 10
10.0551681236
 20
6.6478043452
 30
0.0
 10
10.0408085308
 20
6.6286601571
 30
0.0
 10
10.0277016149
 20
6.6078000047
 30
0.0
 10
10.0159530192
 20
6.5853842638
 30
0.0
 10
10.0056481971
 20
6.5615905502
 30
0.0
 10
9.9968718077
 20
6.5366024343
 30
0.0
 10
9.9896871346
 20
6.5106168045
 30
0.0
 10
9.9841537826
 20
6.4838340821
 30
0.0
 10
9.9790193049
 20
6.4472569579
 30
0.0
 10
9.9769469723
 20
6.4008407805
 30
0.0
 10
9.9813684563
 20
6.3455545111
 30
0.0
 10
9.9925548714
 20
6.2922027601
 30
0.0
 10
10.0074079315
 20
6.2502425101
 30
0.0
 10
10.0224085354
 20
6.2191907097
 30
0.0
 10
10.0388601475
 20
6.1908768514
 30
0.0
 10
10.0580900788
 20
6.1653314621
 30
0.0
 10
10.0798792985
 20
6.1434591116
 30
0.0
 10
10.096936023
 20
6.1293734329
 30
0.0
 10
10.1148150522
 20
6.1174786552
 30
0.0
 10
10.1273532691
 20
6.110991458
 30
0.0
 10
10.1336954937
 20
6.1081644528
 30
0.0
  0
SPLINE
  5
33D
100
AcDbEntity
  8
0
100
AcDbSpline
 62
9
  6
CONTINUOUS
 70
0
 71
3
 72
9
 73
5
 74
0
 42
0.0000001
 43
0.0000001
 44
0.0000000001
 40
0.0
 40
0.0
 40
0.0
 40
0.0
 40
0.2669923294
 40
1.0
 40
1.0
 40
1.0
 40
1.0
 10
11.6257474642
 20
6.4143427957
 30
0.0
 10
11.6253065037
 20
6.4143145488
 30
0.0
 10
11.6236576856
 20
6.4141747127
 30
0.0
 10
11.6220176961
 20
6.4138945981
 30
0.0
 10
11.6208453943
 20
6.4135826147
 30
0.0
  0
SPLINE
  5
33E
100
AcDbEntity
  8
0
100
AcDbSpline
 62
9
  6
CONTINUOUS
 70
0
 71
3
 72
20
 73
16
 74
0
 42
0.0000001
 43
0.0000001
 44
0.0000000001
 40
0.0
 40
0.0
 40
0.0
 40
0.0
 40
0.0741175802
 40
0.1408845706
 40
0.2018245353
 40
0.2586929779
 40
0.3132814352
 40
0.367062706
 40
0.421241676
 40
0.4767090503
 40
0.5339834102
 40
0.5933940042
 40
0.7192937872
 40
0.8549076209
 40
1.0
 40
1.0
 40
1.0
 40
1.0
 10
11.6208453943
 20
6.4135826147
 30
0.0
 10
11.6200553722
 20
6.4133723669
 30
0.0
 10
11.6185757911
 20
6.4128779894
 30
0.0
 10
11.61658622
 20
6.4118589479
 30
0.0
 10
11.6149486749
 20
6.4106311006
 30
0.0
 10
11.6136546931
 20
6.4092226975
 30
0.0
 10
11.6126854674
 20
6.4076673271
 30
0.0
 10
11.6120154155
 20
6.405995135
 30
0.0
 10
11.6116203798
 20
6.4042292566
 30
0.0
 10
11.6114759152
 20
6.402388538
 30
0.0
 10
11.6115567333
 20
6.40048744
 30
0.0
 10
11.6119478284
 20
6.3978364645
 30
0.0
 10
11.6129409652
 20
6.3944218753
 30
0.0
 10
11.6147525178
 20
6.39030973
 30
0.0
 10
11.6162880326
 20
6.3876151274
 30
0.0
 10
11.617134365
 20
6.3862568483
 30
0.0
  0
SPLINE
  5
33F
100
AcDbEntity
  8
0
100
AcDbSpline
 62
9
  6
CONTINUOUS
 70
0
 71
3
 72
9
 73
5
 74
0
 42
0.0000001
 43
0.0000001
 44
0.0000000001
 40
0.0
 40
0.0
 40
0.0
 40
0.0
 40
0.5125438031
 40
1.0
 40
1.0
 40
1.0
 40
1.0
 10
10.4775023581
 20
6.3862569451
 30
0.0
 10
10.4754249953
 20
6.3877303873
 30
0.0
 10
10.4716153216
 20
6.3909698641
 30
0.0
 10
10.4685065582
 20
6.3948996012
 30
0.0
 10
10.4672274291
 20
6.3969565037
 30
0.0
  0
SPLINE
  5
340
100
AcDbEntity
  8
0
100
AcDbSpline
 62
9
  6
CONTINUOUS
 70
0
 71
3
 72
14
 73
10
 74
0
 42
0.0000001
 43
0.0000001
 44
0.0000000001
 40
0.0
 40
0.0
 40
0.0
 40
0.0
 40
0.1086219965
 40
0.2224807448
 40
0.3412923049
 40
0.4646855094
 40
0.5924921844
 40
0.7244993245
 40
1.0
 40
1.0
 40
1.0
 40
1.0
 10
11.6270994117
 20
6.3576699248
 30
0.0
 10
11.6270996082
 20
6.3554343842
 30
0.0
 10
11.6273856635
 20
6.3508533006
 30
0.0
 10
11.6285123621
 20
6.3439114568
 30
0.0
 10
11.6302894629
 20
6.3367942699
 30
0.0
 10
11.6326638548
 20
6.3295526706
 30
0.0
 10
11.6356065834
 20
6.3222297195
 30
0.0
 10
11.6403126617
 20
6.3122632165
 30
0.0
 10
11.6445257109
 20
6.3049873549
 30
0.0
 10
11.6476026066
 20
6.3002247648
 30
0.0
  0
SPLINE
  5
341
100
AcDbEntity
  8
0
100
AcDbSpline
 62
9
  6
CONTINUOUS
 70
0
 71
3
 72
15
 73
11
 74
0
 42
0.0000001
 43
0.0000001
 44
0.0000000001
 40
0.0
 40
0.0
 40
0.0
 40
0.0
 40
0.1197989071
 40
0.2402451668
 40
0.3618241855
 40
0.4849919537
 40
0.6101170965
 40
0.737508577
 40
0.8674084987
 40
1.0
 40
1.0
 40
1.0
 40
1.0
 10
10.4771242163
 20
6.4154978995
 30
0.0
 10
10.4844904913
 20
6.4162191583
 30
0.0
 10
10.4992042975
 20
6.4183591692
 30
0.0
 10
10.520959522
 20
6.4236308598
 30
0.0
 10
10.5423391743
 20
6.4309383538
 30
0.0
 10
10.5632402589
 20
6.4402498199
 30
0.0
 10
10.583565367
 20
6.4515171485
 30
0.0
 10
10.6032108987
 20
6.4646919094
 30
0.0
 10
10.6220768628
 20
6.4797084024
 30
0.0
 10
10.6339459245
 20
6.4907875949
 30
0.0
 10
10.6397199541
 20
6.4965985495
 30
0.0
  0
SPLINE
  5
342
100
AcDbEntity
  8
0
100
AcDbSpline
 62
9
  6
CONTINUOUS
 70
0
 71
3
 72
23
 73
19
 74
0
 42
0.0000001
 43
0.0000001
 44
0.0000000001
 40
0.0
 40
0.0
 40
0.0
 40
0.0
 40
0.1146780312
 40
0.2331229461
 40
0.3551924802
 40
0.4175248905
 40
0.4806493709
 40
0.544468525
 40
0.6088411762
 40
0.6736710164
 40
0.7062651348
 40
0.7389824595
 40
0.7718237755
 40
0.8047513715
 40
0.8705641042
 40
0.9033370812
 40
0.935915416
 40
1.0
 40
1.0
 40
1.0
 40
1.0
 10
10.6397199541
 20
6.4965985495
 30
0.0
 10
10.6490723475
 20
6.5060107516
 30
0.0
 10
10.6669354438
 20
6.526318791
 30
0.0
 10
10.6904441788
 20
6.5601228542
 30
0.0
 10
10.7072450787
 20
6.5909566045
 30
0.0
 10
10.7189393592
 20
6.6171110267
 30
0.0
 10
10.7268326055
 20
6.6375501578
 30
0.0
 10
10.7337203158
 20
6.6585979768
 30
0.0
 10
10.7395153687
 20
6.6801779742
 30
0.0
 10
10.7433524346
 20
6.6985113234
 30
0.0
 10
10.7458524595
 20
6.7133614723
 30
0.0
 10
10.7474502118
 20
6.724606345
 30
0.0
 10
10.7487772226
 20
6.7359253213
 30
0.0
 10
10.7501631341
 20
6.7510874864
 30
0.0
 10
10.7508764461
 20
6.7663010456
 30
0.0
 10
10.7507251318
 20
6.7814804134
 30
0.0
 10
10.7499654462
 20
6.7964398003
 30
0.0
 10
10.7487009567
 20
6.8075716837
 30
0.0
 10
10.7475152684
 20
6.8148910745
 30
0.0
  0
SPLINE
  5
343
100
AcDbEntity
  8
0
100
AcDbSpline
 62
9
  6
CONTINUOUS
 70
0
 71
3
 72
32
 73
28
 74
0
 42
0.0000001
 43
0.0000001
 44
0.0000000001
 40
0.0
 40
0.0
 40
0.0
 40
0.0
 40
0.0512807987
 40
0.1032044349
 40
0.1561235487
 40
0.2103910061
 40
0.2662912382
 40
0.3240409193
 40
0.4454943516
 40
0.4771931204
 40
0.5094060068
 40
0.542121673
 40
0.5753245165
 40
0.6089944963
 40
0.6431069484
 40
0.6776343952
 40
0.7125509548
 40
0.7478246533
 40
0.7834129633
 40
0.8192557363
 40
0.8372526376
 40
0.8552892852
 40
0.8733594822
 40
0.8914572361
 40
0.9277102809
 40
0.9639615228
 40
1.0
 40
1.0
 40
1.0
 40
1.0
 10
11.6233953353
 20
6.414369297
 30
0.0
 10
11.6134147975
 20
6.4143726948
 30
0.0
 10
11.5933066677
 20
6.4156671971
 30
0.0
 10
11.5633943715
 20
6.4214133927
 30
0.0
 10
11.5338454794
 20
6.4309218793
 30
0.0
 10
11.504897787
 20
6.4441022774
 30
0.0
 10
11.4767528038
 20
6.4608359065
 30
0.0
 10
11.4399537336
 20
6.4881347462
 30
0.0
 10
11.4106392424
 20
6.5172371111
 30
0.0
 10
11.3875972863
 20
6.5449936133
 30
0.0
 10
11.3761326038
 20
6.5599083262
 30
0.0
 10
11.3650388891
 20
6.5754590981
 30
0.0
 10
11.3543229204
 20
6.5916142186
 30
0.0
 10
11.3439863563
 20
6.6083345147
 30
0.0
 10
11.3340294401
 20
6.625581745
 30
0.0
 10
11.3244553957
 20
6.6433200692
 30
0.0
 10
11.315223493
 20
6.6614919697
 30
0.0
 10
11.3062874502
 20
6.6800400076
 30
0.0
 10
11.2976004789
 20
6.6989043593
 30
0.0
 10
11.2905950806
 20
6.7148382721
 30
0.0
 10
11.2851313462
 20
6.7277162666
 30
0.0
 10
11.2811070901
 20
6.7374470345
 30
0.0
 10
11.2771357809
 20
6.7472206247
 30
0.0
 10
11.2718519012
 20
6.7602876331
 30
0.0
 10
11.2651820385
 20
6.7766115262
 30
0.0
 10
11.2567721172
 20
6.7959931811
 30
0.0
 10
11.250652172
 20
6.8086700604
 30
0.0
 10
11.2474125506
 20
6.8148910745
 30
0.0
  0
LINE
  5
344
100
AcDbEntity
  8
0
100
AcDbLine
 62
9
  6
CONTINUOUS
 10
11.2587014381
 20
5.945802142
 11
11.269616486
 21
5.9472848294
  0
LINE
  5
345
100
AcDbEntity
  8
0
100
AcDbLine
 62
9
  6
CONTINUOUS
 10
11.269616486
 20
5.9472848294
 11
11.3952920186
 21
5.9643810807
  0
SPLINE
  5
346
100
AcDbEntity
  8
0
100
AcDbSpline
 62
9
  6
CONTINUOUS
 70
0
 71
3
 72
9
 73
5
 74
0
 42
0.0000001
 43
0.0000001
 44
0.0000000001
 40
0.0
 40
0.0
 40
0.0
 40
0.0
 40
0.5125430338
 40
1.0
 40
1.0
 40
1.0
 40
1.0
 10
11.6171340769
 20
6.386257105
 30
0.0
 10
11.6192115086
 20
6.3877306749
 30
0.0
 10
11.6230212937
 20
6.3909704278
 30
0.0
 10
11.6261301154
 20
6.3949004536
 30
0.0
 10
11.627409262
 20
6.3969574997
 30
0.0
  0
SPLINE
  5
347
100
AcDbEntity
  8
0
100
AcDbSpline
 62
9
  6
CONTINUOUS
 70
0
 71
3
 72
15
 73
11
 74
0
 42
0.0000001
 43
0.0000001
 44
0.0000000001
 40
0.0
 40
0.0
 40
0.0
 40
0.0
 40
0.1213317597
 40
0.2482159018
 40
0.3784090367
 40
0.5096845977
 40
0.6396651503
 40
0.7660414632
 40
0.8867820665
 40
1.0
 40
1.0
 40
1.0
 40
1.0
 10
10.8224583504
 20
6.3862876809
 30
0.0
 10
10.820758022
 20
6.3893163674
 30
0.0
 10
10.8169265211
 20
6.3953187485
 30
0.0
 10
10.8102193644
 20
6.4038444311
 30
0.0
 10
10.802560335
 20
6.4119237373
 30
0.0
 10
10.7941488161
 20
6.4193498783
 30
0.0
 10
10.7851969398
 20
6.4259327029
 30
0.0
 10
10.7759328504
 20
6.4315071557
 30
0.0
 10
10.7665937073
 20
6.4359276212
 30
0.0
 10
10.7602423499
 20
6.4381126773
 30
0.0
 10
10.7571141244
 20
6.4389604351
 30
0.0
  0
SPLINE
  5
348
100
AcDbEntity
  8
0
100
AcDbSpline
 62
9
  6
CONTINUOUS
 70
0
 71
3
 72
22
 73
18
 74
0
 42
0.0000001
 43
0.0000001
 44
0.0000000001
 40
0.0
 40
0.0
 40
0.0
 40
0.0
 40
0.1833421189
 40
0.3508984581
 40
0.5016100744
 40
0.5703600511
 40
0.6345024754
 40
0.693785267
 40
0.7480521492
 40
0.7971471835
 40
0.8411236062
 40
0.8806496233
 40
0.8992725155
 40
0.9176133845
 40
0.9362275467
 40
0.9557363439
 40
1.0
 40
1.0
 40
1.0
 40
1.0
 10
10.4470340152
 20
6.3002248403
 30
0.0
 10
10.4502747879
 20
6.3020865132
 30
0.0
 10
10.4563882138
 20
6.3058092514
 30
0.0
 10
10.4647912518
 20
6.3116462689
 30
0.0
 10
10.4709425751
 20
6.3166027591
 30
0.0
 10
10.4751700268
 20
6.3205498436
 30
0.0
 10
10.477881468
 20
6.3233807874
 30
0.0
 10
10.4802043135
 20
6.3261647558
 30
0.0
 10
10.482107507
 20
6.3288855296
 30
0.0
 10
10.4835507865
 20
6.3315294651
 30
0.0
 10
10.4844768212
 20
6.3340818452
 30
0.0
 10
10.4847633844
 20
6.3361705505
 30
0.0
 10
10.484611058
 20
6.3377293206
 30
0.0
 10
10.4843036618
 20
6.3388264
 30
0.0
 10
10.4837859755
 20
6.3398626465
 30
0.0
 10
10.4827551111
 20
6.3411999416
 30
0.0
 10
10.4816718109
 20
6.3419771351
 30
0.0
 10
10.4808765013
 20
6.3424033483
 30
0.0
  0
SPLINE
  5
349
100
AcDbEntity
  8
0
100
AcDbSpline
 62
9
  6
CONTINUOUS
 70
0
 71
3
 72
15
 73
11
 74
0
 42
0.0000001
 43
0.0000001
 44
0.0000000001
 40
0.0
 40
0.0
 40
0.0
 40
0.0
 40
0.1255558892
 40
0.2562386648
 40
0.389251463
 40
0.5220414329
 40
0.6519634131
 40
0.7764516397
 40
0.8932207946
 40
1.0
 40
1.0
 40
1.0
 40
1.0
 10
10.8777000434
 20
6.4675697288
 30
0.0
 10
10.8754097642
 20
6.469974801
 30
0.0
 10
10.8705748875
 20
6.4747317993
 30
0.0
 10
10.8628335559
 20
6.4815276179
 30
0.0
 10
10.8545851999
 20
6.4880129881
 30
0.0
 10
10.846020283
 20
6.4940389997
 30
0.0
 10
10.8373324767
 20
6.4994728089
 30
0.0
 10
10.828715388
 20
6.5041914208
 30
0.0
 10
10.8203668886
 20
6.5080865174
 30
0.0
 10
10.8148300559
 20
6.5101855376
 30
0.0
 10
10.8121437884
 20
6.511058138
 30
0.0
  0
SPLINE
  5
34A
100
AcDbEntity
  8
0
100
AcDbSpline
 62
9
  6
CONTINUOUS
 70
0
 71
3
 72
15
 73
11
 74
0
 42
0.0000001
 43
0.0000001
 44
0.0000000001
 40
0.0
 40
0.0
 40
0.0
 40
0.0
 40
0.1255555723
 40
0.2562380517
 40
0.3892506086
 40
0.5220404251
 40
0.6519623734
 40
0.7764507279
 40
0.8932202122
 40
1.0
 40
1.0
 40
1.0
 40
1.0
 10
11.216936881
 20
6.4675697289
 30
0.0
 10
11.2192271438
 20
6.4699747944
 30
0.0
 10
11.2240619853
 20
6.4747317827
 30
0.0
 10
11.2318032624
 20
6.4815275924
 30
0.0
 10
11.2400515678
 20
6.488012958
 30
0.0
 10
11.2486164442
 20
6.4940389655
 30
0.0
 10
11.2573042251
 20
6.4994727679
 30
0.0
 10
11.2659213081
 20
6.5041913667
 30
0.0
 10
11.2742698259
 20
6.5080864393
 30
0.0
 10
11.279806682
 20
6.5101854289
 30
0.0
 10
11.2824929651
 20
6.51105801
 30
0.0
  0
SPLINE
  5
34B
100
AcDbEntity
  8
0
100
AcDbSpline
 62
9
  6
CONTINUOUS
 70
0
 71
3
 72
15
 73
11
 74
0
 42
0.0000001
 43
0.0000001
 44
0.0000000001
 40
0.0
 40
0.0
 40
0.0
 40
0.0
 40
0.1213322755
 40
0.2482168306
 40
0.3784102305
 40
0.5096858876
 40
0.6396663591
 40
0.7660424217
 40
0.8867826163
 40
1.0
 40
1.0
 40
1.0
 40
1.0
 10
11.272177585
 20
6.3862876809
 30
0.0
 10
11.273877964
 20
6.3893163754
 30
0.0
 10
11.2777095645
 20
6.3953187658
 30
0.0
 10
11.2844168609
 20
6.4038444493
 30
0.0
 10
11.2920760159
 20
6.4119237419
 30
0.0
 10
11.3004876407
 20
6.4193498577
 30
0.0
 10
11.3094395991
 20
6.4259326506
 30
0.0
 10
11.3187037453
 20
6.43150707
 30
0.0
 10
11.3280429194
 20
6.4359275062
 30
0.0
 10
11.3343942862
 20
6.4381125503
 30
0.0
 10
11.3375225129
 20
6.4389603042
 30
0.0
  0
SPLINE
  5
34C
100
AcDbEntity
  8
0
100
AcDbSpline
 62
9
  6
CONTINUOUS
 70
0
 71
3
 72
22
 73
18
 74
0
 42
0.0000001
 43
0.0000001
 44
0.0000000001
 40
0.0
 40
0.0
 40
0.0
 40
0.0
 40
0.0442639142
 40
0.0637721522
 40
0.0823857367
 40
0.100726264
 40
0.1193490595
 40
0.1588753431
 40
0.2028522783
 40
0.2519477293
 40
0.3062146664
 40
0.3654974372
 40
0.4296398442
 40
0.4983897291
 40
0.6491013132
 40
0.8166581062
 40
1.0
 40
1.0
 40
1.0
 40
1.0
 10
11.6137601465
 20
6.3424033888
 30
0.0
 10
11.6129648373
 20
6.3419771664
 30
0.0
 10
11.6118815395
 20
6.3411999821
 30
0.0
 10
11.6108507025
 20
6.3398626898
 30
0.0
 10
11.61033305
 20
6.3388264619
 30
0.0
 10
11.6100256792
 20
6.337729399
 30
0.0
 10
11.6098733691
 20
6.3361706338
 30
0.0
 10
11.61015991
 20
6.3340819199
 30
0.0
 10
11.6110858594
 20
6.3315294884
 30
0.0
 10
11.6125290622
 20
6.3288854902
 30
0.0
 10
11.6144322324
 20
6.3261646909
 30
0.0
 10
11.6167551149
 20
6.3233807575
 30
0.0
 10
11.6194666022
 20
6.3205498693
 30
0.0
 10
11.6236940882
 20
6.3166028382
 30
0.0
 10
11.6298454028
 20
6.3116463499
 30
0.0
 10
11.638248349
 20
6.3058092179
 30
0.0
 10
11.6443617893
 20
6.3020865015
 30
0.0
 10
11.6476026052
 20
6.3002249233
 30
0.0
  0
SPLINE
  5
34D
100
AcDbEntity
  8
0
100
AcDbSpline
 62
9
  6
CONTINUOUS
 70
0
 71
3
 72
14
 73
10
 74
0
 42
0.0000001
 43
0.0000001
 44
0.0000000001
 40
0.0
 40
0.0
 40
0.0
 40
0.0
 40
0.2755011489
 40
0.407507556
 40
0.5353142074
 40
0.6587076958
 40
0.7775192857
 40
0.8913779173
 40
1.0
 40
1.0
 40
1.0
 40
1.0
 10
10.4470342282
 20
6.300224962
 30
0.0
 10
10.4501109045
 20
6.3049876375
 30
0.0
 10
10.4543239701
 20
6.3122633628
 30
0.0
 10
10.4590301414
 20
6.3222296983
 30
0.0
 10
10.4619728355
 20
6.3295525685
 30
0.0
 10
10.4643471797
 20
6.3367941087
 30
0.0
 10
10.4661242702
 20
6.3439112252
 30
0.0
 10
10.4672509884
 20
6.3508529939
 30
0.0
 10
10.4675370588
 20
6.3554340296
 30
0.0
 10
10.4675372664
 20
6.3576695495
 30
0.0
  0
LINE
  5
34E
100
AcDbEntity
  8
0
100
AcDbLine
 62
9
  6
CONTINUOUS
 10
11.3952920186
 20
5.9643810807
 11
11.3997988872
 21
5.9649991066
  0
SPLINE
  5
34F
100
AcDbEntity
  8
0
100
AcDbSpline
 62
9
  6
CONTINUOUS
 70
0
 71
3
 72
11
 73
7
 74
0
 42
0.0000001
 43
0.0000001
 44
0.0000000001
 40
0.0
 40
0.0
 40
0.0
 40
0.0
 40
0.2477134962
 40
0.4967245738
 40
0.74737837
 40
1.0
 40
1.0
 40
1.0
 40
1.0
 10
11.3997988872
 20
5.9649991066
 30
0.0
 10
11.4460210789
 20
5.9713798195
 30
0.0
 10
11.5383736166
 20
5.9867383462
 30
0.0
 10
11.6758428661
 20
6.0173967459
 30
0.0
 10
11.8123462842
 20
6.055679536
 30
0.0
 10
11.902182234
 20
6.0861136871
 30
0.0
 10
11.9468383649
 20
6.1025504261
 30
0.0
  0
SPLINE
  5
350
100
AcDbEntity
  8
0
100
AcDbSpline
 62
9
  6
CONTINUOUS
 70
0
 71
3
 72
14
 73
10
 74
0
 42
0.0000001
 43
0.0000001
 44
0.0000000001
 40
0.0
 40
0.0
 40
0.0
 40
0.0
 40
0.1332238469
 40
0.2674963924
 40
0.4008422713
 40
0.531553454
 40
0.6579877213
 40
0.778809216
 40
1.0
 40
1.0
 40
1.0
 40
1.0
 10
10.2945491319
 20
6.2439260066
 30
0.0
 10
10.2938739957
 20
6.2402578537
 30
0.0
 10
10.29209438
 20
6.2329644386
 30
0.0
 10
10.2882466578
 20
6.2223999861
 30
0.0
 10
10.2832904432
 20
6.2123836798
 30
0.0
 10
10.2773579153
 20
6.2031739687
 30
0.0
 10
10.2705867302
 20
6.1949998837
 30
0.0
 10
10.2609879323
 20
6.1860441179
 30
0.0
 10
10.2526066995
 20
6.1809786644
 30
0.0
 10
10.2467955506
 20
6.1788391043
 30
0.0
  0
SPLINE
  5
351
100
AcDbEntity
  8
0
100
AcDbSpline
 62
9
  6
CONTINUOUS
 70
0
 71
3
 72
15
 73
11
 74
0
 42
0.0000001
 43
0.0000001
 44
0.0000000001
 40
0.0
 40
0.0
 40
0.0
 40
0.0
 40
0.1373511418
 40
0.274067871
 40
0.4082695662
 40
0.5384595433
 40
0.6633174468
 40
0.781950571
 40
0.8940957015
 40
1.0
 40
1.0
 40
1.0
 40
1.0
 10
10.8224583818
 20
6.1108303438
 30
0.0
 10
10.8221972405
 20
6.1070825488
 30
0.0
 10
10.8212486477
 20
6.0996273121
 30
0.0
 10
10.8185945531
 20
6.088756391
 30
0.0
 10
10.8147685293
 20
6.0784462631
 30
0.0
 10
10.809870368
 20
6.0689614268
 30
0.0
 10
10.8040182106
 20
6.0605430681
 30
0.0
 10
10.797355629
 20
6.0534034677
 30
0.0
 10
10.7900459361
 20
6.0477344217
 30
0.0
 10
10.7847157206
 20
6.04496328
 30
0.0
 10
10.7820215303
 20
6.0438991297
 30
0.0
  0
SPLINE
  5
352
100
AcDbEntity
  8
0
100
AcDbSpline
 62
9
  6
CONTINUOUS
 70
0
 71
3
 72
15
 73
11
 74
0
 42
0.0000001
 43
0.0000001
 44
0.0000000001
 40
0.0
 40
0.0
 40
0.0
 40
0.0
 40
0.1385856081
 40
0.2763244629
 40
0.411239145
 40
0.541753482
 40
0.6664870555
 40
0.7845160366
 40
0.895583653
 40
1.0
 40
1.0
 40
1.0
 40
1.0
 10
10.828707298
 20
6.109836183
 30
0.0
 10
10.8284668691
 20
6.1060900545
 30
0.0
 10
10.8275731588
 20
6.0986408854
 30
0.0
 10
10.8250366004
 20
6.0877719314
 30
0.0
 10
10.8213612716
 20
6.0774622799
 30
0.0
 10
10.8166428619
 20
6.0679757258
 30
0.0
 10
10.8109947038
 20
6.0595526336
 30
0.0
 10
10.8045544501
 20
6.0524045115
 30
0.0
 10
10.7974784984
 20
6.0467225387
 30
0.0
 10
10.7923005938
 20
6.0439345579
 30
0.0
 10
10.7896827221
 20
6.0428640275
 30
0.0
  0
SPLINE
  5
353
100
AcDbEntity
  8
0
100
AcDbSpline
 62
9
  6
CONTINUOUS
 70
0
 71
3
 72
15
 73
11
 74
0
 42
0.0000001
 43
0.0000001
 44
0.0000000001
 40
0.0
 40
0.0
 40
0.0
 40
0.0
 40
0.1385856005
 40
0.2763244489
 40
0.4112391268
 40
0.5417534626
 40
0.6664870381
 40
0.7845160239
 40
0.8955836469
 40
1.0
 40
1.0
 40
1.0
 40
1.0
 10
11.2659293945
 20
6.1098361831
 30
0.0
 10
11.2661698233
 20
6.1060900554
 30
0.0
 10
11.2670635333
 20
6.0986408877
 30
0.0
 10
11.2696000909
 20
6.0877719357
 30
0.0
 10
11.2732754181
 20
6.0774622857
 30
0.0
 10
11.2779938259
 20
6.0679757323
 30
0.0
 10
11.2836419818
 20
6.0595526402
 30
0.0
 10
11.2900822331
 20
6.0524045173
 30
0.0
 10
11.2971581821
 20
6.0467225427
 30
0.0
 10
11.3023360852
 20
6.0439345599
 30
0.0
 10
11.3049539561
 20
6.0428640283
 30
0.0
  0
SPLINE
  5
354
100
AcDbEntity
  8
0
100
AcDbSpline
 62
9
  6
CONTINUOUS
 70
0
 71
3
 72
15
 73
11
 74
0
 42
0.0000001
 43
0.0000001
 44
0.0000000001
 40
0.0
 40
0.0
 40
0.0
 40
0.0
 40
0.1373511421
 40
0.2740678714
 40
0.4082695666
 40
0.5384595435
 40
0.6633174469
 40
0.7819505709
 40
0.8940957013
 40
1.0
 40
1.0
 40
1.0
 40
1.0
 10
11.2721782947
 20
6.1108303437
 30
0.0
 10
11.272439436
 20
6.1070825488
 30
0.0
 10
11.2733880288
 20
6.0996273121
 30
0.0
 10
11.2760421234
 20
6.0887563911
 30
0.0
 10
11.2798681472
 20
6.0784462633
 30
0.0
 10
11.2847663085
 20
6.0689614271
 30
0.0
 10
11.2906184658
 20
6.0605430685
 30
0.0
 10
11.2972810474
 20
6.0534034681
 30
0.0
 10
11.3045907403
 20
6.0477344222
 30
0.0
 10
11.3099209558
 20
6.0449632805
 30
0.0
 10
11.3126151461
 20
6.0438991303
 30
0.0
  0
SPLINE
  5
355
100
AcDbEntity
  8
0
100
AcDbSpline
 62
9
  6
CONTINUOUS
 70
0
 71
3
 72
14
 73
10
 74
0
 42
0.0000001
 43
0.0000001
 44
0.0000000001
 40
0.0
 40
0.0
 40
0.0
 40
0.0
 40
0.1332225142
 40
0.2674946496
 40
0.400840881
 40
0.5315529331
 40
0.6579882387
 40
0.778810506
 40
1.0
 40
1.0
 40
1.0
 40
1.0
 10
11.8000875433
 20
6.2439260068
 30
0.0
 10
11.8007630019
 20
6.2402579931
 30
0.0
 10
11.8025432393
 20
6.2329648678
 30
0.0
 10
11.8063917719
 20
6.2224008883
 30
0.0
 10
11.8113486655
 20
6.2123850357
 30
0.0
 10
11.817281718
 20
6.2031757381
 30
0.0
 10
11.8240532477
 20
6.1950020031
 30
0.0
 10
11.8336522153
 20
6.1860466209
 30
0.0
 10
11.842033309
 20
6.1809812657
 30
0.0
 10
11.84784433
 20
6.1788416615
 30
0.0
  0
LINE
  5
356
100
AcDbEntity
  8
0
100
AcDbLine
 62
9
  6
CONTINUOUS
 10
10.699345636
 20
5.9643809364
 11
10.8249059017
 21
5.9473003647
  0
LINE
  5
357
100
AcDbEntity
  8
0
100
AcDbLine
 62
9
  6
CONTINUOUS
 10
10.8249059017
 20
5.9473003647
 11
10.8357022556
 21
5.9458337805
  0
LINE
  5
358
100
AcDbEntity
  8
0
100
AcDbLine
 62
9
  6
CONTINUOUS
 10
10.8357022556
 20
5.9458337805
 11
10.8359352385
 21
5.945802142
  0
SPLINE
  5
359
100
AcDbEntity
  8
0
100
AcDbSpline
 62
9
  6
CONTINUOUS
 70
0
 71
3
 72
11
 73
7
 74
0
 42
0.0000001
 43
0.0000001
 44
0.0000000001
 40
0.0
 40
0.0
 40
0.0
 40
0.0
 40
0.252621669
 40
0.5032755228
 40
0.7522865836
 40
1.0
 40
1.0
 40
1.0
 40
1.0
 10
10.1477983127
 20
6.1025504258
 30
0.0
 10
10.1924545978
 20
6.0861136333
 30
0.0
 10
10.2822908604
 20
6.0556793804
 30
0.0
 10
10.4187947524
 20
6.0173965037
 30
0.0
 10
10.5562644577
 20
5.9867380639
 30
0.0
 10
10.6486172885
 20
5.9713795391
 30
0.0
 10
10.6948396214
 20
5.9649988424
 30
0.0
  0
LINE
  5
35A
100
AcDbEntity
  8
0
100
AcDbLine
 62
9
  6
CONTINUOUS
 10
10.6948396214
 20
5.9649988424
 11
10.699345636
 21
5.9643809364
  0
LINE
  5
35B
100
AcDbEntity
  8
0
100
AcDbLine
 62
9
  6
CONTINUOUS
 10
10.1658094314
 20
6.1025504261
 11
10.1621244697
 21
6.1039057424
  0
SPLINE
  5
35C
100
AcDbEntity
  8
0
100
AcDbSpline
 62
9
  6
CONTINUOUS
 70
0
 71
3
 72
11
 73
7
 74
0
 42
0.0000001
 43
0.0000001
 44
0.0000000001
 40
0.0
 40
0.0
 40
0.0
 40
0.0
 40
0.2477521674
 40
0.4967884149
 40
0.7474374547
 40
1.0
 40
1.0
 40
1.0
 40
1.0
 10
10.695326818
 20
5.9674802783
 30
0.0
 10
10.6505888655
 20
5.9739744944
 30
0.0
 10
10.5612113615
 20
5.9893964704
 30
0.0
 10
10.4281678133
 20
6.0196676296
 30
0.0
 10
10.2960428074
 20
6.0570839001
 30
0.0
 10
10.2090574619
 20
6.0866319698
 30
0.0
 10
10.1658094314
 20
6.1025504261
 30
0.0
  0
SPLINE
  5
35D
100
AcDbEntity
  8
0
100
AcDbSpline
 62
9
  6
CONTINUOUS
 70
0
 71
3
 72
11
 73
7
 74
0
 42
0.0000001
 43
0.0000001
 44
0.0000000001
 40
0.0
 40
0.0
 40
0.0
 40
0.0
 40
0.2288858292
 40
0.4727800871
 40
0.7302635599
 40
1.0
 40
1.0
 40
1.0
 40
1.0
 10
11.377280847
 20
5.9643810812
 30
0.0
 10
11.3687423325
 20
5.9632181235
 30
0.0
 10
11.3510802255
 20
5.9609987347
 30
0.0
 10
11.3237441655
 20
5.958047321
 30
0.0
 10
11.2948339957
 20
5.9553815425
 30
0.0
 10
11.2750440559
 20
5.9538377699
 30
0.0
 10
11.2649146664
 20
5.9531122612
 30
0.0
  0
SPLINE
  5
35E
100
AcDbEntity
  8
0
100
AcDbSpline
 62
9
  6
CONTINUOUS
 70
0
 71
3
 72
15
 73
11
 74
0
 42
0.0000001
 43
0.0000001
 44
0.0000000001
 40
0.0
 40
0.0
 40
0.0
 40
0.0
 40
0.1184769642
 40
0.2425099294
 40
0.3703041513
 40
0.4999994325
 40
0.6296948058
 40
0.7574893788
 40
0.8815227105
 40
1.0
 40
1.0
 40
1.0
 40
1.0
 10
11.2649146664
 20
5.9531122612
 30
0.0
 10
11.2477590457
 20
5.9518835047
 30
0.0
 10
11.2126156146
 20
5.9497446211
 30
0.0
 10
11.1589027449
 20
5.9474806785
 30
0.0
 10
11.1035305791
 20
5.9461080473
 30
0.0
 10
11.0473214392
 20
5.9456480907
 30
0.0
 10
10.9911122475
 20
5.9461079479
 30
0.0
 10
10.9357399616
 20
5.9474804772
 30
0.0
 10
10.8820269364
 20
5.949744322
 30
0.0
 10
10.8468833997
 20
5.9518831236
 30
0.0
 10
10.8297277293
 20
5.9531118469
 30
0.0
  0
SPLINE
  5
35F
100
AcDbEntity
  8
0
100
AcDbSpline
 62
9
  6
CONTINUOUS
 70
0
 71
3
 72
11
 73
7
 74
0
 42
0.0000001
 43
0.0000001
 44
0.0000000001
 40
0.0
 40
0.0
 40
0.0
 40
0.0
 40
0.2697368218
 40
0.5272201178
 40
0.7711152245
 40
1.0
 40
1.0
 40
1.0
 40
1.0
 10
10.8297277293
 20
5.9531118469
 30
0.0
 10
10.8195978097
 20
5.9538373719
 30
0.0
 10
10.7998068547
 20
5.9553811881
 30
0.0
 10
10.770895176
 20
5.9580470838
 30
0.0
 10
10.7435577308
 20
5.9609985314
 30
0.0
 10
10.7258947304
 20
5.9632180073
 30
0.0
 10
10.7173558302
 20
5.9643810812
 30
0.0
  0
SPLINE
  5
360
100
AcDbEntity
  8
0
100
AcDbSpline
 62
9
  6
CONTINUOUS
 70
0
 71
3
 72
11
 73
7
 74
0
 42
0.0000001
 43
0.0000001
 44
0.0000000001
 40
0.0
 40
0.0
 40
0.0
 40
0.0
 40
0.2525625423
 40
0.5032115821
 40
0.7522478318
 40
1.0
 40
1.0
 40
1.0
 40
1.0
 10
11.9288272443
 20
6.1025504258
 30
0.0
 10
11.8855792865
 20
6.0866319999
 30
0.0
 10
11.7985940916
 20
6.0570839747
 30
0.0
 10
11.6664693158
 20
6.0196677481
 30
0.0
 10
11.5334259997
 20
5.9893966122
 30
0.0
 10
11.4440486522
 20
5.9739746325
 30
0.0
 10
11.3993107779
 20
5.9674804114
 30
0.0
  0
LINE
  5
361
100
AcDbEntity
  8
0
100
AcDbLine
 62
9
  6
CONTINUOUS
 10
11.9325122073
 20
6.1039057424
 11
11.9288272443
 21
6.1025504258
  0
SPLINE
  5
362
100
AcDbEntity
  8
0
100
AcDbSpline
 62
9
  6
CONTINUOUS
 70
0
 71
3
 72
11
 73
7
 74
0
 42
0.0000001
 43
0.0000001
 44
0.0000000001
 40
0.0
 40
0.0
 40
0.0
 40
0.0
 40
0.2058865719
 40
0.4393436112
 40
0.7036960851
 40
1.0
 40
1.0
 40
1.0
 40
1.0
 10
10.7363508104
 20
6.8042914581
 30
0.0
 10
10.736814386
 20
6.8052556603
 30
0.0
 10
10.7380540323
 20
6.8071954471
 30
0.0
 10
10.7405474128
 20
6.8098880462
 30
0.0
 10
10.7437476246
 20
6.8125093814
 30
0.0
 10
10.7461919943
 20
6.814103977
 30
0.0
 10
10.7475153006
 20
6.8148910686
 30
0.0
  0
LINE
  5
363
100
AcDbEntity
  8
0
100
AcDbLine
 62
9
  6
CONTINUOUS
 10
11.4025640773
 20
6.7835720011
 11
11.4024840734
 21
6.7908757976
  0
SPLINE
  5
364
100
AcDbEntity
  8
0
100
AcDbSpline
 62
9
  6
CONTINUOUS
 70
0
 71
3
 72
23
 73
19
 74
0
 42
0.0000001
 43
0.0000001
 44
0.0000000001
 40
0.0
 40
0.0
 40
0.0
 40
0.0
 40
0.0693179084
 40
0.1371400515
 40
0.203468703
 40
0.268376056
 40
0.3319830266
 40
0.3944321738
 40
0.4558847951
 40
0.5165277254
 40
0.5765736811
 40
0.6362523238
 40
0.695802444
 40
0.7554661499
 40
0.8154914571
 40
0.8761235913
 40
0.9375754131
 40
1.0
 40
1.0
 40
1.0
 40
1.0
 10
10.8224583819
 20
6.3862876811
 30
0.0
 10
10.8160484534
 20
6.3790911658
 30
0.0
 10
10.8029056573
 20
6.3652555246
 30
0.0
 10
10.7820673177
 20
6.3460927365
 30
0.0
 10
10.7604008348
 20
6.328834957
 30
0.0
 10
10.7379989684
 20
6.3135584828
 30
0.0
 10
10.7149501273
 20
6.3003258803
 30
0.0
 10
10.6913448922
 20
6.2891937456
 30
0.0
 10
10.6672793105
 20
6.2802090552
 30
0.0
 10
10.6428498909
 20
6.2734197736
 30
0.0
 10
10.6181588507
 20
6.2688532444
 30
0.0
 10
10.5933076548
 20
6.2665399896
 30
0.0
 10
10.5684019979
 20
6.2664883465
 30
0.0
 10
10.5435467042
 20
6.2687051061
 30
0.0
 10
10.5188458897
 20
6.2731845857
 30
0.0
 10
10.4944025636
 20
6.2799110259
 30
0.0
 10
10.4703287307
 20
6.2888574067
 30
0.0
 10
10.4547280763
 20
6.2962088608
 30
0.0
 10
10.4470342282
 20
6.3002248155
 30
0.0
  0
SPLINE
  5
365
100
AcDbEntity
  8
0
100
AcDbSpline
 62
9
  6
CONTINUOUS
 70
0
 71
3
 72
11
 73
7
 74
0
 42
0.0000001
 43
0.0000001
 44
0.0000000001
 40
0.0
 40
0.0
 40
0.0
 40
0.0
 40
0.2526115436
 40
0.5032645103
 40
0.7522809199
 40
1.0
 40
1.0
 40
1.0
 40
1.0
 10
10.2945491319
 20
6.2439260066
 30
0.0
 10
10.3376478417
 20
6.2280625961
 30
0.0
 10
10.4243470535
 20
6.1986759703
 30
0.0
 10
10.5560759558
 20
6.1616656172
 30
0.0
 10
10.6887336703
 20
6.1319702351
 30
0.0
 10
10.7778534418
 20
6.1170463788
 30
0.0
 10
10.8224583819
 20
6.1108303438
 30
0.0
  0
SPLINE
  5
366
100
AcDbEntity
  8
0
100
AcDbSpline
 62
9
  6
CONTINUOUS
 70
0
 71
3
 72
33
 73
29
 74
0
 42
0.0000001
 43
0.0000001
 44
0.0000000001
 40
0.0
 40
0.0
 40
0.0
 40
0.0
 40
0.1420059559
 40
0.1762408473
 40
0.2096141172
 40
0.2733053266
 40
0.3035859933
 40
0.3327959589
 40
0.3609907356
 40
0.3882728891
 40
0.4147958832
 40
0.4407561693
 40
0.4663880686
 40
0.4919479622
 40
0.5176981914
 40
0.5438895502
 40
0.570742519
 40
0.5984389381
 40
0.6271095492
 40
0.6568372056
 40
0.6876517987
 40
0.7195392464
 40
0.7862032412
 40
0.8208227819
 40
0.8560886919
 40
0.8918313174
 40
0.9278672709
 40
1.0
 40
1.0
 40
1.0
 40
1.0
 10
10.4470340043
 20
6.408667087
 30
0.0
 10
10.4470308428
 20
6.4317176985
 30
0.0
 10
10.4428722161
 20
6.4606504838
 30
0.0
 10
10.4313925666
 20
6.4926970212
 30
0.0
 10
10.4225543351
 20
6.5121123486
 30
0.0
 10
10.4115581424
 20
6.529784446
 30
0.0
 10
10.3985420696
 20
6.5450026812
 30
0.0
 10
10.3881718626
 20
6.5547950346
 30
0.0
 10
10.3771421768
 20
6.5630526291
 30
0.0
 10
10.3655622994
 20
6.5696869479
 30
0.0
 10
10.3535532191
 20
6.5746289603
 30
0.0
 10
10.3412382583
 20
6.5778171618
 30
0.0
 10
10.32875018
 20
6.5792182061
 30
0.0
 10
10.3162241569
 20
6.5788066808
 30
0.0
 10
10.303797225
 20
6.5765921706
 30
0.0
 10
10.2916060696
 20
6.5725923057
 30
0.0
 10
10.2797793316
 20
6.5668581822
 30
0.0
 10
10.2684443939
 20
6.559447113
 30
0.0
 10
10.2577159874
 20
6.5504433054
 30
0.0
 10
10.2477083237
 20
6.5399384815
 30
0.0
 10
10.2385215474
 20
6.5280438985
 30
0.0
 10
10.2273378751
 20
6.5102405023
 30
0.0
 10
10.218403819
 20
6.4904163245
 30
0.0
 10
10.2117827063
 20
6.4692479772
 30
0.0
 10
10.2079524324
 20
6.4525167262
 30
0.0
 10
10.2053682307
 20
6.4353169706
 30
0.0
 10
10.2036158653
 20
6.4120087313
 30
0.0
 10
10.204231402
 20
6.3943773925
 30
0.0
 10
10.2055062967
 20
6.3827383189
 30
0.0
  0
SPLINE
  5
367
100
AcDbEntity
  8
0
100
AcDbSpline
 62
9
  6
CONTINUOUS
 70
0
 71
3
 72
10
 73
6
 74
0
 42
0.0000001
 43
0.0000001
 44
0.0000000001
 40
0.0
 40
0.0
 40
0.0
 40
0.0
 40
0.2404603552
 40
0.488014298
 40
1.0
 40
1.0
 40
1.0
 40
1.0
 10
11.2721782947
 20
6.386287681
 30
0.0
 10
11.2675315479
 20
6.3926503948
 30
0.0
 10
11.2581753672
 20
6.4056184448
 30
0.0
 10
11.2393990279
 20
6.4324706432
 30
0.0
 10
11.2257325104
 20
6.4532848954
 30
0.0
 10
11.2169368512
 20
6.4675697289
 30
0.0
  0
SPLINE
  5
368
100
AcDbEntity
  8
0
100
AcDbSpline
 62
9
  6
CONTINUOUS
 70
0
 71
3
 72
19
 73
15
 74
0
 42
0.0000001
 43
0.0000001
 44
0.0000000001
 40
0.0
 40
0.0
 40
0.0
 40
0.0
 40
0.0523633921
 40
0.1086691513
 40
0.1684120615
 40
0.2310993072
 40
0.3630973738
 40
0.4999997436
 40
0.6369022155
 40
0.7689004893
 40
0.8315878023
 40
0.891330773
 40
0.9476365997
 40
1.0
 40
1.0
 40
1.0
 40
1.0
 10
10.8287072823
 20
6.109836183
 30
0.0
 10
10.8362768895
 20
6.1087123021
 30
0.0
 10
10.8520191525
 20
6.1066001817
 30
0.0
 10
10.8764837036
 20
6.1038907791
 30
0.0
 10
10.9025012684
 20
6.1015474687
 30
0.0
 10
10.9395916615
 20
6.0988991274
 30
0.0
 10
10.9880106334
 20
6.0967010227
 30
0.0
 10
11.0473182401
 20
6.0958216531
 30
0.0
 10
11.1066258772
 20
6.096701051
 30
0.0
 10
11.1550449017
 20
6.0988991864
 30
0.0
 10
11.1921353483
 20
6.1015474662
 30
0.0
 10
11.2181529421
 20
6.1038907733
 30
0.0
 10
11.2426175155
 20
6.1066001536
 30
0.0
 10
11.25835979
 20
6.1087122762
 30
0.0
 10
11.2659293946
 20
6.1098361831
 30
0.0
  0
SPLINE
  5
369
100
AcDbEntity
  8
0
100
AcDbSpline
 62
9
  6
CONTINUOUS
 70
0
 71
3
 72
10
 73
6
 74
0
 42
0.0000001
 43
0.0000001
 44
0.0000000001
 40
0.0
 40
0.0
 40
0.0
 40
0.0
 40
0.5119860028
 40
0.7595405433
 40
1.0
 40
1.0
 40
1.0
 40
1.0
 10
10.8776998254
 20
6.4675697288
 30
0.0
 10
10.8689039481
 20
6.4532850169
 30
0.0
 10
10.8552373771
 20
6.4324707864
 30
0.0
 10
10.8364617413
 20
6.4056180888
 30
0.0
 10
10.8271052611
 20
6.3926502623
 30
0.0
 10
10.8224583819
 20
6.3862876811
 30
0.0
  0
SPLINE
  5
36A
100
AcDbEntity
  8
0
100
AcDbSpline
 62
9
  6
CONTINUOUS
 70
0
 71
3
 72
75
 73
71
 74
0
 42
0.0000001
 43
0.0000001
 44
0.0000000001
 40
0.0
 40
0.0
 40
0.0
 40
0.0
 40
0.0607162499
 40
0.1223769978
 40
0.1534576662
 40
0.1846636998
 40
0.215971205
 40
0.2473606364
 40
0.2788159469
 40
0.310323938
 40
0.3418736847
 40
0.3576613177
 40
0.373456089
 40
0.3892570785
 40
0.4050634339
 40
0.4208743604
 40
0.4366891113
 40
0.4445977025
 40
0.4525069888
 40
0.4604168847
 40
0.4683273001
 40
0.4722826976
 40
0.4762381983
 40
0.4801937937
 40
0.4841494461
 40
0.4861273843
 40
0.4881053514
 40
0.4900832742
 40
0.4920616439
 40
0.4940399606
 40
0.4950286648
 40
0.4960178755
 40
0.4970124056
 40
0.4980097204
 40
0.4989997833
 40
0.4999967805
 40
0.5009971959
 40
0.5019889296
 40
0.502983993
 40
0.5039811019
 40
0.5049717655
 40
0.5059604976
 40
0.5079382659
 40
0.5099168676
 40
0.5118948711
 40
0.5138728224
 40
0.5158507655
 40
0.5198064381
 40
0.5237620338
 40
0.5277175364
 40
0.5316729345
 40
0.5395833517
 40
0.5474932483
 40
0.5554025351
 40
0.5633111265
 40
0.5791258777
 40
0.5949368047
 40
0.6107431603
 40
0.6265441503
 40
0.6423389219
 40
0.6581265552
 40
0.6896763024
 40
0.7211842934
 40
0.7526396015
 40
0.7840290294
 40
0.815336528
 40
0.8465425492
 40
0.8776231969
 40
0.9392838833
 40
1.0
 40
1.0
 40
1.0
 40
1.0
 10
11.2169368512
 20
6.4675697289
 30
0.0
 10
11.2091664045
 20
6.4801882519
 30
0.0
 10
11.1938765442
 20
6.50585217
 30
0.0
 10
11.1755581234
 20
6.5385259945
 30
0.0
 10
11.1612238522
 20
6.565167112
 30
0.0
 10
11.1506166927
 20
6.5853993639
 30
0.0
 10
11.1401751945
 20
6.6058021847
 30
0.0
 10
11.1298889676
 20
6.6263517244
 30
0.0
 10
11.1197448124
 20
6.6470262168
 30
0.0
 10
11.1097266954
 20
6.6678054593
 30
0.0
 10
11.1014696063
 20
6.6851880264
 30
0.0
 10
11.094904661
 20
6.6991283523
 30
0.0
 10
11.0899965143
 20
6.7096001534
 30
0.0
 10
11.0851006459
 20
6.7200827398
 30
0.0
 10
11.0802110292
 20
6.7305725931
 30
0.0
 10
11.0753189672
 20
6.7410650096
 30
0.0
 10
11.0712292905
 20
6.7498046942
 30
0.0
 10
11.0679366132
 20
6.7567880091
 30
0.0
 10
11.065450672
 20
6.7620186198
 30
0.0
 10
11.0629395539
 20
6.7672376927
 30
0.0
 10
11.0608137947
 20
6.7715711825
 30
0.0
 10
11.0590786948
 20
6.7750209941
 30
0.0
 10
11.0577536258
 20
6.7775964521
 30
0.0
 10
11.0563952576
 20
6.7801546066
 30
0.0
 10
11.0552229748
 20
6.7822648002
 30
0.0
 10
11.0542465406
 20
6.7839308392
 30
0.0
 10
11.0534886648
 20
6.7851651406
 30
0.0
 10
11.0526977618
 20
6.7863788313
 30
0.0
 10
11.0518596619
 20
6.7875607839
 30
0.0
 10
11.0511041088
 20
6.7885036434
 30
0.0
 10
11.0504516156
 20
6.789215993
 30
0.0
 10
11.0499274993
 20
6.7897186752
 30
0.0
 10
11.0493585522
 20
6.7901741034
 30
0.0
 10
11.0487384393
 20
6.7905598965
 30
0.0
 10
11.0480521733
 20
6.7908234896
 30
0.0
 10
11.047319905
 20
6.7909036945
 30
0.0
 10
11.0465889541
 20
6.7908167367
 30
0.0
 10
11.045899856
 20
6.790560282
 30
0.0
 10
11.0452766073
 20
6.7901777248
 30
0.0
 10
11.0447082751
 20
6.7897208331
 30
0.0
 10
11.0441828087
 20
6.7892181343
 30
0.0
 10
11.0435324414
 20
6.7885034516
 30
0.0
 10
11.0427782651
 20
6.7875597566
 30
0.0
 10
11.0419384821
 20
6.7863790631
 30
0.0
 10
11.0411477472
 20
6.7851651454
 30
0.0
 10
11.0403904244
 20
6.7839304945
 30
0.0
 10
11.0394137025
 20
6.7822646242
 30
0.0
 10
11.0382413599
 20
6.7801544517
 30
0.0
 10
11.0368829934
 20
6.7775962913
 30
0.0
 10
11.0355579197
 20
6.7750208346
 30
0.0
 10
11.0338228229
 20
6.7715710204
 30
0.0
 10
11.0316970541
 20
6.7672375345
 30
0.0
 10
11.0291859274
 20
6.7620184649
 30
0.0
 10
11.0266999891
 20
6.7567878525
 30
0.0
 10
11.0234073139
 20
6.7498045363
 30
0.0
 10
11.0193176405
 20
6.7410648499
 30
0.0
 10
11.0144255758
 20
6.7305724344
 30
0.0
 10
11.009535957
 20
6.7200825818
 30
0.0
 10
11.0046400861
 20
6.7095999962
 30
0.0
 10
10.9997319384
 20
6.6991281953
 30
0.0
 10
10.9931669936
 20
6.6851878689
 30
0.0
 10
10.9849099076
 20
6.6678053001
 30
0.0
 10
10.9748917918
 20
6.6470260576
 30
0.0
 10
10.9647476376
 20
6.6263515663
 30
0.0
 10
10.9544614093
 20
6.6058020307
 30
0.0
 10
10.9440199081
 20
6.5853992176
 30
0.0
 10
10.933412745
 20
6.5651669784
 30
0.0
 10
10.919078467
 20
6.5385258909
 30
0.0
 10
10.9007600847
 20
6.5058521053
 30
0.0
 10
10.8854702513
 20
6.4801882265
 30
0.0
 10
10.8776998254
 20
6.4675697288
 30
0.0
  0
SPLINE
  5
36B
100
AcDbEntity
  8
0
100
AcDbSpline
 62
9
  6
CONTINUOUS
 70
0
 71
3
 72
23
 73
19
 74
0
 42
0.0000001
 43
0.0000001
 44
0.0000000001
 40
0.0
 40
0.0
 40
0.0
 40
0.0
 40
0.062424595
 40
0.1238764427
 40
0.184508586
 40
0.244533896
 40
0.304197603
 40
0.3637477195
 40
0.4234263565
 40
0.4834723055
 40
0.544115227
 40
0.6055678424
 40
0.6680169879
 40
0.7316239471
 40
0.7965312748
 40
0.8628599155
 40
0.9306820817
 40
1.0
 40
1.0
 40
1.0
 40
1.0
 10
11.6476026066
 20
6.3002250298
 30
0.0
 10
11.639908748
 20
6.2962090826
 30
0.0
 10
11.6243080928
 20
6.2888576028
 30
0.0
 10
11.6002342744
 20
6.279911125
 30
0.0
 10
11.5757909421
 20
6.2731846286
 30
0.0
 10
11.5510901132
 20
6.2687051375
 30
0.0
 10
11.5262348066
 20
6.2664883714
 30
0.0
 10
11.5013291375
 20
6.2665399994
 30
0.0
 10
11.4764779285
 20
6.2688532339
 30
0.0
 10
11.4517868729
 20
6.2734197397
 30
0.0
 10
11.4273574379
 20
6.2802090086
 30
0.0
 10
11.4032918475
 20
6.2891937109
 30
0.0
 10
11.3796866059
 20
6.3003258577
 30
0.0
 10
11.3566377435
 20
6.3135584394
 30
0.0
 10
11.3342358433
 20
6.3288348793
 30
0.0
 10
11.3125693461
 20
6.3460926647
 30
0.0
 10
11.2917310263
 20
6.3652555025
 30
0.0
 10
11.2785882318
 20
6.3790911645
 30
0.0
 10
11.2721782947
 20
6.386287681
 30
0.0
  0
SPLINE
  5
36C
100
AcDbEntity
  8
0
100
AcDbSpline
 62
9
  6
CONTINUOUS
 70
0
 71
3
 72
32
 73
28
 74
0
 42
0.0000001
 43
0.0000001
 44
0.0000000001
 40
0.0
 40
0.0
 40
0.0
 40
0.0
 40
0.027029818
 40
0.0548978449
 40
0.0837192375
 40
0.1135920269
 40
0.1765586036
 40
0.2096722429
 40
0.2437434363
 40
0.3141993196
 40
0.3867396944
 40
0.4598685342
 40
0.5320229493
 40
0.6017514337
 40
0.6678939109
 40
0.6994207974
 40
0.7298454271
 40
0.759186094
 40
0.7875115135
 40
0.8149409541
 40
0.8416452186
 40
0.8678374963
 40
0.8937655063
 40
0.9196930738
 40
0.9458837926
 40
0.9725826262
 40
1.0
 40
1.0
 40
1.0
 40
1.0
 10
11.8000875433
 20
6.2439260068
 30
0.0
 10
11.8041496477
 20
6.2454225063
 30
0.0
 10
11.8121995913
 20
6.2490332747
 30
0.0
 10
11.8236572121
 20
6.256060659
 30
0.0
 10
11.8345330411
 20
6.264711737
 30
0.0
 10
11.8483407247
 20
6.2785061835
 30
0.0
 10
11.8602483481
 20
6.2949824931
 30
0.0
 10
11.8700740415
 20
6.3133853171
 30
0.0
 10
11.8787463395
 20
6.333679829
 30
0.0
 10
11.8866035128
 20
6.361062172
 30
0.0
 10
11.891035474
 20
6.3955147659
 30
0.0
 10
11.8904018869
 20
6.4305194101
 30
0.0
 10
11.8847253498
 20
6.4646156878
 30
0.0
 10
11.8742435399
 20
6.4963835833
 30
0.0
 10
11.8616379914
 20
6.5202250137
 30
0.0
 10
11.8495260617
 20
6.5368196181
 30
0.0
 10
11.8397335462
 20
6.5477141268
 30
0.0
 10
11.8291938946
 20
6.5571376418
 30
0.0
 10
11.8180151529
 20
6.5649916942
 30
0.0
 10
11.8063130391
 20
6.5711914691
 30
0.0
 10
11.7942110547
 20
6.5756711984
 30
0.0
 10
11.7818373843
 20
6.5783780515
 30
0.0
 10
11.7693270532
 20
6.5792858632
 30
0.0
 10
11.756817029
 20
6.5783810119
 30
0.0
 10
11.744442741
 20
6.5756818252
 30
0.0
 10
11.7323405226
 20
6.5712173428
 30
0.0
 10
11.7246493194
 20
6.5671619258
 30
0.0
 10
11.7208979581
 20
6.564879659
 30
0.0
  0
SPLINE
  5
36D
100
AcDbEntity
  8
0
100
AcDbSpline
 62
9
  6
CONTINUOUS
 70
0
 71
3
 72
11
 73
7
 74
0
 42
0.0000001
 43
0.0000001
 44
0.0000000001
 40
0.0
 40
0.0
 40
0.0
 40
0.0
 40
0.2477190802
 40
0.49673549
 40
0.7473884558
 40
1.0
 40
1.0
 40
1.0
 40
1.0
 10
11.2721782947
 20
6.1108303437
 30
0.0
 10
11.3167832349
 20
6.1170463774
 30
0.0
 10
11.405903006
 20
6.1319702356
 30
0.0
 10
11.5385607194
 20
6.1616656198
 30
0.0
 10
11.6702896227
 20
6.1986759676
 30
0.0
 10
11.7569888352
 20
6.2280625915
 30
0.0
 10
11.8000875433
 20
6.2439260068
 30
0.0
  0
SPLINE
  5
36E
100
AcDbEntity
  8
0
100
AcDbSpline
 62
9
  6
CONTINUOUS
 70
0
 71
3
 72
9
 73
5
 74
0
 42
0.0000001
 43
0.0000001
 44
0.0000000001
 40
0.0
 40
0.0
 40
0.0
 40
0.0
 40
0.5037074778
 40
1.0
 40
1.0
 40
1.0
 40
1.0
 10
10.1477983131
 20
6.1025504279
 30
0.0
 10
10.146041439
 20
6.1025565556
 30
0.0
 10
10.1425490069
 20
6.102826216
 30
0.0
 10
10.1391385411
 20
6.1036309286
 30
0.0
 10
10.1374907116
 20
6.104161113
 30
0.0
  0
SPLINE
  5
36F
100
AcDbEntity
  8
0
100
AcDbSpline
 62
9
  6
CONTINUOUS
 70
0
 71
3
 72
9
 73
5
 74
0
 42
0.0000001
 43
0.0000001
 44
0.0000000001
 40
0.0
 40
0.0
 40
0.0
 40
0.0
 40
0.5036879672
 40
1.0
 40
1.0
 40
1.0
 40
1.0
 10
10.1441348759
 20
6.1039057424
 30
0.0
 10
10.1423674225
 20
6.1039154173
 30
0.0
 10
10.1388543956
 20
6.1041924368
 30
0.0
 10
10.1354240434
 20
6.1050047143
 30
0.0
 10
10.1337663496
 20
6.1055387664
 30
0.0
  0
SPLINE
  5
370
100
AcDbEntity
  8
0
100
AcDbSpline
 62
9
  6
CONTINUOUS
 70
0
 71
3
 72
20
 73
16
 74
0
 42
0.0000001
 43
0.0000001
 44
0.0000000001
 40
0.0
 40
0.0
 40
0.0
 40
0.0
 40
0.1424350295
 40
0.2749928474
 40
0.3974501384
 40
0.4550775213
 40
0.5106128425
 40
0.5644730095
 40
0.6174155063
 40
0.6706239945
 40
0.7255798033
 40
0.7841418766
 40
0.8482992759
 40
0.9197676634
 40
1.0
 40
1.0
 40
1.0
 40
1.0
 10
10.4775021932
 20
6.3862567982
 30
0.0
 10
10.478394322
 20
6.3876892414
 30
0.0
 10
10.4800046284
 20
6.390528583
 30
0.0
 10
10.4818684258
 20
6.3948642571
 30
0.0
 10
10.4828335927
 20
6.3984619293
 30
0.0
 10
10.4831412175
 20
6.4012416495
 30
0.0
 10
10.4831295135
 20
6.403225718
 30
0.0
 10
10.482853726
 20
6.4051363706
 30
0.0
 10
10.4822833935
 20
6.4069539521
 30
0.0
 10
10.4813904029
 20
6.4086535858
 30
0.0
 10
10.4801439804
 20
6.4102025019
 30
0.0
 10
10.4785188771
 20
6.4115609082
 30
0.0
 10
10.4765022415
 20
6.4126924827
 30
0.0
 10
10.4740888774
 20
6.4135675699
 30
0.0
 10
10.4723235594
 20
6.4139351151
 30
0.0
 10
10.4713837744
 20
6.4140779334
 30
0.0
  0
LINE
  5
371
100
AcDbEntity
  8
0
100
AcDbLine
 62
9
  6
CONTINUOUS
 10
10.4713837744
 20
6.4140779334
 11
10.4692314041
 21
6.4143190209
  0
SPLINE
  5
372
100
AcDbEntity
  8
0
100
AcDbSpline
 62
9
  6
CONTINUOUS
 70
0
 71
3
 72
10
 73
6
 74
0
 42
0.0000001
 43
0.0000001
 44
0.0000000001
 40
0.0
 40
0.0
 40
0.0
 40
0.0
 40
0.2685095442
 40
0.5238016484
 40
1.0
 40
1.0
 40
1.0
 40
1.0
 10
10.4675508285
 20
6.372573072
 30
0.0
 10
10.4684609511
 20
6.3737839543
 30
0.0
 10
10.4702694956
 20
6.3761212152
 30
0.0
 10
10.4736956239
 20
6.3806020152
 30
0.0
 10
10.4760808957
 20
6.3839771285
 30
0.0
 10
10.4775021932
 20
6.3862567982
 30
0.0
  0
SPLINE
  5
373
100
AcDbEntity
  8
0
100
AcDbSpline
 62
9
  6
CONTINUOUS
 70
0
 71
3
 72
9
 73
5
 74
0
 42
0.0000001
 43
0.0000001
 44
0.0000000001
 40
0.0
 40
0.0
 40
0.0
 40
0.0
 40
0.5217190542
 40
1.0
 40
1.0
 40
1.0
 40
1.0
 10
10.872292359
 20
6.8042934512
 30
0.0
 10
10.8679030284
 20
6.8060656697
 30
0.0
 10
10.8595147601
 20
6.809524703
 30
0.0
 10
10.8511858211
 20
6.8131249131
 30
0.0
 10
10.8472222476
 20
6.814891606
 30
0.0
  0
SPLINE
  5
374
100
AcDbEntity
  8
0
100
AcDbSpline
 62
9
  6
CONTINUOUS
 70
0
 71
3
 72
10
 73
6
 74
0
 42
0.0000001
 43
0.0000001
 44
0.0000000001
 40
0.0
 40
0.0
 40
0.0
 40
0.0
 40
0.4761914713
 40
0.7315035123
 40
1.0
 40
1.0
 40
1.0
 40
1.0
 10
11.617134365
 20
6.3862568483
 30
0.0
 10
11.6185551068
 20
6.3839767174
 30
0.0
 10
11.6209427174
 20
6.3806028848
 30
0.0
 10
11.6243662425
 20
6.3761197788
 30
0.0
 10
11.6261756548
 20
6.373782943
 30
0.0
 10
11.6270861986
 20
6.3725723735
 30
0.0
  0
SPLINE
  5
375
100
AcDbEntity
  8
0
100
AcDbSpline
 62
9
  6
CONTINUOUS
 70
0
 71
3
 72
9
 73
5
 74
0
 42
0.0000001
 43
0.0000001
 44
0.0000000001
 40
0.0
 40
0.0
 40
0.0
 40
0.0
 40
0.5217283964
 40
1.0
 40
1.0
 40
1.0
 40
1.0
 10
11.2223439295
 20
6.8042914581
 30
0.0
 10
11.2267330727
 20
6.8060639862
 30
0.0
 10
11.2351208234
 20
6.8095235571
 30
0.0
 10
11.2434492649
 20
6.8131242265
 30
0.0
 10
11.2474125352
 20
6.8148910702
 30
0.0
  0
SPLINE
  5
376
100
AcDbEntity
  8
0
100
AcDbSpline
 62
9
  6
CONTINUOUS
 70
0
 71
3
 72
15
 73
11
 74
0
 42
0.0000001
 43
0.0000001
 44
0.0000000001
 40
0.0
 40
0.0
 40
0.0
 40
0.0
 40
0.1028369279
 40
0.2118390246
 40
0.3279504001
 40
0.4514185424
 40
0.581682948
 40
0.7175922063
 40
0.857687844
 40
1.0
 40
1.0
 40
1.0
 40
1.0
 10
10.1621244801
 20
6.1039057997
 30
0.0
 10
10.1648448496
 20
6.1039208346
 30
0.0
 10
10.1704586726
 20
6.104596922
 30
0.0
 10
10.1787362907
 20
6.1073511653
 30
0.0
 10
10.1868739159
 20
6.1117791917
 30
0.0
 10
10.1946674118
 20
6.1177510142
 30
0.0
 10
10.2019254357
 20
6.1251116066
 30
0.0
 10
10.2084699363
 20
6.1336697896
 30
0.0
 10
10.214131121
 20
6.1432046821
 30
0.0
 10
10.2172142954
 20
6.1500292031
 30
0.0
 10
10.2185739622
 20
6.1535397701
 30
0.0
  0
SPLINE
  5
377
100
AcDbEntity
  8
0
100
AcDbSpline
 62
9
  6
CONTINUOUS
 70
0
 71
3
 72
15
 73
11
 74
0
 42
0.0000001
 43
0.0000001
 44
0.0000000001
 40
0.0
 40
0.0
 40
0.0
 40
0.0
 40
0.1031737601
 40
0.212410974
 40
0.3286437642
 40
0.4521232419
 40
0.5823024036
 40
0.7180498073
 40
0.857930298
 40
1.0
 40
1.0
 40
1.0
 40
1.0
 10
10.1658094314
 20
6.1025504261
 30
0.0
 10
10.1685422419
 20
6.1025599516
 30
0.0
 10
10.1741798214
 20
6.1032234966
 30
0.0
 10
10.1824946026
 20
6.1059593742
 30
0.0
 10
10.1906666185
 20
6.1103695132
 30
0.0
 10
10.1984906776
 20
6.1163244419
 30
0.0
 10
10.2057746363
 20
6.1236695638
 30
0.0
 10
10.2123398981
 20
6.1322141226
 30
0.0
 10
10.2180162751
 20
6.1417377074
 30
0.0
 10
10.2211058027
 20
6.1485568018
 30
0.0
 10
10.2224675453
 20
6.1520648622
 30
0.0
  0
SPLINE
  5
378
100
AcDbEntity
  8
0
100
AcDbSpline
 62
9
  6
CONTINUOUS
 70
0
 71
3
 72
15
 73
11
 74
0
 42
0.0000001
 43
0.0000001
 44
0.0000000001
 40
0.0
 40
0.0
 40
0.0
 40
0.0
 40
0.1050222948
 40
0.214173732
 40
0.329134382
 40
0.4509335584
 40
0.5797206632
 40
0.7149341623
 40
0.8555749464
 40
1.0
 40
1.0
 40
1.0
 40
1.0
 10
10.7173558303
 20
5.9643810816
 30
0.0
 10
10.7200550817
 20
5.9643907579
 30
0.0
 10
10.7255745782
 20
5.965054051
 30
0.0
 10
10.7336133744
 20
5.967867201
 30
0.0
 10
10.7413129503
 20
5.9724155568
 30
0.0
 10
10.7484779885
 20
5.9785581993
 30
0.0
 10
10.7549348555
 20
5.9861309016
 30
0.0
 10
10.7605292825
 20
5.9949351217
 30
0.0
 10
10.7651183481
 20
6.0047430121
 30
0.0
 10
10.7674137945
 20
6.0117217395
 30
0.0
 10
10.768369976
 20
6.0153084665
 30
0.0
  0
SPLINE
  5
379
100
AcDbEntity
  8
0
100
AcDbSpline
 62
9
  6
CONTINUOUS
 70
0
 71
3
 72
15
 73
11
 74
0
 42
0.0000001
 43
0.0000001
 44
0.0000000001
 40
0.0
 40
0.0
 40
0.0
 40
0.0
 40
0.1050222955
 40
0.2141737072
 40
0.3291343232
 40
0.450933472
 40
0.5797205661
 40
0.7149340762
 40
0.855574894
 40
1.0
 40
1.0
 40
1.0
 40
1.0
 10
11.377280844
 20
5.9643811274
 30
0.0
 10
11.3745815913
 20
5.9643907939
 30
0.0
 10
11.3690620906
 20
5.9650540682
 30
0.0
 10
11.3610232839
 20
5.9678671953
 30
0.0
 10
11.3533236956
 20
5.9724155335
 30
0.0
 10
11.3461586438
 20
5.9785581638
 30
0.0
 10
11.3397017626
 20
5.9861308589
 30
0.0
 10
11.3341073218
 20
5.9949350765
 30
0.0
 10
11.329518243
 20
6.0047429686
 30
0.0
 10
11.327222789
 20
6.0117216992
 30
0.0
 10
11.3262666039
 20
6.0153084282
 30
0.0
  0
SPLINE
  5
37A
100
AcDbEntity
  8
0
100
AcDbSpline
 62
9
  6
CONTINUOUS
 70
0
 71
3
 72
15
 73
11
 74
0
 42
0.0000001
 43
0.0000001
 44
0.0000000001
 40
0.0
 40
0.0
 40
0.0
 40
0.0
 40
0.103173991
 40
0.212411338
 40
0.3286441533
 40
0.452123567
 40
0.5823026115
 40
0.718049899
 40
0.8579302937
 40
1.0
 40
1.0
 40
1.0
 40
1.0
 10
11.9288272439
 20
6.1025504279
 30
0.0
 10
11.9260944531
 20
6.1025599472
 30
0.0
 10
11.9204569159
 20
6.1032234677
 30
0.0
 10
11.9121421903
 20
6.1059592807
 30
0.0
 10
11.9039702232
 20
6.1103693299
 30
0.0
 10
11.8961462023
 20
6.1163241481
 30
0.0
 10
11.8888622671
 20
6.1236691444
 30
0.0
 10
11.8822970116
 20
6.1322135684
 30
0.0
 10
11.8766206196
 20
6.1417370158
 30
0.0
 10
11.8735310694
 20
6.1485560194
 30
0.0
 10
11.8721693112
 20
6.1520640357
 30
0.0
  0
SPLINE
  5
37B
100
AcDbEntity
  8
0
100
AcDbSpline
 62
9
  6
CONTINUOUS
 70
0
 71
3
 72
15
 73
11
 74
0
 42
0.0000001
 43
0.0000001
 44
0.0000000001
 40
0.0
 40
0.0
 40
0.0
 40
0.0
 40
0.1028369214
 40
0.211839017
 40
0.3279503961
 40
0.4514185448
 40
0.5816829566
 40
0.7175922181
 40
0.8576878534
 40
1.0
 40
1.0
 40
1.0
 40
1.0
 10
11.9325122073
 20
6.1039057424
 30
0.0
 10
11.9297918361
 20
6.1039207777
 30
0.0
 10
11.9241780096
 20
6.1045968668
 30
0.0
 10
11.9159003868
 20
6.1073511147
 30
0.0
 10
11.9077627574
 20
6.1117791472
 30
0.0
 10
11.8999692583
 20
6.1177509773
 30
0.0
 10
11.8927112322
 20
6.1251115781
 30
0.0
 10
11.8861667307
 20
6.13366977
 30
0.0
 10
11.8805055464
 20
6.1432046714
 30
0.0
 10
11.8774223731
 20
6.1500291981
 30
0.0
 10
11.8760627071
 20
6.1535397679
 30
0.0
  0
LINE
  5
37C
100
AcDbEntity
  8
0
100
AcDbLine
 62
9
  6
CONTINUOUS
 10
11.3651549186
 20
6.7429429801
 11
11.3652481987
 21
6.742022075
  0
SPLINE
  5
37D
100
AcDbEntity
  8
0
100
AcDbSpline
 62
9
  6
CONTINUOUS
 70
0
 71
3
 72
67
 73
63
 74
0
 42
0.0000001
 43
0.0000001
 44
0.0000000001
 40
0.0
 40
0.0
 40
0.0
 40
0.0
 40
0.0608854235
 40
0.1227773949
 40
0.1539573891
 40
0.1852401947
 40
0.2165973486
 40
0.248007341
 40
0.279454224
 40
0.3109263813
 40
0.3424155
 40
0.3581645241
 40
0.373915762
 40
0.3896687647
 40
0.405423163
 40
0.4211786523
 40
0.4369349769
 40
0.4448133979
 40
0.4526919668
 40
0.4605706184
 40
0.4684494659
 40
0.4723887941
 40
0.4763282511
 40
0.4802686273
 40
0.4842075868
 40
0.4861766543
 40
0.4881469842
 40
0.490120864
 40
0.4920950727
 40
0.494065934
 40
0.4960418693
 40
0.4980197527
 40
0.5000014013
 40
0.501984868
 40
0.5029733898
 40
0.5039579179
 40
0.5059284238
 40
0.5079114789
 40
0.5118558387
 40
0.5157910035
 40
0.5197333673
 40
0.5236729416
 40
0.5315512692
 40
0.5394300739
 40
0.5473087457
 40
0.5551873081
 40
0.5630657275
 40
0.5788220531
 40
0.5945775423
 40
0.6103319403
 40
0.6260849427
 40
0.64183618
 40
0.6575852033
 40
0.68907432
 40
0.7205464731
 40
0.7519933504
 40
0.783403327
 40
0.8147604547
 40
0.8460432287
 40
0.8772231644
 40
0.9391149772
 40
1.0
 40
1.0
 40
1.0
 40
1.0
 10
11.2824929735
 20
6.5110579763
 30
0.0
 10
11.2727802231
 20
6.5224039722
 30
0.0
 10
11.2533703821
 20
6.5454347329
 30
0.0
 10
11.2293838329
 20
6.5746066813
 30
0.0
 10
11.2101638775
 20
6.5982951246
 30
0.0
 10
11.1957269337
 20
6.6162184073
 30
0.0
 10
11.1813045133
 20
6.6342256914
 30
0.0
 10
11.1668939226
 20
6.6522939435
 30
0.0
 10
11.1524905876
 20
6.6704040298
 30
0.0
 10
11.138088333
 20
6.6885397633
 30
0.0
 10
11.1260818355
 20
6.7036607453
 30
0.0
 10
11.1164665018
 20
6.7157561019
 30
0.0
 10
11.1092471946
 20
6.7248249298
 30
0.0
 10
11.1020174892
 20
6.7338871586
 30
0.0
 10
11.0947723727
 20
6.7429384157
 30
0.0
 10
11.0875035186
 20
6.7519716706
 30
0.0
 10
11.0814143461
 20
6.7594743035
 30
0.0
 10
11.0765083662
 20
6.7654484484
 30
0.0
 10
11.0728041341
 20
6.769908868
 30
0.0
 10
11.0690635297
 20
6.7743389933
 30
0.0
 10
11.0659002772
 20
6.7779916626
 30
0.0
 10
11.0633225998
 20
6.7808722702
 30
0.0
 10
11.0613566065
 20
6.7830033804
 30
0.0
 10
11.0593489152
 20
6.7850952757
 30
0.0
 10
11.0576199646
 20
6.7867837084
 30
0.0
 10
11.0561882078
 20
6.7880821533
 30
0.0
 10
11.0550838269
 20
6.7890230002
 30
0.0
 10
11.0539469449
 20
6.7899264755
 30
0.0
 10
11.0527654026
 20
6.7907721124
 30
0.0
 10
11.0515129641
 20
6.7915130044
 30
0.0
 10
11.0501777105
 20
6.7920974165
 30
0.0
 10
11.048769036
 20
6.7924883054
 30
0.0
 10
11.0473116142
 20
6.7926388252
 30
0.0
 10
11.0460927169
 20
6.7925461185
 30
0.0
 10
11.045142984
 20
6.7923401049
 30
0.0
 10
11.0442209336
 20
6.7920424859
 30
0.0
 10
11.0431239983
 20
6.7915167089
 30
0.0
 10
11.0414819788
 20
6.7904861562
 30
0.0
 10
11.0395314359
 20
6.7890484359
 30
0.0
 10
11.0373539488
 20
6.7871292075
 30
0.0
 10
11.0352923667
 20
6.7850904371
 30
0.0
 10
11.0326088135
 20
6.7823071043
 30
0.0
 10
11.0293691992
 20
6.7787210009
 30
0.0
 10
11.0255726371
 20
6.7743388037
 30
0.0
 10
11.0218323164
 20
6.7699083613
 30
0.0
 10
11.0181279732
 20
6.7654480544
 30
0.0
 10
11.0132219666
 20
6.7594739254
 30
0.0
 10
11.0071328561
 20
6.7519712463
 30
0.0
 10
10.9998639676
 20
6.7429380177
 30
0.0
 10
10.9926188661
 20
6.7338867491
 30
0.0
 10
10.9853891565
 20
6.724824524
 30
0.0
 10
10.978169852
 20
6.7157556944
 30
0.0
 10
10.9685545209
 20
6.7036603369
 30
0.0
 10
10.9565480217
 20
6.6885393584
 30
0.0
 10
10.9421457683
 20
6.6704036277
 30
0.0
 10
10.9277424338
 20
6.6522935491
 30
0.0
 10
10.9133318471
 20
6.6342253088
 30
0.0
 10
10.8989094351
 20
6.6162180411
 30
0.0
 10
10.8844725057
 20
6.5982947835
 30
0.0
 10
10.8652525875
 20
6.5746063885
 30
0.0
 10
10.8412661276
 20
6.5454345633
 30
0.0
 10
10.8218564175
 20
6.5224038712
 30
0.0
 10
10.8121437019
 20
6.5110579748
 30
0.0
  0
SPLINE
  5
37E
100
AcDbEntity
  8
0
100
AcDbSpline
 62
9
  6
CONTINUOUS
 70
0
 71
3
 72
14
 73
10
 74
0
 42
0.0000001
 43
0.0000001
 44
0.0000000001
 40
0.0
 40
0.0
 40
0.0
 40
0.0
 40
0.1301145959
 40
0.2597350794
 40
0.3882732166
 40
0.5152765199
 40
0.6403081837
 40
0.7629906596
 40
1.0
 40
1.0
 40
1.0
 40
1.0
 10
10.8831439741
 20
6.804292385
 30
0.0
 10
10.8831435116
 20
6.7910738987
 30
0.0
 10
10.8823889835
 20
6.7646806022
 30
0.0
 10
10.8789614146
 20
6.7253627202
 30
0.0
 10
10.8732433497
 20
6.6866296188
 30
0.0
 10
10.8653062838
 20
6.6487669387
 30
0.0
 10
10.8552044157
 20
6.6120343914
 30
0.0
 10
10.8391292236
 20
6.5654679369
 30
0.0
 10
10.8238036393
 20
6.532124488
 30
0.0
 10
10.8121437019
 20
6.5110579748
 30
0.0
  0
SPLINE
  5
37F
100
AcDbEntity
  8
0
100
AcDbSpline
 62
9
  6
CONTINUOUS
 70
0
 71
3
 72
14
 73
10
 74
0
 42
0.0000001
 43
0.0000001
 44
0.0000000001
 40
0.0
 40
0.0
 40
0.0
 40
0.0
 40
0.2370093405
 40
0.3596918162
 40
0.4847234806
 40
0.6117267842
 40
0.7402649212
 40
0.8698854041
 40
1.0
 40
1.0
 40
1.0
 40
1.0
 10
11.2824929735
 20
6.5110579763
 30
0.0
 10
11.270833036
 20
6.5321244893
 30
0.0
 10
11.2555074523
 20
6.5654679382
 30
0.0
 10
11.2394322612
 20
6.6120343928
 30
0.0
 10
11.2293303925
 20
6.6487669398
 30
0.0
 10
11.2213933257
 20
6.6866296195
 30
0.0
 10
11.2156752611
 20
6.7253627207
 30
0.0
 10
11.2122476944
 20
6.7646806026
 30
0.0
 10
11.2114931665
 20
6.7910738987
 30
0.0
 10
11.2114927025
 20
6.804292385
 30
0.0
  0
SPLINE
  5
380
100
AcDbEntity
  8
0
100
AcDbSpline
 62
9
  6
CONTINUOUS
 70
0
 71
3
 72
11
 73
7
 74
0
 42
0.0000001
 43
0.0000001
 44
0.0000000001
 40
0.0
 40
0.0
 40
0.0
 40
0.0
 40
0.2495761848
 40
0.4995616969
 40
0.7498560053
 40
1.0
 40
1.0
 40
1.0
 40
1.0
 10
10.6693178861
 20
6.5524095125
 30
0.0
 10
10.6732285888
 20
6.5666298188
 30
0.0
 10
10.6795329741
 20
6.5955223565
 30
0.0
 10
10.6855697878
 20
6.639447576
 30
0.0
 10
10.6892012046
 20
6.6836589266
 30
0.0
 10
10.6905387668
 20
6.7132057105
 30
0.0
 10
10.6910277965
 20
6.7279794167
 30
0.0
  0
LINE
  5
381
100
AcDbEntity
  8
0
100
AcDbLine
 62
9
  6
CONTINUOUS
 10
10.6921198255
 20
6.7836438629
 11
10.6921730534
 21
6.7925497584
  0
LINE
  5
382
100
AcDbEntity
  8
0
100
AcDbLine
 62
9
  6
CONTINUOUS
 10
10.7293884826
 20
6.7420221216
 11
10.7294823637
 21
6.7429490054
  0
SPLINE
  5
383
100
AcDbEntity
  8
0
100
AcDbSpline
 62
9
  6
CONTINUOUS
 70
0
 71
3
 72
33
 73
29
 74
0
 42
0.0000001
 43
0.0000001
 44
0.0000000001
 40
0.0
 40
0.0
 40
0.0
 40
0.0
 40
0.0371003931
 40
0.0556483013
 40
0.0741763489
 40
0.0926725175
 40
0.1111270466
 40
0.1295324148
 40
0.1478816666
 40
0.1843842769
 40
0.2205862105
 40
0.2918875356
 40
0.3269155832
 40
0.3614769691
 40
0.4290668338
 40
0.4944872358
 40
0.5576328713
 40
0.618486696
 40
0.6771289625
 40
0.733744641
 40
0.7886274937
 40
0.8421746231
 40
0.8686116536
 40
0.8949011704
 40
0.9211153596
 40
0.9473280124
 40
0.9736043761
 40
1.0
 40
1.0
 40
1.0
 40
1.0
 10
11.222344476
 20
6.8042923954
 30
0.0
 10
11.2236615251
 20
6.7961233343
 30
0.0
 10
11.2256178986
 20
6.7838671077
 30
0.0
 10
11.2283470555
 20
6.7675499962
 30
0.0
 10
11.2304922886
 20
6.7553425404
 30
0.0
 10
11.2327743196
 20
6.7431809131
 30
0.0
 10
11.2352317462
 20
6.7310813309
 30
0.0
 10
11.237866573
 20
6.7190526266
 30
0.0
 10
11.2416119608
 20
6.7031485534
 30
0.0
 10
11.2467414739
 20
6.683494668
 30
0.0
 10
11.2559020023
 20
6.6527066323
 30
0.0
 10
11.2665723749
 20
6.6227249698
 30
0.0
 10
11.2788241539
 20
6.5937810373
 30
0.0
 10
11.291871388
 20
6.5660996058
 30
0.0
 10
11.3098923211
 20
6.5333010255
 30
0.0
 10
11.3343199408
 20
6.4969334225
 30
0.0
 10
11.3611672047
 20
6.4642237478
 30
0.0
 10
11.3901851417
 20
6.4355234093
 30
0.0
 10
11.4210940052
 20
6.411143026
 30
0.0
 10
11.4535923475
 20
6.3913581968
 30
0.0
 10
11.4873469602
 20
6.3764066329
 30
0.0
 10
11.5163712023
 20
6.3680996022
 30
0.0
 10
11.5397481758
 20
6.3640803126
 30
0.0
 10
11.5572877989
 20
6.3623707379
 30
0.0
 10
11.5748550233
 20
6.3619594381
 30
0.0
 10
11.5924019836
 20
6.3628521876
 30
0.0
 10
11.609873793
 20
6.3650454273
 30
0.0
 10
11.6214031911
 20
6.3673621948
 30
0.0
 10
11.6271289928
 20
6.3687306123
 30
0.0
  0
SPLINE
  5
384
100
AcDbEntity
  8
0
100
AcDbSpline
 62
9
  6
CONTINUOUS
 70
0
 71
3
 72
19
 73
15
 74
0
 42
0.0000001
 43
0.0000001
 44
0.0000000001
 40
0.0
 40
0.0
 40
0.0
 40
0.0
 40
0.0601636154
 40
0.1199365161
 40
0.1794543582
 40
0.2388738626
 40
0.2983754931
 40
0.3581375583
 40
0.4183270002
 40
0.4790977232
 40
0.6028656901
 40
0.7304925798
 40
0.8627401797
 40
1.0
 40
1.0
 40
1.0
 40
1.0
 10
11.6137605903
 20
6.3424021953
 30
0.0
 10
11.607785425
 20
6.3407821541
 30
0.0
 10
11.5957488606
 20
6.3379941003
 30
0.0
 10
11.5774795556
 20
6.3351923376
 30
0.0
 10
11.5591249301
 20
6.3337960596
 30
0.0
 10
11.5407455012
 20
6.3338109064
 30
0.0
 10
11.5223958056
 20
6.3352305464
 30
0.0
 10
11.5041289556
 20
6.3380508359
 30
0.0
 10
11.4859968399
 20
6.3422594891
 30
0.0
 10
11.4619318387
 20
6.3497433086
 30
0.0
 10
11.4323677736
 20
6.3625974274
 30
0.0
 10
11.3985330997
 20
6.3831501731
 30
0.0
 10
11.3664880038
 20
6.4086677357
 30
0.0
 10
11.3469164552
 20
6.4284129358
 30
0.0
 10
11.3375224897
 20
6.4389602271
 30
0.0
  0
SPLINE
  5
385
100
AcDbEntity
  8
0
100
AcDbSpline
 62
9
  6
CONTINUOUS
 70
0
 71
3
 72
9
 73
5
 74
0
 42
0.0000001
 43
0.0000001
 44
0.0000000001
 40
0.0
 40
0.0
 40
0.0
 40
0.0
 40
0.2568845609
 40
1.0
 40
1.0
 40
1.0
 40
1.0
 10
11.6272514616
 20
6.3582461077
 30
0.0
 10
11.6270687742
 20
6.3577211303
 30
0.0
 10
11.6263117891
 20
6.3556939582
 30
0.0
 10
11.6253673477
 20
6.3537350238
 30
0.0
 10
11.6245549092
 20
6.3523473843
 30
0.0
  0
SPLINE
  5
386
100
AcDbEntity
  8
0
100
AcDbSpline
 62
9
  6
CONTINUOUS
 70
0
 71
3
 72
10
 73
6
 74
0
 42
0.0000001
 43
0.0000001
 44
0.0000000001
 40
0.0
 40
0.0
 40
0.0
 40
0.0
 40
0.5179062276
 40
0.7624331915
 40
1.0
 40
1.0
 40
1.0
 40
1.0
 10
11.6245549092
 20
6.3523473843
 30
0.0
 10
11.6232556195
 20
6.3501282061
 30
0.0
 10
11.6208929334
 20
6.3470738991
 30
0.0
 10
11.616969451
 20
6.3440016378
 30
0.0
 10
11.6148466521
 20
6.3428625188
 30
0.0
 10
11.6137605958
 20
6.3424021796
 30
0.0
  0
SPLINE
  5
387
100
AcDbEntity
  8
0
100
AcDbSpline
 62
9
  6
CONTINUOUS
 70
0
 71
3
 72
19
 73
15
 74
0
 42
0.0000001
 43
0.0000001
 44
0.0000000001
 40
0.0
 40
0.0
 40
0.0
 40
0.0
 40
0.1372598339
 40
0.2695074411
 40
0.3971343289
 40
0.5209022963
 40
0.5816730193
 40
0.64186246
 40
0.7016245226
 40
0.7611261497
 40
0.8205456506
 40
0.8800634884
 40
0.9398363848
 40
1.0
 40
1.0
 40
1.0
 40
1.0
 10
10.7571141869
 20
6.4389602272
 30
0.0
 10
10.7477202252
 20
6.4284129309
 30
0.0
 10
10.7281486676
 20
6.4086677361
 30
0.0
 10
10.6961035694
 20
6.3831501756
 30
0.0
 10
10.6622688994
 20
6.3625974225
 30
0.0
 10
10.6327048328
 20
6.3497433081
 30
0.0
 10
10.6086398322
 20
6.3422594879
 30
0.0
 10
10.5905077171
 20
6.3380508346
 30
0.0
 10
10.572240868
 20
6.3352305456
 30
0.0
 10
10.5538911734
 20
6.3338109077
 30
0.0
 10
10.5355117459
 20
6.3337960612
 30
0.0
 10
10.5171571216
 20
6.3351923333
 30
0.0
 10
10.4988878168
 20
6.3379940906
 30
0.0
 10
10.4868512535
 20
6.3407821478
 30
0.0
 10
10.4808760895
 20
6.3424021939
 30
0.0
  0
SPLINE
  5
388
100
AcDbEntity
  8
0
100
AcDbSpline
 62
9
  6
CONTINUOUS
 70
0
 71
3
 72
33
 73
29
 74
0
 42
0.0000001
 43
0.0000001
 44
0.0000000001
 40
0.0
 40
0.0
 40
0.0
 40
0.0
 40
0.0263956265
 40
0.0526719953
 40
0.0788846525
 40
0.1050988416
 40
0.1313883559
 40
0.1578253853
 40
0.2113725188
 40
0.2662553849
 40
0.322871069
 40
0.3815133168
 40
0.4423671131
 40
0.5055127468
 40
0.5709331402
 40
0.6385229018
 40
0.6730842169
 40
0.7081122462
 40
0.7794136575
 40
0.8156155306
 40
0.8521180428
 40
0.8704672797
 40
0.8888726692
 40
0.907327256
 40
0.9258235006
 40
0.94435161
 40
0.962899559
 40
1.0
 40
1.0
 40
1.0
 40
1.0
 10
10.467507681
 20
6.368730606
 30
0.0
 10
10.4732334817
 20
6.3673621836
 30
0.0
 10
10.4847628808
 20
6.3650454143
 30
0.0
 10
10.5022346931
 20
6.3628521844
 30
0.0
 10
10.5197816545
 20
6.3619594425
 30
0.0
 10
10.5373488779
 20
6.362370744
 30
0.0
 10
10.5548884992
 20
6.3640803166
 30
0.0
 10
10.5782654724
 20
6.3680995979
 30
0.0
 10
10.6072897198
 20
6.3764066182
 30
0.0
 10
10.6410443307
 20
6.3913581942
 30
0.0
 10
10.6735426669
 20
6.411143028
 30
0.0
 10
10.7044515186
 20
6.4355234069
 30
0.0
 10
10.733469445
 20
6.4642237365
 30
0.0
 10
10.7603167138
 20
6.4969333893
 30
0.0
 10
10.7847443822
 20
6.5333009276
 30
0.0
 10
10.8027652262
 20
6.5660995125
 30
0.0
 10
10.8158123341
 20
6.5937809542
 30
0.0
 10
10.8280641251
 20
6.6227248702
 30
0.0
 10
10.8387351526
 20
6.6527063019
 30
0.0
 10
10.8478954199
 20
6.6834944114
 30
0.0
 10
10.8530241314
 20
6.7031484672
 30
0.0
 10
10.8567690053
 20
6.7190526378
 30
0.0
 10
10.8594036298
 20
6.7310813994
 30
0.0
 10
10.8618610953
 20
6.7431810058
 30
0.0
 10
10.8641437318
 20
6.7553425605
 30
0.0
 10
10.866289891
 20
6.7675498929
 30
0.0
 10
10.8690200467
 20
6.7838668717
 30
0.0
 10
10.8709762607
 20
6.7961231456
 30
0.0
 10
10.8722922025
 20
6.8042923955
 30
0.0
  0
SPLINE
  5
389
100
AcDbEntity
  8
0
100
AcDbSpline
 62
9
  6
CONTINUOUS
 70
0
 71
3
 72
9
 73
5
 74
0
 42
0.0000001
 43
0.0000001
 44
0.0000000001
 40
0.0
 40
0.0
 40
0.0
 40
0.0
 40
0.5037074359
 40
1.0
 40
1.0
 40
1.0
 40
1.0
 10
11.9468383649
 20
6.1025504261
 30
0.0
 10
11.9485952392
 20
6.1025565577
 30
0.0
 10
11.9520876713
 20
6.1028262251
 30
0.0
 10
11.9554981364
 20
6.1036309425
 30
0.0
 10
11.9571459658
 20
6.1041611288
 30
0.0
  0
SPLINE
  5
38A
100
AcDbEntity
  8
0
100
AcDbSpline
 62
9
  6
CONTINUOUS
 70
0
 71
3
 72
9
 73
5
 74
0
 42
0.0000001
 43
0.0000001
 44
0.0000000001
 40
0.0
 40
0.0
 40
0.0
 40
0.0
 40
0.4927969462
 40
1.0
 40
1.0
 40
1.0
 40
1.0
 10
10.4808760841
 20
6.3424021782
 30
0.0
 10
10.4797917967
 20
6.3428617674
 30
0.0
 10
10.4776731908
 20
6.3439977135
 30
0.0
 10
10.4757818206
 20
6.3454784539
 30
0.0
 10
10.4748898179
 20
6.3462991277
 30
0.0
  0
SPLINE
  5
38B
100
AcDbEntity
  8
0
100
AcDbSpline
 62
9
  6
CONTINUOUS
 70
0
 71
3
 72
9
 73
5
 74
0
 42
0.0000001
 43
0.0000001
 44
0.0000000001
 40
0.0
 40
0.0
 40
0.0
 40
0.0
 40
0.2422772947
 40
1.0
 40
1.0
 40
1.0
 40
1.0
 10
10.4748898179
 20
6.3462991277
 30
0.0
 10
10.4744296426
 20
6.3467225052
 30
0.0
 10
10.4726022107
 20
6.3485476717
 30
0.0
 10
10.4710698705
 20
6.3506597112
 30
0.0
 10
10.4700817694
 20
6.3523473807
 30
0.0
  0
SPLINE
  5
38C
100
AcDbEntity
  8
0
100
AcDbSpline
 62
9
  6
CONTINUOUS
 70
0
 71
3
 72
9
 73
5
 74
0
 42
0.0000001
 43
0.0000001
 44
0.0000000001
 40
0.0
 40
0.0
 40
0.0
 40
0.0
 40
0.2434263113
 40
1.0
 40
1.0
 40
1.0
 40
1.0
 10
10.4700817694
 20
6.3523473807
 30
0.0
 10
10.4698156259
 20
6.352801952
 30
0.0
 10
10.4687718053
 20
6.3546981167
 30
0.0
 10
10.4679232816
 20
6.3566998988
 30
0.0
 10
10.4673852152
 20
6.3582461071
 30
0.0
  0
SPLINE
  5
38D
100
AcDbEntity
  8
0
100
AcDbSpline
 62
9
  6
CONTINUOUS
 70
0
 71
3
 72
9
 73
5
 74
0
 42
0.0000001
 43
0.0000001
 44
0.0000000001
 40
0.0
 40
0.0
 40
0.0
 40
0.0
 40
0.5036879698
 40
1.0
 40
1.0
 40
1.0
 40
1.0
 10
11.9505017904
 20
6.1039057998
 30
0.0
 10
11.9522692423
 20
6.1039154745
 30
0.0
 10
11.9557822663
 20
6.104192493
 30
0.0
 10
11.9592126159
 20
6.1050047686
 30
0.0
 10
11.9608703087
 20
6.1055388196
 30
0.0
  0
SPLINE
  5
38E
100
AcDbEntity
  8
0
100
AcDbSpline
 62
9
  6
CONTINUOUS
 70
0
 71
3
 72
11
 73
7
 74
0
 42
0.0000001
 43
0.0000001
 44
0.0000000001
 40
0.0
 40
0.0
 40
0.0
 40
0.0
 40
0.2058822487
 40
0.4393370783
 40
0.7036906377
 40
1.0
 40
1.0
 40
1.0
 40
1.0
 10
11.3582862791
 20
6.8042934512
 30
0.0
 10
11.3578228312
 20
6.8052574751
 30
0.0
 10
11.3565834885
 20
6.8071969214
 30
0.0
 10
11.3540906788
 20
6.8098891036
 30
0.0
 10
11.3508911447
 20
6.8125101197
 30
0.0
 10
11.3484472692
 20
6.814104567
 30
0.0
 10
11.3471242226
 20
6.814891606
 30
0.0
  0
SPLINE
  5
38F
100
AcDbEntity
  8
0
100
AcDbSpline
 62
9
  6
CONTINUOUS
 70
0
 71
3
 72
14
 73
10
 74
0
 42
0.0000001
 43
0.0000001
 44
0.0000000001
 40
0.0
 40
0.0
 40
0.0
 40
0.0
 40
0.1363167234
 40
0.2714697997
 40
0.4040360866
 40
0.5330313347
 40
0.6576701872
 40
0.7773730406
 40
1.0
 40
1.0
 40
1.0
 40
1.0
 10
11.8721690936
 20
6.1520648494
 30
0.0
 10
11.8715577312
 20
6.1536398196
 30
0.0
 10
11.8702024984
 20
6.1567247887
 30
0.0
 10
11.8677941959
 20
6.1611222599
 30
0.0
 10
11.8650467782
 20
6.16520847
 30
0.0
 10
11.8620094945
 20
6.1689169679
 30
0.0
 10
11.85872519
 20
6.1721903082
 30
0.0
 10
11.8542056629
 20
6.1758134387
 30
0.0
 10
11.8504321326
 20
6.1778876328
 30
0.0
 10
11.847842907
 20
6.1788410029
 30
0.0
  0
SPLINE
  5
390
100
AcDbEntity
  8
0
100
AcDbSpline
 62
9
  6
CONTINUOUS
 70
0
 71
3
 72
31
 73
27
 74
0
 42
0.0000001
 43
0.0000001
 44
0.0000000001
 40
0.0
 40
0.0
 40
0.0
 40
0.0
 40
0.0655798583
 40
0.0970990975
 40
0.127745058
 40
0.1575374265
 40
0.1865209294
 40
0.2147657401
 40
0.2423670976
 40
0.2694446368
 40
0.2961383763
 40
0.3226050466
 40
0.3490112449
 40
0.375526395
 40
0.4023157721
 40
0.4295322064
 40
0.4573119931
 40
0.4857682323
 40
0.5149906506
 40
0.5759040549
 40
0.640320124
 40
0.7080723942
 40
0.7786909764
 40
0.8514745401
 40
0.9255617394
 40
1.0
 40
1.0
 40
1.0
 40
1.0
 10
11.676174802
 20
6.5696356847
 30
0.0
 10
11.6822205689
 20
6.5806957159
 30
0.0
 10
11.6923210186
 20
6.5964973328
 30
0.0
 10
11.7079010483
 20
6.6154994862
 30
0.0
 10
11.7202063632
 20
6.6282175827
 30
0.0
 10
11.7332012239
 20
6.6395005719
 30
0.0
 10
11.7468039631
 20
6.6492751811
 30
0.0
 10
11.7609257918
 20
6.6574779653
 30
0.0
 10
11.7754770407
 20
6.6640508757
 30
0.0
 10
11.7903614358
 20
6.6689520994
 30
0.0
 10
11.8054824236
 20
6.6721421926
 30
0.0
 10
11.8207383326
 20
6.6736032451
 30
0.0
 10
11.8360272929
 20
6.6733178922
 30
0.0
 10
11.8512465678
 20
6.6712939279
 30
0.0
 10
11.8662930312
 20
6.6675386351
 30
0.0
 10
11.8810680679
 20
6.6620844132
 30
0.0
 10
11.8954718994
 20
6.6549632691
 30
0.0
 10
11.9094136088
 20
6.6462277831
 30
0.0
 10
11.9275057131
 20
6.6323148605
 30
0.0
 10
11.948460211
 20
6.6110317565
 30
0.0
 10
11.9699811011
 20
6.5806286399
 30
0.0
 10
11.9877290278
 20
6.5457869731
 30
0.0
 10
12.0012593611
 20
6.507409143
 30
0.0
 10
12.0102363553
 20
6.4664786829
 30
0.0
 10
12.0144322051
 20
6.4240592898
 30
0.0
 10
12.0139683184
 20
6.3954416303
 30
0.0
 10
12.0129102258
 20
6.3811736203
 30
0.0
  0
SPLINE
  5
391
100
AcDbEntity
  8
0
100
AcDbSpline
 62
9
  6
CONTINUOUS
 70
0
 71
3
 72
35
 73
31
 74
0
 42
0.0000001
 43
0.0000001
 44
0.0000000001
 40
0.0
 40
0.0
 40
0.0
 40
0.0
 40
0.0268871138
 40
0.0545723438
 40
0.0831658696
 40
0.112764709
 40
0.1750553754
 40
0.2077785206
 40
0.2414441415
 40
0.3111094759
 40
0.3830056855
 40
0.4557830196
 40
0.4920737639
 40
0.5280458848
 40
0.5635290718
 40
0.5983675689
 40
0.6324221641
 40
0.6655778752
 40
0.6977467747
 40
0.7288740479
 40
0.7589431338
 40
0.7879781493
 40
0.8160502572
 40
0.8432749859
 40
0.8698147576
 40
0.8958699015
 40
0.9216711913
 40
0.9474651463
 40
0.973497873
 40
1.0
 40
1.0
 40
1.0
 40
1.0
 10
11.847842907
 20
6.1788410029
 30
0.0
 10
11.8533029269
 20
6.1808521595
 30
0.0
 10
11.8641247045
 20
6.1856763381
 30
0.0
 10
11.8795604535
 20
6.1950120817
 30
0.0
 10
11.8942528875
 20
6.2064619358
 30
0.0
 10
11.9129666994
 20
6.22467768
 30
0.0
 10
11.9292526384
 20
6.2464215919
 30
0.0
 10
11.942872714
 20
6.2707361521
 30
0.0
 10
11.9550513028
 20
6.2975788738
 30
0.0
 10
11.9664675906
 20
6.3339133603
 30
0.0
 10
11.9737409979
 20
6.3798771504
 30
0.0
 10
11.9743574481
 20
6.4191777914
 30
0.0
 10
11.9715253021
 20
6.4504595377
 30
0.0
 10
11.9677634952
 20
6.4734930629
 30
0.0
 10
11.9623966433
 20
6.4958828028
 30
0.0
 10
11.9554827442
 20
6.5174102939
 30
0.0
 10
11.9470857808
 20
6.5378618762
 30
0.0
 10
11.9372926364
 20
6.5570384853
 30
0.0
 10
11.9261965073
 20
6.5747513729
 30
0.0
 10
11.9139066961
 20
6.5908282804
 30
0.0
 10
11.9005424004
 20
6.6051128444
 30
0.0
 10
11.8862305615
 20
6.6174632997
 30
0.0
 10
11.8711115991
 20
6.6277607697
 30
0.0
 10
11.8553286276
 20
6.6358969401
 30
0.0
 10
11.8390391321
 20
6.6417935296
 30
0.0
 10
11.8224031022
 20
6.6453826034
 30
0.0
 10
11.8055907302
 20
6.6466311841
 30
0.0
 10
11.7887726298
 20
6.6455229144
 30
0.0
 10
11.7721239566
 20
6.6420758411
 30
0.0
 10
11.7613646761
 20
6.6382846417
 30
0.0
 10
11.7560871186
 20
6.6360393494
 30
0.0
  0
SPLINE
  5
392
100
AcDbEntity
  8
0
100
AcDbSpline
 62
9
  6
CONTINUOUS
 70
0
 71
3
 72
12
 73
8
 74
0
 42
0.0000001
 43
0.0000001
 44
0.0000000001
 40
0.0
 40
0.0
 40
0.0
 40
0.0
 40
0.27569968
 40
0.5370789907
 40
0.6607388477
 40
0.7791829581
 40
1.0
 40
1.0
 40
1.0
 40
1.0
 10
11.3262666998
 20
6.0153084664
 30
0.0
 10
11.3254142842
 20
6.0185059575
 30
0.0
 10
11.3231947951
 20
6.0246028015
 30
0.0
 10
11.3190647216
 20
6.0314447054
 30
0.0
 10
11.3151003842
 20
6.0360254607
 30
0.0
 10
11.3109779574
 20
6.0397612412
 30
0.0
 10
11.3074204518
 20
6.0418939146
 30
0.0
 10
11.3049539557
 20
6.0428640268
 30
0.0
  0
SPLINE
  5
393
100
AcDbEntity
  8
0
100
AcDbSpline
 62
9
  6
CONTINUOUS
 70
0
 71
3
 72
11
 73
7
 74
0
 42
0.0000001
 43
0.0000001
 44
0.0000000001
 40
0.0
 40
0.0
 40
0.0
 40
0.0
 40
0.2526365912
 40
0.5032914442
 40
0.7522961232
 40
1.0
 40
1.0
 40
1.0
 40
1.0
 10
11.872169351
 20
6.1520640504
 30
0.0
 10
11.8276118495
 20
6.1356636181
 30
0.0
 10
11.7379695746
 20
6.1053161264
 30
0.0
 10
11.6017480469
 20
6.0672081367
 30
0.0
 10
11.4645585127
 20
6.03677107
 30
0.0
 10
11.3723936349
 20
6.0215916569
 30
0.0
 10
11.3262666998
 20
6.0153084664
 30
0.0
  0
SPLINE
  5
394
100
AcDbEntity
  8
0
100
AcDbSpline
 62
9
  6
CONTINUOUS
 70
0
 71
3
 72
11
 73
7
 74
0
 42
0.0000001
 43
0.0000001
 44
0.0000000001
 40
0.0
 40
0.0
 40
0.0
 40
0.0
 40
0.2477191171
 40
0.4967355992
 40
0.7473885524
 40
1.0
 40
1.0
 40
1.0
 40
1.0
 10
11.312615146
 20
6.0438991295
 30
0.0
 10
11.3578384697
 20
6.0502013343
 30
0.0
 10
11.4481937758
 20
6.0653320385
 30
0.0
 10
11.5826905286
 20
6.0954394071
 30
0.0
 10
11.7162456413
 20
6.1329627653
 30
0.0
 10
11.8041469152
 20
6.1627564066
 30
0.0
 10
11.8478430706
 20
6.1788398194
 30
0.0
  0
SPLINE
  5
395
100
AcDbEntity
  8
0
100
AcDbSpline
 62
9
  6
CONTINUOUS
 70
0
 71
3
 72
12
 73
8
 74
0
 42
0.0000001
 43
0.0000001
 44
0.0000000001
 40
0.0
 40
0.0
 40
0.0
 40
0.0
 40
0.2756996789
 40
0.5370789893
 40
0.6607388465
 40
0.7791829572
 40
1.0
 40
1.0
 40
1.0
 40
1.0
 10
10.7683699786
 20
6.0153084663
 30
0.0
 10
10.7692223941
 20
6.0185059574
 30
0.0
 10
10.7714418831
 20
6.0246028013
 30
0.0
 10
10.7755719565
 20
6.0314447051
 30
0.0
 10
10.7795362937
 20
6.0360254605
 30
0.0
 10
10.7836587204
 20
6.0397612411
 30
0.0
 10
10.7872162259
 20
6.0418939145
 30
0.0
 10
10.7896827219
 20
6.0428640267
 30
0.0
  0
SPLINE
  5
396
100
AcDbEntity
  8
0
100
AcDbSpline
 62
9
  6
CONTINUOUS
 70
0
 71
3
 72
23
 73
19
 74
0
 42
0.0000001
 43
0.0000001
 44
0.0000000001
 40
0.0
 40
0.0
 40
0.0
 40
0.0
 40
0.0515453168
 40
0.1073504805
 40
0.1668712613
 40
0.2295738621
 40
0.2948705563
 40
0.3621390101
 40
0.4307352123
 40
0.5000000187
 40
0.5692648179
 40
0.6378610106
 40
0.7051294635
 40
0.7704261606
 40
0.8331287232
 40
0.8926494636
 40
0.9484547687
 40
1.0
 40
1.0
 40
1.0
 40
1.0
 10
11.3262666986
 20
6.0153084663
 30
0.0
 10
11.316747257
 20
6.0140118093
 30
0.0
 10
11.2968844543
 20
6.0115810968
 30
0.0
 10
11.2659351867
 20
6.0084777533
 30
0.0
 10
11.2328597241
 20
6.0057968431
 30
0.0
 10
11.1979783459
 20
6.0035651796
 30
0.0
 10
11.1616243312
 20
6.0018047784
 30
0.0
 10
11.1241508668
 20
6.0005346351
 30
0.0
 10
11.0859240515
 20
5.9997673262
 30
0.0
 10
11.0473183297
 20
5.9995104729
 30
0.0
 10
11.0087126097
 20
5.9997673283
 30
0.0
 10
10.9704857978
 20
6.0005346434
 30
0.0
 10
10.9330123352
 20
6.0018047922
 30
0.0
 10
10.8966583258
 20
6.0035651604
 30
0.0
 10
10.8617769605
 20
6.0057968123
 30
0.0
 10
10.8287014917
 20
6.0084777918
 30
0.0
 10
10.7977522203
 20
6.011581118
 30
0.0
 10
10.777889402
 20
6.0140117933
 30
0.0
 10
10.7683699786
 20
6.0153084663
 30
0.0
  0
SPLINE
  5
397
100
AcDbEntity
  8
0
100
AcDbSpline
 62
9
  6
CONTINUOUS
 70
0
 71
3
 72
21
 73
17
 74
0
 42
0.0000001
 43
0.0000001
 44
0.0000000001
 40
0.0
 40
0.0
 40
0.0
 40
0.0
 40
0.0518374536
 40
0.1078246186
 40
0.167428234
 40
0.2301276065
 40
0.2953502643
 40
0.3624903971
 40
0.4999997129
 40
0.637509119
 40
0.7046493401
 40
0.7698721623
 40
0.8325716744
 40
0.8921753439
 40
0.9481625463
 40
1.0
 40
1.0
 40
1.0
 40
1.0
 10
10.7896827219
 20
6.0428640267
 30
0.0
 10
10.7985297245
 20
6.0417081514
 30
0.0
 10
10.8169631503
 20
6.0395396214
 30
0.0
 10
10.8456485765
 20
6.0367665846
 30
0.0
 10
10.8762434877
 20
6.0343702188
 30
0.0
 10
10.9084596917
 20
6.0323748998
 30
0.0
 10
10.941997797
 20
6.0308004347
 30
0.0
 10
10.9884239902
 20
6.0292741288
 30
0.0
 10
11.0473182056
 20
6.028523275
 30
0.0
 10
11.1062124366
 20
6.0292741296
 30
0.0
 10
11.1526386877
 20
6.0308004671
 30
0.0
 10
11.1861768618
 20
6.0323749029
 30
0.0
 10
11.2183931299
 20
6.034370186
 30
0.0
 10
11.2489880799
 20
6.0367665683
 30
0.0
 10
11.2776735206
 20
6.0395396176
 30
0.0
 10
11.2961069528
 20
6.0417081485
 30
0.0
 10
11.3049539551
 20
6.0428640267
 30
0.0
  0
SPLINE
  5
398
100
AcDbEntity
  8
0
100
AcDbSpline
 62
9
  6
CONTINUOUS
 70
0
 71
3
 72
11
 73
7
 74
0
 42
0.0000001
 43
0.0000001
 44
0.0000000001
 40
0.0
 40
0.0
 40
0.0
 40
0.0
 40
0.2526114446
 40
0.5032644019
 40
0.7522808822
 40
1.0
 40
1.0
 40
1.0
 40
1.0
 10
10.2467936058
 20
6.1788398197
 30
0.0
 10
10.2904897724
 20
6.162756439
 30
0.0
 10
10.3783910358
 20
6.132962772
 30
0.0
 10
10.5119461445
 20
6.0954393946
 30
0.0
 10
10.6464429023
 20
6.0653320468
 30
0.0
 10
10.7367982066
 20
6.0502013353
 30
0.0
 10
10.7820215303
 20
6.0438991296
 30
0.0
  0
SPLINE
  5
399
100
AcDbEntity
  8
0
100
AcDbSpline
 62
9
  6
CONTINUOUS
 70
0
 71
3
 72
14
 73
10
 74
0
 42
0.0000001
 43
0.0000001
 44
0.0000000001
 40
0.0
 40
0.0
 40
0.0
 40
0.0
 40
0.1363169904
 40
0.2714702386
 40
0.4040365494
 40
0.5330317071
 40
0.6576704297
 40
0.7773731463
 40
1.0
 40
1.0
 40
1.0
 40
1.0
 10
10.2224673254
 20
6.1520640505
 30
0.0
 10
10.2230787027
 20
6.1536390068
 30
0.0
 10
10.2244339629
 20
6.1567239461
 30
0.0
 10
10.2268422982
 20
6.1611213692
 30
0.0
 10
10.2295897397
 20
6.1652075268
 30
0.0
 10
10.2326270385
 20
6.1689159693
 30
0.0
 10
10.2359113489
 20
6.1721892551
 30
0.0
 10
10.2404308744
 20
6.1758123209
 30
0.0
 10
10.2442043924
 20
6.1778864712
 30
0.0
 10
10.2467936058
 20
6.1788398197
 30
0.0
  0
SPLINE
  5
39A
100
AcDbEntity
  8
0
100
AcDbSpline
 62
9
  6
CONTINUOUS
 70
0
 71
3
 72
11
 73
7
 74
0
 42
0.0000001
 43
0.0000001
 44
0.0000000001
 40
0.0
 40
0.0
 40
0.0
 40
0.0
 40
0.2477038774
 40
0.4967085562
 40
0.7473634087
 40
1.0
 40
1.0
 40
1.0
 40
1.0
 10
10.7683699768
 20
6.0153084664
 30
0.0
 10
10.7222430417
 20
6.0215916581
 30
0.0
 10
10.6300781639
 20
6.0367710716
 30
0.0
 10
10.4928886293
 20
6.0672081363
 30
0.0
 10
10.3566671012
 20
6.1053161246
 30
0.0
 10
10.2670248267
 20
6.1356636174
 30
0.0
 10
10.2224673254
 20
6.1520640505
 30
0.0
  0
SPLINE
  5
39B
100
AcDbEntity
  8
0
100
AcDbSpline
 62
9
  6
CONTINUOUS
 70
0
 71
3
 72
36
 73
32
 74
0
 42
0.0000001
 43
0.0000001
 44
0.0000000001
 40
0.0
 40
0.0
 40
0.0
 40
0.0
 40
0.0270899792
 40
0.0550165522
 40
0.0838892778
 40
0.1138018262
 40
0.1767780761
 40
0.2098527745
 40
0.2438586763
 40
0.2786783848
 40
0.314170534
 40
0.3501743603
 40
0.38651435
 40
0.4594144958
 40
0.4956463596
 40
0.5314726631
 40
0.6011903563
 40
0.6348491821
 40
0.6675404924
 40
0.6991904455
 40
0.7297646447
 40
0.7592699499
 40
0.7877616224
 40
0.8153441277
 40
0.8421706308
 40
0.8684400362
 40
0.8943858082
 40
0.9202633792
 40
0.9463325367
 40
0.9728391733
 40
1.0
 40
1.0
 40
1.0
 40
1.0
 10
10.2185739705
 20
6.1535397667
 30
0.0
 10
10.212370886
 20
6.1559549778
 30
0.0
 10
10.2000923129
 20
6.1617193111
 30
0.0
 10
10.1826449749
 20
6.1727881176
 30
0.0
 10
10.1660987837
 20
6.1862909289
 30
0.0
 10
10.1451175575
 20
6.2076893982
 30
0.0
 10
10.1270323688
 20
6.233093339
 30
0.0
 10
10.1120974288
 20
6.2613743143
 30
0.0
 10
10.1023146367
 20
6.2844585959
 30
0.0
 10
10.0942436412
 20
6.3088155017
 30
0.0
 10
10.0879625887
 20
6.3341994949
 30
0.0
 10
10.0835394343
 20
6.3603517573
 30
0.0
 10
10.0801728001
 20
6.3959064051
 30
0.0
 10
10.080667502
 20
6.4317973526
 30
0.0
 10
10.0850202794
 20
6.4671772023
 30
0.0
 10
10.0918175485
 20
6.5013692402
 30
0.0
 10
10.1022552022
 20
6.5341218951
 30
0.0
 10
10.1163001847
 20
6.5645003503
 30
0.0
 10
10.1282817329
 20
6.585427824
 30
0.0
 10
10.1417107874
 20
6.6045397913
 30
0.0
 10
10.1564504706
 20
6.6216448558
 30
0.0
 10
10.172356872
 20
6.6365638003
 30
0.0
 10
10.1892687976
 20
6.6491437373
 30
0.0
 10
10.2070173631
 20
6.6592508148
 30
0.0
 10
10.2254225789
 20
6.6667733664
 30
0.0
 10
10.2442923339
 20
6.6716308423
 30
0.0
 10
10.2634282103
 20
6.6737624774
 30
0.0
 10
10.2826235795
 20
6.6731485156
 30
0.0
 10
10.3016730593
 20
6.6697951361
 30
0.0
 10
10.3203698124
 20
6.6637451674
 30
0.0
 10
10.332307394
 20
6.658040543
 30
0.0
 10
10.3381395781
 20
6.6547956691
 30
0.0
  0
SPLINE
  5
39C
100
AcDbEntity
  8
0
100
AcDbSpline
 62
9
  6
CONTINUOUS
 70
0
 71
3
 72
15
 73
11
 74
0
 42
0.0000001
 43
0.0000001
 44
0.0000000001
 40
0.0
 40
0.0
 40
0.0
 40
0.0
 40
0.1413592298
 40
0.2797028992
 40
0.4137852686
 40
0.542624949
 40
0.6655922317
 40
0.7824914461
 40
0.8936905823
 40
1.0
 40
1.0
 40
1.0
 40
1.0
 10
10.2055062967
 20
6.3827383189
 30
0.0
 10
10.2063942187
 20
6.3746320887
 30
0.0
 10
10.2089854395
 20
6.3586700017
 30
0.0
 10
10.2153324633
 20
6.3356109453
 30
0.0
 10
10.2239789581
 20
6.3140807315
 30
0.0
 10
10.2347466506
 20
6.2945289741
 30
0.0
 10
10.2474183953
 20
6.2773615786
 30
0.0
 10
10.2617382636
 20
6.2629265383
 30
0.0
 10
10.2774201925
 20
6.2515421424
 30
0.0
 10
10.288794406
 20
6.2460458985
 30
0.0
 10
10.2945491319
 20
6.2439260066
 30
0.0
  0
SPLINE
  5
39D
100
AcDbEntity
  8
0
100
AcDbSpline
 62
9
  6
CONTINUOUS
 70
0
 71
3
 72
15
 73
11
 74
0
 42
0.0000001
 43
0.0000001
 44
0.0000000001
 40
0.0
 40
0.0
 40
0.0
 40
0.0
 40
0.107372765
 40
0.2202535903
 40
0.3389342055
 40
0.4632342522
 40
0.5925593193
 40
0.7259477931
 40
0.8622601592
 40
1.0
 40
1.0
 40
1.0
 40
1.0
 10
11.7208979581
 20
6.564879659
 30
0.0
 10
11.7154030714
 20
6.5615366598
 30
0.0
 10
11.7047311398
 20
6.553653938
 30
0.0
 10
11.6904725497
 20
6.5390984776
 30
0.0
 10
11.6778560034
 20
6.5218311567
 30
0.0
 10
11.6671431394
 20
6.5022037278
 30
0.0
 10
11.6585568511
 20
6.4806124751
 30
0.0
 10
11.6522791791
 20
6.4574978455
 30
0.0
 10
11.6484587745
 20
6.4333474153
 30
0.0
 10
11.6476037781
 20
6.4169180614
 30
0.0
 10
11.6476026721
 20
6.4086670883
 30
0.0
  0
SPLINE
  5
39E
100
AcDbEntity
  8
0
100
AcDbSpline
 62
9
  6
CONTINUOUS
 70
0
 71
3
 72
15
 73
11
 74
0
 42
0.0000001
 43
0.0000001
 44
0.0000000001
 40
0.0
 40
0.0
 40
0.0
 40
0.0
 40
0.1408290595
 40
0.2790350615
 40
0.4132541257
 40
0.5423748746
 40
0.6656412278
 40
0.7827388249
 40
0.8939203459
 40
1.0
 40
1.0
 40
1.0
 40
1.0
 10
12.0129102258
 20
6.3811736203
 30
0.0
 10
12.011941483
 20
6.3681104601
 30
0.0
 10
12.0086472728
 20
6.3423065514
 30
0.0
 10
11.9996342873
 20
6.3048614563
 30
0.0
 10
11.9867725837
 20
6.2697030687
 30
0.0
 10
11.9703383096
 20
6.2376087455
 30
0.0
 10
11.9506790494
 20
6.2092839343
 30
0.0
 10
11.9282037484
 20
6.1853504305
 30
0.0
 10
11.9033895211
 20
6.1663630885
 30
0.0
 10
11.8852572059
 20
6.1571197287
 30
0.0
 10
11.8760627066
 20
6.1535397677
 30
0.0
  0
SPLINE
  5
39F
100
AcDbEntity
  8
0
100
AcDbSpline
 62
9
  6
CONTINUOUS
 70
0
 71
3
 72
11
 73
7
 74
0
 42
0.0000001
 43
0.0000001
 44
0.0000000001
 40
0.0
 40
0.0
 40
0.0
 40
0.0
 40
0.2330147589
 40
0.4769522882
 40
0.7326363659
 40
1.0
 40
1.0
 40
1.0
 40
1.0
 10
10.3381395781
 20
6.6547956691
 30
0.0
 10
10.3461878373
 20
6.6503178292
 30
0.0
 10
10.3619002349
 20
6.6397270821
 30
0.0
 10
10.3832272815
 20
6.619994297
 30
0.0
 10
10.402458383
 20
6.596445622
 30
0.0
 10
10.4134273806
 20
6.5788511137
 30
0.0
 10
10.4184939028
 20
6.5695770899
 30
0.0
  0
ENDSEC
  0
SECTION
  2
OBJECTS
  0
DICTIONARY
  5
C
100
AcDbDictionary
280
0
281
1
  3
ACAD_GROUP
350
D
  3
ACAD_MLINESTYLE
350
17
  3
ACAD_LAYOUT
350
1A
  3
ACAD_PLOTSETTINGS
350
19
  3
ACAD_PLOTSTYLENAME
350
E
  0
DICTIONARY
  5
D
102
{ACAD_REACTORS
330
C
102
}
100
AcDbDictionary
280
0
281
1
  0
ACDBDICTIONARYWDFLT
  5
E
102
{ACAD_REACTORS
330
C
102
}
100
AcDbDictionary
281
1
  3
Normal
350
F
100
AcDbDictionaryWithDefault
340
F
  0
DICTIONARY
  5
17
102
{ACAD_REACTORS
330
C
102
}
100
AcDbDictionary
280
0
281
1
  3
Standard
350
18
  0
DICTIONARY
  5
19
102
{ACAD_REACTORS
330
C
102
}
100
AcDbDictionary
281
1
  0
DICTIONARY
  5
1A
102
{ACAD_REACTORS
330
C
102
}
100
AcDbDictionary
281
1
  3
Model
350
3A0
  3
Layout1
350
3A1
  0
ACDBPLACEHOLDER
  5
F
102
{ACAD_REACTORS
330
E
102
}
  0
MLINESTYLE
  5
18
102
{ACAD_REACTORS
330
17
102
}
100
AcDbMlineStyle
  2
STANDARD
 70
0
  3

 62
256
 51
90.0
 52
90.0
 71
2
 49
0.5
 62
256
  6
BYLAYER
 49
-0.5
 62
256
  6
BYLAYER
  0
LAYOUT
  5
3A0
102
{ACAD_REACTORS
330
1A
102
}
100
AcDbPlotSettings
  1

  2
none_device
  4
ANSI_C_(22.00_x_17.00_Inches)
  6

 40
0.0
 41
0.0
 42
0.0
 43
0.0
 44
558.8
 45
431.8
 46
0.0
 47
0.0
 48
0.0
 49
0.0
140
0.0
141
0.0
142
1.0
143
1.0
 70
1024
 72
0
 73
0
 74
0
  7

 75
0
147
1.0
148
0.0
149
0.0
100
AcDbLayout
  1
Model
 70
0
 71
0
 10
0.0
 20
0.0
 11
22.0
 21
17.0
 12
0.0
 22
0.0
 32
0.0
 14
0.0
 24
0.0
 34
0.0
 15
0.0
 25
0.0
 35
0.0
146
0.0
 13
0.0
 23
0.0
 33
0.0
 16
1.0
 26
0.0
 36
0.0
 17
0.0
 27
1.0
 37
0.0
 76
0
330
205
345
0
346
0
  0
LAYOUT
  5
3A1
102
{ACAD_REACTORS
330
1A
102
}
100
AcDbPlotSettings
  1

  2
none_device
  4
ANSI_C_(22.00_x_17.00_Inches)
  6

 40
0.0
 41
0.0
 42
0.0
 43
0.0
 44
558.8
 45
431.8
 46
0.0
 47
0.0
 48
0.0
 49
0.0
140
0.0
141
0.0
142
1.0
143
1.0
 70
0
 72
0
 73
0
 74
0
  7

 75
0
147
1.0
148
0.0
149
0.0
100
AcDbLayout
  1
Layout1
 70
0
 71
1
 10
0.0
 20
0.0
 11
22.0
 21
17.0
 12
0.0
 22
0.0
 32
0.0
 14
0.0
 24
0.0
 34
0.0
 15
0.0
 25
0.0
 35
0.0
146
0.0
 13
0.0
 23
0.0
 33
0.0
 16
1.0
 26
0.0
 36
0.0
 17
0.0
 27
1.0
 37
0.0
 76
0
330
206
345
0
346
0
  0
ENDSEC
  0
EOF
