999
DXF file: E:\BT Custom\CADOUTPUT\_RIGHT.dxf
999
Pro/ENGINEER 2018400 by Parametric Technology Corporation
  0
SECTION
  2
HEADER
  9
$ACADVER
  1
AC1018
  9
$DWGCODEPAGE
  3
ANSI_1252
  9
$EXTMAX
 10
22.0
 20
17.0
 30
0.0
  9
$EXTMIN
 10
0.0
 20
0.0
 30
0.0
  9
$LIMMIN
 10
0.0
 20
0.0
  9
$LIMMAX
 10
22.0
 20
17.0
  9
$VIEWCTR
 10
11.0
 20
8.5
  9
$VIEWSIZE
 40
17.0
  9
$CLAYER
  8
0
  9
$LTSCALE
 40
1.21
  9
$CELTYPE
  6
BYLAYER
  9
$DIMSCALE
 40
1.0
  9
$DIMASZ
 40
0.1
  9
$DIMEXO
 40
0.0625
  9
$DIMDLI
 40
0.836
  9
$DIMEXE
 40
0.125
  9
$DIMCEN
 40
0.198
  9
$DIMLFAC
 40
1.0
  9
$DIMBLK
  1
_FILLED
  9
$DIMALT
 70
1
  9
$DIMALTD
 70
2
  9
$DIMALTTD
 70
2
  9
$DIMALTF
 40
25.4
  9
$DIMTXT
 40
0.08
  9
$DIMTOL
 70
1
  9
$DIMLIM
 70
0
  9
$DIMTFAC
 40
1.0
  9
$DIMTP
 40
0.001
  9
$DIMTM
 40
0.001
  9
$DIMGAP
 40
0.09
  9
$DIMDSEP
 70
46
  9
$AUNITS
 70
0
  9
$PDMODE
 70
3
  9
$PDSIZE
 40
0.06
  9
$HANDSEED
  5
2CA
  9
$TILEMODE
 70
1
  9
$MEASUREMENT
 70
0
  9
$INSUNITS
 70
1
  0
ENDSEC
  0
SECTION
  2
CLASSES
  0
CLASS
  1
ACDBDICTIONARYWDFLT
  2
AcDbDictionaryWithDefault
  3
AutoCAD 2000
 90
0
 91
1
280
0
281
0
  0
CLASS
  1
ACDBPLACEHOLDER
  2
AcDbPlaceHolder
  3
AutoCAD 2000
 90
0
 91
1
280
0
281
0
  0
CLASS
  1
LAYOUT
  2
AcDbLayout
  3
AutoCAD 2000
 90
0
 91
0
280
0
281
0
  0
ENDSEC
  0
SECTION
  2
TABLES
  0
TABLE
  2
VPORT
  5
8
100
AcDbSymbolTable
 70
2
  0
VPORT
  5
1F4
100
AcDbSymbolTableRecord
100
AcDbViewportTableRecord
  2
*ACTIVE
 70
0
 10
0.0
 20
0.0
 11
1.0
 21
1.0
 12
11.0
 22
8.5
 13
0.0
 23
0.0
 14
1.0
 24
1.0
 15
0.0
 25
0.0
 16
0.0
 26
0.0
 36
1.0
 17
0.0
 27
0.0
 37
0.0
 40
17.0
 41
1.2941176471
 42
50.0
 43
0.0
 44
0.0
 50
0.0
 51
0.0
 71
0
 72
100
 73
1
 74
1
 75
0
 76
0
 77
0
 78
0
  0
ENDTAB
  0
TABLE
  2
LTYPE
  5
5
100
AcDbSymbolTable
 70
6
  0
LTYPE
  5
14
100
AcDbSymbolTableRecord
100
AcDbLinetypeTableRecord
  2
BYBLOCK
 70
0
  3

 72
65
 73
0
 40
0.0
  0
LTYPE
  5
15
100
AcDbSymbolTableRecord
100
AcDbLinetypeTableRecord
  2
BYLAYER
 70
0
  3

 72
65
 73
0
 40
0.0
  0
LTYPE
  5
16
100
AcDbSymbolTableRecord
100
AcDbLinetypeTableRecord
  2
CONTINUOUS
 70
64
  3
Solid line
 72
65
 73
0
 40
0.0
  0
LTYPE
  5
1F5
100
AcDbSymbolTableRecord
100
AcDbLinetypeTableRecord
  2
CENTER
 70
64
  3
____ _ ____ _ ____ _ ____ _ ____ _ ____ _ ____
 72
65
 73
4
 40
0.6
 49
0.375
 74
0
 49
-0.075
 74
0
 49
0.075
 74
0
 49
-0.075
 74
0
  0
LTYPE
  5
1F6
100
AcDbSymbolTableRecord
100
AcDbLinetypeTableRecord
  2
HIDDEN
 70
64
  3
- - - - - - - - - - - - - - - - - - - -
 72
65
 73
2
 40
0.2
 49
0.1
 74
0
 49
-0.1
 74
0
  0
LTYPE
  5
1F7
100
AcDbSymbolTableRecord
100
AcDbLinetypeTableRecord
  2
PHANTOM
 70
64
  3
_____ _ _ _____ _ _ _____ _ _ _____
 72
65
 73
6
 40
0.8
 49
0.45
 74
0
 49
-0.05
 74
0
 49
0.1
 74
0
 49
-0.05
 74
0
 49
0.1
 74
0
 49
-0.05
 74
0
  0
LTYPE
  5
1F8
100
AcDbSymbolTableRecord
100
AcDbLinetypeTableRecord
  2
DOT
 70
64
  3
. . . . . . . . . . . . . . . . . . . .
 72
65
 73
2
 40
0.2
 49
0.1
 74
0
 49
-0.1
 74
0
  0
LTYPE
  5
1F9
100
AcDbSymbolTableRecord
100
AcDbLinetypeTableRecord
  2
DASHED
 70
64
  3
- - - - - - - - - - - - - - - - - - - -
 72
65
 73
2
 40
0.2
 49
0.1
 74
0
 49
-0.1
 74
0
  0
ENDTAB
  0
TABLE
  2
LAYER
  5
2
100
AcDbSymbolTable
 70
36
  0
LAYER
  5
10
100
AcDbSymbolTableRecord
100
AcDbLayerTableRecord
  2
0
 70
0
 62
7
  6
CONTINUOUS
370
-3
390
F
  0
LAYER
  5
1FA
100
AcDbSymbolTableRecord
100
AcDbLayerTableRecord
  2
DEFAULT_1
 70
0
 62
7
  6
CENTER
370
-3
390
F
  0
LAYER
  5
1FB
100
AcDbSymbolTableRecord
100
AcDbLayerTableRecord
  2
DEFAULT_2
 70
0
 62
8
  6
HIDDEN
370
-3
390
F
  0
LAYER
  5
1FC
100
AcDbSymbolTableRecord
100
AcDbLayerTableRecord
  2
DEFAULT_3
 70
0
 62
7
  6
PHANTOM
370
-3
390
F
  0
LAYER
  5
1FD
100
AcDbSymbolTableRecord
100
AcDbLayerTableRecord
  2
ALL_FEATURES
 70
0
 62
7
  6
CONTINUOUS
370
-3
390
F
  0
LAYER
  5
1FE
100
AcDbSymbolTableRecord
100
AcDbLayerTableRecord
  2
AXES_FEATURES
 70
0
 62
7
  6
CONTINUOUS
370
-3
390
F
  0
LAYER
  5
1FF
100
AcDbSymbolTableRecord
100
AcDbLayerTableRecord
  2
DEFAULT_COORDINATE_SYSTEM
 70
0
 62
7
  6
CONTINUOUS
370
-3
390
F
  0
LAYER
  5
200
100
AcDbSymbolTableRecord
100
AcDbLayerTableRecord
  2
DEFAULT_DATUM_AXES
 70
0
 62
7
  6
CONTINUOUS
370
-3
390
F
  0
LAYER
  5
201
100
AcDbSymbolTableRecord
100
AcDbLayerTableRecord
  2
DEFAULT_DATUM_PLANES
 70
0
 62
7
  6
CONTINUOUS
370
-3
390
F
  0
LAYER
  5
202
100
AcDbSymbolTableRecord
100
AcDbLayerTableRecord
  2
DIMENSIONS
 70
0
 62
7
  6
CONTINUOUS
370
-3
390
F
  0
ENDTAB
  0
TABLE
  2
STYLE
  5
3
100
AcDbSymbolTable
 70
1
  0
STYLE
  5
11
100
AcDbSymbolTableRecord
100
AcDbTextStyleTableRecord
  2
STANDARD
 70
0
 40
0.0
 41
0.8
 50
0.0
 71
0
 42
0.2
  3
txt
  4

  0
STYLE
  5
203
100
AcDbSymbolTableRecord
100
AcDbTextStyleTableRecord
  2
TEXTSTYLE_1
 70
0
 40
0.0
 41
0.8
 50
0.0
 71
0
 42
0.2
  3
gdt
  4

  0
ENDTAB
  0
TABLE
  2
VIEW
  5
6
100
AcDbSymbolTable
 70
0
  0
ENDTAB
  0
TABLE
  2
UCS
  5
7
100
AcDbSymbolTable
 70
0
  0
ENDTAB
  0
TABLE
  2
APPID
  5
9
100
AcDbSymbolTable
 70
1
  0
APPID
  5
204
100
AcDbSymbolTableRecord
100
AcDbRegAppTableRecord
  2
ACAD
 70
0
  0
ENDTAB
  0
TABLE
  2
BLOCK_RECORD
  5
1
100
AcDbSymbolTable
 70
0
  0
BLOCK_RECORD
  5
205
100
AcDbSymbolTableRecord
100
AcDbBlockTableRecord
  2
*Model_Space
  0
BLOCK_RECORD
  5
206
100
AcDbSymbolTableRecord
100
AcDbBlockTableRecord
  2
*Paper_Space
  0
BLOCK_RECORD
  5
207
100
AcDbSymbolTableRecord
100
AcDbBlockTableRecord
  2
_FILLED
  0
ENDTAB
  0
TABLE
  2
DIMSTYLE
  5
A
100
AcDbSymbolTable
 70
1
100
AcDbDimStyleTable
 71
0
  0
DIMSTYLE
105
208
100
AcDbSymbolTableRecord
100
AcDbDimStyleTableRecord
  2
STANDARD
 70
0
  3

  4

 40
1.0
 41
0.1
 42
0.0625
 43
0.38
 44
0.125
 45
0.0
 46
0.0
 47
0.001
 48
0.001
140
0.08
141
0.09
142
0.0
143
25.4
144
1.0
145
0.0
146
1.0
147
0.09
 71
1.0
 72
0.0
 73
1
 74
1
 75
0
 76
0
 77
0
 78
4
 79
1
170
1
171
2
172
0
173
0
174
0
175
0
176
0
177
0
178
0
270
2
179
3
271
3
272
3
273
2
274
2
275
0
280
0
281
0
282
0
283
1
284
4
285
0
286
0
287
3
288
0
340
11
278
46
341
207
342
207
343
207
344
207
  0
ENDTAB
  0
ENDSEC
  0
SECTION
  2
BLOCKS
  0
BLOCK
  5
20
100
AcDbEntity
  8
0
100
AcDbBlockBegin
  2
*Model_Space
 70
0
 10
0.0
 20
0.0
 30
0.0
  3
*Model_Space
  1

  0
ENDBLK
  5
21
100
AcDbEntity
  8
0
100
AcDbBlockEnd
  0
BLOCK
  5
1C
100
AcDbEntity
  8
0
100
AcDbBlockBegin
  2
*Paper_Space
 70
0
 10
0.0
 20
0.0
 30
0.0
  3
*Paper_Space
  1

  0
ENDBLK
  5
1D
100
AcDbEntity
  8
0
100
AcDbBlockEnd
  0
BLOCK
  5
209
100
AcDbEntity
  8
0
100
AcDbBlockBegin
  2
_FILLED
 70
64
 10
0.0
 20
0.0
  3
_FILLED
  1

  0
SOLID
  5
20A
100
AcDbEntity
  8
0
  6
BYBLOCK
 62
0
100
AcDbTrace
 10
0.0
 20
0.0
 11
-1.0
 21
0.2
 12
-1.0
 22
-0.2
 13
-1.0
 23
-0.2
  0
ENDBLK
  5
20B
100
AcDbEntity
  8
0
  6
BYBLOCK
 62
0
100
AcDbBlockEnd
  0
ENDSEC
  0
SECTION
  2
ENTITIES
  0
LINE
  5
20C
100
AcDbEntity
  8
0
100
AcDbLine
 62
7
  6
CONTINUOUS
 10
12.0099877448
 20
5.634891804
 11
12.2099877448
 21
5.634891804
  0
LINE
  5
20D
100
AcDbEntity
  8
0
100
AcDbLine
 62
7
  6
CONTINUOUS
 10
12.0099877448
 20
5.759891804
 11
11.8969877448
 21
5.759891804
  0
LINE
  5
20E
100
AcDbEntity
  8
0
100
AcDbLine
 62
9
  6
CONTINUOUS
 10
11.8969877448
 20
6.049891804
 11
12.2099877448
 21
6.049891804
  0
LINE
  5
20F
100
AcDbEntity
  8
0
100
AcDbLine
 62
9
  6
CONTINUOUS
 10
12.2099877448
 20
6.094891804
 11
11.8969877448
 21
6.094891804
  0
LINE
  5
210
100
AcDbEntity
  8
0
100
AcDbLine
 62
7
  6
CONTINUOUS
 10
12.0099877448
 20
6.134891804
 11
12.2099877448
 21
6.134891804
  0
LINE
  5
211
100
AcDbEntity
  8
0
100
AcDbLine
 62
7
  6
CONTINUOUS
 10
12.0099877448
 20
6.259891804
 11
11.8969877448
 21
6.259891804
  0
LINE
  5
212
100
AcDbEntity
  8
0
100
AcDbLine
 62
7
  6
CONTINUOUS
 10
11.1139483747
 20
6.3525374733
 11
11.0769483747
 21
6.3525374733
  0
LINE
  5
213
100
AcDbEntity
  8
0
100
AcDbLine
 62
7
  6
CONTINUOUS
 10
11.2129483747
 20
6.4510374733
 11
11.1939483747
 21
6.4510374733
  0
LINE
  5
214
100
AcDbEntity
  8
0
100
AcDbLine
 62
7
  6
CONTINUOUS
 10
10.9969483747
 20
6.4510374733
 11
10.9789483747
 21
6.4510374733
  0
LINE
  5
215
100
AcDbEntity
  8
0
100
AcDbLine
 62
9
  6
CONTINUOUS
 10
11.8969877448
 20
6.549891804
 11
12.2099877448
 21
6.549891804
  0
LINE
  5
216
100
AcDbEntity
  8
0
100
AcDbLine
 62
7
  6
CONTINUOUS
 10
11.5539483747
 20
6.6070374733
 11
11.4961161695
 21
6.6070374733
  0
LINE
  5
217
100
AcDbEntity
  8
0
100
AcDbLine
 62
7
  6
CONTINUOUS
 10
11.5539483747
 20
6.6675374733
 11
11.8969877448
 21
6.6675374733
  0
LINE
  5
218
100
AcDbEntity
  8
0
100
AcDbLine
 62
7
  6
CONTINUOUS
 10
11.5539483747
 20
7.0215374733
 11
11.8969877448
 21
7.0215374733
  0
LINE
  5
219
100
AcDbEntity
  8
0
100
AcDbLine
 62
7
  6
CONTINUOUS
 10
11.5539483747
 20
7.0820374733
 11
11.4961161695
 21
7.0820374733
  0
LINE
  5
21A
100
AcDbEntity
  8
0
100
AcDbLine
 62
7
  6
CONTINUOUS
 10
11.2129483747
 20
7.2380374733
 11
11.1939483747
 21
7.2380374733
  0
LINE
  5
21B
100
AcDbEntity
  8
0
100
AcDbLine
 62
7
  6
CONTINUOUS
 10
10.9969483747
 20
7.2380374733
 11
10.9789483747
 21
7.2380374733
  0
LINE
  5
21C
100
AcDbEntity
  8
0
100
AcDbLine
 62
7
  6
CONTINUOUS
 10
11.1139483747
 20
7.3365374733
 11
11.0769483747
 21
7.3365374733
  0
LINE
  5
21D
100
AcDbEntity
  8
0
100
AcDbLine
 62
9
  6
CONTINUOUS
 10
9.7407940659
 20
7.364891804
 11
9.5451814236
 21
7.364891804
  0
LINE
  5
21E
100
AcDbEntity
  8
0
100
AcDbLine
 62
9
  6
CONTINUOUS
 10
9.3732392649
 20
6.2632026714
 11
9.3732392649
 21
6.263163491
  0
LINE
  5
21F
100
AcDbEntity
  8
0
100
AcDbLine
 62
7
  6
CONTINUOUS
 10
9.4459877448
 20
8.1387404989
 11
9.4459877448
 21
9.353391804
  0
LINE
  5
220
100
AcDbEntity
  8
0
100
AcDbLine
 62
9
  6
CONTINUOUS
 10
9.4959877448
 20
8.1352825254
 11
9.4959877448
 21
9.403391804
  0
LINE
  5
221
100
AcDbEntity
  8
0
100
AcDbLine
 62
9
  6
CONTINUOUS
 10
9.5049877448
 20
8.1503726586
 11
9.5049877448
 21
9.403391804
  0
LINE
  5
222
100
AcDbEntity
  8
0
100
AcDbLine
 62
9
  6
CONTINUOUS
 10
9.4720012962
 20
7.603891804
 11
9.4821672348
 21
7.603891804
  0
LINE
  5
223
100
AcDbEntity
  8
0
100
AcDbLine
 62
9
  6
CONTINUOUS
 10
9.8038082545
 20
7.603891804
 11
9.8139741934
 21
7.603891804
  0
LINE
  5
224
100
AcDbEntity
  8
0
100
AcDbLine
 62
9
  6
CONTINUOUS
 10
9.9127362174
 20
6.2632027136
 11
9.9041727809
 21
6.3122854012
  0
LINE
  5
225
100
AcDbEntity
  8
0
100
AcDbLine
 62
9
  6
CONTINUOUS
 10
9.8872171622
 20
6.4108274918
 11
9.9020615061
 21
6.3258408851
  0
LINE
  5
226
100
AcDbEntity
  8
0
100
AcDbLine
 62
7
  6
CONTINUOUS
 10
9.7414584452
 20
8.0709051577
 11
9.7415058096
 21
8.0671388056
  0
LINE
  5
227
100
AcDbEntity
  8
0
100
AcDbLine
 62
7
  6
CONTINUOUS
 10
9.5449877448
 20
9.4518912028
 11
9.5449877448
 21
8.1479725416
  0
LINE
  5
228
100
AcDbEntity
  8
0
100
AcDbLine
 62
9
  6
CONTINUOUS
 10
9.5949877448
 20
9.501891804
 11
9.5949877448
 21
8.142725601
  0
LINE
  5
229
100
AcDbEntity
  8
0
100
AcDbLine
 62
9
  6
CONTINUOUS
 10
9.6909877448
 20
8.142725601
 11
9.6909877448
 21
9.501891804
  0
LINE
  5
22A
100
AcDbEntity
  8
0
100
AcDbLine
 62
7
  6
CONTINUOUS
 10
9.7409877448
 20
8.1479725416
 11
9.7409877448
 21
9.4518912028
  0
LINE
  5
22B
100
AcDbEntity
  8
0
100
AcDbLine
 62
7
  6
CONTINUOUS
 10
9.5445168849
 20
8.0708977122
 11
9.5444696737
 21
8.0671383984
  0
LINE
  5
22C
100
AcDbEntity
  8
0
100
AcDbLine
 62
9
  6
CONTINUOUS
 10
9.7809877448
 20
9.403391804
 11
9.7809877448
 21
8.1503726586
  0
LINE
  5
22D
100
AcDbEntity
  8
0
100
AcDbLine
 62
9
  6
CONTINUOUS
 10
9.7899877448
 20
9.403391804
 11
9.7899877448
 21
8.1352825254
  0
LINE
  5
22E
100
AcDbEntity
  8
0
100
AcDbLine
 62
7
  6
CONTINUOUS
 10
9.8399877448
 20
9.353391804
 11
9.8399877448
 21
8.1387404989
  0
LINE
  5
22F
100
AcDbEntity
  8
0
100
AcDbLine
 62
9
  6
CONTINUOUS
 10
9.9127362247
 20
6.2632026714
 11
9.9127362247
 21
6.263163491
  0
LINE
  5
230
100
AcDbEntity
  8
0
100
AcDbLine
 62
9
  6
CONTINUOUS
 10
9.3732393045
 20
6.2632028993
 11
9.3818027087
 21
6.3122854012
  0
LINE
  5
231
100
AcDbEntity
  8
0
100
AcDbLine
 62
9
  6
CONTINUOUS
 10
9.3987583274
 20
6.4108274918
 11
9.3839128238
 21
6.3258410058
  0
LINE
  5
232
100
AcDbEntity
  8
0
100
AcDbLine
 62
9
  6
CONTINUOUS
 10
9.4959877448
 20
8.1897580712
 11
9.5049877448
 21
8.1897580712
  0
LINE
  5
233
100
AcDbEntity
  8
0
100
AcDbLine
 62
9
  6
CONTINUOUS
 10
9.7809877448
 20
8.1897580712
 11
9.7899877448
 21
8.1897580712
  0
LINE
  5
234
100
AcDbEntity
  8
0
100
AcDbLine
 62
9
  6
CONTINUOUS
 10
9.6909877448
 20
8.2152578412
 11
9.5949877448
 21
8.2152578412
  0
LINE
  5
235
100
AcDbEntity
  8
0
100
AcDbLine
 62
7
  6
CONTINUOUS
 10
10.0359877448
 20
8.675391804
 11
10.0359877448
 21
9.344391804
  0
LINE
  5
236
100
AcDbEntity
  8
0
100
AcDbLine
 62
7
  6
CONTINUOUS
 10
10.1159877448
 20
8.675391804
 11
10.1159877448
 21
9.344391804
  0
LINE
  5
237
100
AcDbEntity
  8
0
100
AcDbLine
 62
7
  6
CONTINUOUS
 10
10.1469877448
 20
9.360391804
 11
10.1469877448
 21
8.659391804
  0
LINE
  5
238
100
AcDbEntity
  8
0
100
AcDbLine
 62
7
  6
CONTINUOUS
 10
11.8369877448
 20
8.309891804
 11
11.8969877448
 21
8.309891804
  0
LINE
  5
239
100
AcDbEntity
  8
0
100
AcDbLine
 62
7
  6
CONTINUOUS
 10
10.0359877448
 20
8.694891804
 11
9.8399877448
 21
8.694891804
  0
LINE
  5
23A
100
AcDbEntity
  8
0
100
AcDbLine
 62
9
  6
CONTINUOUS
 10
9.6909877448
 20
8.7102600758
 11
9.5949877448
 21
8.7102600758
  0
LINE
  5
23B
100
AcDbEntity
  8
0
100
AcDbLine
 62
7
  6
CONTINUOUS
 10
10.1469877448
 20
8.756891804
 11
10.1159877448
 21
8.756891804
  0
LINE
  5
23C
100
AcDbEntity
  8
0
100
AcDbLine
 62
9
  6
CONTINUOUS
 10
9.4959877448
 20
8.7718138806
 11
9.5049877448
 21
8.7718138806
  0
LINE
  5
23D
100
AcDbEntity
  8
0
100
AcDbLine
 62
9
  6
CONTINUOUS
 10
9.7809877448
 20
8.7718138806
 11
9.7899877448
 21
8.7718138806
  0
LINE
  5
23E
100
AcDbEntity
  8
0
100
AcDbLine
 62
7
  6
CONTINUOUS
 10
10.9289483747
 20
7.1880374733
 11
10.9289483747
 21
6.5010374733
  0
LINE
  5
23F
100
AcDbEntity
  8
0
100
AcDbLine
 62
9
  6
CONTINUOUS
 10
10.9789483747
 20
7.2380374733
 11
10.9789483747
 21
6.4510374733
  0
LINE
  5
240
100
AcDbEntity
  8
0
100
AcDbLine
 62
7
  6
CONTINUOUS
 10
10.1469877448
 20
9.262891804
 11
10.1159877448
 21
9.262891804
  0
LINE
  5
241
100
AcDbEntity
  8
0
100
AcDbLine
 62
7
  6
CONTINUOUS
 10
10.9969483747
 20
7.2565374733
 11
10.9969483747
 21
6.4325374733
  0
LINE
  5
242
100
AcDbEntity
  8
0
100
AcDbLine
 62
9
  6
CONTINUOUS
 10
11.0769483747
 20
7.3365374733
 11
11.0769483747
 21
6.3525374733
  0
LINE
  5
243
100
AcDbEntity
  8
0
100
AcDbLine
 62
9
  6
CONTINUOUS
 10
11.1139483747
 20
7.3365374733
 11
11.1139483747
 21
6.3525374733
  0
LINE
  5
244
100
AcDbEntity
  8
0
100
AcDbLine
 62
7
  6
CONTINUOUS
 10
11.1939483747
 20
7.2565374733
 11
11.1939483747
 21
6.4325374733
  0
LINE
  5
245
100
AcDbEntity
  8
0
100
AcDbLine
 62
9
  6
CONTINUOUS
 10
11.2129483747
 20
7.2380374733
 11
11.2129483747
 21
6.4510374733
  0
LINE
  5
246
100
AcDbEntity
  8
0
100
AcDbLine
 62
7
  6
CONTINUOUS
 10
10.0359877448
 20
9.324891804
 11
9.8399877448
 21
9.324891804
  0
LINE
  5
247
100
AcDbEntity
  8
0
100
AcDbLine
 62
7
  6
CONTINUOUS
 10
9.7899877448
 20
9.403391804
 11
9.7809877448
 21
9.403391804
  0
LINE
  5
248
100
AcDbEntity
  8
0
100
AcDbLine
 62
7
  6
CONTINUOUS
 10
9.5049877448
 20
9.403391804
 11
9.4959877448
 21
9.403391804
  0
LINE
  5
249
100
AcDbEntity
  8
0
100
AcDbLine
 62
7
  6
CONTINUOUS
 10
9.6909877448
 20
9.501891804
 11
9.5949877448
 21
9.501891804
  0
LINE
  5
24A
100
AcDbEntity
  8
0
100
AcDbLine
 62
9
  6
CONTINUOUS
 10
11.2552122247
 20
7.2147538912
 11
11.2552122247
 21
6.4743210554
  0
LINE
  5
24B
100
AcDbEntity
  8
0
100
AcDbLine
 62
7
  6
CONTINUOUS
 10
11.8369877448
 20
9.709891804
 11
11.8969877448
 21
9.709891804
  0
LINE
  5
24C
100
AcDbEntity
  8
0
100
AcDbLine
 62
9
  6
CONTINUOUS
 10
11.4961161695
 20
7.0820374733
 11
11.4961161695
 21
6.6070374733
  0
LINE
  5
24D
100
AcDbEntity
  8
0
100
AcDbLine
 62
7
  6
CONTINUOUS
 10
11.5539483747
 20
7.0820374733
 11
11.5539483747
 21
6.6070374733
  0
LINE
  5
24E
100
AcDbEntity
  8
0
100
AcDbLine
 62
7
  6
CONTINUOUS
 10
11.7969877448
 20
9.669891804
 11
11.7969877448
 21
8.349891804
  0
LINE
  5
24F
100
AcDbEntity
  8
0
100
AcDbLine
 62
9
  6
CONTINUOUS
 10
11.8369877448
 20
9.709891804
 11
11.8369877448
 21
8.309891804
  0
LINE
  5
250
100
AcDbEntity
  8
0
100
AcDbLine
 62
7
  6
CONTINUOUS
 10
11.8969877448
 20
5.759891804
 11
11.8969877448
 21
12.259891804
  0
LINE
  5
251
100
AcDbEntity
  8
0
100
AcDbLine
 62
7
  6
CONTINUOUS
 10
12.0099877448
 20
5.634891804
 11
12.0099877448
 21
12.384891804
  0
LINE
  5
252
100
AcDbEntity
  8
0
100
AcDbLine
 62
7
  6
CONTINUOUS
 10
12.2099877448
 20
5.634891804
 11
12.2099877448
 21
12.384891804
  0
LINE
  5
253
100
AcDbEntity
  8
0
100
AcDbLine
 62
9
  6
CONTINUOUS
 10
11.8969877448
 20
11.469891804
 11
12.2099877448
 21
11.469891804
  0
LINE
  5
254
100
AcDbEntity
  8
0
100
AcDbLine
 62
7
  6
CONTINUOUS
 10
12.0099877448
 20
11.759891804
 11
11.8969877448
 21
11.759891804
  0
LINE
  5
255
100
AcDbEntity
  8
0
100
AcDbLine
 62
7
  6
CONTINUOUS
 10
12.0099877448
 20
11.884891804
 11
12.2099877448
 21
11.884891804
  0
LINE
  5
256
100
AcDbEntity
  8
0
100
AcDbLine
 62
9
  6
CONTINUOUS
 10
12.2099877448
 20
11.924891804
 11
11.8969877448
 21
11.924891804
  0
LINE
  5
257
100
AcDbEntity
  8
0
100
AcDbLine
 62
9
  6
CONTINUOUS
 10
11.8969877448
 20
11.969891804
 11
12.2099877448
 21
11.969891804
  0
LINE
  5
258
100
AcDbEntity
  8
0
100
AcDbLine
 62
7
  6
CONTINUOUS
 10
12.0099877448
 20
12.259891804
 11
11.8969877448
 21
12.259891804
  0
LINE
  5
259
100
AcDbEntity
  8
0
100
AcDbLine
 62
7
  6
CONTINUOUS
 10
12.0099877448
 20
12.384891804
 11
12.2099877448
 21
12.384891804
  0
ARC
  5
25A
100
AcDbEntity
  8
0
100
AcDbCircle
 62
9
  6
CONTINUOUS
 10
2.8995600343
 20
8.1523547012
 40
6.6054210088
100
AcDbArc
 50
355.2371164213
 51
359.3191585984
  0
ARC
  5
25B
100
AcDbEntity
  8
0
100
AcDbCircle
 62
7
  6
CONTINUOUS
 10
3.201545453
 20
8.1466596194
 40
6.3434178867
100
AcDbArc
 50
355.0606087496
 51
359.2817234735
  0
ARC
  5
25C
100
AcDbEntity
  8
0
100
AcDbCircle
 62
7
  6
CONTINUOUS
 10
3.2466806848
 20
8.1479048325
 40
6.2983070557
100
AcDbArc
 50
359.2995181639
 51
359.9966068607
  0
ARC
  5
25D
100
AcDbEntity
  8
0
100
AcDbCircle
 62
9
  6
CONTINUOUS
 10
3.2560480725
 20
8.1503065721
 40
6.2489396727
100
AcDbArc
 50
359.2990967573
 51
0.0006059392
  0
ARC
  5
25E
100
AcDbEntity
  8
0
100
AcDbCircle
 62
9
  6
CONTINUOUS
 10
3.5356136343
 20
8.1389869556
 40
6.0592177346
100
AcDbArc
 50
344.0250141498
 51
352.6601213418
  0
ARC
  5
25F
100
AcDbEntity
  8
0
100
AcDbCircle
 62
9
  6
CONTINUOUS
 10
3.5314938751
 20
8.1366392053
 40
6.0142297464
100
AcDbArc
 50
344.059916252
 51
352.6901541416
  0
ARC
  5
260
100
AcDbEntity
  8
0
100
AcDbCircle
 62
9
  6
CONTINUOUS
 10
3.5281606584
 20
8.1345987657
 40
5.9782781944
100
AcDbArc
 50
344.0882766085
 51
352.7145141592
  0
ARC
  5
261
100
AcDbEntity
  8
0
100
AcDbCircle
 62
9
  6
CONTINUOUS
 10
3.540629689
 20
8.1377858254
 40
5.9553515403
100
AcDbArc
 50
344.0134008797
 51
354.8565591651
  0
ARC
  5
262
100
AcDbEntity
  8
0
100
AcDbCircle
 62
7
  6
CONTINUOUS
 10
3.5312594501
 20
8.1384510126
 40
5.9147290339
100
AcDbArc
 50
354.8599973699
 51
359.9945897911
  0
ARC
  5
263
100
AcDbEntity
  8
0
100
AcDbCircle
 62
7
  6
CONTINUOUS
 10
3.5406387641
 20
8.1379617469
 40
5.9053423715
100
AcDbArc
 50
344.0133976373
 51
354.8565725169
  0
ARC
  5
264
100
AcDbEntity
  8
0
100
AcDbCircle
 62
9
  6
CONTINUOUS
 10
3.6038383871
 20
8.1350062284
 40
5.8921501589
100
AcDbArc
 50
354.8283766072
 51
0.0026867364
  0
ARC
  5
265
100
AcDbEntity
  8
0
100
AcDbCircle
 62
9
  6
CONTINUOUS
 10
3.9584637462
 20
8.0810429879
 40
5.5836570627
100
AcDbArc
 50
352.6985564174
 51
355.0626697614
  0
ARC
  5
266
100
AcDbEntity
  8
0
100
AcDbCircle
 62
9
  6
CONTINUOUS
 10
4.2469428048
 20
8.0412334391
 40
5.2534600538
100
AcDbArc
 50
352.7304415762
 51
355.2246970122
  0
ARC
  5
267
100
AcDbEntity
  8
0
100
AcDbCircle
 62
7
  6
CONTINUOUS
 10
9.6429877448
 20
7.814891804
 40
1.575
100
AcDbArc
 50
260.138397614
 51
279.861602386
  0
ARC
  5
268
100
AcDbEntity
  8
0
100
AcDbCircle
 62
9
  6
CONTINUOUS
 10
9.6429877448
 20
7.8148801591
 40
1.5749499256
100
AcDbArc
 50
260.138080938
 51
279.861919062
  0
ARC
  5
269
100
AcDbEntity
  8
0
100
AcDbCircle
 62
9
  6
CONTINUOUS
 10
9.6429877448
 20
7.8147022825
 40
1.5249505265
100
AcDbArc
 50
260.1380744796
 51
279.8619255204
  0
ARC
  5
26A
100
AcDbEntity
  8
0
100
AcDbCircle
 62
9
  6
CONTINUOUS
 10
9.6429875112
 20
7.8167944302
 40
1.513294857
100
AcDbArc
 50
260.1424576347
 51
279.8575157513
  0
ARC
  5
26B
100
AcDbEntity
  8
0
100
AcDbCircle
 62
9
  6
CONTINUOUS
 10
9.6429878273
 20
7.8159782987
 40
1.4740562237
100
AcDbArc
 50
260.1377503673
 51
279.8622433029
  0
ARC
  5
26C
100
AcDbEntity
  8
0
100
AcDbCircle
 62
9
  6
CONTINUOUS
 10
9.6429877448
 20
7.8147389906
 40
1.4249964937
100
AcDbArc
 50
260.131384656
 51
279.868615344
  0
ARC
  5
26D
100
AcDbEntity
  8
0
100
AcDbCircle
 62
7
  6
CONTINUOUS
 10
9.4069792335
 20
6.4572526832
 40
0.197
100
AcDbArc
 50
164.0127705458
 51
260.138397614
  0
ARC
  5
26E
100
AcDbEntity
  8
0
100
AcDbCircle
 62
9
  6
CONTINUOUS
 10
9.4069848629
 20
6.4571176618
 40
0.1470056922
100
AcDbArc
 50
164.0123961078
 51
260.1365219769
  0
ARC
  5
26F
100
AcDbEntity
  8
0
100
AcDbCircle
 62
9
  6
CONTINUOUS
 10
9.4070145014
 20
6.4586435269
 40
0.1347999724
100
AcDbArc
 50
164.0804677311
 51
260.1318534379
  0
ARC
  5
270
100
AcDbEntity
  8
0
100
AcDbCircle
 62
9
  6
CONTINUOUS
 10
9.407013718
 20
6.4585141526
 40
0.0962374143
100
AcDbArc
 50
164.0631806333
 51
260.1261460788
  0
ARC
  5
271
100
AcDbEntity
  8
0
100
AcDbCircle
 62
9
  6
CONTINUOUS
 10
9.4070139498
 20
6.4581454985
 40
0.0480355811
100
AcDbArc
 50
164.0040787134
 51
260.1031630804
  0
ARC
  5
272
100
AcDbEntity
  8
0
100
AcDbCircle
 62
7
  6
CONTINUOUS
 10
9.5949877448
 20
9.451891804
 40
0.05
100
AcDbArc
 50
90.0
 51
180.0
  0
ARC
  5
273
100
AcDbEntity
  8
0
100
AcDbCircle
 62
7
  6
CONTINUOUS
 10
9.4959877448
 20
9.353391804
 40
0.05
100
AcDbArc
 50
90.0
 51
180.0
  0
ARC
  5
274
100
AcDbEntity
  8
0
100
AcDbCircle
 62
7
  6
CONTINUOUS
 10
9.5049877448
 20
9.443391804
 40
0.04
100
AcDbArc
 50
270.0
 51
360.0
  0
ARC
  5
275
100
AcDbEntity
  8
0
100
AcDbCircle
 62
9
  6
CONTINUOUS
 10
16.3864171266
 20
8.1523547623
 40
6.6054226808
100
AcDbArc
 50
180.6808417506
 51
184.7628829031
  0
ARC
  5
276
100
AcDbEntity
  8
0
100
AcDbCircle
 62
7
  6
CONTINUOUS
 10
16.0844317445
 20
8.1466596916
 40
6.3434195957
100
AcDbArc
 50
180.7182763796
 51
184.939390593
  0
ARC
  5
277
100
AcDbEntity
  8
0
100
AcDbCircle
 62
7
  6
CONTINUOUS
 10
16.0197734566
 20
8.1477849218
 40
6.2787857016
100
AcDbArc
 50
180.002309468
 51
180.7015655013
  0
ARC
  5
278
100
AcDbEntity
  8
0
100
AcDbCircle
 62
9
  6
CONTINUOUS
 10
16.0370594621
 20
8.1503501465
 40
6.2560717174
100
AcDbArc
 50
179.9997938248
 51
180.7005032531
  0
ARC
  5
279
100
AcDbEntity
  8
0
100
AcDbCircle
 62
9
  6
CONTINUOUS
 10
15.7503622042
 20
8.1389870276
 40
6.0592180905
100
AcDbArc
 50
187.3398789118
 51
195.9749855966
  0
ARC
  5
27A
100
AcDbEntity
  8
0
100
AcDbCircle
 62
9
  6
CONTINUOUS
 10
15.7544816755
 20
8.1366392309
 40
6.0142298111
100
AcDbArc
 50
187.3098460254
 51
195.9400838258
  0
ARC
  5
27B
100
AcDbEntity
  8
0
100
AcDbCircle
 62
9
  6
CONTINUOUS
 10
15.7577998115
 20
8.1345958689
 40
5.9782629137
100
AcDbArc
 50
187.2854765552
 51
195.9117472316
  0
ARC
  5
27C
100
AcDbEntity
  8
0
100
AcDbCircle
 62
9
  6
CONTINUOUS
 10
15.7453458171
 20
8.1377858284
 40
5.955351557
100
AcDbArc
 50
185.1434408501
 51
195.9865991051
  0
ARC
  5
27D
100
AcDbEntity
  8
0
100
AcDbCircle
 62
7
  6
CONTINUOUS
 10
15.7508050439
 20
8.1382693104
 40
5.9108160828
100
AcDbArc
 50
180.0036546531
 51
185.1416448181
  0
ARC
  5
27E
100
AcDbEntity
  8
0
100
AcDbCircle
 62
7
  6
CONTINUOUS
 10
15.7453367278
 20
8.1379617473
 40
5.9053423739
100
AcDbArc
 50
185.1434274853
 51
195.9866023605
  0
ARC
  5
27F
100
AcDbEntity
  8
0
100
AcDbCircle
 62
9
  6
CONTINUOUS
 10
15.6781930812
 20
8.1348220096
 40
5.8882041444
100
AcDbArc
 50
179.9955189042
 51
185.173297471
  0
ARC
  5
280
100
AcDbEntity
  8
0
100
AcDbCircle
 62
9
  6
CONTINUOUS
 10
15.3275148043
 20
8.0810433224
 40
5.5836601413
100
AcDbArc
 50
184.9373309789
 51
187.3014429957
  0
ARC
  5
281
100
AcDbEntity
  8
0
100
AcDbCircle
 62
7
  6
CONTINUOUS
 10
10.1469877448
 20
3.2140089915
 40
5.4453828125
100
AcDbArc
 50
72.3615794038
 51
90.0
  0
ARC
  5
282
100
AcDbEntity
  8
0
100
AcDbCircle
 62
9
  6
CONTINUOUS
 10
15.0390366868
 20
8.0412338679
 40
5.2534640781
100
AcDbArc
 50
184.7753040149
 51
187.269557539
  0
ARC
  5
283
100
AcDbEntity
  8
0
100
AcDbCircle
 62
7
  6
CONTINUOUS
 10
11.4961161695
 20
7.3670374733
 40
0.285
100
AcDbArc
 50
212.2983737807
 51
270.0
  0
ARC
  5
284
100
AcDbEntity
  8
0
100
AcDbCircle
 62
7
  6
CONTINUOUS
 10
11.4961161695
 20
6.3220374733
 40
0.285
100
AcDbArc
 50
90.0
 51
147.7016262193
  0
ARC
  5
285
100
AcDbEntity
  8
0
100
AcDbCircle
 62
7
  6
CONTINUOUS
 10
9.8789962561
 20
6.4572526832
 40
0.197
100
AcDbArc
 50
279.861602386
 51
15.9872293211
  0
ARC
  5
286
100
AcDbEntity
  8
0
100
AcDbCircle
 62
9
  6
CONTINUOUS
 10
9.878990628
 20
6.4571176639
 40
0.1470056922
100
AcDbArc
 50
279.8634773917
 51
15.9876032638
  0
ARC
  5
287
100
AcDbEntity
  8
0
100
AcDbCircle
 62
9
  6
CONTINUOUS
 10
9.8789588187
 20
6.4586447931
 40
0.1348020163
100
AcDbArc
 50
279.86846843
 51
15.9182706569
  0
ARC
  5
288
100
AcDbEntity
  8
0
100
AcDbCircle
 62
9
  6
CONTINUOUS
 10
9.8789614605
 20
6.4585143825
 40
0.0962377132
100
AcDbArc
 50
279.8740127674
 51
15.9366366317
  0
ARC
  5
289
100
AcDbEntity
  8
0
100
AcDbCircle
 62
7
  6
CONTINUOUS
 10
11.1139483747
 20
7.2565374733
 40
0.08
100
AcDbArc
 50
0.0
 51
90.0
  0
ARC
  5
28A
100
AcDbEntity
  8
0
100
AcDbCircle
 62
7
  6
CONTINUOUS
 10
11.1139483747
 20
6.4325374733
 40
0.08
100
AcDbArc
 50
270.0
 51
360.0
  0
ARC
  5
28B
100
AcDbEntity
  8
0
100
AcDbCircle
 62
7
  6
CONTINUOUS
 10
11.0769483747
 20
7.2565374733
 40
0.08
100
AcDbArc
 50
90.0
 51
180.0
  0
ARC
  5
28C
100
AcDbEntity
  8
0
100
AcDbCircle
 62
7
  6
CONTINUOUS
 10
11.0769483747
 20
6.4325374733
 40
0.08
100
AcDbArc
 50
180.0
 51
270.0
  0
ARC
  5
28D
100
AcDbEntity
  8
0
100
AcDbCircle
 62
7
  6
CONTINUOUS
 10
11.2129483747
 20
7.1880374733
 40
0.05
100
AcDbArc
 50
32.2983737807
 51
90.0
  0
ARC
  5
28E
100
AcDbEntity
  8
0
100
AcDbCircle
 62
7
  6
CONTINUOUS
 10
11.2129483747
 20
6.5010374733
 40
0.05
100
AcDbArc
 50
270.0
 51
327.7016262193
  0
ARC
  5
28F
100
AcDbEntity
  8
0
100
AcDbCircle
 62
7
  6
CONTINUOUS
 10
10.9789483747
 20
7.1880374733
 40
0.05
100
AcDbArc
 50
90.0
 51
180.0
  0
ARC
  5
290
100
AcDbEntity
  8
0
100
AcDbCircle
 62
7
  6
CONTINUOUS
 10
10.9789483747
 20
6.5010374733
 40
0.05
100
AcDbArc
 50
180.0
 51
270.0
  0
ARC
  5
291
100
AcDbEntity
  8
0
100
AcDbCircle
 62
9
  6
CONTINUOUS
 10
9.8789615301
 20
6.4581454819
 40
0.0480355787
100
AcDbArc
 50
279.8968516618
 51
15.9959371905
  0
ARC
  5
292
100
AcDbEntity
  8
0
100
AcDbCircle
 62
7
  6
CONTINUOUS
 10
11.8369877448
 20
8.349891804
 40
0.04
100
AcDbArc
 50
180.0
 51
270.0
  0
ARC
  5
293
100
AcDbEntity
  8
0
100
AcDbCircle
 62
7
  6
CONTINUOUS
 10
10.0759877448
 20
8.675391804
 40
0.04
100
AcDbArc
 50
180.0
 51
360.0
  0
ARC
  5
294
100
AcDbEntity
  8
0
100
AcDbCircle
 62
7
  6
CONTINUOUS
 10
10.1469877448
 20
14.8057746165
 40
5.4453828125
100
AcDbArc
 50
270.0
 51
287.6384205962
  0
ARC
  5
295
100
AcDbEntity
  8
0
100
AcDbCircle
 62
7
  6
CONTINUOUS
 10
9.6909877448
 20
9.451891804
 40
0.05
100
AcDbArc
 50
0.0
 51
90.0
  0
ARC
  5
296
100
AcDbEntity
  8
0
100
AcDbCircle
 62
7
  6
CONTINUOUS
 10
9.7899877448
 20
9.353391804
 40
0.05
100
AcDbArc
 50
0.0
 51
90.0
  0
ARC
  5
297
100
AcDbEntity
  8
0
100
AcDbCircle
 62
7
  6
CONTINUOUS
 10
9.7809877448
 20
9.443391804
 40
0.04
100
AcDbArc
 50
180.0
 51
270.0
  0
ARC
  5
298
100
AcDbEntity
  8
0
100
AcDbCircle
 62
7
  6
CONTINUOUS
 10
11.8369877448
 20
9.669891804
 40
0.04
100
AcDbArc
 50
90.0
 51
180.0
  0
ARC
  5
299
100
AcDbEntity
  8
0
100
AcDbCircle
 62
7
  6
CONTINUOUS
 10
10.0759877448
 20
9.344391804
 40
0.04
100
AcDbArc
 50
0.0
 51
180.0
  0
LINE
  5
29A
100
AcDbEntity
  8
0
100
AcDbLine
 62
7
  6
CONTINUOUS
 10
9.5449877448
 20
8.1479725416
 11
9.5449877295
 21
8.1475318376
  0
LINE
  5
29B
100
AcDbEntity
  8
0
100
AcDbLine
 62
7
  6
CONTINUOUS
 10
9.7409877601
 20
8.1475318377
 11
9.7409877448
 21
8.1479725416
  0
LINE
  5
29C
100
AcDbEntity
  8
0
100
AcDbLine
 62
7
  6
CONTINUOUS
 10
9.4459876841
 20
8.1378925087
 11
9.4459877448
 21
8.1387404989
  0
LINE
  5
29D
100
AcDbEntity
  8
0
100
AcDbLine
 62
7
  6
CONTINUOUS
 10
9.8399877448
 20
8.1387404989
 11
9.8399878055
 21
8.1378922846
  0
LINE
  5
29E
100
AcDbEntity
  8
0
100
AcDbLine
 62
9
  6
CONTINUOUS
 10
9.3608357409
 20
6.4713833294
 11
9.3144730544
 21
6.4849393597
  0
LINE
  5
29F
100
AcDbEntity
  8
0
100
AcDbLine
 62
9
  6
CONTINUOUS
 10
9.9251397486
 20
6.4713833294
 11
9.9715029652
 21
6.4849395105
  0
SPLINE
  5
2A0
100
AcDbEntity
  8
0
100
AcDbSpline
 62
9
  6
CONTINUOUS
 70
0
 71
3
 72
11
 73
7
 74
0
 42
0.0000001
 43
0.0000001
 44
0.0000000001
 40
0.0
 40
0.0
 40
0.0
 40
0.0
 40
0.2504406441
 40
0.5006873977
 40
0.7505905512
 40
1.0
 40
1.0
 40
1.0
 40
1.0
 10
9.7407940659
 20
7.364891804
 30
0.0
 10
9.7324234449
 20
7.4294606958
 30
0.0
 10
9.7178025944
 20
7.5588325664
 30
0.0
 10
9.7022309157
 20
7.7533810896
 30
0.0
 10
9.6929918681
 20
7.9480642331
 30
0.0
 10
9.6909877479
 20
8.0778844808
 30
0.0
 10
9.6909877448
 20
8.142725601
 30
0.0
  0
SPLINE
  5
2A1
100
AcDbEntity
  8
0
100
AcDbSpline
 62
9
  6
CONTINUOUS
 70
0
 71
3
 72
11
 73
7
 74
0
 42
0.0000001
 43
0.0000001
 44
0.0000000001
 40
0.0
 40
0.0
 40
0.0
 40
0.0
 40
0.2494094487
 40
0.4993126022
 40
0.7495593559
 40
1.0
 40
1.0
 40
1.0
 40
1.0
 10
9.5949877448
 20
8.142725601
 30
0.0
 10
9.5949877414
 20
8.0778844809
 30
0.0
 10
9.5929836223
 20
7.9480642332
 30
0.0
 10
9.5837445714
 20
7.7533810898
 30
0.0
 10
9.5681728981
 20
7.5588325661
 30
0.0
 10
9.553552044
 20
7.4294606959
 30
0.0
 10
9.5451814236
 20
7.364891804
 30
0.0
  0
SPLINE
  5
2A2
100
AcDbEntity
  8
0
100
AcDbSpline
 62
9
  6
CONTINUOUS
 70
0
 71
3
 72
21
 73
17
 74
0
 42
0.0000001
 43
0.0000001
 44
0.0000000001
 40
0.0
 40
0.0
 40
0.0
 40
0.0
 40
0.1524854016
 40
0.3013156178
 40
0.3733435634
 40
0.4432531383
 40
0.5107321221
 40
0.5755306591
 40
0.6374775713
 40
0.696493537
 40
0.7526082463
 40
0.8059786739
 40
0.8568977755
 40
0.9058022609
 40
0.9532827241
 40
1.0
 40
1.0
 40
1.0
 40
1.0
 10
9.5949877448
 20
8.7102600758
 30
0.0
 10
9.5917303069
 20
8.7102600758
 30
0.0
 10
9.5852873305
 20
8.7106416531
 30
0.0
 10
9.5774193002
 20
8.7120768262
 30
0.0
 10
9.5714448497
 20
8.7137915951
 30
0.0
 10
9.5672369913
 20
8.7153219997
 30
0.0
 10
9.5632942683
 20
8.7170958767
 30
0.0
 10
9.5596540547
 20
8.7190967367
 30
0.0
 10
9.5563509631
 20
8.7213058885
 30
0.0
 10
9.5534165829
 20
8.7237031525
 30
0.0
 10
9.5508792425
 20
8.7262667488
 30
0.0
 10
9.5487639333
 20
8.7289734626
 30
0.0
 10
9.5470925318
 20
8.7317985729
 30
0.0
 10
9.5458834012
 20
8.7347162097
 30
0.0
 10
9.5451517618
 20
8.7376965533
 30
0.0
 10
9.5449877448
 20
8.7397124666
 30
0.0
 10
9.5449877448
 20
8.7407104547
 30
0.0
  0
SPLINE
  5
2A3
100
AcDbEntity
  8
0
100
AcDbSpline
 62
9
  6
CONTINUOUS
 70
0
 71
3
 72
26
 73
22
 74
0
 42
0.0000001
 43
0.0000001
 44
0.0000000001
 40
0.0
 40
0.0
 40
0.0
 40
0.0
 40
0.1913092787
 40
0.3753539333
 40
0.4624671892
 40
0.5451942541
 40
0.6227583966
 40
0.6944353421
 40
0.7595654944
 40
0.8175599488
 40
0.8679155116
 40
0.9102355466
 40
0.9282964805
 40
0.9442674428
 40
0.9581493071
 40
0.9699747496
 40
0.9798206567
 40
0.9878435917
 40
0.9943616061
 40
0.9972424334
 40
1.0
 40
1.0
 40
1.0
 40
1.0
 10
9.5949877448
 20
8.2152578412
 30
0.0
 10
9.5917359462
 20
8.2152578412
 30
0.0
 10
9.585355621
 20
8.2153282075
 30
0.0
 10
9.5774984594
 20
8.2155942179
 30
0.0
 10
9.5714917155
 20
8.2159161292
 30
0.0
 10
9.5672959332
 20
8.2162010236
 30
0.0
 10
9.5633666618
 20
8.2165308477
 30
0.0
 10
9.5597415985
 20
8.2169022615
 30
0.0
 10
9.5564555136
 20
8.2173114098
 30
0.0
 10
9.5535396565
 20
8.2177538315
 30
0.0
 10
9.5510218022
 20
8.218224955
 30
0.0
 10
9.5491883074
 20
8.2186559652
 30
0.0
 10
9.5479425443
 20
8.2190209172
 30
0.0
 10
9.547171501
 20
8.2192841787
 30
0.0
 10
9.5465146936
 20
8.2195510022
 30
0.0
 10
9.5459730538
 20
8.2198206923
 30
0.0
 10
9.5455465852
 20
8.2200933518
 30
0.0
 10
9.5452346233
 20
8.2203694625
 30
0.0
 10
9.545063619
 20
8.2206177076
 30
0.0
 10
9.5449983483
 20
8.2208151086
 30
0.0
 10
9.5449877448
 20
8.2209112363
 30
0.0
 10
9.5449877448
 20
8.2209581084
 30
0.0
  0
SPLINE
  5
2A4
100
AcDbEntity
  8
0
100
AcDbSpline
 62
9
  6
CONTINUOUS
 70
0
 71
3
 72
24
 73
20
 74
0
 42
0.0000001
 43
0.0000001
 44
0.0000000001
 40
0.0
 40
0.0
 40
0.0
 40
0.0
 40
0.1860055299
 40
0.3654392694
 40
0.5320033147
 40
0.6086080218
 40
0.679856301
 40
0.7451320145
 40
0.8038774363
 40
0.8556072753
 40
0.8999143891
 40
0.9191847879
 40
0.9364950415
 40
0.951830092
 40
0.9651864036
 40
0.9765864568
 40
0.9860875239
 40
0.9938087913
 40
1.0
 40
1.0
 40
1.0
 40
1.0
 10
9.5949877448
 20
8.142725601
 30
0.0
 10
9.5918536828
 20
8.142725601
 30
0.0
 10
9.585696092
 20
8.1427857925
 30
0.0
 10
9.5767356692
 20
8.1430550197
 30
0.0
 10
9.5696240621
 20
8.1434282153
 30
0.0
 10
9.5643404672
 20
8.1438169819
 30
0.0
 10
9.560763491
 20
8.1441367812
 30
0.0
 10
9.5574921249
 20
8.1444898395
 30
0.0
 10
9.5545553793
 20
8.1448727193
 30
0.0
 10
9.551979309
 20
8.1452816861
 30
0.0
 10
9.5500720393
 20
8.1456556049
 30
0.0
 10
9.5487461006
 20
8.1459716488
 30
0.0
 10
9.547901963
 20
8.1462017163
 30
0.0
 10
9.5471626273
 20
8.1464352735
 30
0.0
 10
9.5465294725
 20
8.1466718669
 30
0.0
 10
9.5460034154
 20
8.1469107933
 30
0.0
 10
9.5455844733
 20
8.1471520552
 30
0.0
 10
9.5452722332
 20
8.1473955049
 30
0.0
 10
9.5451208006
 20
8.1475793911
 30
0.0
 10
9.545070587
 20
8.1476708281
 30
0.0
  0
LINE
  5
2A5
100
AcDbEntity
  8
0
100
AcDbLine
 62
9
  6
CONTINUOUS
 10
9.545070587
 20
8.1476708281
 11
9.5449877448
 21
8.1479725416
  0
SPLINE
  5
2A6
100
AcDbEntity
  8
0
100
AcDbSpline
 62
9
  6
CONTINUOUS
 70
0
 71
3
 72
15
 73
11
 74
0
 42
0.0000001
 43
0.0000001
 44
0.0000000001
 40
0.0
 40
0.0
 40
0.0
 40
0.0
 40
0.3384058866
 40
0.4956831867
 40
0.638998654
 40
0.7643115043
 40
0.8680859133
 40
0.9473924768
 40
0.9771484192
 40
1.0
 40
1.0
 40
1.0
 40
1.0
 10
9.7407940659
 20
7.364891804
 30
0.0
 10
9.7462510642
 20
7.3655948061
 30
0.0
 10
9.7542430067
 20
7.366634264
 30
0.0
 10
9.7645427344
 20
7.3679962891
 30
0.0
 10
9.7714062063
 20
7.3689154313
 30
0.0
 10
9.7774058542
 20
7.3697311889
 30
0.0
 10
9.7823723661
 20
7.3704206076
 30
0.0
 10
9.785798115
 20
7.3709099026
 30
0.0
 10
9.7879193415
 20
7.3712268647
 30
0.0
 10
9.788764495
 20
7.371358566
 30
0.0
 10
9.789131211
 20
7.3714182475
 30
0.0
  0
SPLINE
  5
2A7
100
AcDbEntity
  8
0
100
AcDbSpline
 62
9
  6
CONTINUOUS
 70
0
 71
3
 72
24
 73
20
 74
0
 42
0.0000001
 43
0.0000001
 44
0.0000000001
 40
0.0
 40
0.0
 40
0.0
 40
0.0
 40
0.1860055299
 40
0.3654392694
 40
0.5320033147
 40
0.6086080218
 40
0.679856301
 40
0.7451320145
 40
0.8038774363
 40
0.8556072754
 40
0.8999143892
 40
0.9191847879
 40
0.9364950415
 40
0.9518300921
 40
0.9651864036
 40
0.9765864568
 40
0.9860875239
 40
0.9938087913
 40
1.0
 40
1.0
 40
1.0
 40
1.0
 10
9.6909877448
 20
8.142725601
 30
0.0
 10
9.6941218067
 20
8.142725601
 30
0.0
 10
9.7002793976
 20
8.1427857925
 30
0.0
 10
9.7092398204
 20
8.1430550197
 30
0.0
 10
9.7163514275
 20
8.1434282153
 30
0.0
 10
9.7216350224
 20
8.1438169819
 30
0.0
 10
9.7252119986
 20
8.1441367812
 30
0.0
 10
9.7284833647
 20
8.1444898395
 30
0.0
 10
9.7314201103
 20
8.1448727193
 30
0.0
 10
9.7339961805
 20
8.1452816861
 30
0.0
 10
9.7359034503
 20
8.1456556049
 30
0.0
 10
9.737229389
 20
8.1459716488
 30
0.0
 10
9.7380735266
 20
8.1462017163
 30
0.0
 10
9.7388128623
 20
8.1464352735
 30
0.0
 10
9.7394460171
 20
8.1466718669
 30
0.0
 10
9.7399720742
 20
8.1469107933
 30
0.0
 10
9.7403910163
 20
8.1471520552
 30
0.0
 10
9.7407032563
 20
8.1473955049
 30
0.0
 10
9.740854689
 20
8.1475793911
 30
0.0
 10
9.7409049026
 20
8.1476708281
 30
0.0
  0
LINE
  5
2A8
100
AcDbEntity
  8
0
100
AcDbLine
 62
9
  6
CONTINUOUS
 10
9.7409049026
 20
8.1476708281
 11
9.7409877448
 21
8.1479725416
  0
SPLINE
  5
2A9
100
AcDbEntity
  8
0
100
AcDbSpline
 62
9
  6
CONTINUOUS
 70
0
 71
3
 72
26
 73
22
 74
0
 42
0.0000001
 43
0.0000001
 44
0.0000000001
 40
0.0
 40
0.0
 40
0.0
 40
0.0
 40
0.1913092787
 40
0.3753539333
 40
0.4624671892
 40
0.5451942541
 40
0.6227583966
 40
0.6944353421
 40
0.7595654944
 40
0.8175599488
 40
0.8679155116
 40
0.9102355466
 40
0.9282964805
 40
0.9442674428
 40
0.9581493071
 40
0.9699747496
 40
0.9798206567
 40
0.9878435917
 40
0.9943616061
 40
0.9972424334
 40
1.0
 40
1.0
 40
1.0
 40
1.0
 10
9.6909877448
 20
8.2152578412
 30
0.0
 10
9.6942395433
 20
8.2152578412
 30
0.0
 10
9.7006198685
 20
8.2153282075
 30
0.0
 10
9.7084770302
 20
8.2155942179
 30
0.0
 10
9.7144837741
 20
8.2159161292
 30
0.0
 10
9.7186795564
 20
8.2162010236
 30
0.0
 10
9.7226088278
 20
8.2165308477
 30
0.0
 10
9.726233891
 20
8.2169022615
 30
0.0
 10
9.729519976
 20
8.2173114098
 30
0.0
 10
9.7324358331
 20
8.2177538315
 30
0.0
 10
9.7349536873
 20
8.218224955
 30
0.0
 10
9.7367871822
 20
8.2186559652
 30
0.0
 10
9.7380329453
 20
8.2190209172
 30
0.0
 10
9.7388039886
 20
8.2192841787
 30
0.0
 10
9.739460796
 20
8.2195510022
 30
0.0
 10
9.7400024358
 20
8.2198206923
 30
0.0
 10
9.7404289043
 20
8.2200933518
 30
0.0
 10
9.7407408663
 20
8.2203694625
 30
0.0
 10
9.7409118706
 20
8.2206177076
 30
0.0
 10
9.7409771413
 20
8.2208151086
 30
0.0
 10
9.7409877448
 20
8.2209112363
 30
0.0
 10
9.7409877448
 20
8.2209581084
 30
0.0
  0
SPLINE
  5
2AA
100
AcDbEntity
  8
0
100
AcDbSpline
 62
9
  6
CONTINUOUS
 70
0
 71
3
 72
21
 73
17
 74
0
 42
0.0000001
 43
0.0000001
 44
0.0000000001
 40
0.0
 40
0.0
 40
0.0
 40
0.0
 40
0.1524854017
 40
0.301315618
 40
0.3733435637
 40
0.4432531386
 40
0.5107321225
 40
0.5755306594
 40
0.6374775717
 40
0.6964935374
 40
0.7526082467
 40
0.8059786742
 40
0.8568977758
 40
0.9058022611
 40
0.9532827242
 40
1.0
 40
1.0
 40
1.0
 40
1.0
 10
9.6909877448
 20
8.7102600758
 30
0.0
 10
9.6942451827
 20
8.7102600758
 30
0.0
 10
9.7006881591
 20
8.7106416531
 30
0.0
 10
9.7085561894
 20
8.7120768262
 30
0.0
 10
9.7145306399
 20
8.7137915952
 30
0.0
 10
9.7187384983
 20
8.7153219997
 30
0.0
 10
9.7226812213
 20
8.7170958767
 30
0.0
 10
9.7263214349
 20
8.7190967367
 30
0.0
 10
9.7296245265
 20
8.7213058885
 30
0.0
 10
9.7325589067
 20
8.7237031525
 30
0.0
 10
9.7350962471
 20
8.7262667489
 30
0.0
 10
9.7372115563
 20
8.7289734627
 30
0.0
 10
9.7388829577
 20
8.7317985729
 30
0.0
 10
9.7400920884
 20
8.7347162097
 30
0.0
 10
9.7408237278
 20
8.7376965533
 30
0.0
 10
9.7409877448
 20
8.7397124666
 30
0.0
 10
9.7409877448
 20
8.7407104547
 30
0.0
  0
SPLINE
  5
2AB
100
AcDbEntity
  8
0
100
AcDbSpline
 62
9
  6
CONTINUOUS
 70
0
 71
3
 72
22
 73
18
 74
0
 42
0.0000001
 43
0.0000001
 44
0.0000000001
 40
0.0
 40
0.0
 40
0.0
 40
0.0
 40
0.0465103325
 40
0.0937959197
 40
0.1425281789
 40
0.1933053624
 40
0.219617498
 40
0.2465942321
 40
0.3026391461
 40
0.3616223831
 40
0.4235721083
 40
0.4884064443
 40
0.5559509814
 40
0.6259521676
 40
0.6980937774
 40
0.8472012447
 40
1.0
 40
1.0
 40
1.0
 40
1.0
 10
9.8399877448
 20
8.802065205
 30
0.0
 10
9.8399877448
 20
8.8010736984
 30
0.0
 10
9.8398236692
 20
8.79907051
 30
0.0
 10
9.8390917885
 20
8.7961092483
 30
0.0
 10
9.8378825136
 20
8.7932106214
 30
0.0
 10
9.8365054329
 20
8.7908986644
 30
0.0
 10
9.8351922865
 20
8.7891091492
 30
0.0
 10
9.8336993281
 20
8.7873175511
 30
0.0
 10
9.8315578476
 20
8.7851680804
 30
0.0
 10
9.8286236199
 20
8.7827868468
 30
0.0
 10
9.8253205441
 20
8.780592237
 30
0.0
 10
9.8216804294
 20
8.77860461
 30
0.0
 10
9.8177378069
 20
8.7768424387
 30
0.0
 10
9.8135300637
 20
8.7753221306
 30
0.0
 10
9.8075551758
 20
8.773618501
 30
0.0
 10
9.7996872405
 20
8.7721928853
 30
0.0
 10
9.7932451066
 20
8.7718138806
 30
0.0
 10
9.7899877448
 20
8.7718138806
 30
0.0
  0
SPLINE
  5
2AC
100
AcDbEntity
  8
0
100
AcDbSpline
 62
9
  6
CONTINUOUS
 70
0
 71
3
 72
27
 73
23
 74
0
 42
0.0000001
 43
0.0000001
 44
0.0000000001
 40
0.0
 40
0.0
 40
0.0
 40
0.0
 40
0.0015229739
 40
0.003252268
 40
0.0053437069
 40
0.007886613
 40
0.0144966999
 40
0.0232838466
 40
0.0343063979
 40
0.0475765832
 40
0.0630884099
 40
0.0808179253
 40
0.1007292046
 40
0.1227831635
 40
0.1731178894
 40
0.2313619608
 40
0.2969689552
 40
0.3693203212
 40
0.4477219663
 40
0.6196305584
 40
0.8060995565
 40
1.0
 40
1.0
 40
1.0
 40
1.0
 10
9.7414590323
 20
8.070905165
 30
0.0
 10
9.7414582339
 20
8.0709256136
 30
0.0
 10
9.7414660008
 20
8.0709699636
 30
0.0
 10
9.7415032206
 20
8.0710325671
 30
0.0
 10
9.7415636813
 20
8.0710937916
 30
0.0
 10
9.7416863271
 20
8.0711827844
 30
0.0
 10
9.7419041178
 20
8.0712891483
 30
0.0
 10
9.7422382845
 20
8.0714094375
 30
0.0
 10
9.7426663254
 20
8.0715304656
 30
0.0
 10
9.7431873115
 20
8.0716518914
 30
0.0
 10
9.7438005198
 20
8.0717731034
 30
0.0
 10
9.7445045241
 20
8.0718937301
 30
0.0
 10
9.7452977043
 20
8.0720134186
 30
0.0
 10
9.7465269298
 20
8.0721785863
 30
0.0
 10
9.7482712115
 20
8.0723765576
 30
0.0
 10
9.7506014517
 20
8.0725967096
 30
0.0
 10
9.7532295667
 20
8.0728060991
 30
0.0
 10
9.756130197
 20
8.0730025552
 30
0.0
 10
9.7604586509
 20
8.0732522044
 30
0.0
 10
9.7663221211
 20
8.0735126388
 30
0.0
 10
9.7737397627
 20
8.0737396891
 30
0.0
 10
9.7788500735
 20
8.0738328081
 30
0.0
 10
9.7814553091
 20
8.0738647642
 30
0.0
  0
SPLINE
  5
2AD
100
AcDbEntity
  8
0
100
AcDbSpline
 62
9
  6
CONTINUOUS
 70
0
 71
3
 72
28
 73
24
 74
0
 42
0.0000001
 43
0.0000001
 44
0.0000000001
 40
0.0
 40
0.0
 40
0.0
 40
0.0
 40
0.0018668645
 40
0.0039151934
 40
0.0062836593
 40
0.0090627601
 40
0.0160475103
 40
0.0251168983
 40
0.0363563274
 40
0.0497961495
 40
0.0654386886
 40
0.0832641868
 40
0.1032446318
 40
0.1253430857
 40
0.1756959981
 40
0.2338819466
 40
0.299365419
 40
0.3715325692
 40
0.4497029613
 40
0.5331337395
 40
0.6210308962
 40
0.8068199604
 40
1.0
 40
1.0
 40
1.0
 40
1.0
 10
9.8399877448
 20
8.1935523134
 30
0.0
 10
9.8399877448
 20
8.1935208895
 30
0.0
 10
9.8399764344
 20
8.1934546205
 30
0.0
 10
9.8399279956
 20
8.1933592978
 30
0.0
 10
9.839849875
 20
8.1932657585
 30
0.0
 10
9.8396945664
 20
8.1931321746
 30
0.0
 10
9.8394186463
 20
8.192971961
 30
0.0
 10
9.8389952623
 20
8.1927926211
 30
0.0
 10
9.8384553949
 20
8.192614141
 30
0.0
 10
9.837799968
 20
8.1924371236
 30
0.0
 10
9.8370298275
 20
8.192262242
 30
0.0
 10
9.8361466956
 20
8.1920900111
 30
0.0
 10
9.8351525466
 20
8.191920983
 30
0.0
 10
9.8336137941
 20
8.1916904367
 30
0.0
 10
9.8314313362
 20
8.1914190709
 30
0.0
 10
9.8285167841
 20
8.1911246617
 30
0.0
 10
9.82523149
 20
8.1908524711
 30
0.0
 10
9.8216070176
 20
8.1906053037
 30
0.0
 10
9.817678176
 20
8.1903858098
 30
0.0
 10
9.8134827306
 20
8.1901962026
 30
0.0
 10
9.8074753386
 20
8.1899819195
 30
0.0
 10
9.7996184827
 20
8.1898048948
 30
0.0
 10
9.7932394292
 20
8.1897580712
 30
0.0
 10
9.7899877448
 20
8.1897580712
 30
0.0
  0
LINE
  5
2AE
100
AcDbEntity
  8
0
100
AcDbLine
 62
9
  6
CONTINUOUS
 10
9.8399877448
 20
8.1387404989
 11
9.8394788169
 21
8.1382483779
  0
SPLINE
  5
2AF
100
AcDbEntity
  8
0
100
AcDbSpline
 62
9
  6
CONTINUOUS
 70
0
 71
3
 72
22
 73
18
 74
0
 42
0.0000001
 43
0.0000001
 44
0.0000000001
 40
0.0
 40
0.0
 40
0.0
 40
0.0
 40
0.0079920076
 40
0.0178224723
 40
0.029513765
 40
0.0430698686
 40
0.0757155328
 40
0.1155804275
 40
0.1623850018
 40
0.2157840752
 40
0.2753677157
 40
0.3406729201
 40
0.411190913
 40
0.4863648153
 40
0.6482826371
 40
0.8213104217
 40
1.0
 40
1.0
 40
1.0
 40
1.0
 10
9.8394788169
 20
8.1382483779
 30
0.0
 10
9.8393595445
 20
8.138190993
 30
0.0
 10
9.8390851792
 20
8.138080593
 30
0.0
 10
9.8386192495
 20
8.1379321827
 30
0.0
 10
9.8380571038
 20
8.1377847481
 30
0.0
 10
9.8371209051
 20
8.1375771111
 30
0.0
 10
9.8357162675
 20
8.1373311943
 30
0.0
 10
9.8337587608
 20
8.1370597427
 30
0.0
 10
9.831453376
 20
8.1368001851
 30
0.0
 10
9.8288183462
 20
8.1365548636
 30
0.0
 10
9.8258744173
 20
8.1363261393
 30
0.0
 10
9.8226449584
 20
8.1361159985
 30
0.0
 10
9.8191556385
 20
8.1359262696
 30
0.0
 10
9.8140662831
 20
8.1356969603
 30
0.0
 10
9.80727739
 20
8.1354767572
 30
0.0
 10
9.7987721188
 20
8.1353179935
 30
0.0
 10
9.7929471016
 20
8.1352825254
 30
0.0
 10
9.7899877448
 20
8.1352825254
 30
0.0
  0
LINE
  5
2B0
100
AcDbEntity
  8
0
100
AcDbLine
 62
9
  6
CONTINUOUS
 10
9.8637728052
 20
7.6085523917
 11
9.8139741934
 21
7.603891804
  0
LINE
  5
2B1
100
AcDbEntity
  8
0
100
AcDbLine
 62
9
  6
CONTINUOUS
 10
10.0683766177
 20
6.5115561422
 11
10.020310702
 21
6.4976074544
  0
LINE
  5
2B2
100
AcDbEntity
  8
0
100
AcDbLine
 62
9
  6
CONTINUOUS
 10
9.7645732256
 20
7.6004796261
 11
9.8038082545
 21
7.603891804
  0
LINE
  5
2B3
100
AcDbEntity
  8
0
100
AcDbLine
 62
9
  6
CONTINUOUS
 10
9.7891312161
 20
7.3714182413
 11
9.8278009265
 21
7.376473257
  0
LINE
  5
2B4
100
AcDbEntity
  8
0
100
AcDbLine
 62
9
  6
CONTINUOUS
 10
9.2175986435
 20
6.5115562076
 11
9.2656647876
 21
6.4976074544
  0
LINE
  5
2B5
100
AcDbEntity
  8
0
100
AcDbLine
 62
9
  6
CONTINUOUS
 10
9.422202689
 20
7.6085523913
 11
9.4720012962
 21
7.603891804
  0
LINE
  5
2B6
100
AcDbEntity
  8
0
100
AcDbLine
 62
9
  6
CONTINUOUS
 10
9.4459877448
 20
8.1387404989
 11
9.4464966727
 21
8.1382483779
  0
SPLINE
  5
2B7
100
AcDbEntity
  8
0
100
AcDbSpline
 62
9
  6
CONTINUOUS
 70
0
 71
3
 72
22
 73
18
 74
0
 42
0.0000001
 43
0.0000001
 44
0.0000000001
 40
0.0
 40
0.0
 40
0.0
 40
0.0
 40
0.0079920076
 40
0.0178224722
 40
0.0295137649
 40
0.0430698685
 40
0.0757155328
 40
0.1155804274
 40
0.1623850017
 40
0.2157840751
 40
0.2753677157
 40
0.34067292
 40
0.411190913
 40
0.4863648152
 40
0.6482826371
 40
0.8213104217
 40
1.0
 40
1.0
 40
1.0
 40
1.0
 10
9.4464966727
 20
8.1382483779
 30
0.0
 10
9.4466159451
 20
8.138190993
 30
0.0
 10
9.4468903104
 20
8.138080593
 30
0.0
 10
9.4473562401
 20
8.1379321827
 30
0.0
 10
9.4479183857
 20
8.1377847481
 30
0.0
 10
9.4488545845
 20
8.1375771112
 30
0.0
 10
9.450259222
 20
8.1373311943
 30
0.0
 10
9.4522167288
 20
8.1370597427
 30
0.0
 10
9.4545221136
 20
8.1368001851
 30
0.0
 10
9.4571571434
 20
8.1365548637
 30
0.0
 10
9.4601010723
 20
8.1363261393
 30
0.0
 10
9.4633305312
 20
8.1361159985
 30
0.0
 10
9.4668198511
 20
8.1359262696
 30
0.0
 10
9.4719092065
 20
8.1356969603
 30
0.0
 10
9.4786980996
 20
8.1354767572
 30
0.0
 10
9.4872033708
 20
8.1353179935
 30
0.0
 10
9.493028388
 20
8.1352825254
 30
0.0
 10
9.4959877448
 20
8.1352825254
 30
0.0
  0
SPLINE
  5
2B8
100
AcDbEntity
  8
0
100
AcDbSpline
 62
9
  6
CONTINUOUS
 70
0
 71
3
 72
28
 73
24
 74
0
 42
0.0000001
 43
0.0000001
 44
0.0000000001
 40
0.0
 40
0.0
 40
0.0
 40
0.0
 40
0.0018668645
 40
0.0039151934
 40
0.0062836593
 40
0.0090627601
 40
0.0160475103
 40
0.0251168983
 40
0.0363563274
 40
0.0497961495
 40
0.0654386886
 40
0.0832641868
 40
0.1032446318
 40
0.1253430857
 40
0.1756959982
 40
0.2338819466
 40
0.299365419
 40
0.3715325692
 40
0.4497029613
 40
0.5331337395
 40
0.6210308962
 40
0.8068199604
 40
1.0
 40
1.0
 40
1.0
 40
1.0
 10
9.4459877448
 20
8.1935523134
 30
0.0
 10
9.4459877448
 20
8.1935208895
 30
0.0
 10
9.4459990552
 20
8.1934546205
 30
0.0
 10
9.446047494
 20
8.1933592978
 30
0.0
 10
9.4461256145
 20
8.1932657585
 30
0.0
 10
9.4462809232
 20
8.1931321746
 30
0.0
 10
9.4465568433
 20
8.192971961
 30
0.0
 10
9.4469802272
 20
8.1927926211
 30
0.0
 10
9.4475200947
 20
8.192614141
 30
0.0
 10
9.4481755216
 20
8.1924371236
 30
0.0
 10
9.4489456621
 20
8.192262242
 30
0.0
 10
9.449828794
 20
8.1920900111
 30
0.0
 10
9.450822943
 20
8.191920983
 30
0.0
 10
9.4523616955
 20
8.1916904367
 30
0.0
 10
9.4545441534
 20
8.1914190709
 30
0.0
 10
9.4574587055
 20
8.1911246617
 30
0.0
 10
9.4607439996
 20
8.1908524711
 30
0.0
 10
9.464368472
 20
8.1906053037
 30
0.0
 10
9.4682973136
 20
8.1903858098
 30
0.0
 10
9.472492759
 20
8.1901962026
 30
0.0
 10
9.478500151
 20
8.1899819195
 30
0.0
 10
9.4863570068
 20
8.1898048948
 30
0.0
 10
9.4927360604
 20
8.1897580712
 30
0.0
 10
9.4959877448
 20
8.1897580712
 30
0.0
  0
SPLINE
  5
2B9
100
AcDbEntity
  8
0
100
AcDbSpline
 62
9
  6
CONTINUOUS
 70
0
 71
3
 72
22
 73
18
 74
0
 42
0.0000001
 43
0.0000001
 44
0.0000000001
 40
0.0
 40
0.0
 40
0.0
 40
0.0
 40
0.0465103323
 40
0.0937959194
 40
0.1425281785
 40
0.1933053619
 40
0.2196174975
 40
0.2465942315
 40
0.3026391456
 40
0.3616223825
 40
0.4235721078
 40
0.4884064438
 40
0.5559509809
 40
0.6259521672
 40
0.6980937771
 40
0.8472012445
 40
1.0
 40
1.0
 40
1.0
 40
1.0
 10
9.4459877448
 20
8.802065205
 30
0.0
 10
9.4459877448
 20
8.8010736984
 30
0.0
 10
9.4461518204
 20
8.79907051
 30
0.0
 10
9.4468837011
 20
8.7961092483
 30
0.0
 10
9.4480929759
 20
8.7932106215
 30
0.0
 10
9.4494700567
 20
8.7908986644
 30
0.0
 10
9.4507832031
 20
8.7891091492
 30
0.0
 10
9.4522761614
 20
8.7873175512
 30
0.0
 10
9.4544176419
 20
8.7851680805
 30
0.0
 10
9.4573518697
 20
8.7827868469
 30
0.0
 10
9.4606549455
 20
8.7805922371
 30
0.0
 10
9.4642950602
 20
8.7786046101
 30
0.0
 10
9.4682376827
 20
8.7768424388
 30
0.0
 10
9.4724454258
 20
8.7753221307
 30
0.0
 10
9.4784203138
 20
8.773618501
 30
0.0
 10
9.4862882491
 20
8.7721928853
 30
0.0
 10
9.492730383
 20
8.7718138806
 30
0.0
 10
9.4959877448
 20
8.7718138806
 30
0.0
  0
SPLINE
  5
2BA
100
AcDbEntity
  8
0
100
AcDbSpline
 62
9
  6
CONTINUOUS
 70
0
 71
3
 72
20
 73
16
 74
0
 42
0.0000001
 43
0.0000001
 44
0.0000000001
 40
0.0
 40
0.0
 40
0.0
 40
0.0
 40
0.0465119361
 40
0.0938066127
 40
0.1425448545
 40
0.1933264019
 40
0.2465957417
 40
0.3026475186
 40
0.36163705
 40
0.4235931194
 40
0.4884353763
 40
0.5559867912
 40
0.6980614327
 40
0.8471835044
 40
1.0
 40
1.0
 40
1.0
 40
1.0
 10
9.7409877448
 20
8.747612821
 30
0.0
 10
9.7409877448
 20
8.7484059659
 30
0.0
 10
9.7411190998
 20
8.7500085163
 30
0.0
 10
9.7417044433
 20
8.7523775416
 30
0.0
 10
9.7426719796
 20
8.7546966104
 30
0.0
 10
9.7440093842
 20
8.7569418528
 30
0.0
 10
9.7457015994
 20
8.7590930926
 30
0.0
 10
9.7477315995
 20
8.7611303824
 30
0.0
 10
9.7500791099
 20
8.7630355006
 30
0.0
 10
9.7527214501
 20
8.76479124
 30
0.0
 10
9.7556336799
 20
8.766381299
 30
0.0
 10
9.7599104096
 20
8.7682926699
 30
0.0
 10
9.7657598432
 20
8.7701572886
 30
0.0
 10
9.7732273839
 20
8.7715106032
 30
0.0
 10
9.7783818412
 20
8.7718138806
 30
0.0
 10
9.7809877448
 20
8.7718138806
 30
0.0
  0
SPLINE
  5
2BB
100
AcDbEntity
  8
0
100
AcDbSpline
 62
9
  6
CONTINUOUS
 70
0
 71
3
 72
28
 73
24
 74
0
 42
0.0000001
 43
0.0000001
 44
0.0000000001
 40
0.0
 40
0.0
 40
0.0
 40
0.0
 40
0.0018666007
 40
0.0039148463
 40
0.0062833656
 40
0.0090625422
 40
0.0160470042
 40
0.0251164148
 40
0.0363567122
 40
0.0497960028
 40
0.0654378647
 40
0.0832646126
 40
0.1032446603
 40
0.1253420224
 40
0.1756962525
 40
0.2338822521
 40
0.2993643658
 40
0.3715330787
 40
0.4497026687
 40
0.5331332922
 40
0.6210322208
 40
0.8068188206
 40
1.0
 40
1.0
 40
1.0
 40
1.0
 10
9.7409877448
 20
8.1867226774
 30
0.0
 10
9.7409877448
 20
8.1867478129
 30
0.0
 10
9.7409967976
 20
8.1868008232
 30
0.0
 10
9.7410355582
 20
8.1868770719
 30
0.0
 10
9.7410980617
 20
8.1869518976
 30
0.0
 10
9.7412223091
 20
8.1870587597
 30
0.0
 10
9.7414430264
 20
8.1871869546
 30
0.0
 10
9.7417817372
 20
8.1873304437
 30
0.0
 10
9.7422136403
 20
8.1874732141
 30
0.0
 10
9.742737974
 20
8.1876148372
 30
0.0
 10
9.7433540868
 20
8.1877547436
 30
0.0
 10
9.744060599
 20
8.1878925043
 30
0.0
 10
9.7448559125
 20
8.1880277374
 30
0.0
 10
9.7460869092
 20
8.1882121917
 30
0.0
 10
9.7478328811
 20
8.188429265
 30
0.0
 10
9.7501645215
 20
8.1886647917
 30
0.0
 10
9.7527927576
 20
8.1888825629
 30
0.0
 10
9.7556923276
 20
8.1890802764
 30
0.0
 10
9.758835407
 20
8.1892558789
 30
0.0
 10
9.7621917725
 20
8.1894075726
 30
0.0
 10
9.7669976731
 20
8.1895789804
 30
0.0
 10
9.7732831603
 20
8.1897206183
 30
0.0
 10
9.7783863831
 20
8.1897580712
 30
0.0
 10
9.7809877448
 20
8.1897580712
 30
0.0
  0
LINE
  5
2BC
100
AcDbEntity
  8
0
100
AcDbLine
 62
9
  6
CONTINUOUS
 10
9.9715021919
 20
6.4849402516
 11
10.0085937394
 21
6.4956169689
  0
LINE
  5
2BD
100
AcDbEntity
  8
0
100
AcDbLine
 62
9
  6
CONTINUOUS
 10
9.7409877448
 20
8.1475317607
 11
9.7414802112
 21
8.1479761751
  0
SPLINE
  5
2BE
100
AcDbEntity
  8
0
100
AcDbSpline
 62
9
  6
CONTINUOUS
 70
0
 71
3
 72
21
 73
17
 74
0
 42
0.0000001
 43
0.0000001
 44
0.0000000001
 40
0.0
 40
0.0
 40
0.0
 40
0.0
 40
0.0085294911
 40
0.0188691942
 40
0.0310342116
 40
0.045025286
 40
0.078422583
 40
0.1188714304
 40
0.1660961764
 40
0.2197529909
 40
0.2794374284
 40
0.3446990903
 40
0.4899011193
 40
0.6508957321
 40
0.8226956616
 40
1.0
 40
1.0
 40
1.0
 40
1.0
 10
9.7414802112
 20
8.1479761751
 30
0.0
 10
9.7415830993
 20
8.1480223248
 30
0.0
 10
9.7418164894
 20
8.1481114718
 30
0.0
 10
9.7422088232
 20
8.1482320316
 30
0.0
 10
9.7426764045
 20
8.148351672
 30
0.0
 10
9.7434457564
 20
8.1485194846
 30
0.0
 10
9.7445902861
 20
8.1487185189
 30
0.0
 10
9.7461759042
 20
8.1489383497
 30
0.0
 10
9.7480326968
 20
8.1491482922
 30
0.0
 10
9.7501462766
 20
8.1493465338
 30
0.0
 10
9.7525003362
 20
8.1495312733
 30
0.0
 10
9.7560641988
 20
8.1497657547
 30
0.0
 10
9.7609694233
 20
8.1500078567
 30
0.0
 10
9.767285558
 20
8.1502161976
 30
0.0
 10
9.7740283055
 20
8.1503440624
 30
0.0
 10
9.7786436924
 20
8.1503726586
 30
0.0
 10
9.7809877448
 20
8.1503726586
 30
0.0
  0
SPLINE
  5
2BF
100
AcDbEntity
  8
0
100
AcDbSpline
 62
9
  6
CONTINUOUS
 70
0
 71
3
 72
27
 73
23
 74
0
 42
0.0000001
 43
0.0000001
 44
0.0000000001
 40
0.0
 40
0.0
 40
0.0
 40
0.0
 40
0.0015229507
 40
0.0032522217
 40
0.00534364
 40
0.0078865291
 40
0.0144965916
 40
0.0232837252
 40
0.0343062731
 40
0.0475764635
 40
0.0630883028
 40
0.0808178376
 40
0.1007291422
 40
0.1227831316
 40
0.173117931
 40
0.2313620863
 40
0.2969691679
 40
0.3693206161
 40
0.4477223299
 40
0.619630984
 40
0.8060998838
 40
1.0
 40
1.0
 40
1.0
 40
1.0
 10
9.5445167658
 20
8.070905159
 30
0.0
 10
9.5445175644
 20
8.0709256074
 30
0.0
 10
9.5445097978
 20
8.0709699572
 30
0.0
 10
9.5444725781
 20
8.0710325604
 30
0.0
 10
9.5444121172
 20
8.0710937845
 30
0.0
 10
9.5442894708
 20
8.0711827769
 30
0.0
 10
9.5440716787
 20
8.0712891404
 30
0.0
 10
9.5437375096
 20
8.0714094292
 30
0.0
 10
9.5433094651
 20
8.0715304569
 30
0.0
 10
9.5427884747
 20
8.0716518825
 30
0.0
 10
9.542175261
 20
8.0717730944
 30
0.0
 10
9.5414712504
 20
8.0718937211
 30
0.0
 10
9.540678063
 20
8.0720134097
 30
0.0
 10
9.5394488263
 20
8.0721785776
 30
0.0
 10
9.5377045287
 20
8.0723765494
 30
0.0
 10
9.5353742674
 20
8.0725967021
 30
0.0
 10
9.5327461289
 20
8.0728060925
 30
0.0
 10
9.5298454733
 20
8.0730025497
 30
0.0
 10
9.5255169836
 20
8.0732522003
 30
0.0
 10
9.5196534684
 20
8.0735126365
 30
0.0
 10
9.5122357753
 20
8.0737396886
 30
0.0
 10
9.5071254313
 20
8.0738328082
 30
0.0
 10
9.5045201804
 20
8.0738647645
 30
0.0
  0
LINE
  5
2C0
100
AcDbEntity
  8
0
100
AcDbLine
 62
9
  6
CONTINUOUS
 10
9.5449877448
 20
8.1475317607
 11
9.5444952784
 21
8.147976175
  0
SPLINE
  5
2C1
100
AcDbEntity
  8
0
100
AcDbSpline
 62
9
  6
CONTINUOUS
 70
0
 71
3
 72
21
 73
17
 74
0
 42
0.0000001
 43
0.0000001
 44
0.0000000001
 40
0.0
 40
0.0
 40
0.0
 40
0.0
 40
0.008529491
 40
0.0188691941
 40
0.0310342114
 40
0.0450252858
 40
0.0784225827
 40
0.1188714301
 40
0.1660961761
 40
0.2197529906
 40
0.279437428
 40
0.34469909
 40
0.4899011191
 40
0.6508957319
 40
0.8226956615
 40
1.0
 40
1.0
 40
1.0
 40
1.0
 10
9.5444952784
 20
8.147976175
 30
0.0
 10
9.5443923903
 20
8.1480223247
 30
0.0
 10
9.5441590002
 20
8.1481114717
 30
0.0
 10
9.5437666664
 20
8.1482320316
 30
0.0
 10
9.5432990851
 20
8.1483516719
 30
0.0
 10
9.5425297332
 20
8.1485194845
 30
0.0
 10
9.5413852034
 20
8.1487185188
 30
0.0
 10
9.5397995854
 20
8.1489383496
 30
0.0
 10
9.5379427928
 20
8.1491482921
 30
0.0
 10
9.535829213
 20
8.1493465336
 30
0.0
 10
9.5334751534
 20
8.1495312732
 30
0.0
 10
9.5299112908
 20
8.1497657545
 30
0.0
 10
9.5250060663
 20
8.1500078566
 30
0.0
 10
9.5186899316
 20
8.1502161976
 30
0.0
 10
9.5119471841
 20
8.1503440623
 30
0.0
 10
9.5073317972
 20
8.1503726586
 30
0.0
 10
9.5049877448
 20
8.1503726586
 30
0.0
  0
SPLINE
  5
2C2
100
AcDbEntity
  8
0
100
AcDbSpline
 62
9
  6
CONTINUOUS
 70
0
 71
3
 72
28
 73
24
 74
0
 42
0.0000001
 43
0.0000001
 44
0.0000000001
 40
0.0
 40
0.0
 40
0.0
 40
0.0
 40
0.0018666007
 40
0.0039148464
 40
0.0062833656
 40
0.0090625423
 40
0.0160470042
 40
0.0251164149
 40
0.0363567123
 40
0.0497960028
 40
0.0654378648
 40
0.0832646127
 40
0.1032446604
 40
0.1253420225
 40
0.1756962526
 40
0.2338822521
 40
0.2993643659
 40
0.3715330787
 40
0.4497026687
 40
0.5331332922
 40
0.6210322209
 40
0.8068188206
 40
1.0
 40
1.0
 40
1.0
 40
1.0
 10
9.5449877448
 20
8.1867226774
 30
0.0
 10
9.5449877448
 20
8.1867478129
 30
0.0
 10
9.5449786919
 20
8.1868008232
 30
0.0
 10
9.5449399314
 20
8.1868770719
 30
0.0
 10
9.5448774279
 20
8.1869518976
 30
0.0
 10
9.5447531805
 20
8.1870587597
 30
0.0
 10
9.5445324632
 20
8.1871869546
 30
0.0
 10
9.5441937523
 20
8.1873304437
 30
0.0
 10
9.5437618493
 20
8.1874732141
 30
0.0
 10
9.5432375156
 20
8.1876148372
 30
0.0
 10
9.5426214028
 20
8.1877547436
 30
0.0
 10
9.5419148906
 20
8.1878925043
 30
0.0
 10
9.5411195771
 20
8.1880277375
 30
0.0
 10
9.5398885804
 20
8.1882121917
 30
0.0
 10
9.5381426085
 20
8.188429265
 30
0.0
 10
9.5358109681
 20
8.1886647917
 30
0.0
 10
9.5331827319
 20
8.1888825629
 30
0.0
 10
9.530283162
 20
8.1890802764
 30
0.0
 10
9.5271400826
 20
8.1892558789
 30
0.0
 10
9.5237837171
 20
8.1894075726
 30
0.0
 10
9.5189778165
 20
8.1895789804
 30
0.0
 10
9.5126923292
 20
8.1897206183
 30
0.0
 10
9.5075891064
 20
8.1897580712
 30
0.0
 10
9.5049877448
 20
8.1897580712
 30
0.0
  0
SPLINE
  5
2C3
100
AcDbEntity
  8
0
100
AcDbSpline
 62
9
  6
CONTINUOUS
 70
0
 71
3
 72
20
 73
16
 74
0
 42
0.0000001
 43
0.0000001
 44
0.0000000001
 40
0.0
 40
0.0
 40
0.0
 40
0.0
 40
0.0465119362
 40
0.0938066128
 40
0.1425448546
 40
0.193326402
 40
0.2465957417
 40
0.3026475186
 40
0.36163705
 40
0.4235931195
 40
0.4884353763
 40
0.5559867913
 40
0.6980614328
 40
0.8471835044
 40
1.0
 40
1.0
 40
1.0
 40
1.0
 10
9.5449877448
 20
8.747612821
 30
0.0
 10
9.5449877448
 20
8.7484059659
 30
0.0
 10
9.5448563898
 20
8.7500085163
 30
0.0
 10
9.5442710463
 20
8.7523775416
 30
0.0
 10
9.54330351
 20
8.7546966104
 30
0.0
 10
9.5419661053
 20
8.7569418528
 30
0.0
 10
9.5402738902
 20
8.7590930926
 30
0.0
 10
9.5382438901
 20
8.7611303824
 30
0.0
 10
9.5358963797
 20
8.7630355007
 30
0.0
 10
9.5332540395
 20
8.76479124
 30
0.0
 10
9.5303418097
 20
8.766381299
 30
0.0
 10
9.52606508
 20
8.7682926699
 30
0.0
 10
9.5202156463
 20
8.7701572886
 30
0.0
 10
9.5127481057
 20
8.7715106032
 30
0.0
 10
9.5075936483
 20
8.7718138806
 30
0.0
 10
9.5049877448
 20
8.7718138806
 30
0.0
  0
LINE
  5
2C4
100
AcDbEntity
  8
0
100
AcDbLine
 62
9
  6
CONTINUOUS
 10
9.314472504
 20
6.4849394397
 11
9.2773821583
 21
6.4956180537
  0
LINE
  5
2C5
100
AcDbEntity
  8
0
100
AcDbLine
 62
9
  6
CONTINUOUS
 10
9.4968442782
 20
7.3714182545
 11
9.458174563
 21
7.3764732569
  0
LINE
  5
2C6
100
AcDbEntity
  8
0
100
AcDbLine
 62
9
  6
CONTINUOUS
 10
9.521402269
 20
7.600479628
 11
9.4821672348
 21
7.603891804
  0
SPLINE
  5
2C7
100
AcDbEntity
  8
0
100
AcDbSpline
 62
9
  6
CONTINUOUS
 70
0
 71
3
 72
15
 73
11
 74
0
 42
0.0000001
 43
0.0000001
 44
0.0000000001
 40
0.0
 40
0.0
 40
0.0
 40
0.0
 40
0.3384058831
 40
0.495683183
 40
0.6389986507
 40
0.7643115017
 40
0.8680859116
 40
0.947392476
 40
0.9771484189
 40
1.0
 40
1.0
 40
1.0
 40
1.0
 10
9.5451814236
 20
7.364891804
 30
0.0
 10
9.5397244252
 20
7.3655948062
 30
0.0
 10
9.5317324824
 20
7.3666342641
 30
0.0
 10
9.5214327543
 20
7.3679962892
 30
0.0
 10
9.5145692821
 20
7.3689154315
 30
0.0
 10
9.5085696338
 20
7.3697311891
 30
0.0
 10
9.5036031217
 20
7.3704206078
 30
0.0
 10
9.5001773726
 20
7.3709099029
 30
0.0
 10
9.498056146
 20
7.371226865
 30
0.0
 10
9.4972109924
 20
7.3713585663
 30
0.0
 10
9.4968442764
 20
7.3714182478
 30
0.0
  0
ENDSEC
  0
SECTION
  2
OBJECTS
  0
DICTIONARY
  5
C
100
AcDbDictionary
280
0
281
1
  3
ACAD_GROUP
350
D
  3
ACAD_MLINESTYLE
350
17
  3
ACAD_LAYOUT
350
1A
  3
ACAD_PLOTSETTINGS
350
19
  3
ACAD_PLOTSTYLENAME
350
E
  0
DICTIONARY
  5
D
102
{ACAD_REACTORS
330
C
102
}
100
AcDbDictionary
280
0
281
1
  0
ACDBDICTIONARYWDFLT
  5
E
102
{ACAD_REACTORS
330
C
102
}
100
AcDbDictionary
281
1
  3
Normal
350
F
100
AcDbDictionaryWithDefault
340
F
  0
DICTIONARY
  5
17
102
{ACAD_REACTORS
330
C
102
}
100
AcDbDictionary
280
0
281
1
  3
Standard
350
18
  0
DICTIONARY
  5
19
102
{ACAD_REACTORS
330
C
102
}
100
AcDbDictionary
281
1
  0
DICTIONARY
  5
1A
102
{ACAD_REACTORS
330
C
102
}
100
AcDbDictionary
281
1
  3
Model
350
2C8
  3
Layout1
350
2C9
  0
ACDBPLACEHOLDER
  5
F
102
{ACAD_REACTORS
330
E
102
}
  0
MLINESTYLE
  5
18
102
{ACAD_REACTORS
330
17
102
}
100
AcDbMlineStyle
  2
STANDARD
 70
0
  3

 62
256
 51
90.0
 52
90.0
 71
2
 49
0.5
 62
256
  6
BYLAYER
 49
-0.5
 62
256
  6
BYLAYER
  0
LAYOUT
  5
2C8
102
{ACAD_REACTORS
330
1A
102
}
100
AcDbPlotSettings
  1

  2
none_device
  4
ANSI_C_(22.00_x_17.00_Inches)
  6

 40
0.0
 41
0.0
 42
0.0
 43
0.0
 44
558.8
 45
431.8
 46
0.0
 47
0.0
 48
0.0
 49
0.0
140
0.0
141
0.0
142
1.0
143
1.0
 70
1024
 72
0
 73
0
 74
0
  7

 75
0
147
1.0
148
0.0
149
0.0
100
AcDbLayout
  1
Model
 70
0
 71
0
 10
0.0
 20
0.0
 11
22.0
 21
17.0
 12
0.0
 22
0.0
 32
0.0
 14
0.0
 24
0.0
 34
0.0
 15
0.0
 25
0.0
 35
0.0
146
0.0
 13
0.0
 23
0.0
 33
0.0
 16
1.0
 26
0.0
 36
0.0
 17
0.0
 27
1.0
 37
0.0
 76
0
330
205
345
0
346
0
  0
LAYOUT
  5
2C9
102
{ACAD_REACTORS
330
1A
102
}
100
AcDbPlotSettings
  1

  2
none_device
  4
ANSI_C_(22.00_x_17.00_Inches)
  6

 40
0.0
 41
0.0
 42
0.0
 43
0.0
 44
558.8
 45
431.8
 46
0.0
 47
0.0
 48
0.0
 49
0.0
140
0.0
141
0.0
142
1.0
143
1.0
 70
0
 72
0
 73
0
 74
0
  7

 75
0
147
1.0
148
0.0
149
0.0
100
AcDbLayout
  1
Layout1
 70
0
 71
1
 10
0.0
 20
0.0
 11
22.0
 21
17.0
 12
0.0
 22
0.0
 32
0.0
 14
0.0
 24
0.0
 34
0.0
 15
0.0
 25
0.0
 35
0.0
146
0.0
 13
0.0
 23
0.0
 33
0.0
 16
1.0
 26
0.0
 36
0.0
 17
0.0
 27
1.0
 37
0.0
 76
0
330
206
345
0
346
0
  0
ENDSEC
  0
EOF
