999
DXF file: E:\BT Custom\CADOUTPUT\_FRONT.dxf
999
Pro/ENGINEER 2018400 by Parametric Technology Corporation
  0
SECTION
  2
HEADER
  9
$ACADVER
  1
AC1018
  9
$DWGCODEPAGE
  3
ANSI_1252
  9
$EXTMAX
 10
22.0
 20
17.0
 30
0.0
  9
$EXTMIN
 10
0.0
 20
0.0
 30
0.0
  9
$LIMMIN
 10
0.0
 20
0.0
  9
$LIMMAX
 10
22.0
 20
17.0
  9
$VIEWCTR
 10
11.0
 20
8.5
  9
$VIEWSIZE
 40
17.0
  9
$CLAYER
  8
0
  9
$LTSCALE
 40
1.21
  9
$CELTYPE
  6
BYLAYER
  9
$DIMSCALE
 40
1.0
  9
$DIMASZ
 40
0.1
  9
$DIMEXO
 40
0.0625
  9
$DIMDLI
 40
0.836
  9
$DIMEXE
 40
0.125
  9
$DIMCEN
 40
0.198
  9
$DIMLFAC
 40
1.0
  9
$DIMBLK
  1
_FILLED
  9
$DIMALT
 70
1
  9
$DIMALTD
 70
2
  9
$DIMALTTD
 70
2
  9
$DIMALTF
 40
25.4
  9
$DIMTXT
 40
0.08
  9
$DIMTOL
 70
1
  9
$DIMLIM
 70
0
  9
$DIMTFAC
 40
1.0
  9
$DIMTP
 40
0.001
  9
$DIMTM
 40
0.001
  9
$DIMGAP
 40
0.09
  9
$DIMDSEP
 70
46
  9
$AUNITS
 70
0
  9
$PDMODE
 70
3
  9
$PDSIZE
 40
0.06
  9
$HANDSEED
  5
3AC
  9
$TILEMODE
 70
1
  9
$MEASUREMENT
 70
0
  9
$INSUNITS
 70
1
  0
ENDSEC
  0
SECTION
  2
CLASSES
  0
CLASS
  1
ACDBDICTIONARYWDFLT
  2
AcDbDictionaryWithDefault
  3
AutoCAD 2000
 90
0
 91
1
280
0
281
0
  0
CLASS
  1
ACDBPLACEHOLDER
  2
AcDbPlaceHolder
  3
AutoCAD 2000
 90
0
 91
1
280
0
281
0
  0
CLASS
  1
LAYOUT
  2
AcDbLayout
  3
AutoCAD 2000
 90
0
 91
0
280
0
281
0
  0
ENDSEC
  0
SECTION
  2
TABLES
  0
TABLE
  2
VPORT
  5
8
100
AcDbSymbolTable
 70
2
  0
VPORT
  5
1F4
100
AcDbSymbolTableRecord
100
AcDbViewportTableRecord
  2
*ACTIVE
 70
0
 10
0.0
 20
0.0
 11
1.0
 21
1.0
 12
11.0
 22
8.5
 13
0.0
 23
0.0
 14
1.0
 24
1.0
 15
0.0
 25
0.0
 16
0.0
 26
0.0
 36
1.0
 17
0.0
 27
0.0
 37
0.0
 40
17.0
 41
1.2941176471
 42
50.0
 43
0.0
 44
0.0
 50
0.0
 51
0.0
 71
0
 72
100
 73
1
 74
1
 75
0
 76
0
 77
0
 78
0
  0
ENDTAB
  0
TABLE
  2
LTYPE
  5
5
100
AcDbSymbolTable
 70
6
  0
LTYPE
  5
14
100
AcDbSymbolTableRecord
100
AcDbLinetypeTableRecord
  2
BYBLOCK
 70
0
  3

 72
65
 73
0
 40
0.0
  0
LTYPE
  5
15
100
AcDbSymbolTableRecord
100
AcDbLinetypeTableRecord
  2
BYLAYER
 70
0
  3

 72
65
 73
0
 40
0.0
  0
LTYPE
  5
16
100
AcDbSymbolTableRecord
100
AcDbLinetypeTableRecord
  2
CONTINUOUS
 70
64
  3
Solid line
 72
65
 73
0
 40
0.0
  0
LTYPE
  5
1F5
100
AcDbSymbolTableRecord
100
AcDbLinetypeTableRecord
  2
CENTER
 70
64
  3
____ _ ____ _ ____ _ ____ _ ____ _ ____ _ ____
 72
65
 73
4
 40
0.6
 49
0.375
 74
0
 49
-0.075
 74
0
 49
0.075
 74
0
 49
-0.075
 74
0
  0
LTYPE
  5
1F6
100
AcDbSymbolTableRecord
100
AcDbLinetypeTableRecord
  2
HIDDEN
 70
64
  3
- - - - - - - - - - - - - - - - - - - -
 72
65
 73
2
 40
0.2
 49
0.1
 74
0
 49
-0.1
 74
0
  0
LTYPE
  5
1F7
100
AcDbSymbolTableRecord
100
AcDbLinetypeTableRecord
  2
PHANTOM
 70
64
  3
_____ _ _ _____ _ _ _____ _ _ _____
 72
65
 73
6
 40
0.8
 49
0.45
 74
0
 49
-0.05
 74
0
 49
0.1
 74
0
 49
-0.05
 74
0
 49
0.1
 74
0
 49
-0.05
 74
0
  0
LTYPE
  5
1F8
100
AcDbSymbolTableRecord
100
AcDbLinetypeTableRecord
  2
DOT
 70
64
  3
. . . . . . . . . . . . . . . . . . . .
 72
65
 73
2
 40
0.2
 49
0.1
 74
0
 49
-0.1
 74
0
  0
LTYPE
  5
1F9
100
AcDbSymbolTableRecord
100
AcDbLinetypeTableRecord
  2
DASHED
 70
64
  3
- - - - - - - - - - - - - - - - - - - -
 72
65
 73
2
 40
0.2
 49
0.1
 74
0
 49
-0.1
 74
0
  0
ENDTAB
  0
TABLE
  2
LAYER
  5
2
100
AcDbSymbolTable
 70
36
  0
LAYER
  5
10
100
AcDbSymbolTableRecord
100
AcDbLayerTableRecord
  2
0
 70
0
 62
7
  6
CONTINUOUS
370
-3
390
F
  0
LAYER
  5
1FA
100
AcDbSymbolTableRecord
100
AcDbLayerTableRecord
  2
DEFAULT_1
 70
0
 62
7
  6
CENTER
370
-3
390
F
  0
LAYER
  5
1FB
100
AcDbSymbolTableRecord
100
AcDbLayerTableRecord
  2
DEFAULT_2
 70
0
 62
8
  6
HIDDEN
370
-3
390
F
  0
LAYER
  5
1FC
100
AcDbSymbolTableRecord
100
AcDbLayerTableRecord
  2
DEFAULT_3
 70
0
 62
7
  6
PHANTOM
370
-3
390
F
  0
LAYER
  5
1FD
100
AcDbSymbolTableRecord
100
AcDbLayerTableRecord
  2
ALL_FEATURES
 70
0
 62
7
  6
CONTINUOUS
370
-3
390
F
  0
LAYER
  5
1FE
100
AcDbSymbolTableRecord
100
AcDbLayerTableRecord
  2
AXES_FEATURES
 70
0
 62
7
  6
CONTINUOUS
370
-3
390
F
  0
LAYER
  5
1FF
100
AcDbSymbolTableRecord
100
AcDbLayerTableRecord
  2
DEFAULT_COORDINATE_SYSTEM
 70
0
 62
7
  6
CONTINUOUS
370
-3
390
F
  0
LAYER
  5
200
100
AcDbSymbolTableRecord
100
AcDbLayerTableRecord
  2
DEFAULT_DATUM_AXES
 70
0
 62
7
  6
CONTINUOUS
370
-3
390
F
  0
LAYER
  5
201
100
AcDbSymbolTableRecord
100
AcDbLayerTableRecord
  2
DEFAULT_DATUM_PLANES
 70
0
 62
7
  6
CONTINUOUS
370
-3
390
F
  0
LAYER
  5
202
100
AcDbSymbolTableRecord
100
AcDbLayerTableRecord
  2
DIMENSIONS
 70
0
 62
7
  6
CONTINUOUS
370
-3
390
F
  0
ENDTAB
  0
TABLE
  2
STYLE
  5
3
100
AcDbSymbolTable
 70
1
  0
STYLE
  5
11
100
AcDbSymbolTableRecord
100
AcDbTextStyleTableRecord
  2
STANDARD
 70
0
 40
0.0
 41
0.8
 50
0.0
 71
0
 42
0.2
  3
txt
  4

  0
STYLE
  5
203
100
AcDbSymbolTableRecord
100
AcDbTextStyleTableRecord
  2
TEXTSTYLE_1
 70
0
 40
0.0
 41
0.8
 50
0.0
 71
0
 42
0.2
  3
gdt
  4

  0
ENDTAB
  0
TABLE
  2
VIEW
  5
6
100
AcDbSymbolTable
 70
0
  0
ENDTAB
  0
TABLE
  2
UCS
  5
7
100
AcDbSymbolTable
 70
0
  0
ENDTAB
  0
TABLE
  2
APPID
  5
9
100
AcDbSymbolTable
 70
1
  0
APPID
  5
204
100
AcDbSymbolTableRecord
100
AcDbRegAppTableRecord
  2
ACAD
 70
0
  0
ENDTAB
  0
TABLE
  2
BLOCK_RECORD
  5
1
100
AcDbSymbolTable
 70
0
  0
BLOCK_RECORD
  5
205
100
AcDbSymbolTableRecord
100
AcDbBlockTableRecord
  2
*Model_Space
  0
BLOCK_RECORD
  5
206
100
AcDbSymbolTableRecord
100
AcDbBlockTableRecord
  2
*Paper_Space
  0
BLOCK_RECORD
  5
207
100
AcDbSymbolTableRecord
100
AcDbBlockTableRecord
  2
_FILLED
  0
ENDTAB
  0
TABLE
  2
DIMSTYLE
  5
A
100
AcDbSymbolTable
 70
1
100
AcDbDimStyleTable
 71
0
  0
DIMSTYLE
105
208
100
AcDbSymbolTableRecord
100
AcDbDimStyleTableRecord
  2
STANDARD
 70
0
  3

  4

 40
1.0
 41
0.1
 42
0.0625
 43
0.38
 44
0.125
 45
0.0
 46
0.0
 47
0.001
 48
0.001
140
0.08
141
0.09
142
0.0
143
25.4
144
1.0
145
0.0
146
1.0
147
0.09
 71
1.0
 72
0.0
 73
1
 74
1
 75
0
 76
0
 77
0
 78
4
 79
1
170
1
171
2
172
0
173
0
174
0
175
0
176
0
177
0
178
0
270
2
179
3
271
3
272
3
273
2
274
2
275
0
280
0
281
0
282
0
283
1
284
4
285
0
286
0
287
3
288
0
340
11
278
46
341
207
342
207
343
207
344
207
  0
ENDTAB
  0
ENDSEC
  0
SECTION
  2
BLOCKS
  0
BLOCK
  5
20
100
AcDbEntity
  8
0
100
AcDbBlockBegin
  2
*Model_Space
 70
0
 10
0.0
 20
0.0
 30
0.0
  3
*Model_Space
  1

  0
ENDBLK
  5
21
100
AcDbEntity
  8
0
100
AcDbBlockEnd
  0
BLOCK
  5
1C
100
AcDbEntity
  8
0
100
AcDbBlockBegin
  2
*Paper_Space
 70
0
 10
0.0
 20
0.0
 30
0.0
  3
*Paper_Space
  1

  0
ENDBLK
  5
1D
100
AcDbEntity
  8
0
100
AcDbBlockEnd
  0
BLOCK
  5
209
100
AcDbEntity
  8
0
100
AcDbBlockBegin
  2
_FILLED
 70
64
 10
0.0
 20
0.0
  3
_FILLED
  1

  0
SOLID
  5
20A
100
AcDbEntity
  8
0
  6
BYBLOCK
 62
0
100
AcDbTrace
 10
0.0
 20
0.0
 11
-1.0
 21
0.2
 12
-1.0
 22
-0.2
 13
-1.0
 23
-0.2
  0
ENDBLK
  5
20B
100
AcDbEntity
  8
0
  6
BYBLOCK
 62
0
100
AcDbBlockEnd
  0
ENDSEC
  0
SECTION
  2
ENTITIES
  0
LINE
  5
20C
100
AcDbEntity
  8
0
100
AcDbLine
 62
7
  6
CONTINUOUS
 10
7.0626923427
 20
11.9876695021
 11
7.0626923427
 21
6.5476695021
  0
LINE
  5
20D
100
AcDbEntity
  8
0
100
AcDbLine
 62
9
  6
CONTINUOUS
 10
7.0926923427
 20
6.5176695021
 11
7.0926923427
 21
12.0176695021
  0
LINE
  5
20E
100
AcDbEntity
  8
0
100
AcDbLine
 62
7
  6
CONTINUOUS
 10
7.0926923427
 20
6.5176695021
 11
14.7826923427
 21
6.5176695021
  0
LINE
  5
20F
100
AcDbEntity
  8
0
100
AcDbLine
 62
9
  6
CONTINUOUS
 10
7.0626923427
 20
6.5476695021
 11
14.8126923427
 21
6.5476695021
  0
LINE
  5
210
100
AcDbEntity
  8
0
100
AcDbLine
 62
7
  6
CONTINUOUS
 10
8.7176923433
 20
10.1632038608
 11
8.7176923433
 21
10.157610518
  0
LINE
  5
211
100
AcDbEntity
  8
0
100
AcDbLine
 62
7
  6
CONTINUOUS
 10
8.7176923433
 20
9.872565408
 11
8.7176923433
 21
9.8646056576
  0
LINE
  5
212
100
AcDbEntity
  8
0
100
AcDbLine
 62
7
  6
CONTINUOUS
 10
8.7589969914
 20
10.0995258542
 11
8.7589969914
 21
9.9295744273
  0
LINE
  5
213
100
AcDbEntity
  8
0
100
AcDbLine
 62
7
  6
CONTINUOUS
 10
11.0587344482
 20
7.0131622109
 11
11.0612750118
 21
7.0135590837
  0
LWPOLYLINE
  5
214
100
AcDbEntity
  8
0
100
AcDbPolyline
 62
7
  6
CONTINUOUS
 90
4
 70
0
 10
11.0506888948
 20
7.0127499354
 10
11.0538492009
 20
7.0128422576
 10
11.0564751943
 20
7.0129710843
 10
11.0587344482
 20
7.0131622109
  0
LWPOLYLINE
  5
215
100
AcDbEntity
  8
0
100
AcDbPolyline
 62
7
  6
CONTINUOUS
 90
3
 70
0
 10
11.0426367858
 20
7.0126508228
 10
11.0469390375
 20
7.0126867956
 10
11.0506888948
 20
7.0127499354
  0
LINE
  5
216
100
AcDbEntity
  8
0
100
AcDbLine
 62
7
  6
CONTINUOUS
 10
10.8371220001
 20
7.0126404371
 11
11.0426367858
 21
7.0126508228
  0
LINE
  5
217
100
AcDbEntity
  8
0
100
AcDbLine
 62
9
  6
CONTINUOUS
 10
10.8371220001
 20
7.0126520191
 11
11.0382626854
 21
7.0126520191
  0
LINE
  5
218
100
AcDbEntity
  8
0
100
AcDbLine
 62
9
  6
CONTINUOUS
 10
11.0382626854
 20
7.0208090001
 11
10.8371220001
 21
7.0208090001
  0
LINE
  5
219
100
AcDbEntity
  8
0
100
AcDbLine
 62
9
  6
CONTINUOUS
 10
11.0382626854
 20
7.0236147475
 11
10.8371220001
 21
7.0236147475
  0
LWPOLYLINE
  5
21A
100
AcDbEntity
  8
0
100
AcDbPolyline
 62
7
  6
CONTINUOUS
 90
4
 70
0
 10
10.82446561
 20
7.0127551749
 10
10.8281353848
 20
7.0126906878
 10
10.8323699482
 20
7.0126528181
 10
10.8371158524
 20
7.0126404371
  0
LINE
  5
21B
100
AcDbEntity
  8
0
100
AcDbLine
 62
7
  6
CONTINUOUS
 10
10.8213872409
 20
7.0128479248
 11
10.82446561
 21
7.0127551749
  0
LWPOLYLINE
  5
21C
100
AcDbEntity
  8
0
100
AcDbPolyline
 62
7
  6
CONTINUOUS
 90
3
 70
0
 10
10.8165969762
 20
7.0131681747
 10
10.8188248813
 20
7.0129765205
 10
10.8213872409
 20
7.0128479248
  0
LWPOLYLINE
  5
21D
100
AcDbEntity
  8
0
100
AcDbPolyline
 62
7
  6
CONTINUOUS
 90
3
 70
0
 10
10.8106457326
 20
7.0145853312
 10
10.8140682207
 20
7.0135677612
 10
10.8165969762
 20
7.0131681747
  0
LINE
  5
21E
100
AcDbEntity
  8
0
100
AcDbLine
 62
7
  6
CONTINUOUS
 10
8.8177270444
 20
9.9295744273
 11
8.8177270444
 21
10.0130442386
  0
LINE
  5
21F
100
AcDbEntity
  8
0
100
AcDbLine
 62
7
  6
CONTINUOUS
 10
8.8177270444
 20
10.034126822
 11
8.8177270444
 21
10.0995258542
  0
LINE
  5
220
100
AcDbEntity
  8
0
100
AcDbLine
 62
7
  6
CONTINUOUS
 10
8.8590316891
 20
9.8652510427
 11
8.8590316891
 21
9.8719200228
  0
LINE
  5
221
100
AcDbEntity
  8
0
100
AcDbLine
 62
7
  6
CONTINUOUS
 10
8.8590316891
 20
10.1563197395
 11
8.8590316891
 21
10.1625584623
  0
LINE
  5
222
100
AcDbEntity
  8
0
100
AcDbLine
 62
7
  6
CONTINUOUS
 10
8.938414069
 20
10.1619130822
 11
8.938414069
 21
10.1550289794
  0
LINE
  5
223
100
AcDbEntity
  8
0
100
AcDbLine
 62
7
  6
CONTINUOUS
 10
8.938414069
 20
9.8710595088
 11
8.938414069
 21
9.8652510427
  0
LINE
  5
224
100
AcDbEntity
  8
0
100
AcDbLine
 62
7
  6
CONTINUOUS
 10
8.9797187044
 20
10.0995258542
 11
8.9797187044
 21
10.034126822
  0
LINE
  5
225
100
AcDbEntity
  8
0
100
AcDbLine
 62
7
  6
CONTINUOUS
 10
8.9797187044
 20
10.0130442386
 11
8.9797187044
 21
9.9295744273
  0
LINE
  5
226
100
AcDbEntity
  8
0
100
AcDbLine
 62
7
  6
CONTINUOUS
 10
9.0384487482
 20
10.0995258542
 11
9.0384487482
 21
9.9115036435
  0
LWPOLYLINE
  5
227
100
AcDbEntity
  8
0
100
AcDbPolyline
 62
7
  6
CONTINUOUS
 90
4
 70
0
 10
10.0065449192
 20
11.0092049738
 10
10.0008337691
 20
11.0064345731
 10
9.9962785238
 20
11.002014186
 10
9.9933380444
 20
10.9963891413
  0
LINE
  5
228
100
AcDbEntity
  8
0
100
AcDbLine
 62
7
  6
CONTINUOUS
 10
10.8087240743
 20
7.0154550524
 11
10.8106457326
 21
7.0145853312
  0
LINE
  5
229
100
AcDbEntity
  8
0
100
AcDbLine
 62
7
  6
CONTINUOUS
 10
10.8087279063
 20
7.0154530936
 11
10.5744499554
 21
7.136364749
  0
LINE
  5
22A
100
AcDbEntity
  8
0
100
AcDbLine
 62
9
  6
CONTINUOUS
 10
10.808188735
 20
7.0157859406
 11
10.5739712954
 21
7.1366663659
  0
LINE
  5
22B
100
AcDbEntity
  8
0
100
AcDbLine
 62
7
  6
CONTINUOUS
 10
10.5736683389
 20
7.1367904153
 11
10.5744499629
 21
7.136364734
  0
LINE
  5
22C
100
AcDbEntity
  8
0
100
AcDbLine
 62
9
  6
CONTINUOUS
 10
10.808188735
 20
7.0226302252
 11
10.5729145415
 21
7.1600675597
  0
LINE
  5
22D
100
AcDbEntity
  8
0
100
AcDbLine
 62
9
  6
CONTINUOUS
 10
10.8371220001
 20
7.0236147475
 11
10.6033855876
 21
7.1601537747
  0
LINE
  5
22E
100
AcDbEntity
  8
0
100
AcDbLine
 62
9
  6
CONTINUOUS
 10
10.808188735
 20
7.0157859406
 11
10.8087350458
 21
7.0154494094
  0
LINE
  5
22F
100
AcDbEntity
  8
0
100
AcDbLine
 62
9
  6
CONTINUOUS
 10
10.5744476022
 20
7.1363659634
 11
10.5739712954
 21
7.1366663659
  0
LINE
  5
230
100
AcDbEntity
  8
0
100
AcDbLine
 62
7
  6
CONTINUOUS
 10
9.0797534021
 20
9.8661115562
 11
9.0797534021
 21
9.8729956645
  0
LINE
  5
231
100
AcDbEntity
  8
0
100
AcDbLine
 62
7
  6
CONTINUOUS
 10
9.0797534021
 20
10.158901278
 11
9.0797534021
 21
10.1660005137
  0
LINE
  5
232
100
AcDbEntity
  8
0
100
AcDbLine
 62
7
  6
CONTINUOUS
 10
10.8128282885
 20
10.6807294682
 11
10.6670923639
 21
10.5896445154
  0
LINE
  5
233
100
AcDbEntity
  8
0
100
AcDbLine
 62
9
  6
CONTINUOUS
 10
10.8436789852
 20
10.6810261056
 11
10.7070551703
 21
10.5956362213
  0
LWPOLYLINE
  5
234
100
AcDbEntity
  8
0
100
AcDbPolyline
 62
7
  6
CONTINUOUS
 90
4
 70
0
 10
9.9923071095
 20
10.9901303981
 10
9.9906341328
 20
10.3748347036
 10
9.9906339164
 20
9.7533818449
 10
9.9923062979
 20
9.1392098371
  0
LINE
  5
235
100
AcDbEntity
  8
0
100
AcDbLine
 62
7
  6
CONTINUOUS
 10
9.9933380444
 20
10.9963891413
 11
9.9923085124
 21
10.9901303829
  0
LWPOLYLINE
  5
236
100
AcDbEntity
  8
0
100
AcDbPolyline
 62
7
  6
CONTINUOUS
 90
4
 70
0
 10
9.9931576965
 20
9.1335217874
 10
9.9959281683
 20
9.1278106956
 10
10.0003486038
 20
9.1232555253
 10
10.0059736718
 20
9.1203151299
  0
LINE
  5
237
100
AcDbEntity
  8
0
100
AcDbLine
 62
7
  6
CONTINUOUS
 10
9.992309465
 20
9.1392098872
 11
9.9931576965
 21
9.1335217874
  0
LINE
  5
238
100
AcDbEntity
  8
0
100
AcDbLine
 62
7
  6
CONTINUOUS
 10
11.2648262768
 20
8.3829672097
 11
11.2722238999
 21
8.3829672097
  0
LINE
  5
239
100
AcDbEntity
  8
0
100
AcDbLine
 62
7
  6
CONTINUOUS
 10
11.2709608775
 20
8.4601913606
 11
11.2641045409
 21
8.4601913606
  0
LINE
  5
23A
100
AcDbEntity
  8
0
100
AcDbLine
 62
7
  6
CONTINUOUS
 10
11.2810649949
 20
8.4901427828
 11
11.2899060898
 21
8.4901427828
  0
LINE
  5
23B
100
AcDbEntity
  8
0
100
AcDbLine
 62
7
  6
CONTINUOUS
 10
10.5632571729
 20
7.1600765232
 11
10.5636352907
 21
7.1532925868
  0
LWPOLYLINE
  5
23C
100
AcDbEntity
  8
0
100
AcDbPolyline
 62
7
  6
CONTINUOUS
 90
10
 70
0
 10
10.5636362164
 20
7.1532719208
 10
10.5636481774
 20
7.1530375422
 10
10.5638519
 20
7.1511002859
 10
10.5643271588
 20
7.1488696596
 10
10.5650948676
 20
7.1466032466
 10
10.566174087
 20
7.1443611227
 10
10.56757642
 20
7.1421985118
 10
10.5693016394
 20
7.1401759907
 10
10.571338908
 20
7.1383539272
 10
10.5736683389
 20
7.1367904153
  0
LINE
  5
23D
100
AcDbEntity
  8
0
100
AcDbLine
 62
7
  6
CONTINUOUS
 10
10.5636352907
 20
7.1532925868
 11
10.5636362164
 21
7.1532719208
  0
LWPOLYLINE
  5
23E
100
AcDbEntity
  8
0
100
AcDbPolyline
 62
7
  6
CONTINUOUS
 90
3
 70
0
 10
10.5625640524
 20
7.17712725
 10
10.5628575657
 20
7.1683222041
 10
10.5632571729
 20
7.1600765232
  0
LINE
  5
23F
100
AcDbEntity
  8
0
100
AcDbLine
 62
7
  6
CONTINUOUS
 10
10.5625640524
 20
7.17712725
 11
10.5625643462
 21
7.177114412
  0
LINE
  5
240
100
AcDbEntity
  8
0
100
AcDbLine
 62
7
  6
CONTINUOUS
 10
10.5625586987
 20
7.1774774558
 11
10.5625627026
 21
7.1771910316
  0
LINE
  5
241
100
AcDbEntity
  8
0
100
AcDbLine
 62
7
  6
CONTINUOUS
 10
10.5625600276
 20
7.17778348
 11
10.5625640524
 21
7.17712725
  0
LINE
  5
242
100
AcDbEntity
  8
0
100
AcDbLine
 62
9
  6
CONTINUOUS
 10
10.6033584532
 20
7.1806733325
 11
10.6033855876
 21
7.1601537747
  0
LINE
  5
243
100
AcDbEntity
  8
0
100
AcDbLine
 62
7
  6
CONTINUOUS
 10
10.6576923427
 20
9.4661696821
 11
10.6576923427
 21
10.5726845569
  0
LINE
  5
244
100
AcDbEntity
  8
0
100
AcDbLine
 62
7
  6
CONTINUOUS
 10
10.5625578574
 20
7.1784576979
 11
10.5625574233
 21
7.1776947679
  0
LINE
  5
245
100
AcDbEntity
  8
0
100
AcDbLine
 62
7
  6
CONTINUOUS
 10
10.6576917398
 20
9.4659441095
 11
10.6576880317
 21
9.4646755021
  0
LINE
  5
246
100
AcDbEntity
  8
0
100
AcDbLine
 62
7
  6
CONTINUOUS
 10
10.5625668141
 20
7.1804842438
 11
10.5625578574
 21
7.1784576979
  0
LINE
  5
247
100
AcDbEntity
  8
0
100
AcDbLine
 62
7
  6
CONTINUOUS
 10
10.6576965145
 20
9.4646754773
 11
10.6426845066
 21
8.845989968
  0
LINE
  5
248
100
AcDbEntity
  8
0
100
AcDbLine
 62
7
  6
CONTINUOUS
 10
11.8631506164
 20
9.1192874211
 11
11.8688387905
 21
9.1201355746
  0
LINE
  5
249
100
AcDbEntity
  8
0
100
AcDbLine
 62
7
  6
CONTINUOUS
 10
10.0059736718
 20
9.1203151299
 11
10.0122324505
 21
9.1192856833
  0
LINE
  5
24A
100
AcDbEntity
  8
0
100
AcDbLine
 62
9
  6
CONTINUOUS
 10
10.6776964418
 20
9.4661694608
 11
10.6776923427
 21
10.5724436203
  0
LINE
  5
24B
100
AcDbEntity
  8
0
100
AcDbLine
 62
9
  6
CONTINUOUS
 10
10.7070551703
 20
10.5791779931
 11
10.7070551704
 21
10.5956362213
  0
LINE
  5
24C
100
AcDbEntity
  8
0
100
AcDbLine
 62
9
  6
CONTINUOUS
 10
10.808188735
 20
7.0226302252
 11
10.808188735
 21
7.0157859406
  0
LINE
  5
24D
100
AcDbEntity
  8
0
100
AcDbLine
 62
9
  6
CONTINUOUS
 10
10.8178331567
 20
7.0201526519
 11
10.8178331567
 21
7.0133083673
  0
LINE
  5
24E
100
AcDbEntity
  8
0
100
AcDbLine
 62
9
  6
CONTINUOUS
 10
10.8371220001
 20
7.0126520191
 11
10.8371220001
 21
7.0126404371
  0
LINE
  5
24F
100
AcDbEntity
  8
0
100
AcDbLine
 62
9
  6
CONTINUOUS
 10
10.8371220001
 20
7.0208090001
 11
10.8371220001
 21
7.0236147475
  0
LINE
  5
250
100
AcDbEntity
  8
0
100
AcDbLine
 62
9
  6
CONTINUOUS
 10
10.8436789852
 20
10.6837695021
 11
10.8436789852
 21
10.6810261056
  0
LINE
  5
251
100
AcDbEntity
  8
0
100
AcDbLine
 62
9
  6
CONTINUOUS
 10
10.9376923427
 20
7.1601117005
 11
10.9376923427
 21
9.4661695021
  0
LWPOLYLINE
  5
252
100
AcDbEntity
  8
0
100
AcDbPolyline
 62
7
  6
CONTINUOUS
 90
3
 70
0
 10
10.6426845066
 20
8.845989968
 10
10.5781395484
 20
7.6969496132
 10
10.5625674385
 20
7.1805700178
  0
LWPOLYLINE
  5
253
100
AcDbEntity
  8
0
100
AcDbPolyline
 62
7
  6
CONTINUOUS
 90
3
 70
0
 10
11.2204845315
 20
9.1175733979
 10
11.5273772324
 20
9.1181990069
 10
11.8631506645
 20
9.1192842747
  0
LWPOLYLINE
  5
254
100
AcDbEntity
  8
0
100
AcDbPolyline
 62
7
  6
CONTINUOUS
 90
3
 70
0
 10
10.0122324363
 20
9.1192842805
 10
10.347429698
 20
9.1182005457
 10
10.6492745743
 20
9.1175845066
  0
LWPOLYLINE
  5
255
100
AcDbEntity
  8
0
100
AcDbPolyline
 62
7
  6
CONTINUOUS
 90
3
 70
0
 10
11.2972136085
 20
7.6976220963
 10
11.2326691853
 20
8.8466652844
 10
11.2176883951
 20
9.4647577087
  0
LINE
  5
256
100
AcDbEntity
  8
0
100
AcDbLine
 62
7
  6
CONTINUOUS
 10
11.3128172334
 20
7.1805700233
 11
11.2972136085
 21
7.6976220963
  0
LINE
  5
257
100
AcDbEntity
  8
0
100
AcDbLine
 62
9
  6
CONTINUOUS
 10
11.0317057003
 20
10.6837695021
 11
11.0317057003
 21
10.6810261056
  0
LINE
  5
258
100
AcDbEntity
  8
0
100
AcDbLine
 62
9
  6
CONTINUOUS
 10
11.0382626854
 20
7.0126520191
 11
11.0382626854
 21
7.0126404371
  0
LINE
  5
259
100
AcDbEntity
  8
0
100
AcDbLine
 62
9
  6
CONTINUOUS
 10
11.0382626854
 20
7.0208090001
 11
11.0382626854
 21
7.0236147475
  0
LINE
  5
25A
100
AcDbEntity
  8
0
100
AcDbLine
 62
9
  6
CONTINUOUS
 10
11.0575515288
 20
7.0133083673
 11
11.0575515288
 21
7.0201526519
  0
LINE
  5
25B
100
AcDbEntity
  8
0
100
AcDbLine
 62
9
  6
CONTINUOUS
 10
11.0671959505
 20
7.0157859406
 11
11.0671959505
 21
7.0226302252
  0
LINE
  5
25C
100
AcDbEntity
  8
0
100
AcDbLine
 62
9
  6
CONTINUOUS
 10
11.1683295152
 20
10.5791779931
 11
11.1683295152
 21
10.5956362213
  0
LINE
  5
25D
100
AcDbEntity
  8
0
100
AcDbLine
 62
7
  6
CONTINUOUS
 10
11.2176923427
 20
10.5726845493
 11
11.2176964185
 21
9.4647577322
  0
LINE
  5
25E
100
AcDbEntity
  8
0
100
AcDbLine
 62
7
  6
CONTINUOUS
 10
11.2926125222
 20
8.4969991349
 11
11.2926125222
 21
8.5384980999
  0
LINE
  5
25F
100
AcDbEntity
  8
0
100
AcDbLine
 62
9
  6
CONTINUOUS
 10
11.2720262323
 20
7.1806733325
 11
11.2719990979
 21
7.1601537747
  0
LINE
  5
260
100
AcDbEntity
  8
0
100
AcDbLine
 62
9
  6
CONTINUOUS
 10
11.1976923427
 20
10.5724436208
 11
11.1976882435
 21
9.4661694088
  0
LINE
  5
261
100
AcDbEntity
  8
0
100
AcDbLine
 62
7
  6
CONTINUOUS
 10
11.2176923427
 20
9.4661695021
 11
11.217692793
 21
9.4662383234
  0
LINE
  5
262
100
AcDbEntity
  8
0
100
AcDbLine
 62
9
  6
CONTINUOUS
 10
11.1976882435
 20
9.4661694088
 11
10.6776964418
 21
9.4661694608
  0
LINE
  5
263
100
AcDbEntity
  8
0
100
AcDbLine
 62
7
  6
CONTINUOUS
 10
11.3128276315
 20
7.1780207577
 11
11.3128178714
 21
7.1804842381
  0
LINE
  5
264
100
AcDbEntity
  8
0
100
AcDbLine
 62
7
  6
CONTINUOUS
 10
11.3128271168
 20
7.1776564582
 11
11.3128276315
 21
7.1780207577
  0
LINE
  5
265
100
AcDbEntity
  8
0
100
AcDbLine
 62
7
  6
CONTINUOUS
 10
11.3128246579
 20
7.17778348
 11
11.3128206407
 21
7.1771275873
  0
LWPOLYLINE
  5
266
100
AcDbEntity
  8
0
100
AcDbPolyline
 62
7
  6
CONTINUOUS
 90
3
 70
0
 10
11.3128204411
 20
7.1771188204
 10
11.3128228678
 20
7.177238255
 10
11.3128259595
 20
7.1774743721
  0
LINE
  5
267
100
AcDbEntity
  8
0
100
AcDbLine
 62
7
  6
CONTINUOUS
 10
11.3117493493
 20
7.1532915588
 11
11.3117487278
 21
7.153277647
  0
LWPOLYLINE
  5
268
100
AcDbEntity
  8
0
100
AcDbPolyline
 62
7
  6
CONTINUOUS
 90
3
 70
0
 10
11.3121286818
 20
7.1600976405
 10
11.3125279853
 20
7.1683429038
 10
11.3128206407
 20
7.1771275873
  0
LINE
  5
269
100
AcDbEntity
  8
0
100
AcDbLine
 62
7
  6
CONTINUOUS
 10
11.3117493493
 20
7.1532915588
 11
11.3121286818
 21
7.1600976405
  0
LWPOLYLINE
  5
26A
100
AcDbEntity
  8
0
100
AcDbPolyline
 62
7
  6
CONTINUOUS
 90
4
 70
0
 10
11.8688387905
 20
9.1201355746
 10
11.8745499052
 20
9.1229059775
 10
11.8791051083
 20
9.1273263647
 10
11.882045538
 20
9.1329514055
  0
LWPOLYLINE
  5
26B
100
AcDbEntity
  8
0
100
AcDbPolyline
 62
7
  6
CONTINUOUS
 90
4
 70
0
 10
11.883076414
 20
9.1392102363
 10
11.8847569884
 20
9.755273175
 10
11.8847445425
 20
10.3767238704
 10
11.8830792299
 20
10.9901278976
  0
LINE
  5
26C
100
AcDbEntity
  8
0
100
AcDbLine
 62
7
  6
CONTINUOUS
 10
11.882045538
 20
9.1329514055
 11
11.8830750116
 21
9.1392102499
  0
LINE
  5
26D
100
AcDbEntity
  8
0
100
AcDbLine
 62
7
  6
CONTINUOUS
 10
8.8177270444
 20
10.0130442386
 11
8.9797187044
 21
10.0130442386
  0
LINE
  5
26E
100
AcDbEntity
  8
0
100
AcDbLine
 62
7
  6
CONTINUOUS
 10
8.9797187044
 20
10.034126822
 11
8.8177270444
 21
10.034126822
  0
LINE
  5
26F
100
AcDbEntity
  8
0
100
AcDbLine
 62
9
  6
CONTINUOUS
 10
11.0317057003
 20
10.6810261056
 11
11.1683295152
 21
10.5956362213
  0
LINE
  5
270
100
AcDbEntity
  8
0
100
AcDbLine
 62
7
  6
CONTINUOUS
 10
11.062556397
 20
10.6807294682
 11
11.2082923215
 21
10.5896445154
  0
LINE
  5
271
100
AcDbEntity
  8
0
100
AcDbLine
 62
7
  6
CONTINUOUS
 10
11.8830757364
 20
10.9901278524
 11
11.882227567
 21
10.9958160201
  0
LINE
  5
272
100
AcDbEntity
  8
0
100
AcDbLine
 62
9
  6
CONTINUOUS
 10
11.1683295152
 20
10.5791779931
 11
10.7070551703
 21
10.5791779931
  0
LINE
  5
273
100
AcDbEntity
  8
0
100
AcDbLine
 62
9
  6
CONTINUOUS
 10
11.1683295152
 20
10.5956362213
 11
10.7070551703
 21
10.5956362213
  0
LINE
  5
274
100
AcDbEntity
  8
0
100
AcDbLine
 62
9
  6
CONTINUOUS
 10
10.8436789852
 20
10.6810261056
 11
11.0317057003
 21
10.6810261056
  0
LINE
  5
275
100
AcDbEntity
  8
0
100
AcDbLine
 62
7
  6
CONTINUOUS
 10
10.8234282673
 20
10.6837695021
 11
11.0519564182
 21
10.6837695021
  0
LWPOLYLINE
  5
276
100
AcDbEntity
  8
0
100
AcDbPolyline
 62
7
  6
CONTINUOUS
 90
4
 70
0
 10
11.882227567
 20
10.9958160201
 10
11.879457149
 20
11.0015271256
 10
11.875036754
 20
11.0060823131
 10
11.8694117158
 20
11.0090227256
  0
LWPOLYLINE
  5
277
100
AcDbEntity
  8
0
100
AcDbPolyline
 62
7
  6
CONTINUOUS
 90
7
 70
0
 10
11.3063781028
 20
7.1404851428
 10
11.3080821965
 20
7.1425757132
 10
11.3094429158
 20
7.1447877003
 10
11.3104671504
 20
7.1470547003
 10
11.3111731201
 20
7.1493123564
 10
11.3115814277
 20
7.1514341071
 10
11.3117487278
 20
7.153277647
  0
LINE
  5
278
100
AcDbEntity
  8
0
100
AcDbLine
 62
7
  6
CONTINUOUS
 10
11.3043374847
 20
7.1385853132
 11
11.3063781028
 21
7.1404851428
  0
LINE
  5
279
100
AcDbEntity
  8
0
100
AcDbLine
 62
7
  6
CONTINUOUS
 10
10.0122330642
 20
11.0100531259
 11
10.0065449192
 21
11.0092049738
  0
LWPOLYLINE
  5
27A
100
AcDbEntity
  8
0
100
AcDbPolyline
 62
7
  6
CONTINUOUS
 90
4
 70
0
 10
11.8631529232
 20
11.0100535891
 10
11.2470911076
 20
11.0117341416
 10
10.6256396072
 20
11.0117217106
 10
10.0122330151
 20
11.0100564042
  0
LINE
  5
27B
100
AcDbEntity
  8
0
100
AcDbLine
 62
7
  6
CONTINUOUS
 10
11.8694117158
 20
11.0090227256
 11
11.863152908
 21
11.0100521866
  0
LINE
  5
27C
100
AcDbEntity
  8
0
100
AcDbLine
 62
9
  6
CONTINUOUS
 10
11.3014133901
 20
7.1366663659
 11
11.3009370805
 21
7.136365962
  0
LINE
  5
27D
100
AcDbEntity
  8
0
100
AcDbLine
 62
9
  6
CONTINUOUS
 10
11.0666497314
 20
7.0154494568
 11
11.0671959505
 21
7.0157859406
  0
LINE
  5
27E
100
AcDbEntity
  8
0
100
AcDbLine
 62
9
  6
CONTINUOUS
 10
11.0382626854
 20
7.0236147475
 11
11.2719990979
 21
7.1601537747
  0
LINE
  5
27F
100
AcDbEntity
  8
0
100
AcDbLine
 62
9
  6
CONTINUOUS
 10
11.0671959505
 20
7.0226302252
 11
11.3024701439
 21
7.1600675597
  0
LWPOLYLINE
  5
280
100
AcDbEntity
  8
0
100
AcDbPolyline
 62
7
  6
CONTINUOUS
 90
3
 70
0
 10
11.3009345383
 20
7.1363646172
 10
11.3019805287
 20
7.1369446849
 10
11.3043374847
 20
7.1385853132
  0
LINE
  5
281
100
AcDbEntity
  8
0
100
AcDbLine
 62
9
  6
CONTINUOUS
 10
11.0671959505
 20
7.0157859406
 11
11.3014133901
 21
7.1366663659
  0
LINE
  5
282
100
AcDbEntity
  8
0
100
AcDbLine
 62
7
  6
CONTINUOUS
 10
11.0666462016
 20
7.0154476348
 11
11.30093486
 21
7.136364816
  0
LINE
  5
283
100
AcDbEntity
  8
0
100
AcDbLine
 62
7
  6
CONTINUOUS
 10
11.0647196682
 20
7.0145777816
 11
11.0666607134
 21
7.0154551043
  0
LINE
  5
284
100
AcDbEntity
  8
0
100
AcDbLine
 62
7
  6
CONTINUOUS
 10
11.0612750118
 20
7.0135590837
 11
11.0647196682
 21
7.0145777816
  0
LINE
  5
285
100
AcDbEntity
  8
0
100
AcDbLine
 62
9
  6
CONTINUOUS
 10
7.0626923427
 20
11.9876695021
 11
14.8126923427
 21
11.9876695021
  0
LINE
  5
286
100
AcDbEntity
  8
0
100
AcDbLine
 62
7
  6
CONTINUOUS
 10
14.7826923427
 20
12.0176695021
 11
7.0926923427
 21
12.0176695021
  0
LINE
  5
287
100
AcDbEntity
  8
0
100
AcDbLine
 62
9
  6
CONTINUOUS
 10
14.7826923427
 20
6.5176695021
 11
14.7826923427
 21
12.0176695021
  0
LINE
  5
288
100
AcDbEntity
  8
0
100
AcDbLine
 62
7
  6
CONTINUOUS
 10
14.8126923427
 20
6.5476695021
 11
14.8126923427
 21
11.9876695021
  0
ARC
  5
289
100
AcDbEntity
  8
0
100
AcDbCircle
 62
9
  6
CONTINUOUS
 10
-246.1401089958
 20
10.0646694329
 40
258.0725657225
100
AcDbArc
 50
359.7833119077
 51
0.2166880417
  0
ARC
  5
28A
100
AcDbEntity
  8
0
100
AcDbCircle
 62
9
  6
CONTINUOUS
 10
-225.5821159446
 20
10.0647109116
 40
237.4810489132
100
AcDbArc
 50
359.7699073675
 51
0.2300726991
  0
ARC
  5
28B
100
AcDbEntity
  8
0
100
AcDbCircle
 62
9
  6
CONTINUOUS
 10
-189.1861975642
 20
10.0646694279
 40
201.0584615362
100
AcDbArc
 50
359.7391141026
 51
0.260885895
  0
ARC
  5
28C
100
AcDbEntity
  8
0
100
AcDbCircle
 62
9
  6
CONTINUOUS
 10
10.9376923551
 20
-247.0160967767
 40
258.0755306566
100
AcDbArc
 50
89.7833144153
 51
90.2166855339
  0
ARC
  5
28D
100
AcDbEntity
  8
0
100
AcDbCircle
 62
9
  6
CONTINUOUS
 10
10.9376499049
 20
-226.4586871394
 40
237.4845972621
100
AcDbArc
 50
89.7699106213
 51
90.2300690609
  0
ARC
  5
28E
100
AcDbEntity
  8
0
100
AcDbCircle
 62
9
  6
CONTINUOUS
 10
10.9376923426
 20
-190.0618651575
 40
201.0611062851
100
AcDbArc
 50
89.7391175684
 51
90.2608824324
  0
ARC
  5
28F
100
AcDbEntity
  8
0
100
AcDbCircle
 62
7
  6
CONTINUOUS
 10
7.0926923427
 20
6.5476695021
 40
0.03
100
AcDbArc
 50
180.0
 51
270.0
  0
ARC
  5
290
100
AcDbEntity
  8
0
100
AcDbCircle
 62
7
  6
CONTINUOUS
 10
9.0124060534
 20
10.8204138808
 40
0.6539836517
100
AcDbArc
 50
266.3988262109
 51
269.9256768714
  0
ARC
  5
291
100
AcDbEntity
  8
0
100
AcDbCircle
 62
7
  6
CONTINUOUS
 10
7.0926923427
 20
11.9876695021
 40
0.03
100
AcDbArc
 50
90.0
 51
180.0
  0
ARC
  5
292
100
AcDbEntity
  8
0
100
AcDbCircle
 62
7
  6
CONTINUOUS
 10
10.9376923427
 20
7.8946695021
 40
0.45
100
AcDbArc
 50
137.4363821098
 51
216.3680575224
  0
ARC
  5
293
100
AcDbEntity
  8
0
100
AcDbCircle
 62
7
  6
CONTINUOUS
 10
10.9376923427
 20
7.8946695021
 40
0.45
100
AcDbArc
 50
323.6300232457
 51
42.5641421569
  0
ARC
  5
294
100
AcDbEntity
  8
0
100
AcDbCircle
 62
9
  6
CONTINUOUS
 10
10.9376923427
 20
7.8946695021
 40
0.4492005033
100
AcDbArc
 50
137.5727619925
 51
216.2441086154
  0
ARC
  5
295
100
AcDbEntity
  8
0
100
AcDbCircle
 62
9
  6
CONTINUOUS
 10
10.9376923427
 20
7.8946695021
 40
0.4492005033
100
AcDbArc
 50
323.7539634543
 51
42.4277579529
  0
ARC
  5
296
100
AcDbEntity
  8
0
100
AcDbCircle
 62
9
  6
CONTINUOUS
 10
10.9376923427
 20
7.8946695021
 40
0.4177005033
100
AcDbArc
 50
143.3616043434
 51
210.2236246021
  0
ARC
  5
297
100
AcDbEntity
  8
0
100
AcDbCircle
 62
9
  6
CONTINUOUS
 10
10.9376923427
 20
7.8946695021
 40
0.4177005033
100
AcDbArc
 50
329.7735115353
 51
36.6387321797
  0
ARC
  5
298
100
AcDbEntity
  8
0
100
AcDbCircle
 62
9
  6
CONTINUOUS
 10
10.9376923427
 20
7.8946695021
 40
0.3875
100
AcDbArc
 50
150.9572026803
 51
202.6122374752
  0
ARC
  5
299
100
AcDbEntity
  8
0
100
AcDbCircle
 62
9
  6
CONTINUOUS
 10
10.9376923427
 20
7.8946695021
 40
0.3875
100
AcDbArc
 50
337.3897031177
 51
29.0429161226
  0
ARC
  5
29A
100
AcDbEntity
  8
0
100
AcDbCircle
 62
7
  6
CONTINUOUS
 10
10.7951201793
 20
8.4567458237
 40
0.2099076519
100
AcDbArc
 50
210.7306530958
 51
211.3293635299
  0
ARC
  5
29B
100
AcDbEntity
  8
0
100
AcDbCircle
 62
9
  6
CONTINUOUS
 10
10.0486858584
 20
9.1756548821
 40
0.095520296
100
AcDbArc
 50
222.5835362451
 51
227.4096898189
  0
ARC
  5
29C
100
AcDbEntity
  8
0
100
AcDbCircle
 62
9
  6
CONTINUOUS
 10
10.817832576
 20
7.0401605443
 40
0.0200078924
100
AcDbArc
 50
241.1837725515
 51
270.0016627547
  0
ARC
  5
29D
100
AcDbEntity
  8
0
100
AcDbCircle
 62
7
  6
CONTINUOUS
 10
9.8080307568
 20
8.9350078935
 40
0.02
100
AcDbArc
 50
180.0286597762
 51
269.9713389931
  0
ARC
  5
29E
100
AcDbEntity
  8
0
100
AcDbCircle
 62
9
  6
CONTINUOUS
 10
10.5825444773
 20
7.1775802298
 40
0.0199855921
100
AcDbArc
 50
181.3355547477
 51
241.1943125637
  0
ARC
  5
29F
100
AcDbEntity
  8
0
100
AcDbCircle
 62
9
  6
CONTINUOUS
 10
10.5835991627
 20
7.1541771661
 40
0.0199828753
100
AcDbArc
 50
182.5963716603
 51
241.1969261653
  0
ARC
  5
2A0
100
AcDbEntity
  8
0
100
AcDbCircle
 62
9
  6
CONTINUOUS
 10
10.8178043458
 20
7.0332652434
 40
0.0199495864
100
AcDbArc
 50
241.184187513
 51
269.9894097339
  0
ARC
  5
2A1
100
AcDbEntity
  8
0
100
AcDbCircle
 62
9
  6
CONTINUOUS
 10
10.5811805024
 20
7.1803988431
 40
0.0186138919
100
AcDbArc
 50
179.7369706961
 51
198.5143103546
  0
ARC
  5
2A2
100
AcDbEntity
  8
0
100
AcDbCircle
 62
9
  6
CONTINUOUS
 10
10.0486793739
 20
10.9536758238
 40
0.095521598
100
AcDbArc
 50
132.5844062929
 51
137.4104635363
  0
ARC
  5
2A3
100
AcDbEntity
  8
0
100
AcDbCircle
 62
7
  6
CONTINUOUS
 10
9.8080307568
 20
11.1943310904
 40
0.02
100
AcDbArc
 50
90.0286596315
 51
179.9713402233
  0
ARC
  5
2A4
100
AcDbEntity
  8
0
100
AcDbCircle
 62
7
  6
CONTINUOUS
 10
10.8234282673
 20
10.6637695021
 40
0.02
100
AcDbArc
 50
90.0
 51
122.005383208
  0
ARC
  5
2A5
100
AcDbEntity
  8
0
100
AcDbCircle
 62
7
  6
CONTINUOUS
 10
10.6776923427
 20
10.5726845493
 40
0.02
100
AcDbArc
 50
122.0054340789
 51
179.9999782096
  0
ARC
  5
2A6
100
AcDbEntity
  8
0
100
AcDbCircle
 62
9
  6
CONTINUOUS
 10
10.8071176279
 20
298.3042125757
 40
289.2009131039
100
AcDbArc
 50
270.0830754115
 51
270.2148045867
  0
ARC
  5
2A7
100
AcDbEntity
  8
0
100
AcDbCircle
 62
9
  6
CONTINUOUS
 10
268.0155082754
 20
10.0646694642
 40
258.0725803262
100
AcDbArc
 50
179.7833118948
 51
180.2166880268
  0
ARC
  5
2A8
100
AcDbEntity
  8
0
100
AcDbCircle
 62
9
  6
CONTINUOUS
 10
247.4975267625
 20
10.0646369405
 40
237.5210748874
100
AcDbArc
 50
179.7699482973
 51
180.2300359108
  0
ARC
  5
2A9
100
AcDbEntity
  8
0
100
AcDbCircle
 62
9
  6
CONTINUOUS
 10
211.0617561396
 20
10.0646694268
 40
201.0586356948
100
AcDbArc
 50
179.7391143039
 51
180.2608857046
  0
ARC
  5
2AA
100
AcDbEntity
  8
0
100
AcDbCircle
 62
9
  6
CONTINUOUS
 10
11.8266998337
 20
10.9536808782
 40
0.0955218419
100
AcDbArc
 50
42.5855431459
 51
47.4115957723
  0
ARC
  5
2AB
100
AcDbEntity
  8
0
100
AcDbCircle
 62
9
  6
CONTINUOUS
 10
11.8267002367
 20
9.1756582162
 40
0.0955217481
100
AcDbArc
 50
312.588618817
 51
317.4145792638
  0
ARC
  5
2AC
100
AcDbEntity
  8
0
100
AcDbCircle
 62
7
  6
CONTINUOUS
 10
14.7826923427
 20
11.9876695021
 40
0.03
100
AcDbArc
 50
0.0
 51
90.0
  0
ARC
  5
2AD
100
AcDbEntity
  8
0
100
AcDbCircle
 62
7
  6
CONTINUOUS
 10
14.7826923427
 20
6.5476695021
 40
0.03
100
AcDbArc
 50
270.0
 51
360.0
  0
ARC
  5
2AE
100
AcDbEntity
  8
0
100
AcDbCircle
 62
9
  6
CONTINUOUS
 10
11.0575521094
 20
7.0401605444
 40
0.0200078925
100
AcDbArc
 50
269.9983373067
 51
298.8162273863
  0
ARC
  5
2AF
100
AcDbEntity
  8
0
100
AcDbCircle
 62
7
  6
CONTINUOUS
 10
12.0673539287
 20
11.1943310904
 40
0.02
100
AcDbArc
 50
0.0286597767
 51
89.9713403685
  0
ARC
  5
2B0
100
AcDbEntity
  8
0
100
AcDbCircle
 62
7
  6
CONTINUOUS
 10
12.0673539287
 20
8.9350078935
 40
0.02
100
AcDbArc
 50
270.0286610069
 51
359.9713402238
  0
ARC
  5
2B1
100
AcDbEntity
  8
0
100
AcDbCircle
 62
7
  6
CONTINUOUS
 10
11.0519564182
 20
10.6637695021
 40
0.02
100
AcDbArc
 50
57.9946167919
 51
90.0
  0
ARC
  5
2B2
100
AcDbEntity
  8
0
100
AcDbCircle
 62
7
  6
CONTINUOUS
 10
11.1976923427
 20
10.5726845493
 40
0.02
100
AcDbArc
 50
0.00003745
 51
57.9945985896
  0
ARC
  5
2B3
100
AcDbEntity
  8
0
100
AcDbCircle
 62
9
  6
CONTINUOUS
 10
11.2928402075
 20
7.1775802307
 40
0.0199855933
100
AcDbArc
 50
298.8056878263
 51
358.6770842742
  0
ARC
  5
2B4
100
AcDbEntity
  8
0
100
AcDbCircle
 62
9
  6
CONTINUOUS
 10
11.2917855261
 20
7.1541771644
 40
0.0199828722
100
AcDbArc
 50
298.8030679262
 51
357.4200675835
  0
ARC
  5
2B5
100
AcDbEntity
  8
0
100
AcDbCircle
 62
9
  6
CONTINUOUS
 10
11.0575802136
 20
7.0332654787
 40
0.0199498533
100
AcDbArc
 50
270.0105903299
 51
298.8158039646
  0
ARC
  5
2B6
100
AcDbEntity
  8
0
100
AcDbCircle
 62
9
  6
CONTINUOUS
 10
11.2942041046
 20
7.1803988435
 40
0.0186139596
100
AcDbArc
 50
341.4857556395
 51
0.2630091931
  0
ARC
  5
2B7
100
AcDbEntity
  8
0
100
AcDbCircle
 62
9
  6
CONTINUOUS
 10
11.0682689371
 20
298.3048194134
 40
289.2015199442
100
AcDbArc
 50
269.7851956662
 51
269.9169228817
  0
SPLINE
  5
2B8
100
AcDbEntity
  8
0
100
AcDbSpline
 62
7
  6
CONTINUOUS
 70
0
 71
3
 72
8
 73
4
 74
0
 42
0.0000001
 43
0.0000001
 44
0.0000000001
 40
0.0
 40
0.0
 40
0.0
 40
0.0
 40
1.0
 40
1.0
 40
1.0
 40
1.0
 10
8.8177270444
 20
10.0995258542
 30
0.0
 10
8.8177270444
 20
10.1197479155
 30
0.0
 10
8.8194480701
 20
10.1335161396
 30
0.0
 10
8.8231052508
 20
10.1404002444
 30
0.0
  0
SPLINE
  5
2B9
100
AcDbEntity
  8
0
100
AcDbSpline
 62
7
  6
CONTINUOUS
 70
0
 71
3
 72
8
 73
4
 74
0
 42
0.0000001
 43
0.0000001
 44
0.0000000001
 40
0.0
 40
0.0
 40
0.0
 40
0.0
 40
1.0
 40
1.0
 40
1.0
 40
1.0
 10
8.8231052508
 20
10.1404002444
 30
0.0
 10
8.8267624294
 20
10.1472843453
 30
0.0
 10
8.8364432128
 20
10.1507264152
 30
0.0
 10
8.8519324534
 20
10.1507264152
 30
0.0
  0
SPLINE
  5
2BA
100
AcDbEntity
  8
0
100
AcDbSpline
 62
7
  6
CONTINUOUS
 70
0
 71
3
 72
8
 73
4
 74
0
 42
0.0000001
 43
0.0000001
 44
0.0000000001
 40
0.0
 40
0.0
 40
0.0
 40
0.0
 40
1.0
 40
1.0
 40
1.0
 40
1.0
 10
8.8519324534
 20
10.1507264152
 30
0.0
 10
8.8566652741
 20
10.1507264152
 30
0.0
 10
8.8590316891
 20
10.1524474409
 30
0.0
 10
8.8590316891
 20
10.1563197395
 30
0.0
  0
SPLINE
  5
2BB
100
AcDbEntity
  8
0
100
AcDbSpline
 62
7
  6
CONTINUOUS
 70
0
 71
3
 72
8
 73
4
 74
0
 42
0.0000001
 43
0.0000001
 44
0.0000000001
 40
0.0
 40
0.0
 40
0.0
 40
0.0
 40
1.0
 40
1.0
 40
1.0
 40
1.0
 10
8.8590316891
 20
10.1625584623
 30
0.0
 10
8.8590316891
 20
10.166861045
 30
0.0
 10
8.8566652741
 20
10.1690123179
 30
0.0
 10
8.8519324534
 20
10.1690123179
 30
0.0
  0
SPLINE
  5
2BC
100
AcDbEntity
  8
0
100
AcDbSpline
 62
7
  6
CONTINUOUS
 70
0
 71
3
 72
8
 73
4
 74
0
 42
0.0000001
 43
0.0000001
 44
0.0000000001
 40
0.0
 40
0.0
 40
0.0
 40
0.0
 40
1.0
 40
1.0
 40
1.0
 40
1.0
 10
8.8519324534
 20
10.1690123179
 30
0.0
 10
8.8480601456
 20
10.1690123179
 30
0.0
 10
8.8403155207
 20
10.1685820707
 30
0.0
 10
8.8284834643
 20
10.1677215582
 30
0.0
  0
SPLINE
  5
2BD
100
AcDbEntity
  8
0
100
AcDbSpline
 62
7
  6
CONTINUOUS
 70
0
 71
3
 72
8
 73
4
 74
0
 42
0.0000001
 43
0.0000001
 44
0.0000000001
 40
0.0
 40
0.0
 40
0.0
 40
0.0
 40
1.0
 40
1.0
 40
1.0
 40
1.0
 10
8.8284834643
 20
10.1677215582
 30
0.0
 10
8.8166513987
 20
10.166861045
 30
0.0
 10
8.8052495988
 20
10.1664307793
 30
0.0
 10
8.7942780461
 20
10.1664307793
 30
0.0
  0
SPLINE
  5
2BE
100
AcDbEntity
  8
0
100
AcDbSpline
 62
7
  6
CONTINUOUS
 70
0
 71
3
 72
8
 73
4
 74
0
 42
0.0000001
 43
0.0000001
 44
0.0000000001
 40
0.0
 40
0.0
 40
0.0
 40
0.0
 40
1.0
 40
1.0
 40
1.0
 40
1.0
 10
8.7942780461
 20
10.1664307793
 30
0.0
 10
8.7774980316
 20
10.1664307793
 30
0.0
 10
8.7630844321
 20
10.166861045
 30
0.0
 10
8.7512518177
 20
10.1677138454
 30
0.0
  0
SPLINE
  5
2BF
100
AcDbEntity
  8
0
100
AcDbSpline
 62
7
  6
CONTINUOUS
 70
0
 71
3
 72
8
 73
4
 74
0
 42
0.0000001
 43
0.0000001
 44
0.0000000001
 40
0.0
 40
0.0
 40
0.0
 40
0.0
 40
1.0
 40
1.0
 40
1.0
 40
1.0
 10
8.7512518177
 20
10.1677138454
 30
0.0
 10
8.7392051819
 20
10.1685820707
 30
0.0
 10
8.7306000465
 20
10.1690123179
 30
0.0
 10
8.7254369647
 20
10.1690123179
 30
0.0
  0
SPLINE
  5
2C0
100
AcDbEntity
  8
0
100
AcDbSpline
 62
7
  6
CONTINUOUS
 70
0
 71
3
 72
8
 73
4
 74
0
 42
0.0000001
 43
0.0000001
 44
0.0000000001
 40
0.0
 40
0.0
 40
0.0
 40
0.0
 40
1.0
 40
1.0
 40
1.0
 40
1.0
 10
8.7254369647
 20
10.1690123179
 30
0.0
 10
8.720273883
 20
10.1690123179
 30
0.0
 10
8.7176923433
 20
10.1670761594
 30
0.0
 10
8.7176923433
 20
10.1632038608
 30
0.0
  0
SPLINE
  5
2C1
100
AcDbEntity
  8
0
100
AcDbSpline
 62
7
  6
CONTINUOUS
 70
0
 71
3
 72
8
 73
4
 74
0
 42
0.0000001
 43
0.0000001
 44
0.0000000001
 40
0.0
 40
0.0
 40
0.0
 40
0.0
 40
1.0
 40
1.0
 40
1.0
 40
1.0
 10
8.7176923433
 20
10.157610518
 30
0.0
 10
8.7176923433
 20
10.1528776881
 30
0.0
 10
8.7189831137
 20
10.1507264152
 30
0.0
 10
8.721994911
 20
10.1507264152
 30
0.0
  0
SPLINE
  5
2C2
100
AcDbEntity
  8
0
100
AcDbSpline
 62
7
  6
CONTINUOUS
 70
0
 71
3
 72
8
 73
4
 74
0
 42
0.0000001
 43
0.0000001
 44
0.0000000001
 40
0.0
 40
0.0
 40
0.0
 40
0.0
 40
1.0
 40
1.0
 40
1.0
 40
1.0
 10
8.721994911
 20
10.1507264152
 30
0.0
 10
8.7376992821
 20
10.1507264152
 30
0.0
 10
8.7478103151
 20
10.1468540981
 30
0.0
 10
8.7522465388
 20
10.1390636553
 30
0.0
  0
SPLINE
  5
2C3
100
AcDbEntity
  8
0
100
AcDbSpline
 62
7
  6
CONTINUOUS
 70
0
 71
3
 72
8
 73
4
 74
0
 42
0.0000001
 43
0.0000001
 44
0.0000000001
 40
0.0
 40
0.0
 40
0.0
 40
0.0
 40
1.0
 40
1.0
 40
1.0
 40
1.0
 10
8.7522465388
 20
10.1390636553
 30
0.0
 10
8.7566305811
 20
10.1313648483
 30
0.0
 10
8.7589969914
 20
10.1182420226
 30
0.0
 10
8.7589969914
 20
10.0995258542
 30
0.0
  0
SPLINE
  5
2C4
100
AcDbEntity
  8
0
100
AcDbSpline
 62
7
  6
CONTINUOUS
 70
0
 71
3
 72
8
 73
4
 74
0
 42
0.0000001
 43
0.0000001
 44
0.0000000001
 40
0.0
 40
0.0
 40
0.0
 40
0.0
 40
1.0
 40
1.0
 40
1.0
 40
1.0
 10
8.7589969914
 20
9.9295744273
 30
0.0
 10
8.7589969914
 20
9.9039741514
 30
0.0
 10
8.7566305811
 20
9.8891302931
 30
0.0
 10
8.7521128845
 20
9.884827726
 30
0.0
  0
SPLINE
  5
2C5
100
AcDbEntity
  8
0
100
AcDbSpline
 62
7
  6
CONTINUOUS
 70
0
 71
3
 72
8
 73
4
 74
0
 42
0.0000001
 43
0.0000001
 44
0.0000000001
 40
0.0
 40
0.0
 40
0.0
 40
0.0
 40
1.0
 40
1.0
 40
1.0
 40
1.0
 10
8.7521128845
 20
9.884827726
 30
0.0
 10
8.7475951869
 20
9.8805251577
 30
0.0
 10
8.738559795
 20
9.8783738744
 30
0.0
 10
8.7247915801
 20
9.8783738744
 30
0.0
  0
SPLINE
  5
2C6
100
AcDbEntity
  8
0
100
AcDbSpline
 62
7
  6
CONTINUOUS
 70
0
 71
3
 72
8
 73
4
 74
0
 42
0.0000001
 43
0.0000001
 44
0.0000000001
 40
0.0
 40
0.0
 40
0.0
 40
0.0
 40
1.0
 40
1.0
 40
1.0
 40
1.0
 10
8.7247915801
 20
9.8783738744
 30
0.0
 10
8.7200587548
 20
9.8783738744
 30
0.0
 10
8.7176923433
 20
9.8764377182
 30
0.0
 10
8.7176923433
 20
9.872565408
 30
0.0
  0
SPLINE
  5
2C7
100
AcDbEntity
  8
0
100
AcDbSpline
 62
7
  6
CONTINUOUS
 70
0
 71
3
 72
8
 73
4
 74
0
 42
0.0000001
 43
0.0000001
 44
0.0000000001
 40
0.0
 40
0.0
 40
0.0
 40
0.0
 40
1.0
 40
1.0
 40
1.0
 40
1.0
 10
8.7176923433
 20
9.8646056576
 30
0.0
 10
8.7176923433
 20
9.8615938602
 30
0.0
 10
8.720273883
 20
9.8600879616
 30
0.0
 10
8.7254369647
 20
9.8600879616
 30
0.0
  0
SPLINE
  5
2C8
100
AcDbEntity
  8
0
100
AcDbSpline
 62
7
  6
CONTINUOUS
 70
0
 71
3
 72
8
 73
4
 74
0
 42
0.0000001
 43
0.0000001
 44
0.0000000001
 40
0.0
 40
0.0
 40
0.0
 40
0.0
 40
1.0
 40
1.0
 40
1.0
 40
1.0
 10
8.7254369647
 20
9.8600879616
 30
0.0
 10
8.7306000465
 20
9.8600879616
 30
0.0
 10
8.7411413359
 20
9.8605182183
 30
0.0
 10
8.7570605188
 20
9.8613845683
 30
0.0
  0
SPLINE
  5
2C9
100
AcDbEntity
  8
0
100
AcDbSpline
 62
7
  6
CONTINUOUS
 70
0
 71
3
 72
8
 73
4
 74
0
 42
0.0000001
 43
0.0000001
 44
0.0000000001
 40
0.0
 40
0.0
 40
0.0
 40
0.0
 40
1.0
 40
1.0
 40
1.0
 40
1.0
 10
8.7570605188
 20
9.8613845683
 30
0.0
 10
8.7727652109
 20
9.8622392454
 30
0.0
 10
8.7873939433
 20
9.8626695021
 30
0.0
 10
8.8009470253
 20
9.8626695021
 30
0.0
  0
SPLINE
  5
2CA
100
AcDbEntity
  8
0
100
AcDbSpline
 62
7
  6
CONTINUOUS
 70
0
 71
3
 72
8
 73
4
 74
0
 42
0.0000001
 43
0.0000001
 44
0.0000000001
 40
0.0
 40
0.0
 40
0.0
 40
0.0
 40
1.0
 40
1.0
 40
1.0
 40
1.0
 10
8.8009470253
 20
9.8626695021
 30
0.0
 10
8.8089067738
 20
9.8626695021
 30
0.0
 10
8.8188026809
 20
9.8622392454
 30
0.0
 10
8.8304196136
 20
9.8613787318
 30
0.0
  0
SPLINE
  5
2CB
100
AcDbEntity
  8
0
100
AcDbSpline
 62
7
  6
CONTINUOUS
 70
0
 71
3
 72
8
 73
4
 74
0
 42
0.0000001
 43
0.0000001
 44
0.0000000001
 40
0.0
 40
0.0
 40
0.0
 40
0.0
 40
1.0
 40
1.0
 40
1.0
 40
1.0
 10
8.8304196136
 20
9.8613787318
 30
0.0
 10
8.8420365464
 20
9.8605182183
 30
0.0
 10
8.8495660384
 20
9.8600879616
 30
0.0
 10
8.8534383555
 20
9.8600879616
 30
0.0
  0
SPLINE
  5
2CC
100
AcDbEntity
  8
0
100
AcDbSpline
 62
7
  6
CONTINUOUS
 70
0
 71
3
 72
8
 73
4
 74
0
 42
0.0000001
 43
0.0000001
 44
0.0000000001
 40
0.0
 40
0.0
 40
0.0
 40
0.0
 40
1.0
 40
1.0
 40
1.0
 40
1.0
 10
8.8534383555
 20
9.8600879616
 30
0.0
 10
8.8570955398
 20
9.8600879616
 30
0.0
 10
8.8590316891
 20
9.8618089886
 30
0.0
 10
8.8590316891
 20
9.8652510427
 30
0.0
  0
SPLINE
  5
2CD
100
AcDbEntity
  8
0
100
AcDbSpline
 62
7
  6
CONTINUOUS
 70
0
 71
3
 72
8
 73
4
 74
0
 42
0.0000001
 43
0.0000001
 44
0.0000000001
 40
0.0
 40
0.0
 40
0.0
 40
0.0
 40
1.0
 40
1.0
 40
1.0
 40
1.0
 10
8.8590316891
 20
9.8719200228
 30
0.0
 10
8.8590316891
 20
9.87622259
 30
0.0
 10
8.8570955398
 20
9.8783738744
 30
0.0
 10
8.8534383555
 20
9.8783738744
 30
0.0
  0
SPLINE
  5
2CE
100
AcDbEntity
  8
0
100
AcDbSpline
 62
7
  6
CONTINUOUS
 70
0
 71
3
 72
8
 73
4
 74
0
 42
0.0000001
 43
0.0000001
 44
0.0000000001
 40
0.0
 40
0.0
 40
0.0
 40
0.0
 40
1.0
 40
1.0
 40
1.0
 40
1.0
 10
8.8534383555
 20
9.8783738744
 30
0.0
 10
8.8413911663
 20
9.8783738744
 30
0.0
 10
8.8325708957
 20
9.8803100295
 30
0.0
 10
8.8265473037
 20
9.8846125954
 30
0.0
  0
SPLINE
  5
2CF
100
AcDbEntity
  8
0
100
AcDbSpline
 62
7
  6
CONTINUOUS
 70
0
 71
3
 72
8
 73
4
 74
0
 42
0.0000001
 43
0.0000001
 44
0.0000000001
 40
0.0
 40
0.0
 40
0.0
 40
0.0
 40
1.0
 40
1.0
 40
1.0
 40
1.0
 10
8.8265473037
 20
9.8846125954
 30
0.0
 10
8.8205237066
 20
9.8889151649
 30
0.0
 10
8.8177270444
 20
9.9037590232
 30
0.0
 10
8.8177270444
 20
9.9295744273
 30
0.0
  0
SPLINE
  5
2D0
100
AcDbEntity
  8
0
100
AcDbSpline
 62
7
  6
CONTINUOUS
 70
0
 71
3
 72
8
 73
4
 74
0
 42
0.0000001
 43
0.0000001
 44
0.0000000001
 40
0.0
 40
0.0
 40
0.0
 40
0.0
 40
1.0
 40
1.0
 40
1.0
 40
1.0
 10
8.9797187044
 20
9.9295744273
 30
0.0
 10
8.9797187044
 20
9.904619536
 30
0.0
 10
8.9775674315
 20
9.8897756778
 30
0.0
 10
8.973474499
 20
9.8852629614
 30
0.0
  0
SPLINE
  5
2D1
100
AcDbEntity
  8
0
100
AcDbSpline
 62
7
  6
CONTINUOUS
 70
0
 71
3
 72
8
 73
4
 74
0
 42
0.0000001
 43
0.0000001
 44
0.0000000001
 40
0.0
 40
0.0
 40
0.0
 40
0.0
 40
1.0
 40
1.0
 40
1.0
 40
1.0
 10
8.973474499
 20
9.8852629614
 30
0.0
 10
8.9691774173
 20
9.8805251577
 30
0.0
 10
8.9594966431
 20
9.8783738744
 30
0.0
 10
8.9442225261
 20
9.8783738744
 30
0.0
  0
SPLINE
  5
2D2
100
AcDbEntity
  8
0
100
AcDbSpline
 62
7
  6
CONTINUOUS
 70
0
 71
3
 72
8
 73
4
 74
0
 42
0.0000001
 43
0.0000001
 44
0.0000000001
 40
0.0
 40
0.0
 40
0.0
 40
0.0
 40
1.0
 40
1.0
 40
1.0
 40
1.0
 10
8.9442225261
 20
9.8783738744
 30
0.0
 10
8.9403502275
 20
9.8783738744
 30
0.0
 10
8.938414069
 20
9.8757923335
 30
0.0
 10
8.938414069
 20
9.8710595088
 30
0.0
  0
SPLINE
  5
2D3
100
AcDbEntity
  8
0
100
AcDbSpline
 62
7
  6
CONTINUOUS
 70
0
 71
3
 72
8
 73
4
 74
0
 42
0.0000001
 43
0.0000001
 44
0.0000000001
 40
0.0
 40
0.0
 40
0.0
 40
0.0
 40
1.0
 40
1.0
 40
1.0
 40
1.0
 10
8.938414069
 20
9.8652510427
 30
0.0
 10
8.938414069
 20
9.8618089886
 30
0.0
 10
8.9409956076
 20
9.8600879616
 30
0.0
 10
8.9461586847
 20
9.8600879616
 30
0.0
  0
SPLINE
  5
2D4
100
AcDbEntity
  8
0
100
AcDbSpline
 62
7
  6
CONTINUOUS
 70
0
 71
3
 72
8
 73
4
 74
0
 42
0.0000001
 43
0.0000001
 44
0.0000000001
 40
0.0
 40
0.0
 40
0.0
 40
0.0
 40
1.0
 40
1.0
 40
1.0
 40
1.0
 10
8.9461586847
 20
9.8600879616
 30
0.0
 10
8.9513217618
 20
9.8600879616
 30
0.0
 10
8.9612176688
 20
9.8605182183
 30
0.0
 10
8.9756308837
 20
9.8613851786
 30
0.0
  0
SPLINE
  5
2D5
100
AcDbEntity
  8
0
100
AcDbSpline
 62
7
  6
CONTINUOUS
 70
0
 71
3
 72
8
 73
4
 74
0
 42
0.0000001
 43
0.0000001
 44
0.0000000001
 40
0.0
 40
0.0
 40
0.0
 40
0.0
 40
1.0
 40
1.0
 40
1.0
 40
1.0
 10
8.9756308837
 20
9.8613851786
 30
0.0
 10
8.9898297443
 20
9.8622392454
 30
0.0
 10
9.0031677027
 20
9.8626695021
 30
0.0
 10
9.015430034
 20
9.8626695021
 30
0.0
  0
SPLINE
  5
2D6
100
AcDbEntity
  8
0
100
AcDbSpline
 62
7
  6
CONTINUOUS
 70
0
 71
3
 72
8
 73
4
 74
0
 42
0.0000001
 43
0.0000001
 44
0.0000000001
 40
0.0
 40
0.0
 40
0.0
 40
0.0
 40
1.0
 40
1.0
 40
1.0
 40
1.0
 10
9.015430034
 20
9.8626695021
 30
0.0
 10
9.028767974
 20
9.8626695021
 30
0.0
 10
9.0403849252
 20
9.8622392454
 30
0.0
 10
9.0502808139
 20
9.8613787334
 30
0.0
  0
SPLINE
  5
2D7
100
AcDbEntity
  8
0
100
AcDbSpline
 62
7
  6
CONTINUOUS
 70
0
 71
3
 72
8
 73
4
 74
0
 42
0.0000001
 43
0.0000001
 44
0.0000000001
 40
0.0
 40
0.0
 40
0.0
 40
0.0
 40
1.0
 40
1.0
 40
1.0
 40
1.0
 10
9.0502808139
 20
9.8613787334
 30
0.0
 10
9.0601767393
 20
9.8605182183
 30
0.0
 10
9.0677062221
 20
9.8600879616
 30
0.0
 10
9.0726541849
 20
9.8600879616
 30
0.0
  0
SPLINE
  5
2D8
100
AcDbEntity
  8
0
100
AcDbSpline
 62
7
  6
CONTINUOUS
 70
0
 71
3
 72
8
 73
4
 74
0
 42
0.0000001
 43
0.0000001
 44
0.0000000001
 40
0.0
 40
0.0
 40
0.0
 40
0.0
 40
1.0
 40
1.0
 40
1.0
 40
1.0
 10
9.0726541849
 20
9.8600879616
 30
0.0
 10
9.0773869963
 20
9.8600879616
 30
0.0
 10
9.0797534021
 20
9.8622392454
 30
0.0
 10
9.0797534021
 20
9.8661115562
 30
0.0
  0
SPLINE
  5
2D9
100
AcDbEntity
  8
0
100
AcDbSpline
 62
7
  6
CONTINUOUS
 70
0
 71
3
 72
8
 73
4
 74
0
 42
0.0000001
 43
0.0000001
 44
0.0000000001
 40
0.0
 40
0.0
 40
0.0
 40
0.0
 40
1.0
 40
1.0
 40
1.0
 40
1.0
 10
9.0797534021
 20
9.8729956645
 30
0.0
 10
9.0797534021
 20
9.8764377182
 30
0.0
 10
9.077817262
 20
9.8783738744
 30
0.0
 10
9.0741600593
 20
9.8783738744
 30
0.0
  0
SPLINE
  5
2DA
100
AcDbEntity
  8
0
100
AcDbSpline
 62
7
  6
CONTINUOUS
 70
0
 71
3
 72
8
 73
4
 74
0
 42
0.0000001
 43
0.0000001
 44
0.0000000001
 40
0.0
 40
0.0
 40
0.0
 40
0.0
 40
1.0
 40
1.0
 40
1.0
 40
1.0
 10
9.0741600593
 20
9.8783738744
 30
0.0
 10
9.0603918536
 20
9.8783738744
 30
0.0
 10
9.0511413451
 20
9.8800949013
 30
0.0
 10
9.0459285741
 20
9.8836786837
 30
0.0
  0
SPLINE
  5
2DB
100
AcDbEntity
  8
0
100
AcDbSpline
 62
7
  6
CONTINUOUS
 70
0
 71
3
 72
8
 73
4
 74
0
 42
0.0000001
 43
0.0000001
 44
0.0000000001
 40
0.0
 40
0.0
 40
0.0
 40
0.0
 40
1.0
 40
1.0
 40
1.0
 40
1.0
 10
9.0459285741
 20
9.8836786837
 30
0.0
 10
9.0408151909
 20
9.8871941369
 30
0.0
 10
9.0384487482
 20
9.8964446593
 30
0.0
 10
9.0384487482
 20
9.9115036435
 30
0.0
  0
SPLINE
  5
2DC
100
AcDbEntity
  8
0
100
AcDbSpline
 62
7
  6
CONTINUOUS
 70
0
 71
3
 72
8
 73
4
 74
0
 42
0.0000001
 43
0.0000001
 44
0.0000000001
 40
0.0
 40
0.0
 40
0.0
 40
0.0
 40
1.0
 40
1.0
 40
1.0
 40
1.0
 10
9.0384487482
 20
10.0995258542
 30
0.0
 10
9.0384487482
 20
10.1193176683
 30
0.0
 10
9.0399546595
 20
10.1326556268
 30
0.0
 10
9.0432216509
 20
10.1399519249
 30
0.0
  0
SPLINE
  5
2DD
100
AcDbEntity
  8
0
100
AcDbSpline
 62
7
  6
CONTINUOUS
 70
0
 71
3
 72
8
 73
4
 74
0
 42
0.0000001
 43
0.0000001
 44
0.0000000001
 40
0.0
 40
0.0
 40
0.0
 40
0.0
 40
1.0
 40
1.0
 40
1.0
 40
1.0
 10
9.0432216509
 20
10.1399519249
 30
0.0
 10
9.0464084967
 20
10.1470692309
 30
0.0
 10
9.0567346879
 20
10.1507264152
 30
0.0
 10
9.0739449449
 20
10.1507264152
 30
0.0
  0
SPLINE
  5
2DE
100
AcDbEntity
  8
0
100
AcDbSpline
 62
7
  6
CONTINUOUS
 70
0
 71
3
 72
8
 73
4
 74
0
 42
0.0000001
 43
0.0000001
 44
0.0000000001
 40
0.0
 40
0.0
 40
0.0
 40
0.0
 40
1.0
 40
1.0
 40
1.0
 40
1.0
 10
9.0739449449
 20
10.1507264152
 30
0.0
 10
9.077817262
 20
10.1507264152
 30
0.0
 10
9.0797534021
 20
10.1533079537
 30
0.0
 10
9.0797534021
 20
10.158901278
 30
0.0
  0
SPLINE
  5
2DF
100
AcDbEntity
  8
0
100
AcDbSpline
 62
7
  6
CONTINUOUS
 70
0
 71
3
 72
8
 73
4
 74
0
 42
0.0000001
 43
0.0000001
 44
0.0000000001
 40
0.0
 40
0.0
 40
0.0
 40
0.0
 40
1.0
 40
1.0
 40
1.0
 40
1.0
 10
9.0797534021
 20
10.1660005137
 30
0.0
 10
9.0797534021
 20
10.1679366722
 30
0.0
 10
9.0782475277
 20
10.1690123179
 30
0.0
 10
9.075235705
 20
10.1690123179
 30
0.0
  0
SPLINE
  5
2E0
100
AcDbEntity
  8
0
100
AcDbSpline
 62
7
  6
CONTINUOUS
 70
0
 71
3
 72
8
 73
4
 74
0
 42
0.0000001
 43
0.0000001
 44
0.0000000001
 40
0.0
 40
0.0
 40
0.0
 40
0.0
 40
1.0
 40
1.0
 40
1.0
 40
1.0
 10
9.075235705
 20
10.1690123179
 30
0.0
 10
9.0713633879
 20
10.1690123179
 30
0.0
 10
9.062543145
 20
10.1685820707
 30
0.0
 10
9.0487749393
 20
10.167721559
 30
0.0
  0
SPLINE
  5
2E1
100
AcDbEntity
  8
0
100
AcDbSpline
 62
7
  6
CONTINUOUS
 70
0
 71
3
 72
8
 73
4
 74
0
 42
0.0000001
 43
0.0000001
 44
0.0000000001
 40
0.0
 40
0.0
 40
0.0
 40
0.0
 40
1.0
 40
1.0
 40
1.0
 40
1.0
 10
9.0487749393
 20
10.167721559
 30
0.0
 10
9.0350066968
 20
10.166861045
 30
0.0
 10
9.0225292512
 20
10.1664307793
 30
0.0
 10
9.0115577169
 20
10.1664307793
 30
0.0
  0
SPLINE
  5
2E2
100
AcDbEntity
  8
0
100
AcDbSpline
 62
7
  6
CONTINUOUS
 70
0
 71
3
 72
8
 73
4
 74
0
 42
0.0000001
 43
0.0000001
 44
0.0000000001
 40
0.0
 40
0.0
 40
0.0
 40
0.0
 40
1.0
 40
1.0
 40
1.0
 40
1.0
 10
8.9713287087
 20
10.1677215579
 30
0.0
 10
8.9573453702
 20
10.1685820707
 30
0.0
 10
8.9483099761
 20
10.1690123179
 30
0.0
 10
8.944437659
 20
10.1690123179
 30
0.0
  0
SPLINE
  5
2E3
100
AcDbEntity
  8
0
100
AcDbSpline
 62
7
  6
CONTINUOUS
 70
0
 71
3
 72
8
 73
4
 74
0
 42
0.0000001
 43
0.0000001
 44
0.0000000001
 40
0.0
 40
0.0
 40
0.0
 40
0.0
 40
1.0
 40
1.0
 40
1.0
 40
1.0
 10
8.944437659
 20
10.1690123179
 30
0.0
 10
8.9403502275
 20
10.1690123179
 30
0.0
 10
8.938414069
 20
10.1666459122
 30
0.0
 10
8.938414069
 20
10.1619130822
 30
0.0
  0
SPLINE
  5
2E4
100
AcDbEntity
  8
0
100
AcDbSpline
 62
7
  6
CONTINUOUS
 70
0
 71
3
 72
8
 73
4
 74
0
 42
0.0000001
 43
0.0000001
 44
0.0000000001
 40
0.0
 40
0.0
 40
0.0
 40
0.0
 40
1.0
 40
1.0
 40
1.0
 40
1.0
 10
8.938414069
 20
10.1550289794
 30
0.0
 10
8.938414069
 20
10.1520171752
 30
0.0
 10
8.9407804747
 20
10.1507264152
 30
0.0
 10
8.9459435518
 20
10.1507264152
 30
0.0
  0
SPLINE
  5
2E5
100
AcDbEntity
  8
0
100
AcDbSpline
 62
7
  6
CONTINUOUS
 70
0
 71
3
 72
8
 73
4
 74
0
 42
0.0000001
 43
0.0000001
 44
0.0000000001
 40
0.0
 40
0.0
 40
0.0
 40
0.0
 40
1.0
 40
1.0
 40
1.0
 40
1.0
 10
8.9459435518
 20
10.1507264152
 30
0.0
 10
8.9614328017
 20
10.1507264152
 30
0.0
 10
8.9711135759
 20
10.1470692309
 30
0.0
 10
8.974555631
 20
10.1401851115
 30
0.0
  0
SPLINE
  5
2E6
100
AcDbEntity
  8
0
100
AcDbSpline
 62
7
  6
CONTINUOUS
 70
0
 71
3
 72
8
 73
4
 74
0
 42
0.0000001
 43
0.0000001
 44
0.0000000001
 40
0.0
 40
0.0
 40
0.0
 40
0.0
 40
1.0
 40
1.0
 40
1.0
 40
1.0
 10
8.974555631
 20
10.1401851115
 30
0.0
 10
8.9779976787
 20
10.1333010068
 30
0.0
 10
8.9797187044
 20
10.1197479155
 30
0.0
 10
8.9797187044
 20
10.0995258542
 30
0.0
  0
SPLINE
  5
2E7
100
AcDbEntity
  8
0
100
AcDbSpline
 62
7
  6
CONTINUOUS
 70
0
 71
3
 72
8
 73
4
 74
0
 42
0.0000001
 43
0.0000001
 44
0.0000000001
 40
0.0
 40
0.0
 40
0.0
 40
0.0
 40
1.0
 40
1.0
 40
1.0
 40
1.0
 10
13.1089692378
 20
10.0831760916
 30
0.0
 10
13.1098297506
 20
10.0831760916
 30
0.0
 10
13.1139171821
 20
10.0840366044
 30
0.0
 10
13.121669283
 20
10.0857218494
 30
0.0
  0
SPLINE
  5
2E8
100
AcDbEntity
  8
0
100
AcDbSpline
 62
7
  6
CONTINUOUS
 70
0
 71
3
 72
8
 73
4
 74
0
 42
0.0000001
 43
0.0000001
 44
0.0000000001
 40
0.0
 40
0.0
 40
0.0
 40
0.0
 40
1.0
 40
1.0
 40
1.0
 40
1.0
 10
13.121669283
 20
10.0857218494
 30
0.0
 10
13.1238130891
 20
10.0861878958
 30
0.0
 10
13.1248887348
 20
10.0874786558
 30
0.0
 10
13.1248887348
 20
10.0891996815
 30
0.0
  0
LINE
  5
2E9
100
AcDbEntity
  8
0
100
AcDbLine
 62
7
  6
CONTINUOUS
 10
13.1248887348
 20
10.0891996815
 11
13.1165175434
 21
10.1457429929
  0
SPLINE
  5
2EA
100
AcDbEntity
  8
0
100
AcDbSpline
 62
7
  6
CONTINUOUS
 70
0
 71
3
 72
8
 73
4
 74
0
 42
0.0000001
 43
0.0000001
 44
0.0000000001
 40
0.0
 40
0.0
 40
0.0
 40
0.0
 40
1.0
 40
1.0
 40
1.0
 40
1.0
 10
13.1165175434
 20
10.1457429929
 30
0.0
 10
13.1160684734
 20
10.1487902566
 30
0.0
 10
13.1147776949
 20
10.1509415295
 30
0.0
 10
13.1130080482
 20
10.1521581687
 30
0.0
  0
SPLINE
  5
2EB
100
AcDbEntity
  8
0
100
AcDbSpline
 62
7
  6
CONTINUOUS
 70
0
 71
3
 72
8
 73
4
 74
0
 42
0.0000001
 43
0.0000001
 44
0.0000000001
 40
0.0
 40
0.0
 40
0.0
 40
0.0
 40
1.0
 40
1.0
 40
1.0
 40
1.0
 10
13.1130080482
 20
10.1521581687
 30
0.0
 10
13.1113356435
 20
10.1533079537
 30
0.0
 10
13.1096146178
 20
10.1541684666
 30
0.0
 10
13.1080996092
 20
10.1547916616
 30
0.0
  0
SPLINE
  5
2EC
100
AcDbEntity
  8
0
100
AcDbSpline
 62
7
  6
CONTINUOUS
 70
0
 71
3
 72
8
 73
4
 74
0
 42
0.0000001
 43
0.0000001
 44
0.0000000001
 40
0.0
 40
0.0
 40
0.0
 40
0.0
 40
1.0
 40
1.0
 40
1.0
 40
1.0
 10
13.1080996092
 20
10.1547916616
 30
0.0
 10
13.0792815166
 20
10.1666459122
 30
0.0
 10
13.0491635483
 20
10.1726695021
 30
0.0
 10
13.0175396686
 20
10.1726695021
 30
0.0
  0
SPLINE
  5
2ED
100
AcDbEntity
  8
0
100
AcDbSpline
 62
7
  6
CONTINUOUS
 70
0
 71
3
 72
8
 73
4
 74
0
 42
0.0000001
 43
0.0000001
 44
0.0000000001
 40
0.0
 40
0.0
 40
0.0
 40
0.0
 40
1.0
 40
1.0
 40
1.0
 40
1.0
 10
13.0175396686
 20
10.1726695021
 30
0.0
 10
12.9620365527
 20
10.1726695021
 30
0.0
 10
12.9183654838
 20
10.1571802523
 30
0.0
 10
12.8860962328
 20
10.1264168997
 30
0.0
  0
SPLINE
  5
2EE
100
AcDbEntity
  8
0
100
AcDbSpline
 62
7
  6
CONTINUOUS
 70
0
 71
3
 72
8
 73
4
 74
0
 42
0.0000001
 43
0.0000001
 44
0.0000000001
 40
0.0
 40
0.0
 40
0.0
 40
0.0
 40
1.0
 40
1.0
 40
1.0
 40
1.0
 10
12.8860962328
 20
10.1264168997
 30
0.0
 10
12.8538269714
 20
10.0956535372
 30
0.0
 10
12.8376923427
 20
10.0575758203
 30
0.0
 10
12.8376923427
 20
10.0121837258
 30
0.0
  0
SPLINE
  5
2EF
100
AcDbEntity
  8
0
100
AcDbSpline
 62
7
  6
CONTINUOUS
 70
0
 71
3
 72
8
 73
4
 74
0
 42
0.0000001
 43
0.0000001
 44
0.0000000001
 40
0.0
 40
0.0
 40
0.0
 40
0.0
 40
1.0
 40
1.0
 40
1.0
 40
1.0
 10
12.8376923427
 20
10.0121837258
 30
0.0
 10
12.8376923427
 20
9.9670067641
 30
0.0
 10
12.8536118432
 20
9.9297895555
 30
0.0
 10
12.8853971844
 20
9.9004740234
 30
0.0
  0
SPLINE
  5
2F0
100
AcDbEntity
  8
0
100
AcDbSpline
 62
7
  6
CONTINUOUS
 70
0
 71
3
 72
8
 73
4
 74
0
 42
0.0000001
 43
0.0000001
 44
0.0000000001
 40
0.0
 40
0.0
 40
0.0
 40
0.0
 40
1.0
 40
1.0
 40
1.0
 40
1.0
 10
12.8853971844
 20
9.9004740234
 30
0.0
 10
12.9172898474
 20
9.8710595088
 30
0.0
 10
12.9607457742
 20
9.8564307788
 30
0.0
 10
13.0153883958
 20
9.8564307788
 30
0.0
  0
SPLINE
  5
2F1
100
AcDbEntity
  8
0
100
AcDbSpline
 62
7
  6
CONTINUOUS
 70
0
 71
3
 72
8
 73
4
 74
0
 42
0.0000001
 43
0.0000001
 44
0.0000000001
 40
0.0
 40
0.0
 40
0.0
 40
0.0
 40
1.0
 40
1.0
 40
1.0
 40
1.0
 10
13.0153883958
 20
9.8564307788
 30
0.0
 10
13.0489484155
 20
9.8564307788
 30
0.0
 10
13.0799268967
 20
9.8618089886
 30
0.0
 10
13.1087371705
 20
9.8723958963
 30
0.0
  0
SPLINE
  5
2F2
100
AcDbEntity
  8
0
100
AcDbSpline
 62
7
  6
CONTINUOUS
 70
0
 71
3
 72
8
 73
4
 74
0
 42
0.0000001
 43
0.0000001
 44
0.0000000001
 40
0.0
 40
0.0
 40
0.0
 40
0.0
 40
1.0
 40
1.0
 40
1.0
 40
1.0
 10
13.1087371705
 20
9.8723958963
 30
0.0
 10
13.1156382078
 20
9.8749318195
 30
0.0
 10
13.1195105248
 20
9.8775133604
 30
0.0
 10
13.1203345311
 20
9.8805346981
 30
0.0
  0
LINE
  5
2F3
100
AcDbEntity
  8
0
100
AcDbLine
 62
7
  6
CONTINUOUS
 10
13.1203345311
 20
9.8805346981
 11
13.1340543272
 21
9.9323341679
  0
LINE
  5
2F4
100
AcDbEntity
  8
0
100
AcDbLine
 62
7
  6
CONTINUOUS
 10
13.1340543272
 20
9.9323341679
 11
13.135860269
 21
9.9396854625
  0
SPLINE
  5
2F5
100
AcDbEntity
  8
0
100
AcDbSpline
 62
7
  6
CONTINUOUS
 70
0
 71
3
 72
8
 73
4
 74
0
 42
0.0000001
 43
0.0000001
 44
0.0000000001
 40
0.0
 40
0.0
 40
0.0
 40
0.0
 40
1.0
 40
1.0
 40
1.0
 40
1.0
 10
13.135860269
 20
9.9396854625
 30
0.0
 10
13.135860269
 20
9.9409762364
 30
0.0
 10
13.134569509
 20
9.9420518729
 30
0.0
 10
13.1324155658
 20
9.9426882662
 30
0.0
  0
SPLINE
  5
2F6
100
AcDbEntity
  8
0
100
AcDbSpline
 62
7
  6
CONTINUOUS
 70
0
 71
3
 72
8
 73
4
 74
0
 42
0.0000001
 43
0.0000001
 44
0.0000000001
 40
0.0
 40
0.0
 40
0.0
 40
0.0
 40
1.0
 40
1.0
 40
1.0
 40
1.0
 10
13.1324155658
 20
9.9426882662
 30
0.0
 10
13.1251038676
 20
9.9448485442
 30
0.0
 10
13.1210164177
 20
9.9459241899
 30
0.0
 10
13.1199407905
 20
9.9459241899
 30
0.0
  0
SPLINE
  5
2F7
100
AcDbEntity
  8
0
100
AcDbSpline
 62
7
  6
CONTINUOUS
 70
0
 71
3
 72
8
 73
4
 74
0
 42
0.0000001
 43
0.0000001
 44
0.0000000001
 40
0.0
 40
0.0
 40
0.0
 40
0.0
 40
1.0
 40
1.0
 40
1.0
 40
1.0
 10
13.1199407905
 20
9.9459241899
 30
0.0
 10
13.1190802592
 20
9.9459241899
 30
0.0
 10
13.1182197463
 20
9.9450636771
 30
0.0
 10
13.1175252106
 20
9.9433627725
 30
0.0
  0
SPLINE
  5
2F8
100
AcDbEntity
  8
0
100
AcDbSpline
 62
7
  6
CONTINUOUS
 70
0
 71
3
 72
8
 73
4
 74
0
 42
0.0000001
 43
0.0000001
 44
0.0000000001
 40
0.0
 40
0.0
 40
0.0
 40
0.0
 40
1.0
 40
1.0
 40
1.0
 40
1.0
 10
13.1175252106
 20
9.9433627725
 30
0.0
 10
13.1076784593
 20
9.9192482684
 30
0.0
 10
13.0949858808
 20
9.9022531257
 30
0.0
 10
13.0798948556
 20
9.8924064988
 30
0.0
  0
SPLINE
  5
2F9
100
AcDbEntity
  8
0
100
AcDbSpline
 62
7
  6
CONTINUOUS
 70
0
 71
3
 72
8
 73
4
 74
0
 42
0.0000001
 43
0.0000001
 44
0.0000000001
 40
0.0
 40
0.0
 40
0.0
 40
0.0
 40
1.0
 40
1.0
 40
1.0
 40
1.0
 10
13.0798948556
 20
9.8924064988
 30
0.0
 10
13.0646527797
 20
9.8824613139
 30
0.0
 10
13.0459366113
 20
9.8775133604
 30
0.0
 10
13.0237783914
 20
9.8775133604
 30
0.0
  0
SPLINE
  5
2FA
100
AcDbEntity
  8
0
100
AcDbSpline
 62
7
  6
CONTINUOUS
 70
0
 71
3
 72
8
 73
4
 74
0
 42
0.0000001
 43
0.0000001
 44
0.0000000001
 40
0.0
 40
0.0
 40
0.0
 40
0.0
 40
1.0
 40
1.0
 40
1.0
 40
1.0
 10
13.0237783914
 20
9.8775133604
 30
0.0
 10
12.9854855418
 20
9.8775133604
 30
0.0
 10
12.9551524406
 20
9.8912815776
 30
0.0
 10
12.932779088
 20
9.9192482684
 30
0.0
  0
SPLINE
  5
2FB
100
AcDbEntity
  8
0
100
AcDbSpline
 62
7
  6
CONTINUOUS
 70
0
 71
3
 72
8
 73
4
 74
0
 42
0.0000001
 43
0.0000001
 44
0.0000000001
 40
0.0
 40
0.0
 40
0.0
 40
0.0
 40
1.0
 40
1.0
 40
1.0
 40
1.0
 10
12.932779088
 20
9.9192482684
 30
0.0
 10
12.9104057353
 20
9.9472149592
 30
0.0
 10
12.899219059
 20
9.9796993425
 30
0.0
 10
12.899219059
 20
10.0167014229
 30
0.0
  0
SPLINE
  5
2FC
100
AcDbEntity
  8
0
100
AcDbSpline
 62
7
  6
CONTINUOUS
 70
0
 71
3
 72
8
 73
4
 74
0
 42
0.0000001
 43
0.0000001
 44
0.0000000001
 40
0.0
 40
0.0
 40
0.0
 40
0.0
 40
1.0
 40
1.0
 40
1.0
 40
1.0
 10
12.899219059
 20
10.0167014229
 30
0.0
 10
12.899219059
 20
10.0545640161
 30
0.0
 10
12.9099754789
 20
10.0864030286
 30
0.0
 10
12.9314883142
 20
10.1124335508
 30
0.0
  0
SPLINE
  5
2FD
100
AcDbEntity
  8
0
100
AcDbSpline
 62
7
  6
CONTINUOUS
 70
0
 71
3
 72
8
 73
4
 74
0
 42
0.0000001
 43
0.0000001
 44
0.0000000001
 40
0.0
 40
0.0
 40
0.0
 40
0.0
 40
1.0
 40
1.0
 40
1.0
 40
1.0
 10
12.9314883142
 20
10.1124335508
 30
0.0
 10
12.9530011585
 20
10.1384640839
 30
0.0
 10
12.979892199
 20
10.151586928
 30
0.0
 10
13.0125917244
 20
10.151586928
 30
0.0
  0
SPLINE
  5
2FE
100
AcDbEntity
  8
0
100
AcDbSpline
 62
7
  6
CONTINUOUS
 70
0
 71
3
 72
8
 73
4
 74
0
 42
0.0000001
 43
0.0000001
 44
0.0000000001
 40
0.0
 40
0.0
 40
0.0
 40
0.0
 40
1.0
 40
1.0
 40
1.0
 40
1.0
 10
13.0125917244
 20
10.151586928
 30
0.0
 10
13.0302322471
 20
10.151586928
 30
0.0
 10
13.0472273898
 20
10.1468540981
 30
0.0
 10
13.0635771542
 20
10.1376035741
 30
0.0
  0
SPLINE
  5
2FF
100
AcDbEntity
  8
0
100
AcDbSpline
 62
7
  6
CONTINUOUS
 70
0
 71
3
 72
8
 73
4
 74
0
 42
0.0000001
 43
0.0000001
 44
0.0000000001
 40
0.0
 40
0.0
 40
0.0
 40
0.0
 40
1.0
 40
1.0
 40
1.0
 40
1.0
 10
13.0635771542
 20
10.1376035741
 30
0.0
 10
13.0799268967
 20
10.1283530625
 30
0.0
 10
13.094125368
 20
10.1107125213
 30
0.0
 10
13.1065350044
 20
10.0846523132
 30
0.0
  0
SPLINE
  5
300
100
AcDbEntity
  8
0
100
AcDbSpline
 62
7
  6
CONTINUOUS
 70
0
 71
3
 72
8
 73
4
 74
0
 42
0.0000001
 43
0.0000001
 44
0.0000000001
 40
0.0
 40
0.0
 40
0.0
 40
0.0
 40
1.0
 40
1.0
 40
1.0
 40
1.0
 10
13.1065350044
 20
10.0846523132
 30
0.0
 10
13.1070330792
 20
10.0836063572
 30
0.0
 10
13.1076784593
 20
10.0831760916
 30
0.0
 10
13.1089692378
 20
10.0831760916
 30
0.0
  0
SPLINE
  5
301
100
AcDbEntity
  8
0
100
AcDbSpline
 62
7
  6
CONTINUOUS
 70
0
 71
3
 72
8
 73
4
 74
0
 42
0.0000001
 43
0.0000001
 44
0.0000000001
 40
0.0
 40
0.0
 40
0.0
 40
0.0
 40
1.0
 40
1.0
 40
1.0
 40
1.0
 10
10.537692342
 20
8.4129186319
 30
0.0
 10
10.537692342
 20
8.3779151665
 30
0.0
 10
10.5517659015
 20
8.3479637404
 30
0.0
 10
10.5798682658
 20
8.3233741725
 30
0.0
  0
SPLINE
  5
302
100
AcDbEntity
  8
0
100
AcDbSpline
 62
7
  6
CONTINUOUS
 70
0
 71
3
 72
8
 73
4
 74
0
 42
0.0000001
 43
0.0000001
 44
0.0000000001
 40
0.0
 40
0.0
 40
0.0
 40
0.0
 40
1.0
 40
1.0
 40
1.0
 40
1.0
 10
10.5798682658
 20
8.3233741725
 30
0.0
 10
10.5899728286
 20
8.3145326803
 30
0.0
 10
10.6006511194
 20
8.3072839869
 30
0.0
 10
10.6119218146
 20
8.3016221353
 30
0.0
  0
SPLINE
  5
303
100
AcDbEntity
  8
0
100
AcDbSpline
 62
7
  6
CONTINUOUS
 70
0
 71
3
 72
8
 73
4
 74
0
 42
0.0000001
 43
0.0000001
 44
0.0000000001
 40
0.0
 40
0.0
 40
0.0
 40
0.0
 40
1.0
 40
1.0
 40
1.0
 40
1.0
 10
10.6255225175
 20
8.5405641969
 30
0.0
 10
10.6084972112
 20
8.5335497627
 30
0.0
 10
10.5931870715
 20
8.5232179317
 30
0.0
 10
10.5795973024
 20
8.509584326
 30
0.0
  0
SPLINE
  5
304
100
AcDbEntity
  8
0
100
AcDbSpline
 62
7
  6
CONTINUOUS
 70
0
 71
3
 72
8
 73
4
 74
0
 42
0.0000001
 43
0.0000001
 44
0.0000000001
 40
0.0
 40
0.0
 40
0.0
 40
0.0
 40
1.0
 40
1.0
 40
1.0
 40
1.0
 10
10.5795973024
 20
8.509584326
 30
0.0
 10
10.5515854714
 20
8.4814821373
 30
0.0
 10
10.537692342
 20
8.4493655537
 30
0.0
 10
10.537692342
 20
8.4129186319
 30
0.0
  0
SPLINE
  5
305
100
AcDbEntity
  8
0
100
AcDbSpline
 62
7
  6
CONTINUOUS
 70
0
 71
3
 72
8
 73
4
 74
0
 42
0.0000001
 43
0.0000001
 44
0.0000000001
 40
0.0
 40
0.0
 40
0.0
 40
0.0
 40
1.0
 40
1.0
 40
1.0
 40
1.0
 10
11.2506926096
 20
8.5260796392
 30
0.0
 10
11.2545635849
 20
8.5254053477
 30
0.0
 10
11.2580118049
 20
8.5246104444
 30
0.0
 10
11.2610372711
 20
8.5237028059
 30
0.0
  0
SPLINE
  5
306
100
AcDbEntity
  8
0
100
AcDbSpline
 62
7
  6
CONTINUOUS
 70
0
 71
3
 72
8
 73
4
 74
0
 42
0.0000001
 43
0.0000001
 44
0.0000000001
 40
0.0
 40
0.0
 40
0.0
 40
0.0
 40
1.0
 40
1.0
 40
1.0
 40
1.0
 10
11.2610372711
 20
8.5237028059
 30
0.0
 10
11.2718630629
 20
8.520455073
 30
0.0
 10
11.2772759896
 20
8.5103509711
 30
0.0
 10
11.2772759896
 20
8.4935709666
 30
0.0
  0
SPLINE
  5
307
100
AcDbEntity
  8
0
100
AcDbSpline
 62
7
  6
CONTINUOUS
 70
0
 71
3
 72
8
 73
4
 74
0
 42
0.0000001
 43
0.0000001
 44
0.0000000001
 40
0.0
 40
0.0
 40
0.0
 40
0.0
 40
1.0
 40
1.0
 40
1.0
 40
1.0
 10
11.2772759896
 20
8.4935709666
 30
0.0
 10
11.2772759896
 20
8.4912253712
 30
0.0
 10
11.27853895
 20
8.4901427828
 30
0.0
 10
11.2810649949
 20
8.4901427828
 30
0.0
  0
SPLINE
  5
308
100
AcDbEntity
  8
0
100
AcDbSpline
 62
7
  6
CONTINUOUS
 70
0
 71
3
 72
8
 73
4
 74
0
 42
0.0000001
 43
0.0000001
 44
0.0000000001
 40
0.0
 40
0.0
 40
0.0
 40
0.0
 40
1.0
 40
1.0
 40
1.0
 40
1.0
 10
11.2899060898
 20
8.4901427828
 30
0.0
 10
11.2917103987
 20
8.4901427828
 30
0.0
 10
11.2926125222
 20
8.4923079442
 30
0.0
 10
11.2926125222
 20
8.4969991349
 30
0.0
  0
SPLINE
  5
309
100
AcDbEntity
  8
0
100
AcDbSpline
 62
7
  6
CONTINUOUS
 70
0
 71
3
 72
8
 73
4
 74
0
 42
0.0000001
 43
0.0000001
 44
0.0000000001
 40
0.0
 40
0.0
 40
0.0
 40
0.0
 40
1.0
 40
1.0
 40
1.0
 40
1.0
 10
11.2926125222
 20
8.5384980999
 30
0.0
 10
11.2926125222
 20
8.545174018
 30
0.0
 10
11.2897256403
 20
8.5486021863
 30
0.0
 10
11.2839518767
 20
8.5486021863
 30
0.0
  0
LINE
  5
30A
100
AcDbEntity
  8
0
100
AcDbLine
 62
7
  6
CONTINUOUS
 10
11.2839518767
 20
8.5486021863
 11
11.249420784
 21
8.5479097686
  0
SPLINE
  5
30B
100
AcDbEntity
  8
0
100
AcDbSpline
 62
7
  6
CONTINUOUS
 70
0
 71
3
 72
8
 73
4
 74
0
 42
0.0000001
 43
0.0000001
 44
0.0000000001
 40
0.0
 40
0.0
 40
0.0
 40
0.0
 40
1.0
 40
1.0
 40
1.0
 40
1.0
 10
11.2577290415
 20
8.4012867703
 30
0.0
 10
11.2590523827
 20
8.3976107011
 30
0.0
 10
11.2599195563
 20
8.3930564194
 30
0.0
 10
11.2602795597
 20
8.3876562022
 30
0.0
  0
SPLINE
  5
30C
100
AcDbEntity
  8
0
100
AcDbSpline
 62
7
  6
CONTINUOUS
 70
0
 71
3
 72
8
 73
4
 74
0
 42
0.0000001
 43
0.0000001
 44
0.0000000001
 40
0.0
 40
0.0
 40
0.0
 40
0.0
 40
1.0
 40
1.0
 40
1.0
 40
1.0
 10
11.2602795597
 20
8.3876562022
 30
0.0
 10
11.2604959231
 20
8.3844106506
 30
0.0
 10
11.261939395
 20
8.3829672097
 30
0.0
 10
11.2648262768
 20
8.3829672097
 30
0.0
  0
SPLINE
  5
30D
100
AcDbEntity
  8
0
100
AcDbSpline
 62
7
  6
CONTINUOUS
 70
0
 71
3
 72
8
 73
4
 74
0
 42
0.0000001
 43
0.0000001
 44
0.0000000001
 40
0.0
 40
0.0
 40
0.0
 40
0.0
 40
1.0
 40
1.0
 40
1.0
 40
1.0
 10
11.2722238999
 20
8.3829672097
 30
0.0
 10
11.2743891078
 20
8.3829672097
 30
0.0
 10
11.2756520682
 20
8.3844106506
 30
0.0
 10
11.2756520682
 20
8.3876584004
 30
0.0
  0
LINE
  5
30E
100
AcDbEntity
  8
0
100
AcDbLine
 62
7
  6
CONTINUOUS
 10
11.2756520682
 20
8.3876584004
 11
11.2743890769
 21
8.4057014251
  0
SPLINE
  5
30F
100
AcDbEntity
  8
0
100
AcDbSpline
 62
7
  6
CONTINUOUS
 70
0
 71
3
 72
8
 73
4
 74
0
 42
0.0000001
 43
0.0000001
 44
0.0000000001
 40
0.0
 40
0.0
 40
0.0
 40
0.0
 40
1.0
 40
1.0
 40
1.0
 40
1.0
 10
11.2743890769
 20
8.4057014251
 30
0.0
 10
11.2736673718
 20
8.4158055215
 30
0.0
 10
11.2733064728
 20
8.4239248728
 30
0.0
 10
11.2733064728
 20
8.4304203724
 30
0.0
  0
SPLINE
  5
310
100
AcDbEntity
  8
0
100
AcDbSpline
 62
7
  6
CONTINUOUS
 70
0
 71
3
 72
8
 73
4
 74
0
 42
0.0000001
 43
0.0000001
 44
0.0000000001
 40
0.0
 40
0.0
 40
0.0
 40
0.0
 40
1.0
 40
1.0
 40
1.0
 40
1.0
 10
11.2733064728
 20
8.4304203724
 30
0.0
 10
11.2733064728
 20
8.4352919816
 30
0.0
 10
11.2736673718
 20
8.4403440403
 30
0.0
 10
11.2743890763
 20
8.4457569402
 30
0.0
  0
SPLINE
  5
311
100
AcDbEntity
  8
0
100
AcDbSpline
 62
7
  6
CONTINUOUS
 70
0
 71
3
 72
8
 73
4
 74
0
 42
0.0000001
 43
0.0000001
 44
0.0000000001
 40
0.0
 40
0.0
 40
0.0
 40
0.0
 40
1.0
 40
1.0
 40
1.0
 40
1.0
 10
11.2743890763
 20
8.4457569402
 30
0.0
 10
11.2751107817
 20
8.4511698471
 30
0.0
 10
11.2756520682
 20
8.4547784494
 30
0.0
 10
11.2756520682
 20
8.4565827583
 30
0.0
  0
SPLINE
  5
312
100
AcDbEntity
  8
0
100
AcDbSpline
 62
7
  6
CONTINUOUS
 70
0
 71
3
 72
8
 73
4
 74
0
 42
0.0000001
 43
0.0000001
 44
0.0000000001
 40
0.0
 40
0.0
 40
0.0
 40
0.0
 40
1.0
 40
1.0
 40
1.0
 40
1.0
 10
11.2756520682
 20
8.4565827583
 30
0.0
 10
11.2756520682
 20
8.4589283537
 30
0.0
 10
11.2740282088
 20
8.4601913606
 30
0.0
 10
11.2709608775
 20
8.4601913606
 30
0.0
  0
SPLINE
  5
313
100
AcDbEntity
  8
0
100
AcDbSpline
 62
7
  6
CONTINUOUS
 70
0
 71
3
 72
8
 73
4
 74
0
 42
0.0000001
 43
0.0000001
 44
0.0000000001
 40
0.0
 40
0.0
 40
0.0
 40
0.0
 40
1.0
 40
1.0
 40
1.0
 40
1.0
 10
11.2641045409
 20
8.4601913606
 30
0.0
 10
11.2617589455
 20
8.4601913606
 30
0.0
 10
11.2604959231
 20
8.4589283537
 30
0.0
 10
11.2602298531
 20
8.4565928318
 30
0.0
  0
SPLINE
  5
314
100
AcDbEntity
  8
0
100
AcDbSpline
 62
7
  6
CONTINUOUS
 70
0
 71
3
 72
8
 73
4
 74
0
 42
0.0000001
 43
0.0000001
 44
0.0000000001
 40
0.0
 40
0.0
 40
0.0
 40
0.0
 40
1.0
 40
1.0
 40
1.0
 40
1.0
 10
11.2602298531
 20
8.4565928318
 30
0.0
 10
11.2592428508
 20
8.4479290757
 30
0.0
 10
11.2577338813
 20
8.4419401957
 30
0.0
 10
11.2556124521
 20
8.4385271105
 30
0.0
  0
LINE
  5
315
100
AcDbEntity
  8
0
100
AcDbLine
 62
7
  6
CONTINUOUS
 10
10.6443523224
 20
8.9147188874
 11
9.8080207522
 21
8.915007896
  0
SPLINE
  5
316
100
AcDbEntity
  8
0
100
AcDbSpline
 62
7
  6
CONTINUOUS
 70
0
 71
3
 72
9
 73
5
 74
0
 42
0.0000001
 43
0.0000001
 44
0.0000000001
 40
0.0
 40
0.0
 40
0.0
 40
0.0
 40
0.5000000013
 40
1.0
 40
1.0
 40
1.0
 40
1.0
 10
9.7880307593
 20
8.9349978894
 30
0.0
 10
9.787842423
 20
9.3115142061
 30
0.0
 10
9.7875927545
 20
10.0646695039
 30
0.0
 10
9.787842423
 20
10.8178247871
 30
0.0
 10
9.7880307593
 20
11.1943410946
 30
0.0
  0
SPLINE
  5
317
100
AcDbEntity
  8
0
100
AcDbSpline
 62
7
  6
CONTINUOUS
 70
0
 71
3
 72
9
 73
5
 74
0
 42
0.0000001
 43
0.0000001
 44
0.0000000001
 40
0.0
 40
0.0
 40
0.0
 40
0.0
 40
0.5
 40
1.0
 40
1.0
 40
1.0
 40
1.0
 10
9.8080207527
 20
11.2143310879
 30
0.0
 10
10.1845370612
 20
11.2145194232
 30
0.0
 10
10.9376923427
 20
11.2147690882
 30
0.0
 10
11.6908476243
 20
11.2145194232
 30
0.0
 10
12.0673639328
 20
11.2143310879
 30
0.0
  0
SPLINE
  5
318
100
AcDbEntity
  8
0
100
AcDbSpline
 62
7
  6
CONTINUOUS
 70
0
 71
3
 72
9
 73
5
 74
0
 42
0.0000001
 43
0.0000001
 44
0.0000000001
 40
0.0
 40
0.0
 40
0.0
 40
0.0
 40
0.4999999987
 40
1.0
 40
1.0
 40
1.0
 40
1.0
 10
12.0873539262
 20
11.1943410946
 30
0.0
 10
12.0875422624
 20
10.8178247871
 30
0.0
 10
12.087791931
 20
10.0646695039
 30
0.0
 10
12.0875422624
 20
9.3115142061
 30
0.0
 10
12.0873539262
 20
8.9349978894
 30
0.0
  0
LINE
  5
319
100
AcDbEntity
  8
0
100
AcDbLine
 62
7
  6
CONTINUOUS
 10
12.0673639332
 20
8.915007896
 11
11.2310196087
 21
8.9147188854
  0
SPLINE
  5
31A
100
AcDbEntity
  8
0
100
AcDbSpline
 62
7
  6
CONTINUOUS
 70
0
 71
3
 72
8
 73
4
 74
0
 42
0.0000001
 43
0.0000001
 44
0.0000000001
 40
0.0
 40
0.0
 40
0.0
 40
0.0
 40
1.0
 40
1.0
 40
1.0
 40
1.0
 10
10.6146879678
 20
8.3494824125
 30
0.0
 10
10.5977595893
 20
8.3779590964
 30
0.0
 10
10.5892953943
 20
8.4076486734
 30
0.0
 10
10.5892953943
 20
8.4387201654
 30
0.0
  0
SPLINE
  5
31B
100
AcDbEntity
  8
0
100
AcDbSpline
 62
7
  6
CONTINUOUS
 70
0
 71
3
 72
8
 73
4
 74
0
 42
0.0000001
 43
0.0000001
 44
0.0000000001
 40
0.0
 40
0.0
 40
0.0
 40
0.0
 40
1.0
 40
1.0
 40
1.0
 40
1.0
 10
10.6140143414
 20
8.5081858078
 30
0.0
 10
10.6171922049
 20
8.5114672973
 30
0.0
 10
10.6205287757
 20
8.5144379854
 30
0.0
 10
10.6240253196
 20
8.5170966061
 30
0.0
  0
SPLINE
  5
31C
100
AcDbEntity
  8
0
100
AcDbSpline
 62
7
  6
CONTINUOUS
 70
0
 71
3
 72
8
 73
4
 74
0
 42
0.0000001
 43
0.0000001
 44
0.0000000001
 40
0.0
 40
0.0
 40
0.0
 40
0.0
 40
1.0
 40
1.0
 40
1.0
 40
1.0
 10
10.5892953943
 20
8.4387201654
 30
0.0
 10
10.5892953943
 20
8.4679498671
 30
0.0
 10
10.5974147611
 20
8.4910449373
 30
0.0
 10
10.6140143414
 20
8.5081858078
 30
0.0
  0
LINE
  5
31D
100
AcDbEntity
  8
0
100
AcDbLine
 62
7
  6
CONTINUOUS
 10
10.5625600276
 20
7.17778348
 11
10.5625605632
 21
7.1791231547
  0
LINE
  5
31E
100
AcDbEntity
  8
0
100
AcDbLine
 62
7
  6
CONTINUOUS
 10
10.5625605632
 20
7.1791231547
 11
10.562567425
 21
7.1805660046
  0
LINE
  5
31F
100
AcDbEntity
  8
0
100
AcDbLine
 62
7
  6
CONTINUOUS
 10
10.6576973543
 20
9.4643649767
 11
10.6576923425
 21
9.4661695908
  0
LINE
  5
320
100
AcDbEntity
  8
0
100
AcDbLine
 62
7
  6
CONTINUOUS
 10
10.5640298374
 20
7.158350419
 11
10.5658376408
 21
7.1768449464
  0
LINE
  5
321
100
AcDbEntity
  8
0
100
AcDbLine
 62
7
  6
CONTINUOUS
 10
11.3113548481
 20
7.1583504189
 11
11.3095478543
 21
7.1768366055
  0
LINE
  5
322
100
AcDbEntity
  8
0
100
AcDbLine
 62
7
  6
CONTINUOUS
 10
11.217692343
 20
9.4661695831
 11
11.2176877814
 21
9.4645322244
  0
LINE
  5
323
100
AcDbEntity
  8
0
100
AcDbLine
 62
7
  6
CONTINUOUS
 10
11.3128172605
 20
7.1805660048
 11
11.3128246579
 21
7.17778348
  0
LINE
  5
324
100
AcDbEntity
  8
0
100
AcDbLine
 62
9
  6
CONTINUOUS
 10
11.8830758533
 20
9.1392100451
 11
11.8806934577
 21
9.1410604083
  0
LINE
  5
325
100
AcDbEntity
  8
0
100
AcDbLine
 62
9
  6
CONTINUOUS
 10
11.8806934577
 20
9.1410604083
 11
11.8702400923
 21
9.1491893094
  0
LINE
  5
326
100
AcDbEntity
  8
0
100
AcDbLine
 62
9
  6
CONTINUOUS
 10
9.9923068161
 20
9.1392098882
 11
9.9946938803
 21
9.1410635608
  0
LINE
  5
327
100
AcDbEntity
  8
0
100
AcDbLine
 62
9
  6
CONTINUOUS
 10
9.9946938803
 20
9.1410635608
 11
10.0051424374
 21
9.1491891972
  0
LINE
  5
328
100
AcDbEntity
  8
0
100
AcDbLine
 62
9
  6
CONTINUOUS
 10
11.8631506129
 20
9.1192847935
 11
11.8612967274
 21
9.1216719198
  0
LINE
  5
329
100
AcDbEntity
  8
0
100
AcDbLine
 62
9
  6
CONTINUOUS
 10
11.8612967274
 20
9.1216719198
 11
11.8531714173
 21
9.1321205862
  0
SPLINE
  5
32A
100
AcDbEntity
  8
0
100
AcDbSpline
 62
9
  6
CONTINUOUS
 70
0
 71
3
 72
11
 73
7
 74
0
 42
0.0000001
 43
0.0000001
 44
0.0000000001
 40
0.0
 40
0.0
 40
0.0
 40
0.0
 40
0.2445444554
 40
0.4999994542
 40
0.7554547533
 40
1.0
 40
1.0
 40
1.0
 40
1.0
 10
9.9616832668
 20
11.0575246707
 30
0.0
 10
9.9597453772
 20
11.056968167
 30
0.0
 10
9.9559361134
 20
11.0552500616
 30
0.0
 10
9.9510064057
 20
11.0513532507
 30
0.0
 10
9.9471095534
 20
11.0464235676
 30
0.0
 10
9.9453914125
 20
11.0426143102
 30
0.0
 10
9.9448348899
 20
11.0406764192
 30
0.0
  0
SPLINE
  5
32B
100
AcDbEntity
  8
0
100
AcDbSpline
 62
9
  6
CONTINUOUS
 70
0
 71
3
 72
11
 73
7
 74
0
 42
0.0000001
 43
0.0000001
 44
0.0000000001
 40
0.0
 40
0.0
 40
0.0
 40
0.0
 40
0.2447125512
 40
0.4999988369
 40
0.7552857248
 40
1.0
 40
1.0
 40
1.0
 40
1.0
 10
10.0222120911
 20
10.9972184416
 30
0.0
 10
10.0202321667
 20
10.9966881249
 30
0.0
 10
10.0163354079
 20
10.9949934331
 30
0.0
 10
10.0113075912
 20
10.9910547154
 30
0.0
 10
10.0073689579
 20
10.9860268152
 30
0.0
 10
10.0056743198
 20
10.9821300129
 30
0.0
 10
10.0051440276
 20
10.9801500669
 30
0.0
  0
LINE
  5
32C
100
AcDbEntity
  8
0
100
AcDbLine
 62
9
  6
CONTINUOUS
 10
9.7883193713
 20
8.9316224477
 11
9.7898773207
 21
8.9331852854
  0
LINE
  5
32D
100
AcDbEntity
  8
0
100
AcDbLine
 62
9
  6
CONTINUOUS
 10
9.7898773207
 20
8.9331852854
 11
9.9448368015
 21
9.0886622785
  0
SPLINE
  5
32E
100
AcDbEntity
  8
0
100
AcDbSpline
 62
9
  6
CONTINUOUS
 70
0
 71
3
 72
11
 73
7
 74
0
 42
0.0000001
 43
0.0000001
 44
0.0000000001
 40
0.0
 40
0.0
 40
0.0
 40
0.0
 40
0.2445450087
 40
0.500000227
 40
0.7554553189
 40
1.0
 40
1.0
 40
1.0
 40
1.0
 10
9.944837701
 20
9.0886620815
 30
0.0
 10
9.9453942113
 20
9.0867241942
 30
0.0
 10
9.9471123262
 20
9.0829149397
 30
0.0
 10
9.9510091396
 20
9.0779852483
 30
0.0
 10
9.9559388133
 20
9.0740884168
 30
0.0
 10
9.9597480597
 20
9.0723702915
 30
0.0
 10
9.9616859431
 20
9.0718137777
 30
0.0
  0
SPLINE
  5
32F
100
AcDbEntity
  8
0
100
AcDbSpline
 62
9
  6
CONTINUOUS
 70
0
 71
3
 72
11
 73
7
 74
0
 42
0.0000001
 43
0.0000001
 44
0.0000000001
 40
0.0
 40
0.0
 40
0.0
 40
0.0
 40
0.2447127218
 40
0.4999990606
 40
0.7552858958
 40
1.0
 40
1.0
 40
1.0
 40
1.0
 10
10.0051434648
 20
9.1491891558
 30
0.0
 10
10.0056737837
 20
9.1472092126
 30
0.0
 10
10.0073684853
 20
9.1433124172
 30
0.0
 10
10.0113072292
 20
9.138284551
 30
0.0
 10
10.0163351648
 20
9.1343458779
 30
0.0
 10
10.0202319962
 20
9.1326512215
 30
0.0
 10
10.0222119568
 20
9.1321209229
 30
0.0
  0
SPLINE
  5
330
100
AcDbEntity
  8
0
100
AcDbSpline
 62
9
  6
CONTINUOUS
 70
0
 71
3
 72
11
 73
7
 74
0
 42
0.0000001
 43
0.0000001
 44
0.0000000001
 40
0.0
 40
0.0
 40
0.0
 40
0.0
 40
0.2445444993
 40
0.4999995897
 40
0.7554549039
 40
1.0
 40
1.0
 40
1.0
 40
1.0
 10
11.9305474602
 20
11.0406780279
 30
0.0
 10
11.9299909497
 20
11.0426159239
 30
0.0
 10
11.9282728259
 20
11.0464251982
 30
0.0
 10
11.9243759822
 20
11.0513549122
 30
0.0
 10
11.9194462654
 20
11.0552517599
 30
0.0
 10
11.9156369866
 20
11.0569698897
 30
0.0
 10
11.9136990865
 20
11.0575264039
 30
0.0
  0
SPLINE
  5
331
100
AcDbEntity
  8
0
100
AcDbSpline
 62
9
  6
CONTINUOUS
 70
0
 71
3
 72
11
 73
7
 74
0
 42
0.0000001
 43
0.0000001
 44
0.0000000001
 40
0.0
 40
0.0
 40
0.0
 40
0.0
 40
0.244711473
 40
0.4999974132
 40
0.7552847326
 40
1.0
 40
1.0
 40
1.0
 40
1.0
 10
11.8702413396
 20
10.9801494879
 30
0.0
 10
11.8697110081
 20
10.982129399
 30
0.0
 10
11.8680162832
 20
10.9860261311
 30
0.0
 10
11.8640775135
 20
10.991053897
 30
0.0
 10
11.8590495618
 20
10.9949924786
 30
0.0
 10
11.8551527325
 20
10.9966870833
 30
0.0
 10
11.8531727739
 20
10.9972173602
 30
0.0
  0
SPLINE
  5
332
100
AcDbEntity
  8
0
100
AcDbSpline
 62
9
  6
CONTINUOUS
 70
0
 71
3
 72
14
 73
10
 74
0
 42
0.0000001
 43
0.0000001
 44
0.0000000001
 40
0.0
 40
0.0
 40
0.0
 40
0.0
 40
0.0605883839
 40
0.1323187262
 40
0.2218602543
 40
0.3324742581
 40
0.4656046074
 40
0.6214933015
 40
1.0
 40
1.0
 40
1.0
 40
1.0
 10
10.5625674388
 20
7.1805700059
 30
0.0
 10
10.562568309
 20
7.1806601522
 30
0.0
 10
10.5626215371
 20
7.1808576123
 30
0.0
 10
10.5628260675
 20
7.1811229837
 30
0.0
 10
10.5631434013
 20
7.1813775292
 30
0.0
 10
10.563574986
 20
7.181624493
 30
0.0
 10
10.5641201867
 20
7.181863729
 30
0.0
 10
10.5650579102
 20
7.1821930002
 30
0.0
 10
10.5658299409
 20
7.1823897911
 30
0.0
 10
10.5663795865
 20
7.1825125458
 30
0.0
  0
SPLINE
  5
333
100
AcDbEntity
  8
0
100
AcDbSpline
 62
9
  6
CONTINUOUS
 70
0
 71
3
 72
12
 73
8
 74
0
 42
0.0000001
 43
0.0000001
 44
0.0000000001
 40
0.0
 40
0.0
 40
0.0
 40
0.0
 40
0.0936629585
 40
0.1992719087
 40
0.4409005458
 40
0.7128065662
 40
1.0
 40
1.0
 40
1.0
 40
1.0
 10
10.5663795865
 20
7.1825125458
 30
0.0
 10
10.566873776
 20
7.1826229153
 30
0.0
 10
10.5679319909
 20
7.1828274831
 30
0.0
 10
10.5702891946
 20
7.1831842249
 30
0.0
 10
10.573622107
 20
7.1835158174
 30
0.0
 10
10.5779464146
 20
7.1837384621
 30
0.0
 10
10.5809698598
 20
7.1837704086
 30
0.0
 10
10.582522434
 20
7.183756581
 30
0.0
  0
SPLINE
  5
334
100
AcDbEntity
  8
0
100
AcDbSpline
 62
9
  6
CONTINUOUS
 70
0
 71
3
 72
11
 73
7
 74
0
 42
0.0000001
 43
0.0000001
 44
0.0000000001
 40
0.0
 40
0.0
 40
0.0
 40
0.0
 40
0.2445443303
 40
0.4999993351
 40
0.7554547055
 40
1.0
 40
1.0
 40
1.0
 40
1.0
 10
11.913700933
 20
9.0718134149
 30
0.0
 10
11.915638842
 20
9.0723699345
 30
0.0
 10
11.9194481405
 20
9.0740880827
 30
0.0
 10
11.9243778803
 20
9.0779849735
 30
0.0
 10
11.9282747435
 20
9.0829147449
 30
0.0
 10
11.9299928757
 20
9.0867240621
 30
0.0
 10
11.9305493893
 20
9.0886619811
 30
0.0
  0
SPLINE
  5
335
100
AcDbEntity
  8
0
100
AcDbSpline
 62
9
  6
CONTINUOUS
 70
0
 71
3
 72
11
 73
7
 74
0
 42
0.0000001
 43
0.0000001
 44
0.0000000001
 40
0.0
 40
0.0
 40
0.0
 40
0.0
 40
0.2447123418
 40
0.4999988177
 40
0.755285936
 40
1.0
 40
1.0
 40
1.0
 40
1.0
 10
11.8531722389
 20
9.1321203351
 30
0.0
 10
11.855152227
 20
9.1326506785
 30
0.0
 10
11.859049112
 20
9.1343454424
 30
0.0
 10
11.8640770962
 20
9.1382843019
 30
0.0
 10
11.868015871
 20
9.1433123699
 30
0.0
 10
11.8697105807
 20
9.147209299
 30
0.0
 10
11.8702408994
 20
9.1491893087
 30
0.0
  0
LINE
  5
336
100
AcDbEntity
  8
0
100
AcDbLine
 62
9
  6
CONTINUOUS
 10
9.9616833369
 20
11.0575245755
 11
9.9840401435
 21
11.0240066761
  0
LINE
  5
337
100
AcDbEntity
  8
0
100
AcDbLine
 62
9
  6
CONTINUOUS
 10
11.9136991208
 20
11.0575268764
 11
11.8913406776
 21
11.0240074606
  0
LINE
  5
338
100
AcDbEntity
  8
0
100
AcDbLine
 62
9
  6
CONTINUOUS
 10
11.9137008868
 20
9.0718134777
 11
11.8913437085
 21
9.105331883
  0
LINE
  5
339
100
AcDbEntity
  8
0
100
AcDbLine
 62
9
  6
CONTINUOUS
 10
9.9448342883
 20
11.0406764521
 11
9.9783541204
 21
11.0183176179
  0
LINE
  5
33A
100
AcDbEntity
  8
0
100
AcDbLine
 62
9
  6
CONTINUOUS
 10
9.9448376476
 20
9.0886620421
 11
9.9783552763
 21
9.1110194579
  0
LINE
  5
33B
100
AcDbEntity
  8
0
100
AcDbLine
 62
9
  6
CONTINUOUS
 10
11.9305474081
 20
11.0406779896
 11
11.8970295019
 21
11.0183209649
  0
LINE
  5
33C
100
AcDbEntity
  8
0
100
AcDbLine
 62
9
  6
CONTINUOUS
 10
11.9305496706
 20
9.0886619792
 11
11.8970302709
 21
9.1110204918
  0
LINE
  5
33D
100
AcDbEntity
  8
0
100
AcDbLine
 62
9
  6
CONTINUOUS
 10
9.9616858746
 20
9.0718134707
 11
9.9840433976
 21
9.1053318742
  0
LINE
  5
33E
100
AcDbEntity
  8
0
100
AcDbLine
 62
9
  6
CONTINUOUS
 10
11.8913429865
 20
9.1053318803
 11
11.870310113
 21
9.1158280555
  0
LINE
  5
33F
100
AcDbEntity
  8
0
100
AcDbLine
 62
9
  6
CONTINUOUS
 10
11.870310113
 20
9.1158280555
 11
11.8632550456
 21
9.1193490143
  0
LINE
  5
340
100
AcDbEntity
  8
0
100
AcDbLine
 62
9
  6
CONTINUOUS
 10
10.6546853688
 20
9.1035957612
 11
10.6489357739
 21
9.1036034794
  0
LINE
  5
341
100
AcDbEntity
  8
0
100
AcDbLine
 62
9
  6
CONTINUOUS
 10
9.98404258
 20
9.1053318771
 11
10.0050790064
 21
9.115830267
  0
LINE
  5
342
100
AcDbEntity
  8
0
100
AcDbLine
 62
9
  6
CONTINUOUS
 10
10.0050790064
 20
9.115830267
 11
10.0121309138
 21
9.119349615
  0
LINE
  5
343
100
AcDbEntity
  8
0
100
AcDbLine
 62
9
  6
CONTINUOUS
 10
9.9783543711
 20
11.0183194653
 11
9.9888520799
 21
10.9972852952
  0
LINE
  5
344
100
AcDbEntity
  8
0
100
AcDbLine
 62
9
  6
CONTINUOUS
 10
9.9888520799
 20
10.9972852952
 11
9.9923725835
 21
10.9902310894
  0
LINE
  5
345
100
AcDbEntity
  8
0
100
AcDbLine
 62
9
  6
CONTINUOUS
 10
9.9783551675
 20
9.1110198849
 11
9.9888535743
 21
9.1320565743
  0
LINE
  5
346
100
AcDbEntity
  8
0
100
AcDbLine
 62
9
  6
CONTINUOUS
 10
9.9888535743
 20
9.1320565743
 11
9.9923718509
 21
9.1391064704
  0
LINE
  5
347
100
AcDbEntity
  8
0
100
AcDbLine
 62
9
  6
CONTINUOUS
 10
9.9840418994
 20
11.024006761
 11
10.0050796289
 21
11.013508266
  0
LINE
  5
348
100
AcDbEntity
  8
0
100
AcDbLine
 62
9
  6
CONTINUOUS
 10
10.0050796289
 20
11.013508266
 11
10.0121287826
 21
11.0099903842
  0
LINE
  5
349
100
AcDbEntity
  8
0
100
AcDbLine
 62
9
  6
CONTINUOUS
 10
11.8913421283
 20
11.0240072974
 11
11.8703073772
 21
11.0135094221
  0
LINE
  5
34A
100
AcDbEntity
  8
0
100
AcDbLine
 62
9
  6
CONTINUOUS
 10
11.8703073772
 20
11.0135094221
 11
11.8632523883
 21
11.0099885311
  0
LINE
  5
34B
100
AcDbEntity
  8
0
100
AcDbLine
 62
9
  6
CONTINUOUS
 10
11.897029584
 20
11.0183197485
 11
11.8865321371
 21
10.9972843517
  0
LINE
  5
34C
100
AcDbEntity
  8
0
100
AcDbLine
 62
9
  6
CONTINUOUS
 10
11.8865321371
 20
10.9972843517
 11
11.8830131613
 21
10.990233022
  0
LINE
  5
34D
100
AcDbEntity
  8
0
100
AcDbLine
 62
9
  6
CONTINUOUS
 10
11.8970301112
 20
9.1110194515
 11
11.886531315
 21
9.1320561659
  0
LINE
  5
34E
100
AcDbEntity
  8
0
100
AcDbLine
 62
9
  6
CONTINUOUS
 10
11.886531315
 20
9.1320561659
 11
11.8830112687
 21
9.1391096069
  0
LINE
  5
34F
100
AcDbEntity
  8
0
100
AcDbLine
 62
9
  6
CONTINUOUS
 10
10.0222124359
 20
9.1321697078
 11
10.6495840609
 21
9.1303193528
  0
LINE
  5
350
100
AcDbEntity
  8
0
100
AcDbLine
 62
9
  6
CONTINUOUS
 10
10.6495840609
 20
9.1303193528
 11
10.6550865544
 21
9.1303107354
  0
LINE
  5
351
100
AcDbEntity
  8
0
100
AcDbLine
 62
9
  6
CONTINUOUS
 10
10.022212234
 20
9.1321205902
 11
10.6578455703
 21
9.7648298707
  0
SPLINE
  5
352
100
AcDbEntity
  8
0
100
AcDbSpline
 62
9
  6
CONTINUOUS
 70
0
 71
3
 72
20
 73
16
 74
0
 42
0.0000001
 43
0.0000001
 44
0.0000000001
 40
0.0
 40
0.0
 40
0.0
 40
0.0
 40
0.1997429323
 40
0.3830154732
 40
0.5472883144
 40
0.6214430857
 40
0.6898264456
 40
0.7521664124
 40
0.808192914
 40
0.8576319836
 40
0.9002527609
 40
0.9358777858
 40
0.9644056671
 40
0.9857892449
 40
1.0
 40
1.0
 40
1.0
 40
1.0
 10
10.0051436039
 20
10.9801496894
 30
0.0
 10
10.0486065005
 20
10.9365241637
 30
0.0
 10
10.1319397191
 20
10.8528617013
 30
0.0
 10
10.2509849994
 20
10.7332880631
 30
0.0
 10
10.3426951691
 20
10.6411361111
 30
0.0
 10
10.4094082724
 20
10.574079065
 30
0.0
 10
10.4539517298
 20
10.5292953222
 30
0.0
 10
10.4945535989
 20
10.4884739489
 30
0.0
 10
10.5310394898
 20
10.4517963255
 30
0.0
 10
10.5632388066
 20
10.4194297253
 30
0.0
 10
10.591004353
 20
10.3915244227
 30
0.0
 10
10.6142319577
 20
10.3681984548
 30
0.0
 10
10.6328509727
 20
10.349523316
 30
0.0
 10
10.6468206074
 20
10.3355354682
 30
0.0
 10
10.6545849652
 20
10.327780556
 30
0.0
 10
10.6576923424
 20
10.324692026
 30
0.0
  0
SPLINE
  5
353
100
AcDbEntity
  8
0
100
AcDbSpline
 62
9
  6
CONTINUOUS
 70
0
 71
3
 72
18
 73
14
 74
0
 42
0.0000001
 43
0.0000001
 44
0.0000000001
 40
0.0
 40
0.0
 40
0.0
 40
0.0
 40
0.1997430265
 40
0.3830142532
 40
0.5472897847
 40
0.6898262584
 40
0.8081933454
 40
0.8576328503
 40
0.9002525014
 40
0.9358771503
 40
0.9644055565
 40
0.9857893391
 40
1.0
 40
1.0
 40
1.0
 40
1.0
 10
10.0051434707
 20
9.1491891338
 30
0.0
 10
10.0486063439
 20
9.1928147489
 30
0.0
 10
10.1319385799
 20
9.2764777067
 30
0.0
 10
10.2509872841
 20
9.3960486445
 30
0.0
 10
10.357565386
 20
9.5031478687
 30
0.0
 10
10.4500114299
 20
9.5960807193
 30
0.0
 10
10.5174846342
 20
9.6639176607
 30
0.0
 10
10.5632380352
 20
9.7099105061
 30
0.0
 10
10.591004548
 20
9.7378143991
 30
0.0
 10
10.6142323392
 20
9.7611397691
 30
0.0
 10
10.6328508818
 20
9.7798155434
 30
0.0
 10
10.6468204934
 20
9.7938036996
 30
0.0
 10
10.6545849905
 20
9.8015585249
 30
0.0
 10
10.6576923424
 20
9.8046470409
 30
0.0
  0
LINE
  5
354
100
AcDbEntity
  8
0
100
AcDbLine
 62
9
  6
CONTINUOUS
 10
10.0222122814
 20
10.9972184924
 11
10.6578474718
 21
10.3645069849
  0
LINE
  5
355
100
AcDbEntity
  8
0
100
AcDbLine
 62
9
  6
CONTINUOUS
 10
11.8531723991
 20
10.9972180622
 11
11.2175392112
 21
10.3645093826
  0
SPLINE
  5
356
100
AcDbEntity
  8
0
100
AcDbSpline
 62
9
  6
CONTINUOUS
 70
0
 71
3
 72
18
 73
14
 74
0
 42
0.0000001
 43
0.0000001
 44
0.0000000001
 40
0.0
 40
0.0
 40
0.0
 40
0.0
 40
0.199743027
 40
0.3830143101
 40
0.5472898338
 40
0.6898261409
 40
0.8081941991
 40
0.85763345
 40
0.9002521822
 40
0.935876697
 40
0.9644056796
 40
0.9857896905
 40
1.0
 40
1.0
 40
1.0
 40
1.0
 10
11.8702413102
 20
10.9801495975
 30
0.0
 10
11.8267784712
 20
10.9365239555
 30
0.0
 10
11.7434460675
 20
10.8528611541
 30
0.0
 10
11.6243974576
 20
10.7332901212
 30
0.0
 10
11.517819491
 20
10.6261908319
 30
0.0
 10
11.4253726199
 20
10.5332584734
 30
0.0
 10
11.3579004407
 20
10.4654202844
 30
0.0
 10
11.3121470058
 20
10.4194275681
 30
0.0
 10
11.2843798723
 20
10.3915248659
 30
0.0
 10
11.2611520355
 20
10.3681997529
 30
0.0
 10
11.2425339135
 20
10.3495232707
 30
0.0
 10
11.2285643296
 20
10.3355348913
 30
0.0
 10
11.2207996853
 20
10.3277802683
 30
0.0
 10
11.217692343
 20
10.3246918968
 30
0.0
  0
SPLINE
  5
357
100
AcDbEntity
  8
0
100
AcDbSpline
 62
9
  6
CONTINUOUS
 70
0
 71
3
 72
17
 73
13
 74
0
 42
0.0000001
 43
0.0000001
 44
0.0000000001
 40
0.0
 40
0.0
 40
0.0
 40
0.0
 40
0.1997428367
 40
0.3830151882
 40
0.5472887822
 40
0.6898256093
 40
0.8081951216
 40
0.9002503344
 40
0.9358754707
 40
0.9644061026
 40
0.9857899129
 40
1.0
 40
1.0
 40
1.0
 40
1.0
 10
11.8702408841
 20
9.1491892516
 30
0.0
 10
11.826777996
 20
9.1928147105
 30
0.0
 10
11.7434449302
 20
9.2764771364
 30
0.0
 10
11.624398989
 20
9.3960502279
 30
0.0
 10
11.5178181445
 20
9.5031463784
 30
0.0
 10
11.4253718714
 20
9.5960792431
 30
0.0
 10
11.3486364606
 20
9.6732355906
 30
0.0
 10
11.2951339899
 20
9.7270112829
 30
0.0
 10
11.2611513808
 20
9.7611369963
 30
0.0
 10
11.2425344233
 20
9.7798155179
 30
0.0
 10
11.2285646785
 20
9.7938042569
 30
0.0
 10
11.2207995222
 20
9.8015581718
 30
0.0
 10
11.2176923435
 20
9.8046466069
 30
0.0
  0
LINE
  5
358
100
AcDbEntity
  8
0
100
AcDbLine
 62
9
  6
CONTINUOUS
 10
11.2202976333
 20
9.1303107131
 11
11.2257937367
 21
9.1303193204
  0
LINE
  5
359
100
AcDbEntity
  8
0
100
AcDbLine
 62
9
  6
CONTINUOUS
 10
11.2257937367
 20
9.1303193204
 11
11.8531722496
 21
9.1321696862
  0
LINE
  5
35A
100
AcDbEntity
  8
0
100
AcDbLine
 62
9
  6
CONTINUOUS
 10
11.8531724515
 20
9.1321205902
 11
11.2175431026
 21
9.764825276
  0
SPLINE
  5
35B
100
AcDbEntity
  8
0
100
AcDbSpline
 62
9
  6
CONTINUOUS
 70
0
 71
3
 72
15
 73
11
 74
0
 42
0.0000001
 43
0.0000001
 44
0.0000000001
 40
0.0
 40
0.0
 40
0.0
 40
0.0
 40
0.032272863
 40
0.0562333882
 40
0.0867035982
 40
0.1684790407
 40
0.2789076559
 40
0.4180727806
 40
0.5852843189
 40
1.0
 40
1.0
 40
1.0
 40
1.0
 10
10.6576965164
 20
9.4646753031
 30
0.0
 10
10.6576962914
 20
9.4647181268
 30
0.0
 10
10.6577471773
 20
9.4647871022
 30
0.0
 10
10.6578406162
 20
9.4648506918
 30
0.0
 10
10.6580026923
 20
9.4649337423
 30
0.0
 10
10.6582829675
 20
9.46502857
 30
0.0
 10
10.6587097611
 20
9.4651357571
 30
0.0
 10
10.6592529961
 20
9.4652405545
 30
0.0
 10
10.6601984946
 20
9.4653883277
 30
0.0
 10
10.6609659707
 20
9.4654763666
 30
0.0
 10
10.6615134482
 20
9.4655320862
 30
0.0
  0
SPLINE
  5
35C
100
AcDbEntity
  8
0
100
AcDbSpline
 62
9
  6
CONTINUOUS
 70
0
 71
3
 72
11
 73
7
 74
0
 42
0.0000001
 43
0.0000001
 44
0.0000000001
 40
0.0
 40
0.0
 40
0.0
 40
0.0
 40
0.1976660762
 40
0.4392257635
 40
0.7118537373
 40
1.0
 40
1.0
 40
1.0
 40
1.0
 10
10.6615134482
 20
9.4655320862
 30
0.0
 10
10.6625753967
 20
9.4656401662
 30
0.0
 10
10.6649411222
 20
9.4658201571
 30
0.0
 10
10.6687808462
 20
9.4660088862
 30
0.0
 10
10.6731121413
 20
9.4661318698
 30
0.0
 10
10.676140403
 20
9.4661652997
 30
0.0
 10
10.6776964417
 20
9.4661695021
 30
0.0
  0
LINE
  5
35D
100
AcDbEntity
  8
0
100
AcDbLine
 62
9
  6
CONTINUOUS
 10
9.9923076707
 20
10.9901305923
 11
9.9946898977
 21
10.9882808465
  0
LINE
  5
35E
100
AcDbEntity
  8
0
100
AcDbLine
 62
9
  6
CONTINUOUS
 10
9.9946898977
 20
10.9882808465
 11
10.0051432894
 21
10.9801513937
  0
SPLINE
  5
35F
100
AcDbEntity
  8
0
100
AcDbSpline
 62
9
  6
CONTINUOUS
 70
0
 71
3
 72
15
 73
11
 74
0
 42
0.0000001
 43
0.0000001
 44
0.0000000001
 40
0.0
 40
0.0
 40
0.0
 40
0.0
 40
0.3232855669
 40
0.4785715868
 40
0.6226571419
 40
0.7507670051
 40
0.8585730777
 40
0.9425799742
 40
0.9747579129
 40
1.0
 40
1.0
 40
1.0
 40
1.0
 10
10.582522434
 20
7.183756581
 30
0.0
 10
10.581827073
 20
7.1814280744
 30
0.0
 10
10.5808289868
 20
7.1779716335
 30
0.0
 10
10.579593254
 20
7.1734571746
 30
0.0
 10
10.5787775035
 20
7.1703490302
 30
0.0
 10
10.5780865202
 20
7.1675772867
 30
0.0
 10
10.5775436262
 20
7.1652344747
 30
0.0
 10
10.5772013916
 20
7.1635854536
 30
0.0
 10
10.5770223825
 20
7.1625374659
 30
0.0
 10
10.5769639601
 20
7.1621096109
 30
0.0
 10
10.5769446849
 20
7.1619208493
 30
0.0
  0
SPLINE
  5
360
100
AcDbEntity
  8
0
100
AcDbSpline
 62
9
  6
CONTINUOUS
 70
0
 71
3
 72
15
 73
11
 74
0
 42
0.0000001
 43
0.0000001
 44
0.0000000001
 40
0.0
 40
0.0
 40
0.0
 40
0.0
 40
0.3232854171
 40
0.4785713554
 40
0.6226568351
 40
0.750766611
 40
0.858572594
 40
0.9425796609
 40
0.974757796
 40
1.0
 40
1.0
 40
1.0
 40
1.0
 10
11.2928622386
 20
7.1837565779
 30
0.0
 10
11.2935576092
 20
7.1814280747
 30
0.0
 10
11.2945557143
 20
7.17797164
 30
0.0
 10
11.2957914684
 20
7.1734571881
 30
0.0
 10
11.2966072256
 20
7.1703490463
 30
0.0
 10
11.2972982225
 20
7.1675773077
 30
0.0
 10
11.297841162
 20
7.1652345054
 30
0.0
 10
11.2981833546
 20
7.163585472
 30
0.0
 10
11.2983623019
 20
7.1625374695
 30
0.0
 10
11.2984207066
 20
7.16210961
 30
0.0
 10
11.2984399827
 20
7.1619208476
 30
0.0
  0
LINE
  5
361
100
AcDbEntity
  8
0
100
AcDbLine
 62
9
  6
CONTINUOUS
 10
10.0122322433
 20
9.1192848415
 11
10.0140822369
 21
9.1216671628
  0
LINE
  5
362
100
AcDbEntity
  8
0
100
AcDbLine
 62
9
  6
CONTINUOUS
 10
10.0140822369
 20
9.1216671628
 11
10.022211293
 21
9.1321205939
  0
SPLINE
  5
363
100
AcDbEntity
  8
0
100
AcDbSpline
 62
9
  6
CONTINUOUS
 70
0
 71
3
 72
11
 73
7
 74
0
 42
0.0000001
 43
0.0000001
 44
0.0000000001
 40
0.0
 40
0.0
 40
0.0
 40
0.0
 40
0.2488215242
 40
0.4982247689
 40
0.7486065163
 40
1.0
 40
1.0
 40
1.0
 40
1.0
 10
11.2176923427
 20
10.5716413661
 30
0.0
 10
11.2176923427
 20
10.5735407187
 30
0.0
 10
11.2171263746
 20
10.5773672154
 30
0.0
 10
11.2146507686
 20
10.5826055555
 30
0.0
 10
11.2107638908
 20
10.586927413
 30
0.0
 10
11.2074416492
 20
10.588956606
 30
0.0
 10
11.2056782531
 20
10.5897135333
 30
0.0
  0
LINE
  5
364
100
AcDbEntity
  8
0
100
AcDbLine
 62
9
  6
CONTINUOUS
 10
11.1976923427
 20
10.572443621
 11
11.2056782531
 21
10.5897135333
  0
LINE
  5
365
100
AcDbEntity
  8
0
100
AcDbLine
 62
9
  6
CONTINUOUS
 10
10.6776923427
 20
10.5724436201
 11
10.6697064326
 21
10.5897135332
  0
SPLINE
  5
366
100
AcDbEntity
  8
0
100
AcDbSpline
 62
9
  6
CONTINUOUS
 70
0
 71
3
 72
11
 73
7
 74
0
 42
0.0000001
 43
0.0000001
 44
0.0000000001
 40
0.0
 40
0.0
 40
0.0
 40
0.0
 40
0.2488215239
 40
0.4982247681
 40
0.7486065157
 40
1.0
 40
1.0
 40
1.0
 40
1.0
 10
10.6576923427
 20
10.5716413659
 30
0.0
 10
10.6576923427
 20
10.5735407185
 30
0.0
 10
10.6582583109
 20
10.5773672153
 30
0.0
 10
10.6607339169
 20
10.5826055554
 30
0.0
 10
10.6646207948
 20
10.5869274129
 30
0.0
 10
10.6679430365
 20
10.5889566059
 30
0.0
 10
10.6697064326
 20
10.5897135332
 30
0.0
  0
SPLINE
  5
367
100
AcDbEntity
  8
0
100
AcDbSpline
 62
9
  6
CONTINUOUS
 70
0
 71
3
 72
14
 73
10
 74
0
 42
0.0000001
 43
0.0000001
 44
0.0000000001
 40
0.0
 40
0.0
 40
0.0
 40
0.0
 40
0.0568980299
 40
0.1304881029
 40
0.2229819572
 40
0.3360445146
 40
0.4704078262
 40
0.6264940573
 40
1.0
 40
1.0
 40
1.0
 40
1.0
 10
10.8128282885
 20
10.6807294682
 30
0.0
 10
10.8130475035
 20
10.6808664763
 30
0.0
 10
10.8135885049
 20
10.6811184329
 30
0.0
 10
10.8145583728
 20
10.681416191
 30
0.0
 10
10.8158020354
 20
10.6816725504
 30
0.0
 10
10.8173330836
 20
10.6818807593
 30
0.0
 10
10.8191603502
 20
10.6820368481
 30
0.0
 10
10.8221743341
 20
10.6821744898
 30
0.0
 10
10.8245819309
 20
10.6821692636
 30
0.0
 10
10.826278567
 20
10.6821355474
 30
0.0
  0
SPLINE
  5
368
100
AcDbEntity
  8
0
100
AcDbSpline
 62
9
  6
CONTINUOUS
 70
0
 71
3
 72
10
 73
6
 74
0
 42
0.0000001
 43
0.0000001
 44
0.0000000001
 40
0.0
 40
0.0
 40
0.0
 40
0.0
 40
0.2274929826
 40
0.4736556533
 40
1.0
 40
1.0
 40
1.0
 40
1.0
 10
10.826278567
 20
10.6821355474
 30
0.0
 10
10.8276007298
 20
10.6821092729
 30
0.0
 10
10.8303528102
 20
10.6820140556
 30
0.0
 10
10.8361569402
 20
10.6816874988
 30
0.0
 10
10.840632978
 20
10.6813147837
 30
0.0
 10
10.8436789852
 20
10.6810261056
 30
0.0
  0
SPLINE
  5
369
100
AcDbEntity
  8
0
100
AcDbSpline
 62
9
  6
CONTINUOUS
 70
0
 71
3
 72
11
 73
7
 74
0
 42
0.0000001
 43
0.0000001
 44
0.0000000001
 40
0.0
 40
0.0
 40
0.0
 40
0.0
 40
0.2646025555
 40
0.5088938137
 40
0.7480498104
 40
1.0
 40
1.0
 40
1.0
 40
1.0
 10
10.6697064324
 20
10.5897135333
 30
0.0
 10
10.6694893968
 20
10.5898186387
 30
0.0
 10
10.6690519523
 20
10.5899844375
 30
0.0
 10
10.6683675847
 20
10.5900685257
 30
0.0
 10
10.6676969853
 20
10.5899607092
 30
0.0
 10
10.6672870778
 20
10.5897662112
 30
0.0
 10
10.6670923639
 20
10.5896445154
 30
0.0
  0
SPLINE
  5
36A
100
AcDbEntity
  8
0
100
AcDbSpline
 62
9
  6
CONTINUOUS
 70
0
 71
3
 72
11
 73
7
 74
0
 42
0.0000001
 43
0.0000001
 44
0.0000000001
 40
0.0
 40
0.0
 40
0.0
 40
0.0
 40
0.2503663479
 40
0.5004321747
 40
0.7503018968
 40
1.0
 40
1.0
 40
1.0
 40
1.0
 10
10.7070551703
 20
10.5956362213
 30
0.0
 10
10.7038849219
 20
10.5959364225
 30
0.0
 10
10.6974991897
 20
10.5960941202
 30
0.0
 10
10.687984271
 20
10.5951065914
 30
0.0
 10
10.6786643457
 20
10.5929995968
 30
0.0
 10
10.6726471706
 20
10.5909129477
 30
0.0
 10
10.6697064324
 20
10.5897135333
 30
0.0
  0
SPLINE
  5
36B
100
AcDbEntity
  8
0
100
AcDbSpline
 62
9
  6
CONTINUOUS
 70
0
 71
3
 72
10
 73
6
 74
0
 42
0.0000001
 43
0.0000001
 44
0.0000000001
 40
0.0
 40
0.0
 40
0.0
 40
0.0
 40
0.526340587
 40
0.7725030102
 40
1.0
 40
1.0
 40
1.0
 40
1.0
 10
11.0317057003
 20
10.6810261056
 30
0.0
 10
11.0347513892
 20
10.6813146936
 30
0.0
 10
11.0392269561
 20
10.681687393
 30
0.0
 10
11.0450305053
 20
10.6820140064
 30
0.0
 10
11.047782333
 20
10.6821092623
 30
0.0
 10
11.0491043874
 20
10.6821355563
 30
0.0
  0
SPLINE
  5
36C
100
AcDbEntity
  8
0
100
AcDbSpline
 62
9
  6
CONTINUOUS
 70
0
 71
3
 72
14
 73
10
 74
0
 42
0.0000001
 43
0.0000001
 44
0.0000000001
 40
0.0
 40
0.0
 40
0.0
 40
0.0
 40
0.3735068389
 40
0.5295954651
 40
0.6639618055
 40
0.777026997
 40
0.8695219595
 40
0.9431098139
 40
1.0
 40
1.0
 40
1.0
 40
1.0
 10
11.0491043874
 20
10.6821355563
 30
0.0
 10
11.0508012422
 20
10.6821693045
 30
0.0
 10
11.0532091597
 20
10.6821745579
 30
0.0
 10
11.0562235554
 20
10.6820369178
 30
0.0
 10
11.0580510912
 20
10.6818808179
 30
0.0
 10
11.0595823654
 20
10.6816725882
 30
0.0
 10
11.0608261939
 20
10.6814162009
 30
0.0
 10
11.0617961484
 20
10.681118429
 30
0.0
 10
11.0623371843
 20
10.6808664747
 30
0.0
 10
11.062556397
 20
10.6807294682
 30
0.0
  0
SPLINE
  5
36D
100
AcDbEntity
  8
0
100
AcDbSpline
 62
9
  6
CONTINUOUS
 70
0
 71
3
 72
11
 73
7
 74
0
 42
0.0000001
 43
0.0000001
 44
0.0000000001
 40
0.0
 40
0.0
 40
0.0
 40
0.0
 40
0.2496981245
 40
0.4995716197
 40
0.7496355895
 40
1.0
 40
1.0
 40
1.0
 40
1.0
 10
11.2056782531
 20
10.5897135333
 30
0.0
 10
11.2027375013
 20
10.5909129281
 30
0.0
 10
11.1967202685
 20
10.5929995625
 30
0.0
 10
11.1874003975
 20
10.5951069274
 30
0.0
 10
11.1778854115
 20
10.5960944659
 30
0.0
 10
11.1714997655
 20
10.5959361922
 30
0.0
 10
11.1683295152
 20
10.5956362213
 30
0.0
  0
SPLINE
  5
36E
100
AcDbEntity
  8
0
100
AcDbSpline
 62
9
  6
CONTINUOUS
 70
0
 71
3
 72
11
 73
7
 74
0
 42
0.0000001
 43
0.0000001
 44
0.0000000001
 40
0.0
 40
0.0
 40
0.0
 40
0.0
 40
0.251950187
 40
0.4911061886
 40
0.7353974528
 40
1.0
 40
1.0
 40
1.0
 40
1.0
 10
11.2082923215
 20
10.5896445154
 30
0.0
 10
11.2080976077
 20
10.5897662112
 30
0.0
 10
11.2076877002
 20
10.5899607092
 30
0.0
 10
11.2070171008
 20
10.5900685256
 30
0.0
 10
11.2063327332
 20
10.5899844376
 30
0.0
 10
11.2058952888
 20
10.5898186386
 30
0.0
 10
11.2056782531
 20
10.5897135333
 30
0.0
  0
SPLINE
  5
36F
100
AcDbEntity
  8
0
100
AcDbSpline
 62
9
  6
CONTINUOUS
 70
0
 71
3
 72
17
 73
13
 74
0
 42
0.0000001
 43
0.0000001
 44
0.0000000001
 40
0.0
 40
0.0
 40
0.0
 40
0.0
 40
0.1846525063
 40
0.3618793303
 40
0.5262619709
 40
0.6717662919
 40
0.7932917242
 40
0.8879368129
 40
0.9252022509
 40
0.9560135764
 40
0.9807888071
 40
1.0
 40
1.0
 40
1.0
 40
1.0
 10
10.8371220001
 20
7.0236147475
 30
0.0
 10
10.8353437536
 20
7.0234392373
 30
0.0
 10
10.8318572358
 20
7.0231105117
 30
0.0
 10
10.8267818388
 20
7.0226899545
 30
0.0
 10
10.8220787369
 20
7.0223694475
 30
0.0
 10
10.8179084589
 20
7.0221666569
 30
0.0
 10
10.8144089798
 20
7.0220899826
 30
0.0
 10
10.8119554932
 20
7.0221308896
 30
0.0
 10
10.810384097
 20
7.0222372297
 30
0.0
 10
10.8094906957
 20
7.0223372641
 30
0.0
 10
10.8087770693
 20
7.0224605828
 30
0.0
 10
10.8083642745
 20
7.0225690096
 30
0.0
 10
10.808188735
 20
7.0226302252
 30
0.0
  0
SPLINE
  5
370
100
AcDbEntity
  8
0
100
AcDbSpline
 62
9
  6
CONTINUOUS
 70
0
 71
3
 72
9
 73
5
 74
0
 42
0.0000001
 43
0.0000001
 44
0.0000000001
 40
0.0
 40
0.0
 40
0.0
 40
0.0
 40
0.4980778825
 40
1.0
 40
1.0
 40
1.0
 40
1.0
 10
10.5769446892
 20
7.1619208438
 30
0.0
 10
10.5812440093
 20
7.1609193482
 30
0.0
 10
10.5900497183
 20
7.1595930905
 30
0.0
 10
10.5989589527
 20
7.1597132968
 30
0.0
 10
10.6033855876
 20
7.1601537747
 30
0.0
  0
SPLINE
  5
371
100
AcDbEntity
  8
0
100
AcDbSpline
 62
9
  6
CONTINUOUS
 70
0
 71
3
 72
12
 73
8
 74
0
 42
0.0000001
 43
0.0000001
 44
0.0000000001
 40
0.0
 40
0.0
 40
0.0
 40
0.0
 40
0.102663924
 40
0.2052021437
 40
0.4251661352
 40
0.6859036388
 40
1.0
 40
1.0
 40
1.0
 40
1.0
 10
10.5729145415
 20
7.1600675597
 30
0.0
 10
10.5730662081
 20
7.1600147749
 30
0.0
 10
10.5733815342
 20
7.1599407207
 30
0.0
 10
10.5740513653
 20
7.1599318577
 30
0.0
 10
10.5749429167
 20
7.1602104013
 30
0.0
 10
10.5759786498
 20
7.1609158059
 30
0.0
 10
10.5766179238
 20
7.1615539415
 30
0.0
 10
10.5769446892
 20
7.1619208438
 30
0.0
  0
SPLINE
  5
372
100
AcDbEntity
  8
0
100
AcDbSpline
 62
9
  6
CONTINUOUS
 70
0
 71
3
 72
17
 73
13
 74
0
 42
0.0000001
 43
0.0000001
 44
0.0000000001
 40
0.0
 40
0.0
 40
0.0
 40
0.0
 40
0.0192113589
 40
0.0439866118
 40
0.0747978262
 40
0.1120630345
 40
0.2067077226
 40
0.3282336442
 40
0.4737385045
 40
0.638120803
 40
0.8153474261
 40
1.0
 40
1.0
 40
1.0
 40
1.0
 10
11.0671959505
 20
7.0226302252
 30
0.0
 10
11.0670204096
 20
7.0225690086
 30
0.0
 10
11.0666076133
 20
7.0224605804
 30
0.0
 10
11.0658939861
 20
7.0223372613
 30
0.0
 10
11.0650005878
 20
7.0222372286
 30
0.0
 10
11.0634291983
 20
7.0221308942
 30
0.0
 10
11.0609757131
 20
7.0220899958
 30
0.0
 10
11.0574762279
 20
7.0221666551
 30
0.0
 10
11.0533059423
 20
7.0223694334
 30
0.0
 10
11.0486028413
 20
7.0226899535
 30
0.0
 10
11.0435274495
 20
7.0231105164
 30
0.0
 10
11.0400409328
 20
7.0234392397
 30
0.0
 10
11.0382626854
 20
7.0236147475
 30
0.0
  0
SPLINE
  5
373
100
AcDbEntity
  8
0
100
AcDbSpline
 62
9
  6
CONTINUOUS
 70
0
 71
3
 72
12
 73
8
 74
0
 42
0.0000001
 43
0.0000001
 44
0.0000000001
 40
0.0
 40
0.0
 40
0.0
 40
0.0
 40
0.3141030612
 40
0.5748631707
 40
0.7948125822
 40
0.8973294427
 40
1.0
 40
1.0
 40
1.0
 40
1.0
 10
11.2984399872
 20
7.1619208427
 30
0.0
 10
11.2987667073
 20
7.1615538937
 30
0.0
 10
11.2994060684
 20
7.1609157669
 30
0.0
 10
11.3004419222
 20
7.1602105532
 30
0.0
 10
11.3013333896
 20
7.1599319325
 30
0.0
 10
11.3020031734
 20
7.1599406923
 30
0.0
 10
11.302318473
 20
7.1600147615
 30
0.0
 10
11.3024701439
 20
7.1600675597
 30
0.0
  0
SPLINE
  5
374
100
AcDbEntity
  8
0
100
AcDbSpline
 62
9
  6
CONTINUOUS
 70
0
 71
3
 72
9
 73
5
 74
0
 42
0.0000001
 43
0.0000001
 44
0.0000000001
 40
0.0
 40
0.0
 40
0.0
 40
0.0
 40
0.5019223067
 40
1.0
 40
1.0
 40
1.0
 40
1.0
 10
11.2719990979
 20
7.1601537747
 30
0.0
 10
11.2764257347
 20
7.1597133203
 30
0.0
 10
11.285334965
 20
7.1595930983
 30
0.0
 10
11.2941406619
 20
7.1609193858
 30
0.0
 10
11.2984399872
 20
7.1619208427
 30
0.0
  0
SPLINE
  5
375
100
AcDbEntity
  8
0
100
AcDbSpline
 62
9
  6
CONTINUOUS
 70
0
 71
3
 72
15
 73
11
 74
0
 42
0.0000001
 43
0.0000001
 44
0.0000000001
 40
0.0
 40
0.0
 40
0.0
 40
0.0
 40
0.0309856788
 40
0.0545731842
 40
0.084800714
 40
0.1663709207
 40
0.2768610805
 40
0.4162955072
 40
0.5839505238
 40
1.0
 40
1.0
 40
1.0
 40
1.0
 10
11.2176883943
 20
9.46475754
 30
0.0
 10
11.2176886102
 20
9.4647984935
 30
0.0
 10
11.2176363993
 20
9.4648639064
 30
0.0
 10
11.2175439807
 20
9.4649230231
 30
0.0
 10
11.2173815157
 20
9.4650015348
 30
0.0
 10
11.217101383
 20
9.4650907623
 30
0.0
 10
11.2166746877
 20
9.4651918898
 30
0.0
 10
11.2161315596
 20
9.4652907203
 30
0.0
 10
11.2151858893
 20
9.4654302152
 30
0.0
 10
11.2144186049
 20
9.4655133032
 30
0.0
 10
11.2138712308
 20
9.4655659123
 30
0.0
  0
SPLINE
  5
376
100
AcDbEntity
  8
0
100
AcDbSpline
 62
9
  6
CONTINUOUS
 70
0
 71
3
 72
11
 73
7
 74
0
 42
0.0000001
 43
0.0000001
 44
0.0000000001
 40
0.0
 40
0.0
 40
0.0
 40
0.0
 40
0.1976226424
 40
0.4391777165
 40
0.7118241059
 40
1.0
 40
1.0
 40
1.0
 40
1.0
 10
11.2138712308
 20
9.4655659123
 30
0.0
 10
11.212809063
 20
9.4656679992
 30
0.0
 10
11.2104432425
 20
9.4658380688
 30
0.0
 10
11.206603711
 20
9.4660166159
 30
0.0
 10
11.2022725954
 20
9.4661332674
 30
0.0
 10
11.1992444663
 20
9.466165283
 30
0.0
 10
11.1976884679
 20
9.4661695023
 30
0.0
  0
SPLINE
  5
377
100
AcDbEntity
  8
0
100
AcDbSpline
 62
9
  6
CONTINUOUS
 70
0
 71
3
 72
20
 73
16
 74
0
 42
0.0000001
 43
0.0000001
 44
0.0000000001
 40
0.0
 40
0.0
 40
0.0
 40
0.0
 40
0.1880027428
 40
0.3692433216
 40
0.5364451084
 40
0.6837366125
 40
0.7483062046
 40
0.8060394634
 40
0.8564881329
 40
0.899389352
 40
0.9346023449
 40
0.9622950027
 40
0.9735801587
 40
0.9834027525
 40
1.0
 40
1.0
 40
1.0
 40
1.0
 10
11.2928622386
 20
7.1837565779
 30
0.0
 10
11.2941582703
 20
7.183768121
 30
0.0
 10
11.2967042829
 20
7.1837490111
 30
0.0
 10
11.3004001753
 20
7.1835972906
 30
0.0
 10
11.3038079277
 20
7.1833274753
 30
0.0
 10
11.3064023519
 20
7.1830023189
 30
0.0
 10
11.3082334314
 20
7.1826818015
 30
0.0
 10
11.3093980536
 20
7.1824309109
 30
0.0
 10
11.3104046039
 20
7.1821612644
 30
0.0
 10
11.3112448904
 20
7.1818761722
 30
0.0
 10
11.3119117787
 20
7.181578123
 30
0.0
 10
11.312348017
 20
7.1813042958
 30
0.0
 10
11.3125942201
 20
7.1810728358
 30
0.0
 10
11.3127530655
 20
7.1808668106
 30
0.0
 10
11.3128161312
 20
7.180684426
 30
0.0
 10
11.3128172358
 20
7.1805700106
 30
0.0
  0
SPLINE
  5
378
100
AcDbEntity
  8
0
100
AcDbSpline
 62
9
  6
CONTINUOUS
 70
0
 71
3
 72
15
 73
11
 74
0
 42
0.0000001
 43
0.0000001
 44
0.0000000001
 40
0.0
 40
0.0
 40
0.0
 40
0.0
 40
0.0322801911
 40
0.0562545642
 40
0.0867393373
 40
0.1685395274
 40
0.278982282
 40
0.4181488217
 40
0.585348433
 40
1.0
 40
1.0
 40
1.0
 40
1.0
 10
11.2176923427
 20
9.4661695021
 30
0.0
 10
11.2176924658
 20
9.4662123474
 30
0.0
 10
11.2176414053
 20
9.466281233
 30
0.0
 10
11.2175478598
 20
9.4663447909
 30
0.0
 10
11.2173856267
 20
9.4664277985
 30
0.0
 10
11.2171051941
 20
9.4665226053
 30
0.0
 10
11.2166782211
 20
9.4666297825
 30
0.0
 10
11.2161348358
 20
9.4667345906
 30
0.0
 10
11.2151891866
 20
9.4668823989
 30
0.0
 10
11.2144216142
 20
9.4669704963
 30
0.0
 10
11.2138740805
 20
9.4670262615
 30
0.0
  0
SPLINE
  5
379
100
AcDbEntity
  8
0
100
AcDbSpline
 62
9
  6
CONTINUOUS
 70
0
 71
3
 72
11
 73
7
 74
0
 42
0.0000001
 43
0.0000001
 44
0.0000000001
 40
0.0
 40
0.0
 40
0.0
 40
0.0
 40
0.1976804624
 40
0.4392429584
 40
0.7118648205
 40
1.0
 40
1.0
 40
1.0
 40
1.0
 10
11.2138740805
 20
9.4670262615
 30
0.0
 10
11.2128121455
 20
9.4671344175
 30
0.0
 10
11.2104465312
 20
9.4673146347
 30
0.0
 10
11.2066070705
 20
9.4675038165
 30
0.0
 10
11.2022762088
 20
9.4676273821
 30
0.0
 10
11.1992482818
 20
9.4676612617
 30
0.0
 10
11.1976924252
 20
9.4676657059
 30
0.0
  0
SPLINE
  5
37A
100
AcDbEntity
  8
0
100
AcDbSpline
 62
9
  6
CONTINUOUS
 70
0
 71
3
 72
17
 73
13
 74
0
 42
0.0000001
 43
0.0000001
 44
0.0000000001
 40
0.0
 40
0.0
 40
0.0
 40
0.0
 40
0.0090278293
 40
0.0234757531
 40
0.0449411506
 40
0.0738412827
 40
0.1543608864
 40
0.2652799968
 40
0.4062826372
 40
0.5764584167
 40
0.7747302615
 40
1.0
 40
1.0
 40
1.0
 40
1.0
 10
11.2176923427
 20
10.5716413661
 30
0.0
 10
11.2176923427
 20
10.5716530392
 30
0.0
 10
11.2176736718
 20
10.5716812835
 30
0.0
 10
11.2176229353
 20
10.5717094232
 30
0.0
 10
11.2175446234
 20
10.5717402112
 30
0.0
 10
11.2173814018
 20
10.5717852784
 30
0.0
 10
11.2171010378
 20
10.5718379624
 30
0.0
 10
11.2166751818
 20
10.5718965218
 30
0.0
 10
11.2161323539
 20
10.5719540541
 30
0.0
 10
11.2154760057
 20
10.5720102054
 30
0.0
 10
11.214710208
 20
10.5720643705
 30
0.0
 10
11.2141635176
 20
10.5720968705
 30
0.0
 10
11.2138726826
 20
10.5721129198
 30
0.0
  0
LINE
  5
37B
100
AcDbEntity
  8
0
100
AcDbLine
 62
9
  6
CONTINUOUS
 10
11.2138726826
 20
10.5721129198
 11
11.1976923427
 21
10.572443621
  0
SPLINE
  5
37C
100
AcDbEntity
  8
0
100
AcDbSpline
 62
9
  6
CONTINUOUS
 70
0
 71
3
 72
15
 73
11
 74
0
 42
0.0000001
 43
0.0000001
 44
0.0000000001
 40
0.0
 40
0.0
 40
0.0
 40
0.0
 40
0.032288491
 40
0.0562648072
 40
0.0867504508
 40
0.1685502184
 40
0.278990897
 40
0.418154414
 40
0.5853508413
 40
1.0
 40
1.0
 40
1.0
 40
1.0
 10
10.6576923427
 20
9.4661695021
 30
0.0
 10
10.6576923427
 20
9.4662123282
 30
0.0
 10
10.6577435515
 20
9.4662810397
 30
0.0
 10
10.657837214
 20
9.4663443128
 30
0.0
 10
10.6579995575
 20
9.4664268242
 30
0.0
 10
10.6582800494
 20
9.4665207951
 30
0.0
 10
10.6587070076
 20
9.4666267111
 30
0.0
 10
10.6592502872
 20
9.4667299277
 30
0.0
 10
10.6601956648
 20
9.4668749813
 30
0.0
 10
10.6609629308
 20
9.4669608555
 30
0.0
 10
10.661510228
 20
9.4670150382
 30
0.0
  0
SPLINE
  5
37D
100
AcDbEntity
  8
0
100
AcDbSpline
 62
9
  6
CONTINUOUS
 70
0
 71
3
 72
11
 73
7
 74
0
 42
0.0000001
 43
0.0000001
 44
0.0000000001
 40
0.0
 40
0.0
 40
0.0
 40
0.0
 40
0.1976534249
 40
0.4392073269
 40
0.7118387456
 40
1.0
 40
1.0
 40
1.0
 40
1.0
 10
10.661510228
 20
9.4670150382
 30
0.0
 10
10.6625722335
 20
9.4671201772
 30
0.0
 10
10.6649379692
 20
9.4672936537
 30
0.0
 10
10.6687775053
 20
9.4674718802
 30
0.0
 10
10.6731085017
 20
9.4675830821
 30
0.0
 10
10.6761364634
 20
9.467608313
 30
0.0
 10
10.6776923427
 20
9.4676083129
 30
0.0
  0
SPLINE
  5
37E
100
AcDbEntity
  8
0
100
AcDbSpline
 62
9
  6
CONTINUOUS
 70
0
 71
3
 72
20
 73
16
 74
0
 42
0.0000001
 43
0.0000001
 44
0.0000000001
 40
0.0
 40
0.0
 40
0.0
 40
0.0
 40
0.1854330669
 40
0.3648380655
 40
0.5313893892
 40
0.6795294769
 40
0.7451151298
 40
0.8042643629
 40
0.8564212152
 40
0.901175609
 40
0.9381717981
 40
0.9670696005
 40
0.987670812
 40
0.9948575056
 40
1.0
 40
1.0
 40
1.0
 40
1.0
 10
10.6776923427
 20
10.5724436201
 30
0.0
 10
10.6764578687
 20
10.5724436201
 30
0.0
 10
10.6740290415
 20
10.5724345846
 30
0.0
 10
10.6704916376
 20
10.5723947225
 30
0.0
 10
10.6672029163
 20
10.5723297004
 30
0.0
 10
10.6646723762
 20
10.5722542234
 30
0.0
 10
10.6628572359
 20
10.5721810701
 30
0.0
 10
10.6616809938
 20
10.5721240133
 30
0.0
 10
10.6606438183
 20
10.5720630167
 30
0.0
 10
10.6597546853
 20
10.5719986621
 30
0.0
 10
10.6590209376
 20
10.5719321384
 30
0.0
 10
10.6584493103
 20
10.5718635314
 30
0.0
 10
10.6580763462
 20
10.5718021727
 30
0.0
 10
10.6578639629
 20
10.5717478794
 30
0.0
 10
10.6577862446
 20
10.5717201963
 30
0.0
 10
10.6577556486
 20
10.5717048369
 30
0.0
  0
LINE
  5
37F
100
AcDbEntity
  8
0
100
AcDbLine
 62
9
  6
CONTINUOUS
 10
9.8046454682
 20
11.2140425962
 11
9.8062082778
 21
11.2124846745
  0
LINE
  5
380
100
AcDbEntity
  8
0
100
AcDbLine
 62
9
  6
CONTINUOUS
 10
9.8062082778
 20
11.2124846745
 11
9.9616852394
 21
11.0575251587
  0
LINE
  5
381
100
AcDbEntity
  8
0
100
AcDbLine
 62
9
  6
CONTINUOUS
 10
12.0707393623
 20
11.2140425967
 11
12.0691764745
 21
11.2124845993
  0
LINE
  5
382
100
AcDbEntity
  8
0
100
AcDbLine
 62
9
  6
CONTINUOUS
 10
12.0691764745
 20
11.2124845993
 11
11.9136997013
 21
11.0575257388
  0
SPLINE
  5
383
100
AcDbEntity
  8
0
100
AcDbSpline
 62
9
  6
CONTINUOUS
 70
0
 71
3
 72
11
 73
7
 74
0
 42
0.0000001
 43
0.0000001
 44
0.0000000001
 40
0.0
 40
0.0
 40
0.0
 40
0.0
 40
0.246771321
 40
0.4955264442
 40
0.7469069788
 40
1.0
 40
1.0
 40
1.0
 40
1.0
 10
10.5635299841
 20
7.1744881599
 30
0.0
 10
10.5640279403
 20
7.1729998741
 30
0.0
 10
10.565413905
 20
7.1701264268
 30
0.0
 10
10.5684933481
 20
7.166449471
 30
0.0
 10
10.5723985869
 20
7.1635983573
 30
0.0
 10
10.5753955634
 20
7.1623578665
 30
0.0
 10
10.5769446849
 20
7.1619208493
 30
0.0
  0
LINE
  5
384
100
AcDbEntity
  8
0
100
AcDbLine
 62
9
  6
CONTINUOUS
 10
12.0870654279
 20
11.1977164026
 11
12.0855074968
 21
11.1961535823
  0
LINE
  5
385
100
AcDbEntity
  8
0
100
AcDbLine
 62
9
  6
CONTINUOUS
 10
12.0855074968
 20
11.1961535823
 11
11.9305479823
 21
11.040676631
  0
SPLINE
  5
386
100
AcDbEntity
  8
0
100
AcDbSpline
 62
9
  6
CONTINUOUS
 70
0
 71
3
 72
21
 73
17
 74
0
 42
0.0000001
 43
0.0000001
 44
0.0000000001
 40
0.0
 40
0.0
 40
0.0
 40
0.0
 40
0.20024513
 40
0.3965306832
 40
0.5805575966
 40
0.7400079517
 40
0.8061698208
 40
0.8620627839
 40
0.9073112459
 40
0.9423085147
 40
0.9679942385
 40
0.9776504917
 40
0.9853529514
 40
0.9912418936
 40
0.9954805042
 40
1.0
 40
1.0
 40
1.0
 40
1.0
 10
10.8371220001
 20
7.0208090001
 30
0.0
 10
10.8358304124
 20
7.0208089998
 30
0.0
 10
10.8332727731
 20
7.0208041395
 30
0.0
 10
10.8295282223
 20
7.0207780186
 30
0.0
 10
10.8260470559
 20
7.0207288668
 30
0.0
 10
10.8234055455
 20
7.0206645577
 30
0.0
 10
10.821591126
 20
7.0205952131
 30
0.0
 10
10.820513314
 20
7.0205414275
 30
0.0
 10
10.8196370768
 20
7.0204839389
 30
0.0
 10
10.8189563452
 20
7.020423333
 30
0.0
 10
10.8185060673
 20
7.020368212
 30
0.0
 10
10.8182320707
 20
7.0203207296
 30
0.0
 10
10.8180862133
 20
7.020289128
 30
0.0
 10
10.8179738453
 20
7.0202560542
 30
0.0
 10
10.8178907577
 20
7.0202231127
 30
0.0
 10
10.8178331622
 20
7.0201818028
 30
0.0
 10
10.8178331567
 20
7.0201526519
 30
0.0
  0
SPLINE
  5
387
100
AcDbEntity
  8
0
100
AcDbSpline
 62
9
  6
CONTINUOUS
 70
0
 71
3
 72
21
 73
17
 74
0
 42
0.0000001
 43
0.0000001
 44
0.0000000001
 40
0.0
 40
0.0
 40
0.0
 40
0.0
 40
0.0045194878
 40
0.008758081
 40
0.0146470179
 40
0.0223495018
 40
0.0320058258
 40
0.0576918195
 40
0.0926892363
 40
0.1379375036
 40
0.1938310216
 40
0.259993075
 40
0.419443486
 40
0.6034700572
 40
0.799755082
 40
1.0
 40
1.0
 40
1.0
 40
1.0
 10
10.8178331567
 20
7.0133083673
 30
0.0
 10
10.8178331625
 20
7.0132792165
 30
0.0
 10
10.8178907572
 20
7.0132379066
 30
0.0
 10
10.8179738447
 20
7.0132049649
 30
0.0
 10
10.8180862127
 20
7.0131718911
 30
0.0
 10
10.8182320706
 20
7.0131402894
 30
0.0
 10
10.8185060696
 20
7.0130928069
 30
0.0
 10
10.8189563507
 20
7.013037686
 30
0.0
 10
10.8196370837
 20
7.0129770797
 30
0.0
 10
10.8205133242
 20
7.0129195904
 30
0.0
 10
10.8215911398
 20
7.012865806
 30
0.0
 10
10.8234055644
 20
7.0127964605
 30
0.0
 10
10.8260470742
 20
7.0127321527
 30
0.0
 10
10.8295282354
 20
7.0126830002
 30
0.0
 10
10.8332727792
 20
7.0126568799
 30
0.0
 10
10.8358304137
 20
7.0126520194
 30
0.0
 10
10.8371220001
 20
7.0126520191
 30
0.0
  0
SPLINE
  5
388
100
AcDbEntity
  8
0
100
AcDbSpline
 62
9
  6
CONTINUOUS
 70
0
 71
3
 72
21
 73
17
 74
0
 42
0.0000001
 43
0.0000001
 44
0.0000000001
 40
0.0
 40
0.0
 40
0.0
 40
0.0
 40
0.20024513
 40
0.3965306832
 40
0.5805575966
 40
0.7400079517
 40
0.8061698208
 40
0.8620627839
 40
0.9073112459
 40
0.9423085147
 40
0.9679942385
 40
0.9776504917
 40
0.9853529514
 40
0.9912418936
 40
0.9954805042
 40
1.0
 40
1.0
 40
1.0
 40
1.0
 10
11.0382626854
 20
7.0126520191
 30
0.0
 10
11.0395542731
 20
7.0126520194
 30
0.0
 10
11.0421119124
 20
7.0126568797
 30
0.0
 10
11.0458564632
 20
7.0126830006
 30
0.0
 10
11.0493376296
 20
7.0127321524
 30
0.0
 10
11.05197914
 20
7.0127964615
 30
0.0
 10
11.0537935594
 20
7.0128658061
 30
0.0
 10
11.0548713715
 20
7.0129195917
 30
0.0
 10
11.0557476087
 20
7.0129770803
 30
0.0
 10
11.0564283403
 20
7.0130376863
 30
0.0
 10
11.0568786182
 20
7.0130928072
 30
0.0
 10
11.0571526148
 20
7.0131402896
 30
0.0
 10
11.0572984722
 20
7.0131718913
 30
0.0
 10
11.0574108402
 20
7.0132049651
 30
0.0
 10
11.0574939278
 20
7.0132379066
 30
0.0
 10
11.0575515233
 20
7.0132792164
 30
0.0
 10
11.0575515288
 20
7.0133083673
 30
0.0
  0
SPLINE
  5
389
100
AcDbEntity
  8
0
100
AcDbSpline
 62
9
  6
CONTINUOUS
 70
0
 71
3
 72
21
 73
17
 74
0
 42
0.0000001
 43
0.0000001
 44
0.0000000001
 40
0.0
 40
0.0
 40
0.0
 40
0.0
 40
0.0045194878
 40
0.008758081
 40
0.0146470179
 40
0.0223495018
 40
0.0320058258
 40
0.0576918195
 40
0.0926892363
 40
0.1379375036
 40
0.1938310216
 40
0.259993075
 40
0.419443486
 40
0.6034700572
 40
0.799755082
 40
1.0
 40
1.0
 40
1.0
 40
1.0
 10
11.0575515288
 20
7.0201526519
 30
0.0
 10
11.057551523
 20
7.0201818028
 30
0.0
 10
11.0574939283
 20
7.0202231127
 30
0.0
 10
11.0574108407
 20
7.0202560543
 30
0.0
 10
11.0572984728
 20
7.0202891282
 30
0.0
 10
11.0571526148
 20
7.0203207299
 30
0.0
 10
11.0568786159
 20
7.0203682123
 30
0.0
 10
11.0564283347
 20
7.0204233332
 30
0.0
 10
11.0557476017
 20
7.0204839395
 30
0.0
 10
11.0548713613
 20
7.0205414288
 30
0.0
 10
11.0537935456
 20
7.0205952132
 30
0.0
 10
11.0519791211
 20
7.0206645587
 30
0.0
 10
11.0493376113
 20
7.0207288665
 30
0.0
 10
11.0458564501
 20
7.0207780191
 30
0.0
 10
11.0421119063
 20
7.0208041393
 30
0.0
 10
11.0395542717
 20
7.0208089999
 30
0.0
 10
11.0382626854
 20
7.0208090001
 30
0.0
  0
LINE
  5
38A
100
AcDbEntity
  8
0
100
AcDbLine
 62
9
  6
CONTINUOUS
 10
10.5739712954
 20
7.1366663659
 11
10.5735415464
 21
7.1444110618
  0
LINE
  5
38B
100
AcDbEntity
  8
0
100
AcDbLine
 62
9
  6
CONTINUOUS
 10
10.5735415464
 20
7.1444110618
 11
10.5729145415
 21
7.1600675597
  0
LINE
  5
38C
100
AcDbEntity
  8
0
100
AcDbLine
 62
9
  6
CONTINUOUS
 10
11.3024701439
 20
7.1600675597
 11
11.3018424948
 21
7.1443991569
  0
LINE
  5
38D
100
AcDbEntity
  8
0
100
AcDbLine
 62
9
  6
CONTINUOUS
 10
11.3018424948
 20
7.1443991569
 11
11.3014133901
 21
7.1366663659
  0
LINE
  5
38E
100
AcDbEntity
  8
0
100
AcDbLine
 62
9
  6
CONTINUOUS
 10
10.9376923427
 20
7.1601117005
 11
11.2719990979
 21
7.1601537747
  0
LINE
  5
38F
100
AcDbEntity
  8
0
100
AcDbLine
 62
9
  6
CONTINUOUS
 10
10.6033855876
 20
7.1601537747
 11
10.9376923427
 21
7.1601117005
  0
LINE
  5
390
100
AcDbEntity
  8
0
100
AcDbLine
 62
9
  6
CONTINUOUS
 10
12.0870653158
 20
8.9316224558
 11
12.0855073784
 21
8.9331852844
  0
LINE
  5
391
100
AcDbEntity
  8
0
100
AcDbLine
 62
9
  6
CONTINUOUS
 10
12.0855073784
 20
8.9331852844
 11
11.9305485506
 21
9.0886620051
  0
LINE
  5
392
100
AcDbEntity
  8
0
100
AcDbLine
 62
9
  6
CONTINUOUS
 10
10.6033584546
 20
7.1806778057
 11
10.9376923427
 21
7.1806531505
  0
SPLINE
  5
393
100
AcDbEntity
  8
0
100
AcDbSpline
 62
9
  6
CONTINUOUS
 70
0
 71
3
 72
14
 73
10
 74
0
 42
0.0000001
 43
0.0000001
 44
0.0000000001
 40
0.0
 40
0.0
 40
0.0
 40
0.0
 40
0.1241376197
 40
0.2487239669
 40
0.3736064172
 40
0.4987011375
 40
0.623931675
 40
0.7492535785
 40
1.0
 40
1.0
 40
1.0
 40
1.0
 10
10.5825224344
 20
7.1837566167
 30
0.0
 10
10.5831810231
 20
7.2782945935
 30
0.0
 10
10.5872455034
 20
7.4676979212
 30
0.0
 10
10.5994415167
 20
7.7519786133
 30
0.0
 10
10.6156576961
 20
8.0367813397
 30
0.0
 10
10.633687538
 20
8.3219597364
 30
0.0
 10
10.6513316132
 20
8.6075043839
 30
0.0
 10
10.6713069672
 20
8.9887477999
 30
0.0
 10
10.6788853696
 20
9.275210628
 30
0.0
 10
10.6776962178
 20
9.4661694608
 30
0.0
  0
SPLINE
  5
394
100
AcDbEntity
  8
0
100
AcDbSpline
 62
9
  6
CONTINUOUS
 70
0
 71
3
 72
9
 73
5
 74
0
 42
0.0000001
 43
0.0000001
 44
0.0000000001
 40
0.0
 40
0.0
 40
0.0
 40
0.0
 40
0.250181504
 40
1.0
 40
1.0
 40
1.0
 40
1.0
 10
10.5825224344
 20
7.1837566167
 30
0.0
 10
10.5842118486
 20
7.1832643476
 30
0.0
 10
10.5910253767
 20
7.1815173505
 30
0.0
 10
10.5980845444
 20
7.1806795493
 30
0.0
 10
10.6033584532
 20
7.1806733325
 30
0.0
  0
LINE
  5
395
100
AcDbEntity
  8
0
100
AcDbLine
 62
9
  6
CONTINUOUS
 10
11.9136997591
 20
9.0717632056
 11
11.2272534928
 21
9.0701021401
  0
LINE
  5
396
100
AcDbEntity
  8
0
100
AcDbLine
 62
9
  6
CONTINUOUS
 10
10.0122330661
 20
11.0100558884
 11
10.0140866727
 21
11.0076688166
  0
LINE
  5
397
100
AcDbEntity
  8
0
100
AcDbLine
 62
9
  6
CONTINUOUS
 10
10.0140866727
 20
11.0076688166
 11
10.0222122705
 21
10.9972201027
  0
SPLINE
  5
398
100
AcDbEntity
  8
0
100
AcDbSpline
 62
9
  6
CONTINUOUS
 70
0
 71
3
 72
11
 73
7
 74
0
 42
0.0000001
 43
0.0000001
 44
0.0000000001
 40
0.0
 40
0.0
 40
0.0
 40
0.0
 40
0.2467715689
 40
0.4955271109
 40
0.7469073875
 40
1.0
 40
1.0
 40
1.0
 40
1.0
 10
11.3118546939
 20
7.1744881591
 30
0.0
 10
11.3113567382
 20
7.1729998699
 30
0.0
 10
11.3099707714
 20
7.1701264156
 30
0.0
 10
11.3068913338
 20
7.1664494461
 30
0.0
 10
11.3029860877
 20
7.163598331
 30
0.0
 10
11.2999891032
 20
7.1623578648
 30
0.0
 10
11.2984399827
 20
7.1619208476
 30
0.0
  0
LINE
  5
399
100
AcDbEntity
  8
0
100
AcDbLine
 62
9
  6
CONTINUOUS
 10
12.0707393823
 20
8.9152965062
 11
12.0691765429
 21
8.9168544523
  0
LINE
  5
39A
100
AcDbEntity
  8
0
100
AcDbLine
 62
9
  6
CONTINUOUS
 10
12.0691765429
 20
8.9168544523
 11
11.9136995874
 21
9.0718134732
  0
LINE
  5
39B
100
AcDbEntity
  8
0
100
AcDbLine
 62
9
  6
CONTINUOUS
 10
11.8631531174
 20
11.0100530277
 11
11.8613033736
 21
11.0076706945
  0
LINE
  5
39C
100
AcDbEntity
  8
0
100
AcDbLine
 62
9
  6
CONTINUOUS
 10
11.8613033736
 20
11.0076706945
 11
11.8531740029
 21
10.9972172645
  0
SPLINE
  5
39D
100
AcDbEntity
  8
0
100
AcDbSpline
 62
9
  6
CONTINUOUS
 70
0
 71
3
 72
9
 73
5
 74
0
 42
0.0000001
 43
0.0000001
 44
0.0000000001
 40
0.0
 40
0.0
 40
0.0
 40
0.0
 40
0.2503820749
 40
1.0
 40
1.0
 40
1.0
 40
1.0
 10
11.2720262323
 20
7.1806733325
 30
0.0
 10
11.2737875254
 20
7.1806754074
 30
0.0
 10
11.2808202884
 20
7.1809615765
 30
0.0
 10
11.2877996533
 20
7.1822814321
 30
0.0
 10
11.2928622381
 20
7.1837566133
 30
0.0
  0
SPLINE
  5
39E
100
AcDbEntity
  8
0
100
AcDbSpline
 62
9
  6
CONTINUOUS
 70
0
 71
3
 72
14
 73
10
 74
0
 42
0.0000001
 43
0.0000001
 44
0.0000000001
 40
0.0
 40
0.0
 40
0.0
 40
0.0
 40
0.2507464237
 40
0.3760683031
 40
0.501298822
 40
0.6263935661
 40
0.7512760281
 40
0.8758623864
 40
1.0
 40
1.0
 40
1.0
 40
1.0
 10
11.1976884674
 20
9.4661694087
 30
0.0
 10
11.1964993249
 20
9.2752105785
 30
0.0
 10
11.204077744
 20
8.9887477733
 30
0.0
 10
11.2240531469
 20
8.6075043994
 30
0.0
 10
11.2416972115
 20
8.321959772
 30
0.0
 10
11.2597269933
 20
8.0367813651
 30
0.0
 10
11.2759432245
 20
7.7519786123
 30
0.0
 10
11.2881391615
 20
7.4676979099
 30
0.0
 10
11.292203625
 20
7.2782945832
 30
0.0
 10
11.2928622381
 20
7.1837566133
 30
0.0
  0
LINE
  5
39F
100
AcDbEntity
  8
0
100
AcDbLine
 62
9
  6
CONTINUOUS
 10
10.9376923427
 20
7.1806530693
 11
11.2720262309
 21
7.1806777244
  0
SPLINE
  5
3A0
100
AcDbEntity
  8
0
100
AcDbSpline
 62
9
  6
CONTINUOUS
 70
0
 71
3
 72
11
 73
7
 74
0
 42
0.0000001
 43
0.0000001
 44
0.0000000001
 40
0.0
 40
0.0
 40
0.0
 40
0.0
 40
0.2499786307
 40
0.5000014083
 40
0.7500254489
 40
1.0
 40
1.0
 40
1.0
 40
1.0
 10
10.7070551703
 20
10.5791779931
 30
0.0
 10
10.7045280857
 20
10.5791779682
 30
0.0
 10
10.6994692677
 20
10.5788350962
 30
0.0
 10
10.6920000263
 20
10.5774552191
 30
0.0
 10
10.6847106212
 20
10.5753275307
 30
0.0
 10
10.6800013637
 20
10.5734704457
 30
0.0
 10
10.6776923427
 20
10.5724436203
 30
0.0
  0
LINE
  5
3A1
100
AcDbEntity
  8
0
100
AcDbLine
 62
9
  6
CONTINUOUS
 10
11.8830787199
 20
10.9901278451
 11
11.8806915729
 21
10.9882738144
  0
LINE
  5
3A2
100
AcDbEntity
  8
0
100
AcDbLine
 62
9
  6
CONTINUOUS
 10
11.8806915729
 20
10.9882738144
 11
11.8702429271
 21
10.9801484718
  0
LINE
  5
3A3
100
AcDbEntity
  8
0
100
AcDbLine
 62
9
  6
CONTINUOUS
 10
10.6556239671
 20
9.0700929575
 11
10.6481226709
 21
9.0701021737
  0
LINE
  5
3A4
100
AcDbEntity
  8
0
100
AcDbLine
 62
9
  6
CONTINUOUS
 10
10.6481226709
 20
9.0701021737
 11
9.9616849265
 21
9.0717632287
  0
LINE
  5
3A5
100
AcDbEntity
  8
0
100
AcDbLine
 62
9
  6
CONTINUOUS
 10
9.8046453087
 20
8.9152965087
 11
9.8062081535
 21
8.9168544589
  0
LINE
  5
3A6
100
AcDbEntity
  8
0
100
AcDbLine
 62
9
  6
CONTINUOUS
 10
9.8062081535
 20
8.9168544589
 11
9.961685098
 21
9.0718134733
  0
SPLINE
  5
3A7
100
AcDbEntity
  8
0
100
AcDbSpline
 62
9
  6
CONTINUOUS
 70
0
 71
3
 72
11
 73
7
 74
0
 42
0.0000001
 43
0.0000001
 44
0.0000000001
 40
0.0
 40
0.0
 40
0.0
 40
0.0
 40
0.2499746844
 40
0.4999985795
 40
0.7500213924
 40
1.0
 40
1.0
 40
1.0
 40
1.0
 10
11.1976923427
 20
10.5724436208
 30
0.0
 10
11.1953833376
 20
10.5734704858
 30
0.0
 10
11.1906741053
 20
10.5753276443
 30
0.0
 10
11.1833846695
 20
10.5774552527
 30
0.0
 10
11.1759154089
 20
10.5788349979
 30
0.0
 10
11.1708565998
 20
10.5791779317
 30
0.0
 10
11.1683295152
 20
10.5791779931
 30
0.0
  0
LINE
  5
3A8
100
AcDbEntity
  8
0
100
AcDbLine
 62
9
  6
CONTINUOUS
 10
9.7883192424
 20
11.1977165357
 11
9.7898772492
 21
11.1961536392
  0
LINE
  5
3A9
100
AcDbEntity
  8
0
100
AcDbLine
 62
9
  6
CONTINUOUS
 10
9.7898772492
 20
11.1961536392
 11
9.9448359459
 21
11.0406770061
  0
ENDSEC
  0
SECTION
  2
OBJECTS
  0
DICTIONARY
  5
C
100
AcDbDictionary
280
0
281
1
  3
ACAD_GROUP
350
D
  3
ACAD_MLINESTYLE
350
17
  3
ACAD_LAYOUT
350
1A
  3
ACAD_PLOTSETTINGS
350
19
  3
ACAD_PLOTSTYLENAME
350
E
  0
DICTIONARY
  5
D
102
{ACAD_REACTORS
330
C
102
}
100
AcDbDictionary
280
0
281
1
  0
ACDBDICTIONARYWDFLT
  5
E
102
{ACAD_REACTORS
330
C
102
}
100
AcDbDictionary
281
1
  3
Normal
350
F
100
AcDbDictionaryWithDefault
340
F
  0
DICTIONARY
  5
17
102
{ACAD_REACTORS
330
C
102
}
100
AcDbDictionary
280
0
281
1
  3
Standard
350
18
  0
DICTIONARY
  5
19
102
{ACAD_REACTORS
330
C
102
}
100
AcDbDictionary
281
1
  0
DICTIONARY
  5
1A
102
{ACAD_REACTORS
330
C
102
}
100
AcDbDictionary
281
1
  3
Model
350
3AA
  3
Layout1
350
3AB
  0
ACDBPLACEHOLDER
  5
F
102
{ACAD_REACTORS
330
E
102
}
  0
MLINESTYLE
  5
18
102
{ACAD_REACTORS
330
17
102
}
100
AcDbMlineStyle
  2
STANDARD
 70
0
  3

 62
256
 51
90.0
 52
90.0
 71
2
 49
0.5
 62
256
  6
BYLAYER
 49
-0.5
 62
256
  6
BYLAYER
  0
LAYOUT
  5
3AA
102
{ACAD_REACTORS
330
1A
102
}
100
AcDbPlotSettings
  1

  2
none_device
  4
ANSI_C_(22.00_x_17.00_Inches)
  6

 40
0.0
 41
0.0
 42
0.0
 43
0.0
 44
558.8
 45
431.8
 46
0.0
 47
0.0
 48
0.0
 49
0.0
140
0.0
141
0.0
142
1.0
143
1.0
 70
1024
 72
0
 73
0
 74
0
  7

 75
0
147
1.0
148
0.0
149
0.0
100
AcDbLayout
  1
Model
 70
0
 71
0
 10
0.0
 20
0.0
 11
22.0
 21
17.0
 12
0.0
 22
0.0
 32
0.0
 14
0.0
 24
0.0
 34
0.0
 15
0.0
 25
0.0
 35
0.0
146
0.0
 13
0.0
 23
0.0
 33
0.0
 16
1.0
 26
0.0
 36
0.0
 17
0.0
 27
1.0
 37
0.0
 76
0
330
205
345
0
346
0
  0
LAYOUT
  5
3AB
102
{ACAD_REACTORS
330
1A
102
}
100
AcDbPlotSettings
  1

  2
none_device
  4
ANSI_C_(22.00_x_17.00_Inches)
  6

 40
0.0
 41
0.0
 42
0.0
 43
0.0
 44
558.8
 45
431.8
 46
0.0
 47
0.0
 48
0.0
 49
0.0
140
0.0
141
0.0
142
1.0
143
1.0
 70
0
 72
0
 73
0
 74
0
  7

 75
0
147
1.0
148
0.0
149
0.0
100
AcDbLayout
  1
Layout1
 70
0
 71
1
 10
0.0
 20
0.0
 11
22.0
 21
17.0
 12
0.0
 22
0.0
 32
0.0
 14
0.0
 24
0.0
 34
0.0
 15
0.0
 25
0.0
 35
0.0
146
0.0
 13
0.0
 23
0.0
 33
0.0
 16
1.0
 26
0.0
 36
0.0
 17
0.0
 27
1.0
 37
0.0
 76
0
330
206
345
0
346
0
  0
ENDSEC
  0
EOF
