999
DXF file: E:\BT Custom\CADOUTPUT\_TOP.dxf
999
Pro/ENGINEER 2018400 by Parametric Technology Corporation
  0
SECTION
  2
HEADER
  9
$ACADVER
  1
AC1018
  9
$DWGCODEPAGE
  3
ANSI_1252
  9
$EXTMAX
 10
22.0
 20
17.0
 30
0.0
  9
$EXTMIN
 10
0.0
 20
0.0
 30
0.0
  9
$LIMMIN
 10
0.0
 20
0.0
  9
$LIMMAX
 10
22.0
 20
17.0
  9
$VIEWCTR
 10
11.0
 20
8.5
  9
$VIEWSIZE
 40
17.0
  9
$CLAYER
  8
0
  9
$LTSCALE
 40
1.21
  9
$CELTYPE
  6
BYLAYER
  9
$DIMSCALE
 40
1.0
  9
$DIMASZ
 40
0.1
  9
$DIMEXO
 40
0.0625
  9
$DIMDLI
 40
0.836
  9
$DIMEXE
 40
0.125
  9
$DIMCEN
 40
0.198
  9
$DIMLFAC
 40
1.0
  9
$DIMBLK
  1
_FILLED
  9
$DIMALT
 70
1
  9
$DIMALTD
 70
2
  9
$DIMALTTD
 70
2
  9
$DIMALTF
 40
25.4
  9
$DIMTXT
 40
0.08
  9
$DIMTOL
 70
1
  9
$DIMLIM
 70
0
  9
$DIMTFAC
 40
1.0
  9
$DIMTP
 40
0.001
  9
$DIMTM
 40
0.001
  9
$DIMGAP
 40
0.09
  9
$DIMDSEP
 70
46
  9
$AUNITS
 70
0
  9
$PDMODE
 70
3
  9
$PDSIZE
 40
0.06
  9
$HANDSEED
  5
31C
  9
$TILEMODE
 70
1
  9
$MEASUREMENT
 70
0
  9
$INSUNITS
 70
1
  0
ENDSEC
  0
SECTION
  2
CLASSES
  0
CLASS
  1
ACDBDICTIONARYWDFLT
  2
AcDbDictionaryWithDefault
  3
AutoCAD 2000
 90
0
 91
1
280
0
281
0
  0
CLASS
  1
ACDBPLACEHOLDER
  2
AcDbPlaceHolder
  3
AutoCAD 2000
 90
0
 91
1
280
0
281
0
  0
CLASS
  1
LAYOUT
  2
AcDbLayout
  3
AutoCAD 2000
 90
0
 91
0
280
0
281
0
  0
ENDSEC
  0
SECTION
  2
TABLES
  0
TABLE
  2
VPORT
  5
8
100
AcDbSymbolTable
 70
2
  0
VPORT
  5
1F4
100
AcDbSymbolTableRecord
100
AcDbViewportTableRecord
  2
*ACTIVE
 70
0
 10
0.0
 20
0.0
 11
1.0
 21
1.0
 12
11.0
 22
8.5
 13
0.0
 23
0.0
 14
1.0
 24
1.0
 15
0.0
 25
0.0
 16
0.0
 26
0.0
 36
1.0
 17
0.0
 27
0.0
 37
0.0
 40
17.0
 41
1.2941176471
 42
50.0
 43
0.0
 44
0.0
 50
0.0
 51
0.0
 71
0
 72
100
 73
1
 74
1
 75
0
 76
0
 77
0
 78
0
  0
ENDTAB
  0
TABLE
  2
LTYPE
  5
5
100
AcDbSymbolTable
 70
6
  0
LTYPE
  5
14
100
AcDbSymbolTableRecord
100
AcDbLinetypeTableRecord
  2
BYBLOCK
 70
0
  3

 72
65
 73
0
 40
0.0
  0
LTYPE
  5
15
100
AcDbSymbolTableRecord
100
AcDbLinetypeTableRecord
  2
BYLAYER
 70
0
  3

 72
65
 73
0
 40
0.0
  0
LTYPE
  5
16
100
AcDbSymbolTableRecord
100
AcDbLinetypeTableRecord
  2
CONTINUOUS
 70
64
  3
Solid line
 72
65
 73
0
 40
0.0
  0
LTYPE
  5
1F5
100
AcDbSymbolTableRecord
100
AcDbLinetypeTableRecord
  2
CENTER
 70
64
  3
____ _ ____ _ ____ _ ____ _ ____ _ ____ _ ____
 72
65
 73
4
 40
0.6
 49
0.375
 74
0
 49
-0.075
 74
0
 49
0.075
 74
0
 49
-0.075
 74
0
  0
LTYPE
  5
1F6
100
AcDbSymbolTableRecord
100
AcDbLinetypeTableRecord
  2
HIDDEN
 70
64
  3
- - - - - - - - - - - - - - - - - - - -
 72
65
 73
2
 40
0.2
 49
0.1
 74
0
 49
-0.1
 74
0
  0
LTYPE
  5
1F7
100
AcDbSymbolTableRecord
100
AcDbLinetypeTableRecord
  2
PHANTOM
 70
64
  3
_____ _ _ _____ _ _ _____ _ _ _____
 72
65
 73
6
 40
0.8
 49
0.45
 74
0
 49
-0.05
 74
0
 49
0.1
 74
0
 49
-0.05
 74
0
 49
0.1
 74
0
 49
-0.05
 74
0
  0
LTYPE
  5
1F8
100
AcDbSymbolTableRecord
100
AcDbLinetypeTableRecord
  2
DOT
 70
64
  3
. . . . . . . . . . . . . . . . . . . .
 72
65
 73
2
 40
0.2
 49
0.1
 74
0
 49
-0.1
 74
0
  0
LTYPE
  5
1F9
100
AcDbSymbolTableRecord
100
AcDbLinetypeTableRecord
  2
DASHED
 70
64
  3
- - - - - - - - - - - - - - - - - - - -
 72
65
 73
2
 40
0.2
 49
0.1
 74
0
 49
-0.1
 74
0
  0
ENDTAB
  0
TABLE
  2
LAYER
  5
2
100
AcDbSymbolTable
 70
36
  0
LAYER
  5
10
100
AcDbSymbolTableRecord
100
AcDbLayerTableRecord
  2
0
 70
0
 62
7
  6
CONTINUOUS
370
-3
390
F
  0
LAYER
  5
1FA
100
AcDbSymbolTableRecord
100
AcDbLayerTableRecord
  2
DEFAULT_1
 70
0
 62
7
  6
CENTER
370
-3
390
F
  0
LAYER
  5
1FB
100
AcDbSymbolTableRecord
100
AcDbLayerTableRecord
  2
DEFAULT_2
 70
0
 62
8
  6
HIDDEN
370
-3
390
F
  0
LAYER
  5
1FC
100
AcDbSymbolTableRecord
100
AcDbLayerTableRecord
  2
DEFAULT_3
 70
0
 62
7
  6
PHANTOM
370
-3
390
F
  0
LAYER
  5
1FD
100
AcDbSymbolTableRecord
100
AcDbLayerTableRecord
  2
ALL_FEATURES
 70
0
 62
7
  6
CONTINUOUS
370
-3
390
F
  0
LAYER
  5
1FE
100
AcDbSymbolTableRecord
100
AcDbLayerTableRecord
  2
AXES_FEATURES
 70
0
 62
7
  6
CONTINUOUS
370
-3
390
F
  0
LAYER
  5
1FF
100
AcDbSymbolTableRecord
100
AcDbLayerTableRecord
  2
DEFAULT_COORDINATE_SYSTEM
 70
0
 62
7
  6
CONTINUOUS
370
-3
390
F
  0
LAYER
  5
200
100
AcDbSymbolTableRecord
100
AcDbLayerTableRecord
  2
DEFAULT_DATUM_AXES
 70
0
 62
7
  6
CONTINUOUS
370
-3
390
F
  0
LAYER
  5
201
100
AcDbSymbolTableRecord
100
AcDbLayerTableRecord
  2
DEFAULT_DATUM_PLANES
 70
0
 62
7
  6
CONTINUOUS
370
-3
390
F
  0
LAYER
  5
202
100
AcDbSymbolTableRecord
100
AcDbLayerTableRecord
  2
DIMENSIONS
 70
0
 62
7
  6
CONTINUOUS
370
-3
390
F
  0
ENDTAB
  0
TABLE
  2
STYLE
  5
3
100
AcDbSymbolTable
 70
1
  0
STYLE
  5
11
100
AcDbSymbolTableRecord
100
AcDbTextStyleTableRecord
  2
STANDARD
 70
0
 40
0.0
 41
0.8
 50
0.0
 71
0
 42
0.2
  3
txt
  4

  0
STYLE
  5
203
100
AcDbSymbolTableRecord
100
AcDbTextStyleTableRecord
  2
TEXTSTYLE_1
 70
0
 40
0.0
 41
0.8
 50
0.0
 71
0
 42
0.2
  3
gdt
  4

  0
ENDTAB
  0
TABLE
  2
VIEW
  5
6
100
AcDbSymbolTable
 70
0
  0
ENDTAB
  0
TABLE
  2
UCS
  5
7
100
AcDbSymbolTable
 70
0
  0
ENDTAB
  0
TABLE
  2
APPID
  5
9
100
AcDbSymbolTable
 70
1
  0
APPID
  5
204
100
AcDbSymbolTableRecord
100
AcDbRegAppTableRecord
  2
ACAD
 70
0
  0
ENDTAB
  0
TABLE
  2
BLOCK_RECORD
  5
1
100
AcDbSymbolTable
 70
0
  0
BLOCK_RECORD
  5
205
100
AcDbSymbolTableRecord
100
AcDbBlockTableRecord
  2
*Model_Space
  0
BLOCK_RECORD
  5
206
100
AcDbSymbolTableRecord
100
AcDbBlockTableRecord
  2
*Paper_Space
  0
BLOCK_RECORD
  5
207
100
AcDbSymbolTableRecord
100
AcDbBlockTableRecord
  2
_FILLED
  0
ENDTAB
  0
TABLE
  2
DIMSTYLE
  5
A
100
AcDbSymbolTable
 70
1
100
AcDbDimStyleTable
 71
0
  0
DIMSTYLE
105
208
100
AcDbSymbolTableRecord
100
AcDbDimStyleTableRecord
  2
STANDARD
 70
0
  3

  4

 40
1.0
 41
0.1
 42
0.0625
 43
0.38
 44
0.125
 45
0.0
 46
0.0
 47
0.001
 48
0.001
140
0.08
141
0.09
142
0.0
143
25.4
144
1.0
145
0.0
146
1.0
147
0.09
 71
1.0
 72
0.0
 73
1
 74
1
 75
0
 76
0
 77
0
 78
4
 79
1
170
1
171
2
172
0
173
0
174
0
175
0
176
0
177
0
178
0
270
2
179
3
271
3
272
3
273
2
274
2
275
0
280
0
281
0
282
0
283
1
284
4
285
0
286
0
287
3
288
0
340
11
278
46
341
207
342
207
343
207
344
207
  0
ENDTAB
  0
ENDSEC
  0
SECTION
  2
BLOCKS
  0
BLOCK
  5
20
100
AcDbEntity
  8
0
100
AcDbBlockBegin
  2
*Model_Space
 70
0
 10
0.0
 20
0.0
 30
0.0
  3
*Model_Space
  1

  0
ENDBLK
  5
21
100
AcDbEntity
  8
0
100
AcDbBlockEnd
  0
BLOCK
  5
1C
100
AcDbEntity
  8
0
100
AcDbBlockBegin
  2
*Paper_Space
 70
0
 10
0.0
 20
0.0
 30
0.0
  3
*Paper_Space
  1

  0
ENDBLK
  5
1D
100
AcDbEntity
  8
0
100
AcDbBlockEnd
  0
BLOCK
  5
209
100
AcDbEntity
  8
0
100
AcDbBlockBegin
  2
_FILLED
 70
64
 10
0.0
 20
0.0
  3
_FILLED
  1

  0
SOLID
  5
20A
100
AcDbEntity
  8
0
  6
BYBLOCK
 62
0
100
AcDbTrace
 10
0.0
 20
0.0
 11
-1.0
 21
0.2
 12
-1.0
 22
-0.2
 13
-1.0
 23
-0.2
  0
ENDBLK
  5
20B
100
AcDbEntity
  8
0
  6
BYBLOCK
 62
0
100
AcDbBlockEnd
  0
ENDSEC
  0
SECTION
  2
ENTITIES
  0
LINE
  5
20C
100
AcDbEntity
  8
0
100
AcDbLine
 62
7
  6
CONTINUOUS
 10
7.1723183383
 20
9.15439916
 11
7.1723183383
 21
9.43439916
  0
LINE
  5
20D
100
AcDbEntity
  8
0
100
AcDbLine
 62
9
  6
CONTINUOUS
 10
7.2023183383
 20
9.12439916
 11
7.2023183383
 21
9.43439916
  0
LINE
  5
20E
100
AcDbEntity
  8
0
100
AcDbLine
 62
9
  6
CONTINUOUS
 10
10.6921484295
 20
5.5311546437
 11
10.6911293656
 21
5.5308956097
  0
LINE
  5
20F
100
AcDbEntity
  8
0
100
AcDbLine
 62
7
  6
CONTINUOUS
 10
11.4035073256
 20
5.5308956022
 11
11.403511105
 21
5.5308958041
  0
LINE
  5
210
100
AcDbEntity
  8
0
100
AcDbLine
 62
7
  6
CONTINUOUS
 10
11.3972147128
 20
5.5306150885
 11
11.4034808742
 21
5.5308942456
  0
LWPOLYLINE
  5
211
100
AcDbEntity
  8
0
100
AcDbPolyline
 62
7
  6
CONTINUOUS
 90
3
 70
0
 10
11.3816500953
 20
5.530312279
 10
11.3860096104
 20
5.5303404955
 10
11.3972147128
 20
5.5306150885
  0
LINE
  5
212
100
AcDbEntity
  8
0
100
AcDbLine
 62
9
  6
CONTINUOUS
 10
11.3073142391
 20
5.7582991533
 11
10.7873224373
 21
5.758299157
  0
LINE
  5
213
100
AcDbEntity
  8
0
100
AcDbLine
 62
7
  6
CONTINUOUS
 10
10.7129865829
 20
5.530312279
 11
11.0473183383
 21
5.530382898
  0
LINE
  5
214
100
AcDbEntity
  8
0
100
AcDbLine
 62
7
  6
CONTINUOUS
 10
11.0473183383
 20
5.5303828986
 11
11.3816500941
 21
5.5303122791
  0
LWPOLYLINE
  5
215
100
AcDbEntity
  8
0
100
AcDbPolyline
 62
7
  6
CONTINUOUS
 90
3
 70
0
 10
10.6969160852
 20
5.5306342531
 10
10.708112829
 20
5.530346782
 10
10.7129865833
 20
5.530312279
  0
LINE
  5
216
100
AcDbEntity
  8
0
100
AcDbLine
 62
7
  6
CONTINUOUS
 10
10.6911558173
 20
5.5308942447
 11
10.6969160852
 21
5.5306342531
  0
LINE
  5
217
100
AcDbEntity
  8
0
100
AcDbLine
 62
7
  6
CONTINUOUS
 10
10.6911293656
 20
5.5308956097
 11
10.6911255765
 21
5.5308958121
  0
LINE
  5
218
100
AcDbEntity
  8
0
100
AcDbLine
 62
9
  6
CONTINUOUS
 10
11.4024882341
 20
5.5311546345
 11
11.4035073256
 21
5.5308956022
  0
LINE
  5
219
100
AcDbEntity
  8
0
100
AcDbLine
 62
9
  6
CONTINUOUS
 10
11.2779555107
 20
5.8206785561
 11
10.8166811659
 21
5.8206785561
  0
LINE
  5
21A
100
AcDbEntity
  8
0
100
AcDbLine
 62
9
  6
CONTINUOUS
 10
11.2779555107
 20
5.8305527366
 11
10.8166811659
 21
5.8305527366
  0
LINE
  5
21B
100
AcDbEntity
  8
0
100
AcDbLine
 62
9
  6
CONTINUOUS
 10
11.3273183383
 20
5.8521740928
 11
11.3179183172
 21
5.852174093
  0
LINE
  5
21C
100
AcDbEntity
  8
0
100
AcDbLine
 62
9
  6
CONTINUOUS
 10
10.7673183383
 20
5.8521740928
 11
10.7767183595
 21
5.8521740928
  0
LINE
  5
21D
100
AcDbEntity
  8
0
100
AcDbLine
 62
9
  6
CONTINUOUS
 10
10.9533049807
 20
5.9763051732
 11
11.1413316958
 21
5.9763051732
  0
LINE
  5
21E
100
AcDbEntity
  8
0
100
AcDbLine
 62
9
  6
CONTINUOUS
 10
10.9533049807
 20
5.9864150514
 11
11.1413316958
 21
5.9864150514
  0
LINE
  5
21F
100
AcDbEntity
  8
0
100
AcDbLine
 62
9
  6
CONTINUOUS
 10
10.9330542628
 20
6.0076474715
 11
10.922454284
 21
6.0076474715
  0
LINE
  5
220
100
AcDbEntity
  8
0
100
AcDbLine
 62
9
  6
CONTINUOUS
 10
11.1615824138
 20
6.0076474715
 11
11.1721823926
 21
6.0076474715
  0
LINE
  5
221
100
AcDbEntity
  8
0
100
AcDbLine
 62
7
  6
CONTINUOUS
 10
9.8976567549
 20
9.12439916
 11
9.8976567549
 21
9.0943991615
  0
LINE
  5
222
100
AcDbEntity
  8
0
100
AcDbLine
 62
9
  6
CONTINUOUS
 10
9.9176467483
 20
9.12439916
 11
9.9176467483
 21
9.0943991609
  0
LINE
  5
223
100
AcDbEntity
  8
0
100
AcDbLine
 62
7
  6
CONTINUOUS
 10
10.6908547973
 20
6.2783918344
 11
10.6907015312
 21
6.2783703045
  0
LINE
  5
224
100
AcDbEntity
  8
0
100
AcDbLine
 62
7
  6
CONTINUOUS
 10
10.693624562
 20
6.2785735751
 11
10.6908547973
 21
6.2783918344
  0
LINE
  5
225
100
AcDbEntity
  8
0
100
AcDbLine
 62
7
  6
CONTINUOUS
 10
10.7061397577
 20
6.2792411425
 11
10.6908547973
 21
6.2783918343
  0
LWPOLYLINE
  5
226
100
AcDbEntity
  8
0
100
AcDbPolyline
 62
7
  6
CONTINUOUS
 90
4
 70
0
 10
11.3884928532
 20
6.2792410306
 10
11.3736849836
 20
6.2788777292
 10
11.351177708
 20
6.2785053391
 10
11.3315280976
 20
6.2783696742
  0
LINE
  5
227
100
AcDbEntity
  8
0
100
AcDbLine
 62
7
  6
CONTINUOUS
 10
11.3316933953
 20
6.2783700428
 11
11.3273183383
 21
6.2783633083
  0
LINE
  5
228
100
AcDbEntity
  8
0
100
AcDbLine
 62
9
  6
CONTINUOUS
 10
10.9330542628
 20
6.143057578
 11
10.922454284
 21
6.143057578
  0
LINE
  5
229
100
AcDbEntity
  8
0
100
AcDbLine
 62
9
  6
CONTINUOUS
 10
11.1615824138
 20
6.143057578
 11
11.1721823925
 21
6.1430575779
  0
LINE
  5
22A
100
AcDbEntity
  8
0
100
AcDbLine
 62
9
  6
CONTINUOUS
 10
11.1436137678
 20
6.1647509377
 11
10.9510229088
 21
6.1647509377
  0
LINE
  5
22B
100
AcDbEntity
  8
0
100
AcDbLine
 62
9
  6
CONTINUOUS
 10
11.1436137678
 20
6.1735309178
 11
10.9510229088
 21
6.1735309178
  0
LINE
  5
22C
100
AcDbEntity
  8
0
100
AcDbLine
 62
9
  6
CONTINUOUS
 10
11.3273183383
 20
6.3133661557
 11
11.3179183225
 21
6.3133661592
  0
LINE
  5
22D
100
AcDbEntity
  8
0
100
AcDbLine
 62
9
  6
CONTINUOUS
 10
10.7673183383
 20
6.3133661343
 11
10.7767183444
 21
6.3133661398
  0
LINE
  5
22E
100
AcDbEntity
  8
0
100
AcDbLine
 62
9
  6
CONTINUOUS
 10
10.837795486
 20
6.3183681332
 11
11.2568411906
 21
6.3183681332
  0
LINE
  5
22F
100
AcDbEntity
  8
0
100
AcDbLine
 62
9
  6
CONTINUOUS
 10
10.837795486
 20
6.3293243444
 11
11.2568411906
 21
6.3293243444
  0
LINE
  5
230
100
AcDbEntity
  8
0
100
AcDbLine
 62
7
  6
CONTINUOUS
 10
10.7673183383
 20
6.278363313
 11
10.7116882147
 21
6.278493056
  0
LWPOLYLINE
  5
231
100
AcDbEntity
  8
0
100
AcDbPolyline
 62
7
  6
CONTINUOUS
 90
3
 70
0
 10
10.7631083568
 20
6.2783696747
 10
10.7436361012
 20
6.2785033087
 10
10.7213279511
 20
6.2788696867
  0
LINE
  5
232
100
AcDbEntity
  8
0
100
AcDbLine
 62
7
  6
CONTINUOUS
 10
10.7213279511
 20
6.2788696867
 11
10.7061503567
 21
6.2792408506
  0
LINE
  5
233
100
AcDbEntity
  8
0
100
AcDbLine
 62
7
  6
CONTINUOUS
 10
11.4037823729
 20
6.2783917665
 11
11.3884836803
 21
6.2792407827
  0
LINE
  5
234
100
AcDbEntity
  8
0
100
AcDbLine
 62
7
  6
CONTINUOUS
 10
11.4037858269
 20
6.2783912946
 11
11.403782373
 21
6.2783917665
  0
LWPOLYLINE
  5
235
100
AcDbEntity
  8
0
100
AcDbPolyline
 62
7
  6
CONTINUOUS
 90
5
 70
0
 10
10.1002412084
 20
8.8136021364
 10
10.1001429675
 20
8.8030023988
 10
10.1025772388
 20
8.7862173431
 10
10.1081173845
 20
8.7701870434
 10
10.1127713598
 20
8.7613091576
  0
LWPOLYLINE
  5
236
100
AcDbEntity
  8
0
100
AcDbPolyline
 62
7
  6
CONTINUOUS
 90
5
 70
0
 10
12.0085838483
 20
8.8341133412
 10
12.015784508
 20
8.8368015651
 10
12.0278544204
 20
8.8440179278
 10
12.037924461
 20
8.8538595596
 10
12.0420894945
 20
8.8597005832
  0
LINE
  5
237
100
AcDbEntity
  8
0
100
AcDbLine
 62
7
  6
CONTINUOUS
 10
12.0079503795
 20
8.8339094751
 11
12.0085842042
 21
8.8341124035
  0
LINE
  5
238
100
AcDbEntity
  8
0
100
AcDbLine
 62
7
  6
CONTINUOUS
 10
10.7673183383
 20
6.59379916
 11
11.3273183383
 21
6.59379916
  0
LINE
  5
239
100
AcDbEntity
  8
0
100
AcDbLine
 62
7
  6
CONTINUOUS
 10
10.7673182544
 20
6.62479916
 11
11.3273183913
 21
6.62479916
  0
LINE
  5
23A
100
AcDbEntity
  8
0
100
AcDbLine
 62
9
  6
CONTINUOUS
 10
11.1413316958
 20
5.9763051732
 11
11.2779555107
 21
5.8305527366
  0
LINE
  5
23B
100
AcDbEntity
  8
0
100
AcDbLine
 62
9
  6
CONTINUOUS
 10
11.1721823926
 20
6.0076474715
 11
11.3179183171
 21
5.8521740928
  0
LINE
  5
23C
100
AcDbEntity
  8
0
100
AcDbLine
 62
9
  6
CONTINUOUS
 10
10.922454284
 20
6.143057578
 11
10.790668919
 21
6.3116335716
  0
LINE
  5
23D
100
AcDbEntity
  8
0
100
AcDbLine
 62
9
  6
CONTINUOUS
 10
10.9510229088
 20
6.1735309178
 11
10.837795486
 21
6.3183681332
  0
LINE
  5
23E
100
AcDbEntity
  8
0
100
AcDbLine
 62
7
  6
CONTINUOUS
 10
10.0995706633
 20
8.820215433
 11
10.1002253852
 21
8.8136032173
  0
LINE
  5
23F
100
AcDbEntity
  8
0
100
AcDbLine
 62
9
  6
CONTINUOUS
 10
11.4213029794
 20
6.2384040514
 11
11.4213949393
 21
6.2383373951
  0
LINE
  5
240
100
AcDbEntity
  8
0
100
AcDbLine
 62
9
  6
CONTINUOUS
 10
10.6736558324
 20
6.258678283
 11
10.6735690755
 21
6.2591913383
  0
LINE
  5
241
100
AcDbEntity
  8
0
100
AcDbLine
 62
9
  6
CONTINUOUS
 10
10.7873224373
 20
5.758299157
 11
10.7873183383
 21
5.758405009
  0
LINE
  5
242
100
AcDbEntity
  8
0
100
AcDbLine
 62
7
  6
CONTINUOUS
 10
10.7673340864
 20
5.7775596919
 11
10.7673365737
 21
5.7774954429
  0
LINE
  5
243
100
AcDbEntity
  8
0
100
AcDbLine
 62
7
  6
CONTINUOUS
 10
10.7673383403
 20
5.7774500069
 11
10.7673553007
 21
5.7768354202
  0
LINE
  5
244
100
AcDbEntity
  8
0
100
AcDbLine
 62
7
  6
CONTINUOUS
 10
10.7673183383
 20
5.7783511462
 11
10.7673342202
 21
5.7775563261
  0
LINE
  5
245
100
AcDbEntity
  8
0
100
AcDbLine
 62
9
  6
CONTINUOUS
 10
10.7129844487
 20
5.5305926171
 11
10.7129865829
 21
5.530312279
  0
LINE
  5
246
100
AcDbEntity
  8
0
100
AcDbLine
 62
7
  6
CONTINUOUS
 10
10.7673553007
 20
5.7768354202
 11
10.7673580773
 21
5.7763528367
  0
LINE
  5
247
100
AcDbEntity
  8
0
100
AcDbLine
 62
7
  6
CONTINUOUS
 10
10.7673183383
 20
5.7783511462
 11
10.7673183383
 21
6.59379916
  0
LINE
  5
248
100
AcDbEntity
  8
0
100
AcDbLine
 62
9
  6
CONTINUOUS
 10
10.7767183595
 20
5.8521740928
 11
10.7767183444
 21
6.3133661638
  0
LINE
  5
249
100
AcDbEntity
  8
0
100
AcDbLine
 62
9
  6
CONTINUOUS
 10
10.7873183383
 20
5.758405009
 11
10.7873183383
 21
5.8204088592
  0
LINE
  5
24A
100
AcDbEntity
  8
0
100
AcDbLine
 62
9
  6
CONTINUOUS
 10
10.7873183383
 20
6.3329444282
 11
10.7873183383
 21
6.5937991605
  0
LINE
  5
24B
100
AcDbEntity
  8
0
100
AcDbLine
 62
7
  6
CONTINUOUS
 10
10.7943183383
 20
6.62479916
 11
10.7943183383
 21
6.59379916
  0
LINE
  5
24C
100
AcDbEntity
  8
0
100
AcDbLine
 62
7
  6
CONTINUOUS
 10
10.6728523018
 20
6.0387323605
 11
10.6721849649
 21
5.5680975322
  0
LINE
  5
24D
100
AcDbEntity
  8
0
100
AcDbLine
 62
7
  6
CONTINUOUS
 10
10.767357627
 20
5.7762144662
 11
10.7673576395
 21
5.7762176677
  0
LWPOLYLINE
  5
24E
100
AcDbEntity
  8
0
100
AcDbPolyline
 62
7
  6
CONTINUOUS
 90
3
 70
0
 10
10.6734246089
 20
6.2535927904
 10
10.6732625864
 20
6.2427803119
 10
10.6728523018
 20
6.0387323605
  0
LINE
  5
24F
100
AcDbEntity
  8
0
100
AcDbLine
 62
9
  6
CONTINUOUS
 10
10.67219341
 20
5.550890608
 11
10.6721925516
 21
5.5508330008
  0
LINE
  5
250
100
AcDbEntity
  8
0
100
AcDbLine
 62
7
  6
CONTINUOUS
 10
10.6735682814
 20
6.2591650106
 11
10.6734246089
 21
6.2535927904
  0
LINE
  5
251
100
AcDbEntity
  8
0
100
AcDbLine
 62
9
  6
CONTINUOUS
 10
10.8166811659
 20
5.8206785561
 11
10.8166811659
 21
5.8305527365
  0
LINE
  5
252
100
AcDbEntity
  8
0
100
AcDbLine
 62
9
  6
CONTINUOUS
 10
10.837795486
 20
6.3293243444
 11
10.837795486
 21
6.3183681332
  0
LINE
  5
253
100
AcDbEntity
  8
0
100
AcDbLine
 62
9
  6
CONTINUOUS
 10
10.922454284
 20
6.143057578
 11
10.922454284
 21
6.0076474715
  0
LINE
  5
254
100
AcDbEntity
  8
0
100
AcDbLine
 62
9
  6
CONTINUOUS
 10
10.9330542628
 20
6.143057578
 11
10.9330542628
 21
6.0076474715
  0
LINE
  5
255
100
AcDbEntity
  8
0
100
AcDbLine
 62
9
  6
CONTINUOUS
 10
10.9510229088
 20
6.1647509377
 11
10.9510229088
 21
6.1735309178
  0
LINE
  5
256
100
AcDbEntity
  8
0
100
AcDbLine
 62
9
  6
CONTINUOUS
 10
10.9533049807
 20
5.9864150514
 11
10.9533049807
 21
5.9763051732
  0
LINE
  5
257
100
AcDbEntity
  8
0
100
AcDbLine
 62
9
  6
CONTINUOUS
 10
11.0473183383
 20
5.5303828986
 11
11.0473183383
 21
5.75829916
  0
LINE
  5
258
100
AcDbEntity
  8
0
100
AcDbLine
 62
9
  6
CONTINUOUS
 10
10.6721860231
 20
5.5681046022
 11
10.6721849649
 21
5.5680975322
  0
LINE
  5
259
100
AcDbEntity
  8
0
100
AcDbLine
 62
7
  6
CONTINUOUS
 10
10.0525537523
 20
8.8597010428
 11
10.0567354237
 21
8.8538394171
  0
LWPOLYLINE
  5
25A
100
AcDbEntity
  8
0
100
AcDbPolyline
 62
7
  6
CONTINUOUS
 90
4
 70
0
 10
9.897724863
 20
9.0938423797
 10
9.9500419354
 20
9.0174438231
 10
10.0042431875
 20
8.9354514951
 10
10.0525467158
 20
8.8596966043
  0
LWPOLYLINE
  5
25B
100
AcDbEntity
  8
0
100
AcDbPolyline
 62
7
  6
CONTINUOUS
 90
4
 70
0
 10
10.1127576731
 20
8.7613009808
 10
10.2630414217
 20
8.4920798948
 10
10.3933416561
 20
8.2210178542
 10
10.5010845936
 20
7.9553896415
  0
LWPOLYLINE
  5
25C
100
AcDbEntity
  8
0
100
AcDbPolyline
 62
7
  6
CONTINUOUS
 90
5
 70
0
 10
11.3285732049
 20
6.2270601778
 10
11.3287371919
 20
6.2266237351
 10
11.3281889874
 20
6.2300215081
 10
11.3275929047
 20
6.2385031617
 10
11.3273178994
 20
6.2513042754
  0
LINE
  5
25D
100
AcDbEntity
  8
0
100
AcDbLine
 62
9
  6
CONTINUOUS
 10
11.1413316958
 20
5.9864150514
 11
11.1413316958
 21
5.9763051732
  0
LINE
  5
25E
100
AcDbEntity
  8
0
100
AcDbLine
 62
9
  6
CONTINUOUS
 10
11.1436137678
 20
6.1647509377
 11
11.1436137678
 21
6.1735309178
  0
LINE
  5
25F
100
AcDbEntity
  8
0
100
AcDbLine
 62
9
  6
CONTINUOUS
 10
11.1615824138
 20
6.0076474715
 11
11.1615824138
 21
6.143057578
  0
LINE
  5
260
100
AcDbEntity
  8
0
100
AcDbLine
 62
9
  6
CONTINUOUS
 10
11.1721823926
 20
6.0076474715
 11
11.1721823926
 21
6.143057578
  0
LINE
  5
261
100
AcDbEntity
  8
0
100
AcDbLine
 62
9
  6
CONTINUOUS
 10
11.2568411906
 20
6.3293243444
 11
11.2568411906
 21
6.3183681333
  0
LINE
  5
262
100
AcDbEntity
  8
0
100
AcDbLine
 62
9
  6
CONTINUOUS
 10
11.2779555107
 20
5.8206785561
 11
11.2779555107
 21
5.8305527366
  0
LINE
  5
263
100
AcDbEntity
  8
0
100
AcDbLine
 62
7
  6
CONTINUOUS
 10
11.3003183383
 20
6.62479916
 11
11.3003183383
 21
6.59379916
  0
LINE
  5
264
100
AcDbEntity
  8
0
100
AcDbLine
 62
9
  6
CONTINUOUS
 10
11.3073183383
 20
6.5937991606
 11
11.3073183383
 21
6.3329444285
  0
LINE
  5
265
100
AcDbEntity
  8
0
100
AcDbLine
 62
9
  6
CONTINUOUS
 10
11.3073183383
 20
5.8204088592
 11
11.3073183383
 21
5.758405009
  0
LINE
  5
266
100
AcDbEntity
  8
0
100
AcDbLine
 62
9
  6
CONTINUOUS
 10
11.3179183225
 20
6.3133661689
 11
11.3179183171
 21
5.8521740928
  0
LINE
  5
267
100
AcDbEntity
  8
0
100
AcDbLine
 62
7
  6
CONTINUOUS
 10
11.3273183383
 20
6.59379916
 11
11.3273183383
 21
5.7783511462
  0
LWPOLYLINE
  5
268
100
AcDbEntity
  8
0
100
AcDbPolyline
 62
7
  6
CONTINUOUS
 90
3
 70
0
 10
11.3272785869
 20
5.7763530896
 10
11.327281595
 20
5.776849659
 10
11.3272984568
 20
5.7774530066
  0
LINE
  5
269
100
AcDbEntity
  8
0
100
AcDbLine
 62
7
  6
CONTINUOUS
 10
11.3273183383
 20
5.7783552882
 11
11.3273025907
 21
5.777559706
  0
LINE
  5
26A
100
AcDbEntity
  8
0
100
AcDbLine
 62
9
  6
CONTINUOUS
 10
11.3073183383
 20
5.758405009
 11
11.3073142391
 21
5.7582991533
  0
LWPOLYLINE
  5
26B
100
AcDbEntity
  8
0
100
AcDbPolyline
 62
7
  6
CONTINUOUS
 90
5
 70
0
 10
11.9818779019
 20
8.7613059176
 10
11.9865328094
 20
8.7701858253
 10
11.9920726107
 20
8.7862163943
 10
11.9945064685
 20
8.8030016663
 10
11.9944078852
 20
8.8136022605
  0
LINE
  5
26C
100
AcDbEntity
  8
0
100
AcDbLine
 62
7
  6
CONTINUOUS
 10
11.8315952967
 20
8.4920799754
 11
11.9818808917
 21
8.7613041412
  0
LWPOLYLINE
  5
26D
100
AcDbEntity
  8
0
100
AcDbPolyline
 62
7
  6
CONTINUOUS
 90
4
 70
0
 10
12.0420916062
 20
8.859699231
 10
12.0903935566
 20
8.9354515992
 10
12.1445947763
 20
9.0174438753
 10
12.1969117995
 20
9.0938423591
  0
LWPOLYLINE
  5
26E
100
AcDbEntity
  8
0
100
AcDbPolyline
 62
7
  6
CONTINUOUS
 90
4
 70
0
 10
10.0567354237
 20
8.8538394171
 10
10.0668167831
 20
8.8439968549
 10
10.0788840155
 20
8.8367906836
 10
10.0860549977
 20
8.8341151098
  0
LWPOLYLINE
  5
26F
100
AcDbEntity
  8
0
100
AcDbPolyline
 62
7
  6
CONTINUOUS
 90
3
 70
0
 10
10.0924179974
 20
8.8308553566
 10
10.0968694864
 20
8.8261248144
 10
10.0995706633
 20
8.820215433
  0
LINE
  5
270
100
AcDbEntity
  8
0
100
AcDbLine
 62
9
  6
CONTINUOUS
 10
11.4224506534
 20
5.5681046022
 11
11.4224517117
 21
5.5680975321
  0
LINE
  5
271
100
AcDbEntity
  8
0
100
AcDbLine
 62
7
  6
CONTINUOUS
 10
11.4212230732
 20
6.2530875008
 11
11.4210683953
 21
6.2591650039
  0
LINE
  5
272
100
AcDbEntity
  8
0
100
AcDbLine
 62
9
  6
CONTINUOUS
 10
11.4224432557
 20
5.550890601
 11
11.4224441141
 21
5.5508329936
  0
LINE
  5
273
100
AcDbEntity
  8
0
100
AcDbLine
 62
7
  6
CONTINUOUS
 10
11.4213778752
 20
6.2422700023
 11
11.4212230732
 21
6.2530875008
  0
LWPOLYLINE
  5
274
100
AcDbEntity
  8
0
100
AcDbPolyline
 62
7
  6
CONTINUOUS
 90
3
 70
0
 10
11.4224517117
 20
5.5680975321
 10
11.4221714048
 20
5.8103038862
 10
11.4213778752
 20
6.2422700023
  0
LINE
  5
275
100
AcDbEntity
  8
0
100
AcDbLine
 62
9
  6
CONTINUOUS
 10
11.3816522279
 20
5.5305926171
 11
11.3816500953
 21
5.530312279
  0
LINE
  5
276
100
AcDbEntity
  8
0
100
AcDbLine
 62
7
  6
CONTINUOUS
 10
11.327300231
 20
5.7774988437
 11
11.3273016796
 21
5.7775362074
  0
LINE
  5
277
100
AcDbEntity
  8
0
100
AcDbLine
 62
9
  6
CONTINUOUS
 10
11.4209808441
 20
6.2586782825
 11
11.4210676013
 21
6.2591913318
  0
LWPOLYLINE
  5
278
100
AcDbEntity
  8
0
100
AcDbPolyline
 62
7
  6
CONTINUOUS
 90
3
 70
0
 10
11.5935520568
 20
7.9553895705
 10
11.7012950222
 20
8.221017858
 10
11.8315952967
 20
8.4920799754
  0
LWPOLYLINE
  5
279
100
AcDbEntity
  8
0
100
AcDbPolyline
 62
7
  6
CONTINUOUS
 90
5
 70
0
 10
11.9944113403
 20
8.8136025009
 10
11.9950660056
 20
8.8202154049
 10
11.9977671787
 20
8.8261247975
 10
12.0022186693
 20
8.830855349
 10
12.0079503795
 20
8.8339094751
  0
LINE
  5
27A
100
AcDbEntity
  8
0
100
AcDbLine
 62
9
  6
CONTINUOUS
 10
11.1436137678
 20
6.1735309178
 11
11.2568411906
 21
6.3183681332
  0
LINE
  5
27B
100
AcDbEntity
  8
0
100
AcDbLine
 62
9
  6
CONTINUOUS
 10
10.6733336972
 20
6.2384040514
 11
10.6732417373
 21
6.2383373939
  0
LINE
  5
27C
100
AcDbEntity
  8
0
100
AcDbLine
 62
7
  6
CONTINUOUS
 10
10.0866862926
 20
8.8339094767
 11
10.0924179974
 21
8.8308553566
  0
LINE
  5
27D
100
AcDbEntity
  8
0
100
AcDbLine
 62
9
  6
CONTINUOUS
 10
12.1769899283
 20
9.12439916
 11
12.1769899283
 21
9.0943991609
  0
LINE
  5
27E
100
AcDbEntity
  8
0
100
AcDbLine
 62
7
  6
CONTINUOUS
 10
12.1969799217
 20
9.12439916
 11
12.1969799217
 21
9.0943991615
  0
LINE
  5
27F
100
AcDbEntity
  8
0
100
AcDbLine
 62
9
  6
CONTINUOUS
 10
11.1721823926
 20
6.143057578
 11
11.3039677576
 21
6.3116335716
  0
LINE
  5
280
100
AcDbEntity
  8
0
100
AcDbLine
 62
9
  6
CONTINUOUS
 10
10.922454284
 20
6.0076474715
 11
10.7767183595
 21
5.8521740928
  0
LINE
  5
281
100
AcDbEntity
  8
0
100
AcDbLine
 62
9
  6
CONTINUOUS
 10
10.9533049807
 20
5.9763051732
 11
10.8166811659
 21
5.8305527366
  0
LINE
  5
282
100
AcDbEntity
  8
0
100
AcDbLine
 62
7
  6
CONTINUOUS
 10
10.0860539573
 20
8.8341119551
 11
10.0866862926
 21
8.8339094767
  0
LINE
  5
283
100
AcDbEntity
  8
0
100
AcDbLine
 62
9
  6
CONTINUOUS
 10
12.0401739778
 20
8.8595851378
 11
12.0420904322
 21
8.8596975169
  0
LINE
  5
284
100
AcDbEntity
  8
0
100
AcDbLine
 62
9
  6
CONTINUOUS
 10
10.1147695994
 20
8.7614213554
 11
10.1127540366
 21
8.7613070672
  0
LINE
  5
285
100
AcDbEntity
  8
0
100
AcDbLine
 62
9
  6
CONTINUOUS
 10
11.9627983947
 20
8.7614210106
 11
10.1318382769
 21
8.761421726
  0
LINE
  5
286
100
AcDbEntity
  8
0
100
AcDbLine
 62
9
  6
CONTINUOUS
 10
10.071311235
 20
8.8595851303
 11
12.0233256969
 21
8.8595860495
  0
LINE
  5
287
100
AcDbEntity
  8
0
100
AcDbLine
 62
9
  6
CONTINUOUS
 10
11.9818823395
 20
8.7613065644
 11
11.98187834
 21
8.7613067533
  0
LINE
  5
288
100
AcDbEntity
  8
0
100
AcDbLine
 62
9
  6
CONTINUOUS
 10
11.98187834
 20
8.7613067533
 11
11.9798673058
 21
8.7614217349
  0
LINE
  5
289
100
AcDbEntity
  8
0
100
AcDbLine
 62
9
  6
CONTINUOUS
 10
10.0525461617
 20
8.8596974888
 11
10.0544619414
 21
8.859586338
  0
LINE
  5
28A
100
AcDbEntity
  8
0
100
AcDbLine
 62
7
  6
CONTINUOUS
 10
9.9176467483
 20
9.0943991609
 11
12.1769899283
 21
9.0943991609
  0
LINE
  5
28B
100
AcDbEntity
  8
0
100
AcDbLine
 62
7
  6
CONTINUOUS
 10
14.8923183383
 20
9.12439916
 11
7.2023183383
 21
9.12439916
  0
LINE
  5
28C
100
AcDbEntity
  8
0
100
AcDbLine
 62
9
  6
CONTINUOUS
 10
14.9223183383
 20
9.15439916
 11
7.1723183383
 21
9.15439916
  0
LINE
  5
28D
100
AcDbEntity
  8
0
100
AcDbLine
 62
7
  6
CONTINUOUS
 10
7.1723183383
 20
9.43439916
 11
14.9223183383
 21
9.43439916
  0
LINE
  5
28E
100
AcDbEntity
  8
0
100
AcDbLine
 62
9
  6
CONTINUOUS
 10
14.8923183383
 20
9.12439916
 11
14.8923183383
 21
9.43439916
  0
LINE
  5
28F
100
AcDbEntity
  8
0
100
AcDbLine
 62
7
  6
CONTINUOUS
 10
14.9223183383
 20
9.15439916
 11
14.9223183383
 21
9.43439916
  0
ARC
  5
290
100
AcDbEntity
  8
0
100
AcDbCircle
 62
7
  6
CONTINUOUS
 10
3.5392475506
 20
5.5628852504
 40
7.8832048307
100
AcDbArc
 50
359.9128218395
 51
0.0379346799
  0
ARC
  5
291
100
AcDbEntity
  8
0
100
AcDbCircle
 62
9
  6
CONTINUOUS
 10
5.5202219311
 20
5.9804288526
 40
5.3853462956
100
AcDbArc
 50
32.3186787301
 51
35.3208734945
  0
ARC
  5
292
100
AcDbEntity
  8
0
100
AcDbCircle
 62
7
  6
CONTINUOUS
 10
5.5147289699
 20
5.9978026598
 40
5.3664682309
100
AcDbArc
 50
32.2267533989
 51
35.2363952629
  0
ARC
  5
293
100
AcDbEntity
  8
0
100
AcDbCircle
 62
9
  6
CONTINUOUS
 10
10.5546128413
 20
5.9785684049
 40
0.7736994064
100
AcDbArc
 50
349.4787557294
 51
350.5978147792
  0
ARC
  5
294
100
AcDbEntity
  8
0
100
AcDbCircle
 62
9
  6
CONTINUOUS
 10
10.6786821146
 20
6.236691948
 40
0.742624267
100
AcDbArc
 50
1.1543205696
 51
1.6965622209
  0
ARC
  5
295
100
AcDbEntity
  8
0
100
AcDbCircle
 62
9
  6
CONTINUOUS
 10
10.7022165934
 20
6.2370337037
 40
0.7190876917
100
AcDbArc
 50
0.1091872272
 51
1.164871873
  0
ARC
  5
296
100
AcDbEntity
  8
0
100
AcDbCircle
 62
9
  6
CONTINUOUS
 10
10.7137783547
 20
5.9462111232
 40
0.4156192643
100
AcDbArc
 50
268.0061218789
 51
269.8905549096
  0
ARC
  5
297
100
AcDbEntity
  8
0
100
AcDbCircle
 62
9
  6
CONTINUOUS
 10
10.7136073537
 20
5.9428083321
 40
0.4122125872
100
AcDbArc
 50
267.0159528975
 51
268.0134198557
  0
ARC
  5
298
100
AcDbEntity
  8
0
100
AcDbCircle
 62
9
  6
CONTINUOUS
 10
10.1921704228
 20
8.8078089066
 40
0.0902374391
100
AcDbArc
 50
176.2789217897
 51
210.9349334815
  0
ARC
  5
299
100
AcDbEntity
  8
0
100
AcDbCircle
 62
7
  6
CONTINUOUS
 10
10.1051287341
 20
8.8915138069
 40
0.0598886517
100
AcDbArc
 50
212.2169107776
 51
253.3608456964
  0
ARC
  5
29A
100
AcDbEntity
  8
0
100
AcDbCircle
 62
9
  6
CONTINUOUS
 10
10.1084706524
 20
8.8661964922
 40
0.0353364889
100
AcDbArc
 50
235.1648171545
 51
237.7697750828
  0
ARC
  5
29B
100
AcDbEntity
  8
0
100
AcDbCircle
 62
7
  6
CONTINUOUS
 10
7.2023183383
 20
9.15439916
 40
0.03
100
AcDbArc
 50
180.0
 51
270.0
  0
ARC
  5
29C
100
AcDbEntity
  8
0
100
AcDbCircle
 62
9
  6
CONTINUOUS
 10
10.6922380445
 20
5.5515177188
 40
0.0203635264
100
AcDbArc
 50
252.1040822236
 51
267.045818051
  0
ARC
  5
29D
100
AcDbEntity
  8
0
100
AcDbCircle
 62
7
  6
CONTINUOUS
 10
10.0820595909
 20
8.8149721084
 40
0.0201054877
100
AcDbArc
 50
356.2733034145
 51
35.2508173042
  0
ARC
  5
29E
100
AcDbEntity
  8
0
100
AcDbCircle
 62
9
  6
CONTINUOUS
 10
10.6922250689
 20
5.5512441244
 40
0.0200896269
100
AcDbArc
 50
267.0425611171
 51
269.781423376
  0
ARC
  5
29F
100
AcDbEntity
  8
0
100
AcDbCircle
 62
7
  6
CONTINUOUS
 10
10.6921924261
 20
5.55086726
 40
0.0199998851
100
AcDbArc
 50
180.0852906624
 51
266.9904485206
  0
ARC
  5
2A0
100
AcDbEntity
  8
0
100
AcDbCircle
 62
7
  6
CONTINUOUS
 10
10.6934855045
 20
6.2586026358
 40
0.0198298164
100
AcDbArc
 50
98.2240977423
 51
179.7814262605
  0
ARC
  5
2A1
100
AcDbEntity
  8
0
100
AcDbCircle
 62
7
  6
CONTINUOUS
 10
10.0822889147
 20
8.8151784191
 40
0.0197915653
100
AcDbArc
 50
35.2725856256
 51
73.2874945654
  0
ARC
  5
2A2
100
AcDbEntity
  8
0
100
AcDbCircle
 62
9
  6
CONTINUOUS
 10
10.6916293674
 20
5.5509048147
 40
0.0194359625
100
AcDbArc
 50
180.0418802455
 51
198.2590557831
  0
ARC
  5
2A3
100
AcDbEntity
  8
0
100
AcDbCircle
 62
7
  6
CONTINUOUS
 10
9.9176508312
 20
9.0801257764
 40
0.0142733851
100
AcDbArc
 50
90.0163896656
 51
103.6953947075
  0
ARC
  5
2A4
100
AcDbEntity
  8
0
100
AcDbCircle
 62
7
  6
CONTINUOUS
 10
18.0031752582
 20
5.5626479555
 40
7.3309912658
100
AcDbArc
 50
179.9573532632
 51
180.091890287
  0
ARC
  5
2A5
100
AcDbEntity
  8
0
100
AcDbCircle
 62
9
  6
CONTINUOUS
 10
16.574404583
 20
5.9804266186
 40
5.3853391775
100
AcDbArc
 50
144.679043703
 51
147.6812336625
  0
ARC
  5
2A6
100
AcDbEntity
  8
0
100
AcDbCircle
 62
9
  6
CONTINUOUS
 10
16.5798922002
 20
5.9978129994
 40
5.3664496001
100
AcDbArc
 50
144.7635996682
 51
147.7732668519
  0
ARC
  5
2A7
100
AcDbEntity
  8
0
100
AcDbCircle
 62
9
  6
CONTINUOUS
 10
10.817422753
 20
4.1413890087
 40
1.6792897112
100
AcDbArc
 50
90.025302254
 51
91.0271892319
  0
ARC
  5
2A8
100
AcDbEntity
  8
0
100
AcDbCircle
 62
9
  6
CONTINUOUS
 10
11.2772141909
 20
4.1414179877
 40
1.679260732
100
AcDbArc
 50
88.9728021639
 51
89.9747064322
  0
ARC
  5
2A9
100
AcDbEntity
  8
0
100
AcDbCircle
 62
9
  6
CONTINUOUS
 10
11.1551564073
 20
7.553397151
 40
1.2299016632
100
AcDbArc
 50
276.4522970948
 51
277.1067728579
  0
ARC
  5
2AA
100
AcDbEntity
  8
0
100
AcDbCircle
 62
9
  6
CONTINUOUS
 10
10.9384712269
 20
7.5449094668
 40
1.2213543509
100
AcDbArc
 50
262.8909380554
 51
263.549994083
  0
ARC
  5
2AB
100
AcDbEntity
  8
0
100
AcDbCircle
 62
9
  6
CONTINUOUS
 10
10.9260934232
 20
7.4590817468
 40
1.1554120958
100
AcDbArc
 50
262.571841555
 51
263.2689563443
  0
ARC
  5
2AC
100
AcDbEntity
  8
0
100
AcDbCircle
 62
9
  6
CONTINUOUS
 10
11.1685476607
 20
7.4590420562
 40
1.1553721623
100
AcDbArc
 50
276.7310572981
 51
277.4281957376
  0
ARC
  5
2AD
100
AcDbEntity
  8
0
100
AcDbCircle
 62
9
  6
CONTINUOUS
 10
10.9924091027
 20
6.9113867545
 40
1.0950269189
100
AcDbArc
 50
258.7794715212
 51
260.7653411865
  0
ARC
  5
2AE
100
AcDbEntity
  8
0
100
AcDbCircle
 62
9
  6
CONTINUOUS
 10
11.104122122
 20
6.9009323376
 40
1.0844028632
100
AcDbArc
 50
279.2244991128
 51
281.2298248291
  0
ARC
  5
2AF
100
AcDbEntity
  8
0
100
AcDbCircle
 62
9
  6
CONTINUOUS
 10
11.5604662839
 20
5.9821588772
 40
0.7944538081
100
AcDbArc
 50
189.4168028688
 51
190.5066266384
  0
ARC
  5
2B0
100
AcDbEntity
  8
0
100
AcDbCircle
 62
9
  6
CONTINUOUS
 10
11.4135534953
 20
6.2367516481
 40
0.7402224855
100
AcDbArc
 50
178.302554355
 51
178.8466647953
  0
ARC
  5
2B1
100
AcDbEntity
  8
0
100
AcDbCircle
 62
9
  6
CONTINUOUS
 10
11.4031191126
 20
6.2369147642
 40
0.729786935
100
AcDbArc
 50
178.8429793926
 51
179.8830755553
  0
ARC
  5
2B2
100
AcDbEntity
  8
0
100
AcDbCircle
 62
9
  6
CONTINUOUS
 10
11.3809096727
 20
5.9455666463
 40
0.4149733906
100
AcDbArc
 50
271.9894145959
 51
272.9807172227
  0
ARC
  5
2B3
100
AcDbEntity
  8
0
100
AcDbCircle
 62
9
  6
CONTINUOUS
 10
11.3809432524
 20
5.9415809343
 40
0.4109889287
100
AcDbArc
 50
270.098837994
 51
272.0040252732
  0
ARC
  5
2B4
100
AcDbEntity
  8
0
100
AcDbCircle
 62
9
  6
CONTINUOUS
 10
10.9588197029
 20
5.5350571108
 40
0.2870632775
100
AcDbArc
 50
173.1393651177
 51
176.8381431986
  0
ARC
  5
2B5
100
AcDbEntity
  8
0
100
AcDbCircle
 62
9
  6
CONTINUOUS
 10
11.1391824028
 20
5.5353520724
 40
0.2836867229
100
AcDbArc
 50
3.1398636746
 51
6.8823918116
  0
ARC
  5
2B6
100
AcDbEntity
  8
0
100
AcDbCircle
 62
7
  6
CONTINUOUS
 10
11.9024689004
 20
8.8078084533
 40
0.0902364424
100
AcDbArc
 50
329.0647327498
 51
3.7214145626
  0
ARC
  5
2B7
100
AcDbEntity
  8
0
100
AcDbCircle
 62
9
  6
CONTINUOUS
 10
11.9895047006
 20
8.8915144952
 40
0.0598891206
100
AcDbArc
 50
286.6411990951
 51
327.7828275303
  0
ARC
  5
2B8
100
AcDbEntity
  8
0
100
AcDbCircle
 62
9
  6
CONTINUOUS
 10
11.9861638793
 20
8.8661890866
 40
0.0353297315
100
AcDbArc
 50
302.2369941604
 51
304.8431451536
  0
ARC
  5
2B9
100
AcDbEntity
  8
0
100
AcDbCircle
 62
7
  6
CONTINUOUS
 10
14.8923183383
 20
9.15439916
 40
0.03
100
AcDbArc
 50
270.0
 51
360.0
  0
ARC
  5
2BA
100
AcDbEntity
  8
0
100
AcDbCircle
 62
9
  6
CONTINUOUS
 10
11.4023986197
 20
5.551517712
 40
0.0203635288
100
AcDbArc
 50
272.9542573017
 51
287.8959171346
  0
ARC
  5
2BB
100
AcDbEntity
  8
0
100
AcDbCircle
 62
9
  6
CONTINUOUS
 10
11.4024115948
 20
5.5512441251
 40
0.0200896368
100
AcDbArc
 50
270.218576333
 51
272.957515612
  0
ARC
  5
2BC
100
AcDbEntity
  8
0
100
AcDbCircle
 62
7
  6
CONTINUOUS
 10
11.40244424
 20
5.550867251
 40
0.0199998851
100
AcDbArc
 50
273.009596513
 51
359.9147125628
  0
ARC
  5
2BD
100
AcDbEntity
  8
0
100
AcDbCircle
 62
7
  6
CONTINUOUS
 10
11.4010773121
 20
6.2585757418
 40
0.0199995393
100
AcDbArc
 50
1.6917984077
 51
82.2166263379
  0
ARC
  5
2BE
100
AcDbEntity
  8
0
100
AcDbCircle
 62
9
  6
CONTINUOUS
 10
10.7873018643
 20
5.7783989142
 40
0.0199951071
100
AcDbArc
 50
182.3251591239
 51
270.0472041466
  0
ARC
  5
2BF
100
AcDbEntity
  8
0
100
AcDbCircle
 62
9
  6
CONTINUOUS
 10
11.3073274226
 20
5.8404016197
 40
0.0199915159
100
AcDbArc
 50
269.9739660475
 51
359.9746127215
  0
ARC
  5
2C0
100
AcDbEntity
  8
0
100
AcDbCircle
 62
9
  6
CONTINUOUS
 10
10.787309254
 20
5.8404016188
 40
0.0199915159
100
AcDbArc
 50
180.0253871415
 51
270.0260339918
  0
ARC
  5
2C1
100
AcDbEntity
  8
0
100
AcDbCircle
 62
9
  6
CONTINUOUS
 10
11.3073398887
 20
5.7783978819
 40
0.019989908
100
AcDbArc
 50
269.9384705153
 51
357.6847260092
  0
ARC
  5
2C2
100
AcDbEntity
  8
0
100
AcDbCircle
 62
9
  6
CONTINUOUS
 10
11.4011511731
 20
6.2586026346
 40
0.0198298154
100
AcDbArc
 50
0.2185756402
 51
1.6301749117
  0
ARC
  5
2C3
100
AcDbEntity
  8
0
100
AcDbCircle
 62
9
  6
CONTINUOUS
 10
11.402919142
 20
5.5509131029
 40
0.0195241266
100
AcDbArc
 50
341.7409483295
 51
359.9339655796
  0
ARC
  5
2C4
100
AcDbEntity
  8
0
100
AcDbCircle
 62
7
  6
CONTINUOUS
 10
12.1769724787
 20
9.0800127457
 40
0.0143864258
100
AcDbArc
 50
76.3589208858
 51
89.9305048097
  0
ARC
  5
2C5
100
AcDbEntity
  8
0
100
AcDbCircle
 62
9
  6
CONTINUOUS
 10
10.84833972
 20
150.4651603926
 40
144.9346302231
100
AcDbArc
 50
269.9464911401
 51
270.0786605562
  0
LINE
  5
2C6
100
AcDbEntity
  8
0
100
AcDbLine
 62
7
  6
CONTINUOUS
 10
10.0860662997
 20
8.8341127771
 11
10.0879803666
 21
8.8341339838
  0
SPLINE
  5
2C7
100
AcDbEntity
  8
0
100
AcDbSpline
 62
7
  6
CONTINUOUS
 70
0
 71
3
 72
16
 73
12
 74
0
 42
0.0000001
 43
0.0000001
 44
0.0000000001
 40
0.0
 40
0.0
 40
0.0
 40
0.0
 40
0.1214796041
 40
0.2441897182
 40
0.3680455638
 40
0.4303738317
 40
0.4929480921
 40
0.6187524425
 40
0.745310445
 40
0.8724613282
 40
1.0
 40
1.0
 40
1.0
 40
1.0
 10
10.5010862164
 20
7.9553847111
 30
0.0
 10
10.5200114343
 20
7.9035759835
 30
0.0
 10
10.5561172803
 20
7.7987145232
 30
0.0
 10
10.6045945055
 20
7.6387535371
 30
0.0
 10
10.6401900809
 20
7.5030556293
 30
0.0
 10
10.6657083923
 20
7.3930226322
 30
0.0
 10
10.6892871723
 20
7.2816531615
 30
0.0
 10
10.7148602585
 20
7.1409243727
 30
0.0
 10
10.7391330831
 20
6.9702846691
 30
0.0
 10
10.7569915323
 20
6.7980654199
 30
0.0
 10
10.7645912184
 20
6.6826431243
 30
0.0
 10
10.7673183379
 20
6.6247991679
 30
0.0
  0
SPLINE
  5
2C8
100
AcDbEntity
  8
0
100
AcDbSpline
 62
7
  6
CONTINUOUS
 70
0
 71
3
 72
16
 73
12
 74
0
 42
0.0000001
 43
0.0000001
 44
0.0000000001
 40
0.0
 40
0.0
 40
0.0
 40
0.0
 40
0.1214800368
 40
0.2441904714
 40
0.3680456944
 40
0.4303738024
 40
0.4929481805
 40
0.6187529078
 40
0.7453107154
 40
0.8724613729
 40
1.0
 40
1.0
 40
1.0
 40
1.0
 10
11.5935506178
 20
7.9553851631
 30
0.0
 10
11.5746253447
 20
7.9035762257
 30
0.0
 10
11.5385194228
 20
7.7987143893
 30
0.0
 10
11.4900420812
 20
7.6387533154
 30
0.0
 10
11.4544465321
 20
7.5030555649
 30
0.0
 10
11.4289283144
 20
7.3930228148
 30
0.0
 10
11.4053495267
 20
7.2816531494
 30
0.0
 10
11.379776385
 20
7.1409241805
 30
0.0
 10
11.3555036069
 20
6.9702844289
 30
0.0
 10
11.3376450702
 20
6.7980653423
 30
0.0
 10
11.3300453439
 20
6.682643127
 30
0.0
 10
11.3273183385
 20
6.624799165
 30
0.0
  0
SPLINE
  5
2C9
100
AcDbEntity
  8
0
100
AcDbSpline
 62
7
  6
CONTINUOUS
 70
0
 71
3
 72
11
 73
7
 74
0
 42
0.0000001
 43
0.0000001
 44
0.0000000001
 40
0.0
 40
0.0
 40
0.0
 40
0.0
 40
0.2494931864
 40
0.4992915177
 40
0.7494460299
 40
1.0
 40
1.0
 40
1.0
 40
1.0
 10
10.6874728724
 20
6.277623789
 30
0.0
 10
10.6855345498
 20
6.277001589
 30
0.0
 10
10.6818250821
 20
6.2751384299
 30
0.0
 10
10.677389384
 20
6.2707934869
 30
0.0
 10
10.6744690066
 20
6.2653040049
 30
0.0
 10
10.6737218471
 20
6.2612103276
 30
0.0
 10
10.673663714
 20
6.2591667613
 30
0.0
  0
LINE
  5
2CA
100
AcDbEntity
  8
0
100
AcDbLine
 62
7
  6
CONTINUOUS
 10
11.3315280973
 20
6.2783697952
 11
11.3273183523
 21
6.2783604858
  0
LINE
  5
2CB
100
AcDbEntity
  8
0
100
AcDbLine
 62
7
  6
CONTINUOUS
 10
10.7673183242
 20
6.2783604857
 11
10.7631083571
 21
6.2783697956
  0
LINE
  5
2CC
100
AcDbEntity
  8
0
100
AcDbLine
 62
7
  6
CONTINUOUS
 10
9.8979453658
 20
9.0939933809
 11
9.8976567535
 21
9.0943991611
  0
LINE
  5
2CD
100
AcDbEntity
  8
0
100
AcDbLine
 62
7
  6
CONTINUOUS
 10
12.1969799217
 20
9.0943991615
 11
12.1966913336
 21
9.0939933323
  0
LINE
  5
2CE
100
AcDbEntity
  8
0
100
AcDbLine
 62
7
  6
CONTINUOUS
 10
12.0066555795
 20
8.8341337666
 11
12.0085706335
 21
8.8341127634
  0
SPLINE
  5
2CF
100
AcDbEntity
  8
0
100
AcDbSpline
 62
7
  6
CONTINUOUS
 70
0
 71
3
 72
11
 73
7
 74
0
 42
0.0000001
 43
0.0000001
 44
0.0000000001
 40
0.0
 40
0.0
 40
0.0
 40
0.0
 40
0.2442098788
 40
0.4922321865
 40
0.7441454001
 40
1.0
 40
1.0
 40
1.0
 40
1.0
 10
10.1147695994
 20
8.7614213554
 30
0.0
 10
10.1522085001
 20
8.6989125156
 30
0.0
 10
10.2249642293
 20
8.5712733273
 30
0.0
 10
10.3261242788
 20
8.373545908
 30
0.0
 10
10.4192390606
 20
8.1680766745
 30
0.0
 10
10.4748937297
 20
8.0270879491
 30
0.0
 10
10.5010862164
 20
7.9553847111
 30
0.0
  0
SPLINE
  5
2D0
100
AcDbEntity
  8
0
100
AcDbSpline
 62
7
  6
CONTINUOUS
 70
0
 71
3
 72
11
 73
7
 74
0
 42
0.0000001
 43
0.0000001
 44
0.0000000001
 40
0.0
 40
0.0
 40
0.0
 40
0.0
 40
0.2442100483
 40
0.4922333776
 40
0.7441466589
 40
1.0
 40
1.0
 40
1.0
 40
1.0
 10
11.9798673058
 20
8.7614217349
 30
0.0
 10
11.9424281467
 20
8.6989129938
 30
0.0
 10
11.8696723286
 20
8.5712734384
 30
0.0
 10
11.7685123901
 20
8.3735455581
 30
0.0
 10
11.6753974572
 20
8.1680764598
 30
0.0
 10
11.6197429485
 20
8.0270880554
 30
0.0
 10
11.5935506178
 20
7.9553851631
 30
0.0
  0
LINE
  5
2D1
100
AcDbEntity
  8
0
100
AcDbLine
 62
7
  6
CONTINUOUS
 10
11.3272899245
 20
5.777505114
 11
11.3272786158
 21
5.7763519044
  0
SPLINE
  5
2D2
100
AcDbEntity
  8
0
100
AcDbSpline
 62
9
  6
CONTINUOUS
 70
0
 71
3
 72
15
 73
11
 74
0
 42
0.0000001
 43
0.0000001
 44
0.0000000001
 40
0.0
 40
0.0
 40
0.0
 40
0.0
 40
0.0819913902
 40
0.1717744002
 40
0.2742387455
 40
0.3917290122
 40
0.5246499561
 40
0.6719422205
 40
0.8315632766
 40
1.0
 40
1.0
 40
1.0
 40
1.0
 10
11.9798673351
 20
8.7614217829
 30
0.0
 10
11.9796072511
 20
8.7609959635
 30
0.0
 10
11.9788899415
 20
8.7602016846
 30
0.0
 10
11.977414504
 20
8.7593755169
 30
0.0
 10
11.9755763712
 20
8.7588940937
 30
0.0
 10
11.9734246086
 20
8.758747135
 30
0.0
 10
11.9710048894
 20
8.7589344386
 30
0.0
 10
11.9683729293
 20
8.7594480511
 30
0.0
 10
11.9655978703
 20
8.7602782225
 30
0.0
 10
11.9637375213
 20
8.7610095749
 30
0.0
 10
11.9627987695
 20
8.7614212065
 30
0.0
  0
SPLINE
  5
2D3
100
AcDbEntity
  8
0
100
AcDbSpline
 62
9
  6
CONTINUOUS
 70
0
 71
3
 72
10
 73
6
 74
0
 42
0.0000001
 43
0.0000001
 44
0.0000000001
 40
0.0
 40
0.0
 40
0.0
 40
0.0
 40
0.2603169928
 40
0.5171138775
 40
1.0
 40
1.0
 40
1.0
 40
1.0
 10
10.1220066157
 20
8.813665276
 30
0.0
 10
10.1217716708
 20
8.8090201423
 30
0.0
 10
10.1218615086
 20
8.7997521432
 30
0.0
 10
10.124163588
 20
8.7820101046
 30
0.0
 10
10.1281937886
 20
8.7692409274
 30
0.0
 10
10.131838266
 20
8.7614207575
 30
0.0
  0
SPLINE
  5
2D4
100
AcDbEntity
  8
0
100
AcDbSpline
 62
9
  6
CONTINUOUS
 70
0
 71
3
 72
11
 73
7
 74
0
 42
0.0000001
 43
0.0000001
 44
0.0000000001
 40
0.0
 40
0.0
 40
0.0
 40
0.0
 40
0.2600786972
 40
0.5166445859
 40
0.764469201
 40
1.0
 40
1.0
 40
1.0
 40
1.0
 10
11.9726311883
 20
8.8136652564
 30
0.0
 10
11.9728665256
 20
8.8090202459
 30
0.0
 10
11.9727778518
 20
8.7997553481
 30
0.0
 10
11.9710120136
 20
8.7861667748
 30
0.0
 10
11.9677317885
 20
8.7733154099
 30
0.0
 10
11.9645789543
 20
8.7652393515
 30
0.0
 10
11.9627999985
 20
8.7614214867
 30
0.0
  0
SPLINE
  5
2D5
100
AcDbEntity
  8
0
100
AcDbSpline
 62
9
  6
CONTINUOUS
 70
0
 71
3
 72
9
 73
5
 74
0
 42
0.0000001
 43
0.0000001
 44
0.0000000001
 40
0.0
 40
0.0
 40
0.0
 40
0.0
 40
0.2754365154
 40
1.0
 40
1.0
 40
1.0
 40
1.0
 10
10.0713093324
 20
8.8595854943
 30
0.0
 10
10.0721485022
 20
8.8575890932
 30
0.0
 10
10.0755283837
 20
8.8504959903
 30
0.0
 10
10.080299372
 20
8.8439893981
 30
0.0
 10
10.0845326366
 20
8.840177138
 30
0.0
  0
LINE
  5
2D6
100
AcDbEntity
  8
0
100
AcDbLine
 62
9
  6
CONTINUOUS
 10
10.0845326366
 20
8.840177138
 11
10.0882858247
 21
8.8371923515
  0
LINE
  5
2D7
100
AcDbEntity
  8
0
100
AcDbLine
 62
9
  6
CONTINUOUS
 10
10.0896249046
 20
8.8363049343
 11
10.093666139
 21
8.8341340235
  0
SPLINE
  5
2D8
100
AcDbEntity
  8
0
100
AcDbSpline
 62
9
  6
CONTINUOUS
 70
0
 71
3
 72
11
 73
7
 74
0
 42
0.0000001
 43
0.0000001
 44
0.0000000001
 40
0.0
 40
0.0
 40
0.0
 40
0.0
 40
0.280790956
 40
0.5403986725
 40
0.7792738054
 40
1.0
 40
1.0
 40
1.0
 40
1.0
 10
12.0233251163
 20
8.859585332
 30
0.0
 10
12.0222925149
 20
8.857131287
 30
0.0
 10
12.0200305702
 20
8.8525168712
 30
0.0
 10
12.0159535164
 20
8.8463288763
 30
0.0
 10
12.0114305139
 20
8.8411945458
 30
0.0
 10
12.0080666676
 20
8.8383889046
 30
0.0
 10
12.0063488767
 20
8.8371932971
 30
0.0
  0
LINE
  5
2D9
100
AcDbEntity
  8
0
100
AcDbLine
 62
9
  6
CONTINUOUS
 10
12.0050095539
 20
8.836305471
 11
12.0009666732
 21
8.834133389
  0
SPLINE
  5
2DA
100
AcDbEntity
  8
0
100
AcDbSpline
 62
9
  6
CONTINUOUS
 70
0
 71
3
 72
18
 73
14
 74
0
 42
0.0000001
 43
0.0000001
 44
0.0000000001
 40
0.0
 40
0.0
 40
0.0
 40
0.0
 40
0.0195903869
 40
0.0423153296
 40
0.0701671746
 40
0.1041932644
 40
0.1448949989
 40
0.1924090222
 40
0.3076277311
 40
0.4487030794
 40
0.6133296055
 40
0.7985347817
 40
1.0
 40
1.0
 40
1.0
 40
1.0
 10
11.3273183383
 20
5.8403927619
 30
0.0
 10
11.3273183383
 20
5.8403093709
 30
0.0
 10
11.3272755622
 20
5.8401281397
 30
0.0
 10
11.3271031639
 20
5.8398790151
 30
0.0
 10
11.3268322707
 20
5.8396384704
 30
0.0
 10
11.3264626807
 20
5.8394036101
 30
0.0
 10
11.325994791
 20
5.8391742617
 30
0.0
 10
11.3251888361
 20
5.838855736
 30
0.0
 10
11.3239453634
 20
5.8384922511
 30
0.0
 10
11.3221932352
 20
5.8381138984
 30
0.0
 10
11.3201296827
 20
5.8377794777
 30
0.0
 10
11.3177994625
 20
5.8374978301
 30
0.0
 10
11.316159514
 20
5.8373538388
 30
0.0
 10
11.3153042486
 20
5.8372908259
 30
0.0
  0
SPLINE
  5
2DB
100
AcDbEntity
  8
0
100
AcDbSpline
 62
9
  6
CONTINUOUS
 70
0
 71
3
 72
16
 73
12
 74
0
 42
0.0000001
 43
0.0000001
 44
0.0000000001
 40
0.0
 40
0.0
 40
0.0
 40
0.0
 40
0.036060757
 40
0.0740878602
 40
0.1593648521
 40
0.26090086
 40
0.3801885551
 40
0.5163579656
 40
0.6672328668
 40
0.8298361571
 40
1.0
 40
1.0
 40
1.0
 40
1.0
 10
11.3073183383
 20
5.8204088587
 30
0.0
 10
11.3075547961
 20
5.8204301572
 30
0.0
 10
11.3080370293
 20
5.8205269934
 30
0.0
 10
11.3090107463
 20
5.8209324717
 30
0.0
 10
11.3101989648
 20
5.8218557493
 30
0.0
 10
11.3114557011
 20
5.8234458571
 30
0.0
 10
11.3125880119
 20
5.8255151567
 30
0.0
 10
11.3135685633
 20
5.8280099269
 30
0.0
 10
11.3143700386
 20
5.8308641411
 30
0.0
 10
11.3149676568
 20
5.8339949889
 30
0.0
 10
11.3152162915
 20
5.8361739676
 30
0.0
 10
11.3153042486
 20
5.8372908259
 30
0.0
  0
SPLINE
  5
2DC
100
AcDbEntity
  8
0
100
AcDbSpline
 62
9
  6
CONTINUOUS
 70
0
 71
3
 72
16
 73
12
 74
0
 42
0.0000001
 43
0.0000001
 44
0.0000000001
 40
0.0
 40
0.0
 40
0.0
 40
0.0
 40
0.0360596875
 40
0.0740858624
 40
0.1593614517
 40
0.2608968162
 40
0.3801846441
 40
0.5163540965
 40
0.6672293383
 40
0.8298345741
 40
1.0
 40
1.0
 40
1.0
 40
1.0
 10
10.7873183383
 20
5.8204088579
 30
0.0
 10
10.7870818889
 20
5.8204301565
 30
0.0
 10
10.786599672
 20
5.8205269935
 30
0.0
 10
10.7856259865
 20
5.8209324741
 30
0.0
 10
10.7844378074
 20
5.8218557569
 30
0.0
 10
10.783181114
 20
5.8234458659
 30
0.0
 10
10.7820488222
 20
5.8255151563
 30
0.0
 10
10.781068308
 20
5.8280099309
 30
0.0
 10
10.7802669118
 20
5.8308641626
 30
0.0
 10
10.7796691488
 20
5.8339949838
 30
0.0
 10
10.7794203845
 20
5.8361739625
 30
0.0
 10
10.7793324282
 20
5.8372908249
 30
0.0
  0
SPLINE
  5
2DD
100
AcDbEntity
  8
0
100
AcDbSpline
 62
9
  6
CONTINUOUS
 70
0
 71
3
 72
18
 73
14
 74
0
 42
0.0000001
 43
0.0000001
 44
0.0000000001
 40
0.0
 40
0.0
 40
0.0
 40
0.0
 40
0.0195903869
 40
0.0423153297
 40
0.0701671748
 40
0.1041932648
 40
0.1448949994
 40
0.1924090227
 40
0.3076277317
 40
0.4487030797
 40
0.613329606
 40
0.7985347824
 40
1.0
 40
1.0
 40
1.0
 40
1.0
 10
10.7673183383
 20
5.8403927611
 30
0.0
 10
10.7673183383
 20
5.8403093701
 30
0.0
 10
10.7673611144
 20
5.8401281388
 30
0.0
 10
10.7675335127
 20
5.8398790142
 30
0.0
 10
10.7678044058
 20
5.8396384695
 30
0.0
 10
10.7681739959
 20
5.8394036093
 30
0.0
 10
10.7686418856
 20
5.8391742608
 30
0.0
 10
10.7694478405
 20
5.8388557351
 30
0.0
 10
10.7706913132
 20
5.8384922501
 30
0.0
 10
10.7724434414
 20
5.8381138974
 30
0.0
 10
10.7745069939
 20
5.8377794767
 30
0.0
 10
10.7768372142
 20
5.8374978291
 30
0.0
 10
10.7784771628
 20
5.8373538378
 30
0.0
 10
10.7793324282
 20
5.8372908249
 30
0.0
  0
SPLINE
  5
2DE
100
AcDbEntity
  8
0
100
AcDbSpline
 62
9
  6
CONTINUOUS
 70
0
 71
3
 72
15
 73
11
 74
0
 42
0.0000001
 43
0.0000001
 44
0.0000000001
 40
0.0
 40
0.0
 40
0.0
 40
0.0
 40
0.1537092094
 40
0.2963971314
 40
0.4309047413
 40
0.5587877571
 40
0.6804563202
 40
0.7954291685
 40
0.9025154165
 40
1.0
 40
1.0
 40
1.0
 40
1.0
 10
10.7061507251
 20
6.279246012
 30
0.0
 10
10.7097085097
 20
6.2791497714
 30
0.0
 10
10.7165684255
 20
6.278466747
 30
0.0
 10
10.7262717545
 20
6.2760064931
 30
0.0
 10
10.7349869521
 20
6.2724689504
 30
0.0
 10
10.7427827231
 20
6.2681523528
 30
0.0
 10
10.7497173802
 20
6.263319076
 30
0.0
 10
10.7558466156
 20
6.2582305499
 30
0.0
 10
10.761223941
 20
6.2531430699
 30
0.0
 10
10.7645176037
 20
6.2497376761
 30
0.0
 10
10.7660699174
 20
6.2480989633
 30
0.0
  0
LINE
  5
2DF
100
AcDbEntity
  8
0
100
AcDbLine
 62
9
  6
CONTINUOUS
 10
10.1021233238
 20
8.813665257
 11
10.1002387825
 21
8.8136029855
  0
SPLINE
  5
2E0
100
AcDbEntity
  8
0
100
AcDbSpline
 62
9
  6
CONTINUOUS
 70
0
 71
3
 72
15
 73
11
 74
0
 42
0.0000001
 43
0.0000001
 44
0.0000000001
 40
0.0
 40
0.0
 40
0.0
 40
0.0
 40
0.1879903944
 40
0.2427129117
 40
0.3004996821
 40
0.4248358336
 40
0.5595114883
 40
0.7022117627
 40
0.8502215612
 40
1.0
 40
1.0
 40
1.0
 40
1.0
 10
10.7873183383
 20
6.3329443995
 30
0.0
 10
10.7859298145
 20
6.3325001392
 30
0.0
 10
10.7843191615
 20
6.3313529589
 30
0.0
 10
10.7827401391
 20
6.3296471003
 30
0.0
 10
10.7816028628
 20
6.3282004823
 30
0.0
 10
10.7803071398
 20
6.326104553
 30
0.0
 10
10.7789956282
 20
6.3232717943
 30
0.0
 10
10.7779321257
 20
6.3201430407
 30
0.0
 10
10.7771488856
 20
6.316813219
 30
0.0
 10
10.7768268193
 20
6.3145225939
 30
0.0
 10
10.7767183578
 20
6.3133661388
 30
0.0
  0
SPLINE
  5
2E1
100
AcDbEntity
  8
0
100
AcDbSpline
 62
9
  6
CONTINUOUS
 70
0
 71
3
 72
15
 73
11
 74
0
 42
0.0000001
 43
0.0000001
 44
0.0000000001
 40
0.0
 40
0.0
 40
0.0
 40
0.0
 40
0.0883706912
 40
0.1877779406
 40
0.2995285129
 40
0.4234710948
 40
0.5580741007
 40
0.7010140187
 40
0.8495303301
 40
1.0
 40
1.0
 40
1.0
 40
1.0
 10
10.8012688978
 20
6.3312859785
 30
0.0
 10
10.800606643
 20
6.3310927077
 30
0.0
 10
10.799261593
 20
6.3304578192
 30
0.0
 10
10.797432002
 20
6.3289767837
 30
0.0
 10
10.7957321203
 20
6.3269719351
 30
0.0
 10
10.7942074328
 20
6.3245058309
 30
0.0
 10
10.7928972001
 20
6.3216510013
 30
0.0
 10
10.7918419927
 20
6.3184904971
 30
0.0
 10
10.7910746319
 20
6.3151219005
 30
0.0
 10
10.790768288
 20
6.3128040275
 30
0.0
 10
10.790668919
 20
6.3116335716
 30
0.0
  0
LINE
  5
2E2
100
AcDbEntity
  8
0
100
AcDbLine
 62
9
  6
CONTINUOUS
 10
11.994398264
 20
8.813602942
 11
11.9925133616
 21
8.8136651634
  0
LINE
  5
2E3
100
AcDbEntity
  8
0
100
AcDbLine
 62
9
  6
CONTINUOUS
 10
10.0936678949
 20
8.8341337601
 11
12.0009681238
 21
8.8341339191
  0
SPLINE
  5
2E4
100
AcDbEntity
  8
0
100
AcDbSpline
 62
9
  6
CONTINUOUS
 70
0
 71
3
 72
15
 73
11
 74
0
 42
0.0000001
 43
0.0000001
 44
0.0000000001
 40
0.0
 40
0.0
 40
0.0
 40
0.0
 40
0.088370271
 40
0.1877772808
 40
0.2995277748
 40
0.4234704098
 40
0.5580735598
 40
0.7010136697
 40
0.8495301765
 40
1.0
 40
1.0
 40
1.0
 40
1.0
 10
11.2933677788
 20
6.3312859785
 30
0.0
 10
11.2940300292
 20
6.3310927068
 30
0.0
 10
11.2953750709
 20
6.330457816
 30
0.0
 10
11.2972046502
 20
6.3289767792
 30
0.0
 10
11.2989045238
 20
6.3269719299
 30
0.0
 10
11.3004292075
 20
6.3245058257
 30
0.0
 10
11.3017394411
 20
6.3216509967
 30
0.0
 10
11.3027946546
 20
6.3184904937
 30
0.0
 10
11.3035620269
 20
6.3151218989
 30
0.0
 10
11.303868382
 20
6.312804027
 30
0.0
 10
11.3039677576
 20
6.3116335716
 30
0.0
  0
SPLINE
  5
2E5
100
AcDbEntity
  8
0
100
AcDbSpline
 62
9
  6
CONTINUOUS
 70
0
 71
3
 72
15
 73
11
 74
0
 42
0.0000001
 43
0.0000001
 44
0.0000000001
 40
0.0
 40
0.0
 40
0.0
 40
0.0
 40
0.1879894515
 40
0.2427120348
 40
0.3004989304
 40
0.4248352728
 40
0.5595110266
 40
0.7022114189
 40
0.8502214244
 40
1.0
 40
1.0
 40
1.0
 40
1.0
 10
11.3073183383
 20
6.332944426
 30
0.0
 10
11.3087068538
 20
6.3325001677
 30
0.0
 10
11.3103174855
 20
6.3313529705
 30
0.0
 10
11.3118965031
 20
6.3296471193
 30
0.0
 10
11.3130337832
 20
6.3282005022
 30
0.0
 10
11.3143295092
 20
6.3261045732
 30
0.0
 10
11.3156410177
 20
6.323271812
 30
0.0
 10
11.3167045131
 20
6.3201430558
 30
0.0
 10
11.3174877725
 20
6.3168132387
 30
0.0
 10
11.3178098559
 20
6.3145226146
 30
0.0
 10
11.3179183177
 20
6.3133661595
 30
0.0
  0
SPLINE
  5
2E6
100
AcDbEntity
  8
0
100
AcDbSpline
 62
9
  6
CONTINUOUS
 70
0
 71
3
 72
18
 73
14
 74
0
 42
0.0000001
 43
0.0000001
 44
0.0000000001
 40
0.0
 40
0.0
 40
0.0
 40
0.0
 40
0.1206369135
 40
0.2416428424
 40
0.3631911489
 40
0.4855969784
 40
0.6093705419
 40
0.735446709
 40
0.7999498376
 40
0.8657196849
 40
0.8990602283
 40
0.9326851941
 40
1.0
 40
1.0
 40
1.0
 40
1.0
 10
10.0936678949
 20
8.8341337601
 30
0.0
 10
10.095183783
 20
8.8339067891
 30
0.0
 10
10.0982067846
 20
8.8333553417
 30
0.0
 10
10.1026813276
 20
8.8322101201
 30
0.0
 10
10.1070720276
 20
8.8307008181
 30
0.0
 10
10.111331103
 20
8.8287563769
 30
0.0
 10
10.1153678635
 20
8.8262653217
 30
0.0
 10
10.118379603
 20
8.8235867516
 30
0.0
 10
10.1203412809
 20
8.8209719508
 30
0.0
 10
10.1212867573
 20
8.8191041071
 30
0.0
 10
10.1217995118
 20
8.8174934834
 30
0.0
 10
10.1221151097
 20
8.8158137786
 30
0.0
 10
10.1221163703
 20
8.8145133941
 30
0.0
 10
10.1220067874
 20
8.8136651562
 30
0.0
  0
LINE
  5
2E7
100
AcDbEntity
  8
0
100
AcDbLine
 62
9
  6
CONTINUOUS
 10
11.9726303587
 20
8.813665316
 11
10.1220067874
 21
8.8136651562
  0
SPLINE
  5
2E8
100
AcDbEntity
  8
0
100
AcDbSpline
 62
9
  6
CONTINUOUS
 70
0
 71
3
 72
18
 73
14
 74
0
 42
0.0000001
 43
0.0000001
 44
0.0000000001
 40
0.0
 40
0.0
 40
0.0
 40
0.0
 40
0.1245091458
 40
0.2492863663
 40
0.3742418092
 40
0.4367904366
 40
0.4994156081
 40
0.6245745249
 40
0.6872092175
 40
0.7498588204
 40
0.8124988472
 40
0.875106443
 40
1.0
 40
1.0
 40
1.0
 40
1.0
 10
11.1721823926
 20
6.143057578
 30
0.0
 10
11.171867747
 20
6.1448942807
 30
0.0
 10
11.1710532325
 20
6.148544062
 30
0.0
 10
11.169190689
 20
6.1538414926
 30
0.0
 10
11.1670360081
 20
6.1580109068
 30
0.0
 10
11.1649261996
 20
6.1611084313
 30
0.0
 10
11.1625550439
 20
6.1640137398
 30
0.0
 10
11.1598036806
 20
6.166595469
 30
0.0
 10
11.1567318422
 20
6.1687508093
 30
0.0
 10
11.1542893912
 20
6.1701532745
 30
0.0
 10
11.1517326233
 20
6.1713333037
 30
0.0
 10
11.1482078607
 20
6.172604687
 30
0.0
 10
11.1454600271
 20
6.1732388904
 30
0.0
 10
11.1436137678
 20
6.1735309178
 30
0.0
  0
SPLINE
  5
2E9
100
AcDbEntity
  8
0
100
AcDbSpline
 62
9
  6
CONTINUOUS
 70
0
 71
3
 72
10
 73
6
 74
0
 42
0.0000001
 43
0.0000001
 44
0.0000000001
 40
0.0
 40
0.0
 40
0.0
 40
0.0
 40
0.5205307606
 40
0.7678922955
 40
1.0
 40
1.0
 40
1.0
 40
1.0
 10
11.2568411906
 20
6.3183681332
 30
0.0
 10
11.2650007136
 20
6.3170810566
 30
0.0
 10
11.2770469094
 20
6.315238106
 30
0.0
 10
11.2927631079
 20
6.3130384932
 30
0.0
 10
11.30031029
 20
6.3120695881
 30
0.0
 10
11.3039677576
 20
6.3116335716
 30
0.0
  0
SPLINE
  5
2EA
100
AcDbEntity
  8
0
100
AcDbSpline
 62
9
  6
CONTINUOUS
 70
0
 71
3
 72
18
 73
14
 74
0
 42
0.0000001
 43
0.0000001
 44
0.0000000001
 40
0.0
 40
0.0
 40
0.0
 40
0.0
 40
0.1248922984
 40
0.1874992423
 40
0.2501388855
 40
0.312787851
 40
0.3754220352
 40
0.5005815922
 40
0.563206898
 40
0.6257560342
 40
0.7507126759
 40
0.875489812
 40
1.0
 40
1.0
 40
1.0
 40
1.0
 10
10.9510229088
 20
6.1735309178
 30
0.0
 10
10.9491766454
 20
6.1732390301
 30
0.0
 10
10.9464288154
 20
6.1726048597
 30
0.0
 10
10.9429041208
 20
6.1713333846
 30
0.0
 10
10.9403474026
 20
6.1701533092
 30
0.0
 10
10.9379049581
 20
6.1687508772
 30
0.0
 10
10.9348331416
 20
6.1665955127
 30
0.0
 10
10.9320817598
 20
6.1640138077
 30
0.0
 10
10.9297104982
 20
6.1611085576
 30
0.0
 10
10.9276005854
 20
6.1580110732
 30
0.0
 10
10.9254456998
 20
6.1538417065
 30
0.0
 10
10.9235838259
 20
6.1485439768
 30
0.0
 10
10.9227693523
 20
6.144894225
 30
0.0
 10
10.922454284
 20
6.143057578
 30
0.0
  0
SPLINE
  5
2EB
100
AcDbEntity
  8
0
100
AcDbSpline
 62
9
  6
CONTINUOUS
 70
0
 71
3
 72
10
 73
6
 74
0
 42
0.0000001
 43
0.0000001
 44
0.0000000001
 40
0.0
 40
0.0
 40
0.0
 40
0.0
 40
0.2321057861
 40
0.4794675512
 40
1.0
 40
1.0
 40
1.0
 40
1.0
 10
10.790668919
 20
6.3116335716
 30
0.0
 10
10.7943263469
 20
6.3120696836
 30
0.0
 10
10.8018736753
 20
6.3130372215
 30
0.0
 10
10.817590003
 20
6.3152361115
 30
0.0
 10
10.8296358418
 20
6.3170816197
 30
0.0
 10
10.837795486
 20
6.3183681332
 30
0.0
  0
SPLINE
  5
2EC
100
AcDbEntity
  8
0
100
AcDbSpline
 62
9
  6
CONTINUOUS
 70
0
 71
3
 72
18
 73
14
 74
0
 42
0.0000001
 43
0.0000001
 44
0.0000000001
 40
0.0
 40
0.0
 40
0.0
 40
0.0
 40
0.12063122
 40
0.2416348641
 40
0.3631856209
 40
0.4855918797
 40
0.6093667677
 40
0.7354444673
 40
0.7999479907
 40
0.8657173537
 40
0.8990584447
 40
0.9326849302
 40
1.0
 40
1.0
 40
1.0
 40
1.0
 10
12.0009681238
 20
8.8341339191
 30
0.0
 10
11.9994523334
 20
8.8339070024
 30
0.0
 10
11.9964295426
 20
8.8333552858
 30
0.0
 10
11.9919552145
 20
8.8322099616
 30
0.0
 10
11.9875645417
 20
8.8307008484
 30
0.0
 10
11.9833055617
 20
8.828756294
 30
0.0
 10
11.9792688354
 20
8.8262653265
 30
0.0
 10
11.9762569971
 20
8.8235869203
 30
0.0
 10
11.9742953877
 20
8.8209721144
 30
0.0
 10
11.9733500807
 20
8.8191042266
 30
0.0
 10
11.9728374042
 20
8.8174935973
 30
0.0
 10
11.9725216837
 20
8.8158139417
 30
0.0
 10
11.9725203558
 20
8.8145134847
 30
0.0
 10
11.9726303587
 20
8.813665316
 30
0.0
  0
SPLINE
  5
2ED
100
AcDbEntity
  8
0
100
AcDbSpline
 62
9
  6
CONTINUOUS
 70
0
 71
3
 72
13
 73
9
 74
0
 42
0.0000001
 43
0.0000001
 44
0.0000000001
 40
0.0
 40
0.0
 40
0.0
 40
0.0
 40
0.1830365303
 40
0.3893334304
 40
0.5089676349
 40
0.6469547756
 40
0.8116261861
 40
1.0
 40
1.0
 40
1.0
 40
1.0
 10
12.0066555795
 20
8.8341337666
 30
0.0
 10
12.0050899707
 20
8.8336638885
 30
0.0
 10
12.0018718589
 20
8.8322440811
 30
0.0
 10
11.9982902256
 20
8.8293445439
 30
0.0
 10
11.9957044793
 20
8.8260880068
 30
0.0
 10
11.993889722
 20
8.8227565944
 30
0.0
 10
11.9925990579
 20
8.8185310063
 30
0.0
 10
11.9924047518
 20
8.8153439178
 30
0.0
 10
11.9925133616
 20
8.8136651634
 30
0.0
  0
SPLINE
  5
2EE
100
AcDbEntity
  8
0
100
AcDbSpline
 62
9
  6
CONTINUOUS
 70
0
 71
3
 72
18
 73
14
 74
0
 42
0.0000001
 43
0.0000001
 44
0.0000000001
 40
0.0
 40
0.0
 40
0.0
 40
0.0
 40
0.1246018374
 40
0.2495012487
 40
0.3120715809
 40
0.374647795
 40
0.4372492394
 40
0.4999030429
 40
0.6250646314
 40
0.687672337
 40
0.7502811371
 40
0.8752852908
 40
1.0
 40
1.0
 40
1.0
 40
1.0
 10
10.922454284
 20
6.0076474715
 30
0.0
 10
10.9227744188
 20
6.0057098618
 30
0.0
 10
10.9236389394
 20
6.0018622558
 30
0.0
 10
10.9253547838
 20
5.9972328425
 30
0.0
 10
10.9271438963
 20
5.9937171634
 30
0.0
 10
10.9286961747
 20
5.9911938044
 30
0.0
 10
10.9304612313
 20
5.9888119652
 30
0.0
 10
10.933086789
 20
5.9858598065
 30
0.0
 10
10.9360994269
 20
5.9832705397
 30
0.0
 10
10.9394152471
 20
5.9811236356
 30
0.0
 10
10.9428983938
 20
5.9792647209
 30
0.0
 10
10.9475130393
 20
5.9774909955
 30
0.0
 10
10.9513645497
 20
5.9766190774
 30
0.0
 10
10.9533049807
 20
5.9763051732
 30
0.0
  0
SPLINE
  5
2EF
100
AcDbEntity
  8
0
100
AcDbSpline
 62
9
  6
CONTINUOUS
 70
0
 71
3
 72
18
 73
14
 74
0
 42
0.0000001
 43
0.0000001
 44
0.0000000001
 40
0.0
 40
0.0
 40
0.0
 40
0.0
 40
0.124714618
 40
0.2497186682
 40
0.3123274154
 40
0.374935103
 40
0.500096693
 40
0.5627503828
 40
0.6253517526
 40
0.6879280188
 40
0.7504984425
 40
0.8753980265
 40
1.0
 40
1.0
 40
1.0
 40
1.0
 10
11.1413316958
 20
5.9763051732
 30
0.0
 10
11.1432721348
 20
5.9766190153
 30
0.0
 10
11.1471236576
 20
5.9774908945
 30
0.0
 10
11.151738273
 20
5.9792646914
 30
0.0
 10
11.155221385
 20
5.9811236619
 30
0.0
 10
11.1585371717
 20
5.9832706126
 30
0.0
 10
11.1615498022
 20
5.9858598755
 30
0.0
 10
11.1641753849
 20
5.9888120065
 30
0.0
 10
11.1659404606
 20
5.9911938274
 30
0.0
 10
11.1674927715
 20
5.9937171664
 30
0.0
 10
11.1692819313
 20
5.9972328257
 30
0.0
 10
11.1709978264
 20
6.0018622276
 30
0.0
 10
11.1718623147
 20
6.0057098509
 30
0.0
 10
11.1721823926
 20
6.0076474715
 30
0.0
  0
SPLINE
  5
2F0
100
AcDbEntity
  8
0
100
AcDbSpline
 62
9
  6
CONTINUOUS
 70
0
 71
3
 72
15
 73
11
 74
0
 42
0.0000001
 43
0.0000001
 44
0.0000000001
 40
0.0
 40
0.0
 40
0.0
 40
0.0
 40
0.1537075017
 40
0.296394628
 40
0.4309019551
 40
0.5587849899
 40
0.6804537901
 40
0.7954271096
 40
0.9025141565
 40
1.0
 40
1.0
 40
1.0
 40
1.0
 10
11.3884836165
 20
6.2792459375
 30
0.0
 10
11.3849260253
 20
6.2791495898
 30
0.0
 10
11.378066481
 20
6.2784664037
 30
0.0
 10
11.3683636813
 20
6.2760060665
 30
0.0
 10
11.359648929
 20
6.2724685592
 30
0.0
 10
11.3518535274
 20
6.2681520795
 30
0.0
 10
11.344919169
 20
6.2633189736
 30
0.0
 10
11.3387901677
 20
6.2582306405
 30
0.0
 10
11.3334130174
 20
6.2531433473
 30
0.0
 10
11.3301194519
 20
6.2497380726
 30
0.0
 10
11.3285671812
 20
6.2480994108
 30
0.0
  0
SPLINE
  5
2F1
100
AcDbEntity
  8
0
100
AcDbSpline
 62
9
  6
CONTINUOUS
 70
0
 71
3
 72
15
 73
11
 74
0
 42
0.0000001
 43
0.0000001
 44
0.0000000001
 40
0.0
 40
0.0
 40
0.0
 40
0.0
 40
0.1262009692
 40
0.2524358903
 40
0.3781586884
 40
0.5034131645
 40
0.6281494101
 40
0.7523927514
 40
0.8764094149
 40
1.0
 40
1.0
 40
1.0
 40
1.0
 10
11.3073183383
 20
6.332944426
 30
0.0
 10
11.3086238938
 20
6.3329444259
 30
0.0
 10
11.3112420235
 20
6.3326906618
 30
0.0
 10
11.3150153209
 20
6.3315737408
 30
0.0
 10
11.31849565
 20
6.329753956
 30
0.0
 10
11.3215446445
 20
6.3273039053
 30
0.0
 10
11.3240507016
 20
6.3243203172
 30
0.0
 10
11.3259138216
 20
6.3209115128
 30
0.0
 10
11.3270581303
 20
6.3172132929
 30
0.0
 10
11.327318334
 20
6.3146447032
 30
0.0
 10
11.3273183338
 20
6.3133661523
 30
0.0
  0
SPLINE
  5
2F2
100
AcDbEntity
  8
0
100
AcDbSpline
 62
9
  6
CONTINUOUS
 70
0
 71
3
 72
21
 73
17
 74
0
 42
0.0000001
 43
0.0000001
 44
0.0000000001
 40
0.0
 40
0.0
 40
0.0
 40
0.0
 40
0.1177402865
 40
0.1774474332
 40
0.2377169134
 40
0.2985562916
 40
0.3599680942
 40
0.4219456064
 40
0.4844757994
 40
0.6110611532
 40
0.6750623951
 40
0.7394713965
 40
0.7718122028
 40
0.8042337595
 40
0.8692883023
 40
1.0
 40
1.0
 40
1.0
 40
1.0
 10
10.1318382769
 20
8.761421726
 30
0.0
 10
10.1775031932
 20
8.6854627062
 30
0.0
 10
10.2433488403
 20
8.5691495537
 30
0.0
 10
10.3250041732
 20
8.4099068719
 30
0.0
 10
10.3836410849
 20
8.2870538129
 30
0.0
 10
10.4391704971
 20
8.1613615707
 30
0.0
 10
10.4913745183
 20
8.0328619158
 30
0.0
 10
10.5400108271
 20
7.9016080455
 30
0.0
 10
10.6000394548
 20
7.7223591836
 30
0.0
 10
10.6518320019
 20
7.5388346865
 30
0.0
 10
10.6948898414
 20
7.3517530903
 30
0.0
 10
10.7181380365
 20
7.2329763709
 30
0.0
 10
10.7344528874
 20
7.1371179977
 30
0.0
 10
10.7492562275
 20
7.0405214147
 30
0.0
 10
10.7710922163
 20
6.8701245313
 30
0.0
 10
10.7826901632
 20
6.7230842808
 30
0.0
 10
10.7872958144
 20
6.6247991681
 30
0.0
  0
SPLINE
  5
2F3
100
AcDbEntity
  8
0
100
AcDbSpline
 62
9
  6
CONTINUOUS
 70
0
 71
3
 72
15
 73
11
 74
0
 42
0.0000001
 43
0.0000001
 44
0.0000000001
 40
0.0
 40
0.0
 40
0.0
 40
0.0
 40
0.1235906308
 40
0.247607337
 40
0.3718506638
 40
0.4965868919
 40
0.6218413692
 40
0.7475641648
 40
0.8737990484
 40
1.0
 40
1.0
 40
1.0
 40
1.0
 10
10.7673183083
 20
6.3133661308
 30
0.0
 10
10.7673183083
 20
6.3146446835
 30
0.0
 10
10.7675785133
 20
6.3172132768
 30
0.0
 10
10.7687228247
 20
6.3209115008
 30
0.0
 10
10.7705859493
 20
6.3243203075
 30
0.0
 10
10.7730920118
 20
6.3273038961
 30
0.0
 10
10.7761410117
 20
6.3297539461
 30
0.0
 10
10.7796213457
 20
6.3315737297
 30
0.0
 10
10.7833946494
 20
6.3326906431
 30
0.0
 10
10.7860127816
 20
6.3329444007
 30
0.0
 10
10.7873183383
 20
6.3329443995
 30
0.0
  0
SPLINE
  5
2F4
100
AcDbEntity
  8
0
100
AcDbSpline
 62
9
  6
CONTINUOUS
 70
0
 71
3
 72
23
 73
19
 74
0
 42
0.0000001
 43
0.0000001
 44
0.0000000001
 40
0.0
 40
0.0
 40
0.0
 40
0.0
 40
0.1177363814
 40
0.1774415
 40
0.2377089301
 40
0.2985463318
 40
0.3599561585
 40
0.4219315547
 40
0.4844595867
 40
0.5475123291
 40
0.6110573001
 40
0.6430035391
 40
0.6750585302
 40
0.7394653904
 40
0.8042234196
 40
0.8692757544
 40
0.9345615869
 40
1.0
 40
1.0
 40
1.0
 40
1.0
 10
11.9627983947
 20
8.7614210106
 30
0.0
 10
11.9171329827
 20
8.685462285
 30
0.0
 10
11.8512867727
 20
8.5691494405
 30
0.0
 10
11.7696328782
 20
8.4099060933
 30
0.0
 10
11.7109973138
 20
8.2870524113
 30
0.0
 10
11.6554668565
 20
8.1613607526
 30
0.0
 10
11.6032591338
 20
8.0328620758
 30
0.0
 10
11.554622728
 20
7.9016100668
 30
0.0
 10
11.5097845595
 20
7.7677065035
 30
0.0
 10
11.4689036065
 20
7.6313086197
 30
0.0
 10
11.4383388246
 20
7.5159175669
 30
0.0
 10
11.4160317013
 20
7.4225276824
 30
0.0
 10
11.3951255661
 20
7.3281495595
 30
0.0
 10
11.371810142
 20
7.2090238604
 30
0.0
 10
11.348475874
 20
7.0646704129
 30
0.0
 10
11.3298038408
 20
6.918972281
 30
0.0
 10
11.3158242841
 20
6.7722370043
 30
0.0
 10
11.3096463555
 20
6.6740054461
 30
0.0
 10
11.307340733
 20
6.624799165
 30
0.0
  0
SPLINE
  5
2F5
100
AcDbEntity
  8
0
100
AcDbSpline
 62
9
  6
CONTINUOUS
 70
0
 71
3
 72
15
 73
11
 74
0
 42
0.0000001
 43
0.0000001
 44
0.0000000001
 40
0.0
 40
0.0
 40
0.0
 40
0.0
 40
0.125229946
 40
0.2505751177
 40
0.3756846329
 40
0.5006745957
 40
0.6255900014
 40
0.7503698323
 40
0.8751446704
 40
1.0
 40
1.0
 40
1.0
 40
1.0
 10
11.4209729627
 20
6.2591667548
 30
0.0
 10
11.4209397186
 20
6.2603354044
 30
0.0
 10
11.4206673177
 20
6.262672901
 30
0.0
 10
11.4196595958
 20
6.2660501822
 30
0.0
 10
11.4180762948
 20
6.2691979274
 30
0.0
 10
11.4159694527
 20
6.2720165062
 30
0.0
 10
11.4134058674
 20
6.2744228498
 30
0.0
 10
11.4104610888
 20
6.2763408471
 30
0.0
 10
11.4072271357
 20
6.2777127368
 30
0.0
 10
11.4049405253
 20
6.2782320638
 30
0.0
 10
11.4037856762
 20
6.2783901943
 30
0.0
  0
SPLINE
  5
2F6
100
AcDbEntity
  8
0
100
AcDbSpline
 62
9
  6
CONTINUOUS
 70
0
 71
3
 72
24
 73
20
 74
0
 42
0.0000001
 43
0.0000001
 44
0.0000000001
 40
0.0
 40
0.0
 40
0.0
 40
0.0
 40
0.0192018998
 40
0.03861629
 40
0.0788452727
 40
0.1219183288
 40
0.1684708362
 40
0.2187473238
 40
0.2727157992
 40
0.3302110578
 40
0.3910282747
 40
0.4549801591
 40
0.5219655698
 40
0.592033479
 40
0.665364515
 40
0.7422843849
 40
0.8232703378
 40
0.9089293027
 40
1.0
 40
1.0
 40
1.0
 40
1.0
 10
11.327278622
 20
5.7763503243
 30
0.0
 10
11.3272844306
 20
5.7748771479
 30
0.0
 10
11.3274520266
 20
5.7719130453
 30
0.0
 10
11.3283843848
 20
5.7659282969
 30
0.0
 10
11.3306434729
 20
5.7583401961
 30
0.0
 10
11.3347480046
 20
5.749241755
 30
0.0
 10
11.340055785
 20
5.7399008163
 30
0.0
 10
11.3463620307
 20
5.7301970764
 30
0.0
 10
11.3534585454
 20
5.7200167676
 30
0.0
 10
11.3611349269
 20
5.7092569459
 30
0.0
 10
11.369178245
 20
5.6978177613
 30
0.0
 10
11.3773751009
 20
5.6855989157
 30
0.0
 10
11.38551255
 20
5.6724942394
 30
0.0
 10
11.3933769384
 20
5.658390465
 30
0.0
 10
11.4007559883
 20
5.6431712128
 30
0.0
 10
11.4074358833
 20
5.6267208348
 30
0.0
 10
11.4132008906
 20
5.6089272886
 30
0.0
 10
11.4178455527
 20
5.5896888831
 30
0.0
 10
11.4199863977
 20
5.576283274
 30
0.0
 10
11.4208249403
 20
5.5693467455
 30
0.0
  0
SPLINE
  5
2F7
100
AcDbEntity
  8
0
100
AcDbSpline
 62
9
  6
CONTINUOUS
 70
0
 71
3
 72
11
 73
7
 74
0
 42
0.0000001
 43
0.0000001
 44
0.0000000001
 40
0.0
 40
0.0
 40
0.0
 40
0.0
 40
0.2511743908
 40
0.5015852493
 40
0.7511602596
 40
1.0
 40
1.0
 40
1.0
 40
1.0
 10
11.4086561042
 20
5.532139446
 30
0.0
 10
11.4101403362
 20
5.5326193018
 30
0.0
 10
11.4130037324
 20
5.5339281933
 30
0.0
 10
11.4167142067
 20
5.5368228098
 30
0.0
 10
11.4196462261
 20
5.5404857267
 30
0.0
 10
11.4209737966
 20
5.5433200127
 30
0.0
 10
11.4214583324
 20
5.5447874623
 30
0.0
  0
SPLINE
  5
2F8
100
AcDbEntity
  8
0
100
AcDbSpline
 62
9
  6
CONTINUOUS
 70
0
 71
3
 72
15
 73
11
 74
0
 42
0.0000001
 43
0.0000001
 44
0.0000000001
 40
0.0
 40
0.0
 40
0.0
 40
0.0
 40
0.1248472701
 40
0.2498062232
 40
0.374679126
 40
0.4996346256
 40
0.6246396532
 40
0.7497024726
 40
0.8749581502
 40
1.0
 40
1.0
 40
1.0
 40
1.0
 10
10.7673385497
 20
5.7774498698
 30
0.0
 10
10.7673897987
 20
5.7761802783
 30
0.0
 10
10.7677367473
 20
5.7736431613
 30
0.0
 10
10.7689703555
 20
5.7700113079
 30
0.0
 10
10.7708758785
 20
5.7666794717
 30
0.0
 10
10.773382347
 20
5.7637728496
 30
0.0
 10
10.7763949053
 20
5.7613917936
 30
0.0
 10
10.7798091807
 20
5.7596263378
 30
0.0
 10
10.7834960187
 20
5.7585444806
 30
0.0
 10
10.7860498315
 20
5.758298912
 30
0.0
 10
10.7873224372
 20
5.75829916
 30
0.0
  0
SPLINE
  5
2F9
100
AcDbEntity
  8
0
100
AcDbSpline
 62
9
  6
CONTINUOUS
 70
0
 71
3
 72
20
 73
16
 74
0
 42
0.0000001
 43
0.0000001
 44
0.0000000001
 40
0.0
 40
0.0
 40
0.0
 40
0.0
 40
0.1935261955
 40
0.379817762
 40
0.5512622618
 40
0.7016368806
 40
0.8254006084
 40
0.8757764127
 40
0.9178963772
 40
0.9513891867
 40
0.964814344
 40
0.9760191344
 40
0.9850244982
 40
0.9918904557
 40
1.0
 40
1.0
 40
1.0
 40
1.0
 10
10.1220066171
 20
8.8136652479
 30
0.0
 10
10.120720267
 20
8.8137481108
 30
0.0
 10
10.1181946079
 20
8.8138949794
 30
0.0
 10
10.1145264884
 20
8.8140611353
 30
0.0
 10
10.1111435635
 20
8.8141653126
 30
0.0
 10
10.108175795
 20
8.8142037665
 30
0.0
 10
10.1060140004
 20
8.814181626
 30
0.0
 10
10.1045746548
 20
8.8141230294
 30
0.0
 10
10.103737235
 20
8.8140660948
 30
0.0
 10
10.1031474124
 20
8.814003322
 30
0.0
 10
10.1027647738
 20
8.8139413668
 30
0.0
 10
10.1025462291
 20
8.8138954997
 30
0.0
 10
10.1023704691
 20
8.8138449191
 30
0.0
 10
10.1022281224
 20
8.8137879615
 30
0.0
 10
10.1021296873
 20
8.8137188608
 30
0.0
 10
10.1021230962
 20
8.8136652493
 30
0.0
  0
SPLINE
  5
2FA
100
AcDbEntity
  8
0
100
AcDbSpline
 62
9
  6
CONTINUOUS
 70
0
 71
3
 72
20
 73
16
 74
0
 42
0.0000001
 43
0.0000001
 44
0.0000000001
 40
0.0
 40
0.0
 40
0.0
 40
0.0
 40
0.0081088726
 40
0.0149744584
 40
0.0239794747
 40
0.0351839457
 40
0.0486088099
 40
0.0821011406
 40
0.1242208084
 40
0.1745964483
 40
0.298360217
 40
0.4487353737
 40
0.6201806688
 40
0.8064729612
 40
1.0
 40
1.0
 40
1.0
 40
1.0
 10
11.9925145127
 20
8.8136652556
 30
0.0
 10
11.9925079306
 20
8.8137188631
 30
0.0
 10
11.9924095036
 20
8.8137879674
 30
0.0
 10
11.992267168
 20
8.813844921
 30
0.0
 10
11.9920914164
 20
8.8138955009
 30
0.0
 10
11.9918728803
 20
8.8139413664
 30
0.0
 10
11.9914902524
 20
8.8140033198
 30
0.0
 10
11.9909004425
 20
8.8140660901
 30
0.0
 10
11.9900630369
 20
8.8141230218
 30
0.0
 10
11.9886237078
 20
8.8141816144
 30
0.0
 10
11.9864619313
 20
8.8142037505
 30
0.0
 10
11.9834941823
 20
8.8141652927
 30
0.0
 10
11.9801112765
 20
8.8140611127
 30
0.0
 10
11.9764431767
 20
8.8138949563
 30
0.0
 10
11.9739175315
 20
8.8137480887
 30
0.0
 10
11.9726311881
 20
8.8136652268
 30
0.0
  0
SPLINE
  5
2FB
100
AcDbEntity
  8
0
100
AcDbSpline
 62
7
  6
CONTINUOUS
 70
0
 71
3
 72
10
 73
6
 74
0
 42
0.0000001
 43
0.0000001
 44
0.0000000001
 40
0.0
 40
0.0
 40
0.0
 40
0.0
 40
0.4314909488
 40
0.6963718112
 40
1.0
 40
1.0
 40
1.0
 40
1.0
 10
9.8979453658
 20
9.0939933809
 30
0.0
 10
9.8981376266
 20
9.093722074
 30
0.0
 10
9.8985767127
 20
9.0933775422
 30
0.0
 10
9.8992744156
 20
9.0930530282
 30
0.0
 10
9.8996933113
 20
9.0929186778
 30
0.0
 10
9.8999192475
 20
9.0928578264
 30
0.0
  0
SPLINE
  5
2FC
100
AcDbEntity
  8
0
100
AcDbSpline
 62
7
  6
CONTINUOUS
 70
0
 71
3
 72
13
 73
9
 74
0
 42
0.0000001
 43
0.0000001
 44
0.0000000001
 40
0.0
 40
0.0
 40
0.0
 40
0.0
 40
0.0830574049
 40
0.1803688779
 40
0.2913814197
 40
0.4150304542
 40
0.6935865865
 40
1.0
 40
1.0
 40
1.0
 40
1.0
 10
9.8999192475
 20
9.0928578264
 30
0.0
 10
9.9003071066
 20
9.0927533645
 30
0.0
 10
9.9011672831
 20
9.0925928728
 30
0.0
 10
9.9025730087
 20
9.0924755953
 30
0.0
 10
9.9041798482
 20
9.0924665745
 30
0.0
 10
9.9066591068
 20
9.0926061284
 30
0.0
 10
9.9100604543
 20
9.0930627931
 30
0.0
 10
9.9128312854
 20
9.0936443113
 30
0.0
 10
9.9142714638
 20
9.0939933428
 30
0.0
  0
SPLINE
  5
2FD
100
AcDbEntity
  8
0
100
AcDbSpline
 62
9
  6
CONTINUOUS
 70
0
 71
3
 72
9
 73
5
 74
0
 42
0.0000001
 43
0.0000001
 44
0.0000000001
 40
0.0
 40
0.0
 40
0.0
 40
0.0
 40
0.5103015418
 40
1.0
 40
1.0
 40
1.0
 40
1.0
 10
10.0936682341
 20
8.8341337082
 30
0.0
 10
10.0927255771
 20
8.833876877
 30
0.0
 10
10.0908059572
 20
8.833596077
 30
0.0
 10
10.0888792591
 20
8.8338670726
 30
0.0
 10
10.0879803928
 20
8.8341336812
 30
0.0
  0
SPLINE
  5
2FE
100
AcDbEntity
  8
0
100
AcDbSpline
 62
9
  6
CONTINUOUS
 70
0
 71
3
 72
15
 73
11
 74
0
 42
0.0000001
 43
0.0000001
 44
0.0000000001
 40
0.0
 40
0.0
 40
0.0
 40
0.0
 40
0.1671995167
 40
0.325562337
 40
0.4718100857
 40
0.6040998001
 40
0.7215578102
 40
0.8247283512
 40
0.9159874745
 40
1.0
 40
1.0
 40
1.0
 40
1.0
 10
10.0713092623
 20
8.8595856452
 30
0.0
 10
10.0703923279
 20
8.859173977
 30
0.0
 10
10.0685742718
 20
8.8584425226
 30
0.0
 10
10.065858104
 20
8.8576125211
 30
0.0
 10
10.0632771392
 20
8.8570993288
 30
0.0
 10
10.0608971139
 20
8.8569125818
 30
0.0
 10
10.0587712612
 20
8.8570603018
 30
0.0
 10
10.0569439954
 20
8.8575430502
 30
0.0
 10
10.0554642892
 20
8.8583697811
 30
0.0
 10
10.0547330236
 20
8.8591601334
 30
0.0
 10
10.0544608855
 20
8.8595855753
 30
0.0
  0
SPLINE
  5
2FF
100
AcDbEntity
  8
0
100
AcDbSpline
 62
9
  6
CONTINUOUS
 70
0
 71
3
 72
15
 73
11
 74
0
 42
0.0000001
 43
0.0000001
 44
0.0000000001
 40
0.0
 40
0.0
 40
0.0
 40
0.0
 40
0.1684405491
 40
0.3280644432
 40
0.4753585298
 40
0.6082801306
 40
0.7257697035
 40
0.8282320688
 40
0.9180121395
 40
1.0
 40
1.0
 40
1.0
 40
1.0
 10
10.1318380867
 20
8.7614216427
 30
0.0
 10
10.1308993551
 20
8.7610099816
 30
0.0
 10
10.1290390491
 20
8.760278569
 30
0.0
 10
10.1262640545
 20
8.7594482982
 30
0.0
 10
10.1236321627
 20
8.7589345779
 30
0.0
 10
10.121212513
 20
8.7587471606
 30
0.0
 10
10.1190608181
 20
8.7588940029
 30
0.0
 10
10.117222748
 20
8.7593753141
 30
0.0
 10
10.1157473661
 20
8.7602013782
 30
0.0
 10
10.1150300885
 20
8.7609955945
 30
0.0
 10
10.1147700231
 20
8.761421383
 30
0.0
  0
SPLINE
  5
300
100
AcDbEntity
  8
0
100
AcDbSpline
 62
7
  6
CONTINUOUS
 70
0
 71
3
 72
17
 73
13
 74
0
 42
0.0000001
 43
0.0000001
 44
0.0000000001
 40
0.0
 40
0.0
 40
0.0
 40
0.0
 40
0.1789481043
 40
0.3495658185
 40
0.5069052442
 40
0.6471037771
 40
0.7670667107
 40
0.8189355269
 40
0.8652408419
 40
0.9060465593
 40
0.9417092075
 40
1.0
 40
1.0
 40
1.0
 40
1.0
 10
12.1803653578
 20
9.0939933615
 30
0.0
 10
12.1813405277
 20
9.0937570154
 30
0.0
 10
12.1832556221
 20
9.0933358825
 30
0.0
 10
12.1860581331
 20
9.0928549956
 30
0.0
 10
12.1886676923
 20
9.0925549696
 30
0.0
 10
12.1910079577
 20
9.0924434646
 30
0.0
 10
12.1927599756
 20
9.0925139497
 30
0.0
 10
12.1939725411
 20
9.0926823248
 30
0.0
 10
12.1947344289
 20
9.0928495984
 30
0.0
 10
12.1953908402
 20
9.0930645353
 30
0.0
 10
12.1960732915
 20
9.0933867939
 30
0.0
 10
12.1965023535
 20
9.0937266543
 30
0.0
 10
12.1966913336
 20
9.0939933323
 30
0.0
  0
SPLINE
  5
301
100
AcDbEntity
  8
0
100
AcDbSpline
 62
9
  6
CONTINUOUS
 70
0
 71
3
 72
11
 73
7
 74
0
 42
0.0000001
 43
0.0000001
 44
0.0000000001
 40
0.0
 40
0.0
 40
0.0
 40
0.0
 40
0.2488397397
 40
0.4984147482
 40
0.7488256071
 40
1.0
 40
1.0
 40
1.0
 40
1.0
 10
10.6731783337
 20
5.5447874691
 30
0.0
 10
10.6736628696
 20
5.5433200197
 30
0.0
 10
10.6749904401
 20
5.5404857343
 30
0.0
 10
10.6779224592
 20
5.5368228181
 30
0.0
 10
10.681632933
 20
5.5339282022
 30
0.0
 10
10.6844963288
 20
5.5326193109
 30
0.0
 10
10.6859805605
 20
5.5321394551
 30
0.0
  0
SPLINE
  5
302
100
AcDbEntity
  8
0
100
AcDbSpline
 62
9
  6
CONTINUOUS
 70
0
 71
3
 72
27
 73
23
 74
0
 42
0.0000001
 43
0.0000001
 44
0.0000000001
 40
0.0
 40
0.0
 40
0.0
 40
0.0
 40
0.093135642
 40
0.1799715658
 40
0.2614938252
 40
0.3385185428
 40
0.4116950223
 40
0.4814935089
 40
0.5481811534
 40
0.6118455527
 40
0.6724014063
 40
0.7014452623
 40
0.7296228092
 40
0.7832498931
 40
0.8330724736
 40
0.8790463725
 40
0.9006753819
 40
0.9214964728
 40
0.9416362711
 40
0.9612709163
 40
0.9806307727
 40
1.0
 40
1.0
 40
1.0
 40
1.0
 10
10.6921484299
 20
5.5311546771
 30
0.0
 10
10.6924649455
 20
5.5389387713
 30
0.0
 10
10.6937140436
 20
5.5539644925
 30
0.0
 10
10.6974731253
 20
5.5755405221
 30
0.0
 10
10.7027796439
 20
5.5953956431
 30
0.0
 10
10.7093695383
 20
5.6136473816
 30
0.0
 10
10.716970976
 20
5.6304250173
 30
0.0
 10
10.7253001642
 20
5.645871869
 30
0.0
 10
10.7340795897
 20
5.6601355521
 30
0.0
 10
10.7430322156
 20
5.6733628368
 30
0.0
 10
10.7505074964
 20
5.6837787504
 30
0.0
 10
10.7563092727
 20
5.6917408869
 30
0.0
 10
10.7617657701
 20
5.699237397
 30
0.0
 10
10.7681701623
 20
5.7081947183
 30
0.0
 10
10.7750618811
 20
5.7186267127
 30
0.0
 10
10.7799032627
 20
5.7271909245
 30
0.0
 10
10.7829859801
 20
5.7339193451
 30
0.0
 10
10.7848400358
 20
5.7388206599
 30
0.0
 10
10.7862476573
 20
5.7436965146
 30
0.0
 10
10.7871716042
 20
5.7485643109
 30
0.0
 10
10.787574109
 20
5.7534390211
 30
0.0
 10
10.7874699256
 20
5.756685725
 30
0.0
 10
10.7873222134
 20
5.7582991572
 30
0.0
  0
LINE
  5
303
100
AcDbEntity
  8
0
100
AcDbLine
 62
9
  6
CONTINUOUS
 10
10.6733336972
 20
6.2384040514
 11
10.6724107944
 21
5.7659946167
  0
LINE
  5
304
100
AcDbEntity
  8
0
100
AcDbLine
 62
9
  6
CONTINUOUS
 10
10.6724107944
 20
5.7659946167
 11
10.6721921463
 21
5.5756393013
  0
LINE
  5
305
100
AcDbEntity
  8
0
100
AcDbLine
 62
9
  6
CONTINUOUS
 10
10.6721921463
 20
5.5756393013
 11
10.6721860231
 21
5.5681046023
  0
SPLINE
  5
306
100
AcDbEntity
  8
0
100
AcDbSpline
 62
9
  6
CONTINUOUS
 70
0
 71
3
 72
24
 73
20
 74
0
 42
0.0000001
 43
0.0000001
 44
0.0000000001
 40
0.0
 40
0.0
 40
0.0
 40
0.0
 40
0.0910704643
 40
0.1767292895
 40
0.2577152507
 40
0.3346352339
 40
0.4079663971
 40
0.47803439
 40
0.5450197792
 40
0.6089716191
 40
0.6697890012
 40
0.7272845439
 40
0.7812533175
 40
0.8315299835
 40
0.8780825238
 40
0.9211553984
 40
0.9613839706
 40
0.9807981714
 40
1.0
 40
1.0
 40
1.0
 40
1.0
 10
10.6738118996
 20
5.5693481787
 30
0.0
 10
10.6746504655
 20
5.5762846021
 30
0.0
 10
10.6767913498
 20
5.5896900112
 30
0.0
 10
10.6814360444
 20
5.6089281355
 30
0.0
 10
10.6872010418
 20
5.626721447
 30
0.0
 10
10.6938809036
 20
5.6431716293
 30
0.0
 10
10.7012599068
 20
5.6583907062
 30
0.0
 10
10.7091242173
 20
5.6724943186
 30
0.0
 10
10.717261556
 20
5.6855988469
 30
0.0
 10
10.7254582707
 20
5.6978175834
 30
0.0
 10
10.7335014421
 20
5.7092567043
 30
0.0
 10
10.7411777202
 20
5.7200164756
 30
0.0
 10
10.7482742031
 20
5.7301966959
 30
0.0
 10
10.7545805194
 20
5.7399002675
 30
0.0
 10
10.7598885306
 20
5.7492409251
 30
0.0
 10
10.76399334
 20
5.7583390623
 30
0.0
 10
10.7662525736
 20
5.7659269705
 30
0.0
 10
10.7671848973
 20
5.7719116023
 30
0.0
 10
10.7673524152
 20
5.7748756565
 30
0.0
 10
10.767358168
 20
5.77634881
 30
0.0
  0
SPLINE
  5
307
100
AcDbEntity
  8
0
100
AcDbSpline
 62
9
  6
CONTINUOUS
 70
0
 71
3
 72
34
 73
30
 74
0
 42
0.0000001
 43
0.0000001
 44
0.0000000001
 40
0.0
 40
0.0
 40
0.0
 40
0.0
 40
0.1043909766
 40
0.1997080276
 40
0.2887188701
 40
0.3734041714
 40
0.4547958396
 40
0.5329921953
 40
0.6074395711
 40
0.6771028003
 40
0.7406090849
 40
0.7695652589
 40
0.7963849704
 40
0.8208679016
 40
0.8428281098
 40
0.8621121173
 40
0.8786339789
 40
0.8924521563
 40
0.8984560777
 40
0.9039664921
 40
0.9091264806
 40
0.9141314177
 40
0.9192172791
 40
0.9246315694
 40
0.9306018317
 40
0.9373184641
 40
0.9535507127
 40
0.974243209
 40
1.0
 40
1.0
 40
1.0
 40
1.0
 10
10.673655833
 20
6.258678283
 30
0.0
 10
10.6775034665
 20
6.2592909135
 30
0.0
 10
10.6849658855
 20
6.2599315014
 30
0.0
 10
10.6957555141
 20
6.2591183105
 30
0.0
 10
10.7055620592
 20
6.2567880213
 30
0.0
 10
10.7144367194
 20
6.2532626164
 30
0.0
 10
10.7224432161
 20
6.2488615235
 30
0.0
 10
10.7296354599
 20
6.2438835703
 30
0.0
 10
10.7360596991
 20
6.2386224423
 30
0.0
 10
10.7417581315
 20
6.2333674783
 30
0.0
 10
10.7460562362
 20
6.2291078072
 30
0.0
 10
10.7491955213
 20
6.2259512685
 30
0.0
 10
10.7513168294
 20
6.2238363582
 30
0.0
 10
10.7532818992
 20
6.2219347041
 30
0.0
 10
10.7550943485
 20
6.2202809401
 30
0.0
 10
10.7567589416
 20
6.2189081074
 30
0.0
 10
10.7582808542
 20
6.2178488332
 30
0.0
 10
10.7594943719
 20
6.2172239323
 30
0.0
 10
10.7603999167
 20
6.2169432932
 30
0.0
 10
10.7610173693
 20
6.2168464453
 30
0.0
 10
10.7616059075
 20
6.216859618
 30
0.0
 10
10.7621644742
 20
6.2169901162
 30
0.0
 10
10.7626899566
 20
6.2172430358
 30
0.0
 10
10.7631800946
 20
6.2176203806
 30
0.0
 10
10.7636355767
 20
6.2181233038
 30
0.0
 10
10.7642372897
 20
6.2190229802
 30
0.0
 10
10.7648898185
 20
6.2205271995
 30
0.0
 10
10.7655179869
 20
6.2227838867
 30
0.0
 10
10.7658320233
 20
6.2244909504
 30
0.0
 10
10.7659806022
 20
6.2254406988
 30
0.0
  0
SPLINE
  5
308
100
AcDbEntity
  8
0
100
AcDbSpline
 62
9
  6
CONTINUOUS
 70
0
 71
3
 72
11
 73
7
 74
0
 42
0.0000001
 43
0.0000001
 44
0.0000000001
 40
0.0
 40
0.0
 40
0.0
 40
0.0
 40
0.1812732196
 40
0.4063247066
 40
0.6782615699
 40
1.0
 40
1.0
 40
1.0
 40
1.0
 10
10.7659806022
 20
6.2254406988
 30
0.0
 10
10.7662206249
 20
6.2269749755
 30
0.0
 10
10.7666109095
 20
6.230436804
 30
0.0
 10
10.7669893453
 20
6.2362358961
 30
0.0
 10
10.7672291608
 20
6.243246566
 30
0.0
 10
10.767298092
 20
6.2483322436
 30
0.0
 10
10.767317756
 20
6.2510884536
 30
0.0
  0
SPLINE
  5
309
100
AcDbEntity
  8
0
100
AcDbSpline
 62
9
  6
CONTINUOUS
 70
0
 71
3
 72
11
 73
7
 74
0
 42
0.0000001
 43
0.0000001
 44
0.0000000001
 40
0.0
 40
0.0
 40
0.0
 40
0.0
 40
0.2630881587
 40
0.5197068114
 40
0.7661045555
 40
1.0
 40
1.0
 40
1.0
 40
1.0
 10
11.2568412002
 20
6.3293243444
 30
0.0
 10
11.2600505362
 20
6.3293243809
 30
0.0
 10
11.2663905504
 20
6.3294199628
 30
0.0
 10
11.2757291278
 20
6.3298035451
 30
0.0
 10
11.2846992671
 20
6.3304065694
 30
0.0
 10
11.2905326339
 20
6.3309653118
 30
0.0
 10
11.2933677798
 20
6.3312859786
 30
0.0
  0
SPLINE
  5
30A
100
AcDbEntity
  8
0
100
AcDbSpline
 62
9
  6
CONTINUOUS
 70
0
 71
3
 72
11
 73
7
 74
0
 42
0.0000001
 43
0.0000001
 44
0.0000000001
 40
0.0
 40
0.0
 40
0.0
 40
0.0
 40
0.2338917446
 40
0.4802905942
 40
0.7369117322
 40
1.0
 40
1.0
 40
1.0
 40
1.0
 10
10.8012688978
 20
6.3312859785
 30
0.0
 10
10.8041039949
 20
6.3309652767
 30
0.0
 10
10.8099373298
 20
6.3304065091
 30
0.0
 10
10.8189074738
 20
6.3298035428
 30
0.0
 10
10.8282460992
 20
6.3294200053
 30
0.0
 10
10.8345861456
 20
6.3293243766
 30
0.0
 10
10.8377954836
 20
6.3293243444
 30
0.0
  0
SPLINE
  5
30B
100
AcDbEntity
  8
0
100
AcDbSpline
 62
9
  6
CONTINUOUS
 70
0
 71
3
 72
18
 73
14
 74
0
 42
0.0000001
 43
0.0000001
 44
0.0000000001
 40
0.0
 40
0.0
 40
0.0
 40
0.0
 40
0.1248360862
 40
0.2497625952
 40
0.3746449452
 40
0.4372418298
 40
0.4998045925
 40
0.5623592262
 40
0.624972844
 40
0.6875362184
 40
0.7500850943
 40
0.8750842571
 40
1.0
 40
1.0
 40
1.0
 40
1.0
 10
11.1615824138
 20
6.143057578
 30
0.0
 10
11.1615823998
 20
6.1443898922
 30
0.0
 10
11.1614683516
 20
6.1470580138
 30
0.0
 10
11.1608545894
 20
6.151018542
 30
0.0
 10
11.1598621403
 20
6.1542211366
 30
0.0
 10
11.1587028515
 20
6.1566297543
 30
0.0
 10
11.1576374892
 20
6.1583320542
 30
0.0
 10
11.1563632407
 20
6.159885898
 30
0.0
 10
11.1548903294
 20
6.1612532414
 30
0.0
 10
11.1532436256
 20
6.1624062731
 30
0.0
 10
11.1508573589
 20
6.1636190629
 30
0.0
 10
11.1476217127
 20
6.1645512834
 30
0.0
 10
11.1449469321
 20
6.1647509309
 30
0.0
 10
11.1436137678
 20
6.1647509377
 30
0.0
  0
SPLINE
  5
30C
100
AcDbEntity
  8
0
100
AcDbSpline
 62
9
  6
CONTINUOUS
 70
0
 71
3
 72
16
 73
12
 74
0
 42
0.0000001
 43
0.0000001
 44
0.0000000001
 40
0.0
 40
0.0
 40
0.0
 40
0.0
 40
0.1249472591
 40
0.2500085914
 40
0.3125790788
 40
0.3751530221
 40
0.500101958
 40
0.6250818421
 40
0.7500291166
 40
0.8750723698
 40
1.0
 40
1.0
 40
1.0
 40
1.0
 10
11.1413316958
 20
5.9864150514
 30
0.0
 10
11.142722195
 20
5.9864150631
 30
0.0
 10
11.1455092107
 20
5.9865856616
 30
0.0
 10
11.1489214976
 20
5.9873675249
 30
0.0
 10
11.1515107716
 20
5.9884073705
 30
0.0
 10
11.1539570564
 20
5.989746364
 30
0.0
 10
11.1566704084
 20
5.9919926621
 30
0.0
 10
11.1590840228
 20
5.9954512039
 30
0.0
 10
11.1606287889
 20
5.9993599989
 30
0.0
 10
11.1614338011
 20
6.0034714641
 30
0.0
 10
11.1615824058
 20
6.0062571908
 30
0.0
 10
11.1615824138
 20
6.0076474715
 30
0.0
  0
SPLINE
  5
30D
100
AcDbEntity
  8
0
100
AcDbSpline
 62
9
  6
CONTINUOUS
 70
0
 71
3
 72
16
 73
12
 74
0
 42
0.0000001
 43
0.0000001
 44
0.0000000001
 40
0.0
 40
0.0
 40
0.0
 40
0.0
 40
0.1249275275
 40
0.2499702837
 40
0.3749171258
 40
0.4998968746
 40
0.6248465297
 40
0.6874203919
 40
0.749991005
 40
0.8750525737
 40
1.0
 40
1.0
 40
1.0
 40
1.0
 10
10.9330542628
 20
6.0076474715
 30
0.0
 10
10.9330542697
 20
6.0062571918
 30
0.0
 10
10.9332028878
 20
6.0034714727
 30
0.0
 10
10.9340078668
 20
5.9993600136
 30
0.0
 10
10.9355526304
 20
5.9954512249
 30
0.0
 10
10.9379662701
 20
5.991992703
 30
0.0
 10
10.940679595
 20
5.9897463673
 30
0.0
 10
10.9431258815
 20
5.9884073547
 30
0.0
 10
10.9457151659
 20
5.9873675243
 30
0.0
 10
10.9491274592
 20
5.9865856697
 30
0.0
 10
10.9519144795
 20
5.98641506
 30
0.0
 10
10.9533049807
 20
5.9864150514
 30
0.0
  0
SPLINE
  5
30E
100
AcDbEntity
  8
0
100
AcDbSpline
 62
9
  6
CONTINUOUS
 70
0
 71
3
 72
18
 73
14
 74
0
 42
0.0000001
 43
0.0000001
 44
0.0000000001
 40
0.0
 40
0.0
 40
0.0
 40
0.0
 40
0.1249135553
 40
0.2499094336
 40
0.3124561959
 40
0.375020587
 40
0.43763298
 40
0.5001857258
 40
0.5627515641
 40
0.6253490486
 40
0.7502333804
 40
0.8751625638
 40
1.0
 40
1.0
 40
1.0
 40
1.0
 10
10.9510229088
 20
6.1647509377
 30
0.0
 10
10.9496897679
 20
6.1647509211
 30
0.0
 10
10.9470150574
 20
6.1645512396
 30
0.0
 10
10.9437794526
 20
6.1636191738
 30
0.0
 10
10.9413932325
 20
6.1624063774
 30
0.0
 10
10.9397465823
 20
6.1612533345
 30
0.0
 10
10.9382735079
 20
6.159886191
 30
0.0
 10
10.9369993988
 20
6.1583322236
 30
0.0
 10
10.9359339642
 20
6.1566299617
 30
0.0
 10
10.9347745051
 20
6.154221349
 30
0.0
 10
10.9337822268
 20
6.1510186357
 30
0.0
 10
10.9331683442
 20
6.1470580761
 30
0.0
 10
10.9330542677
 20
6.1443899065
 30
0.0
 10
10.9330542628
 20
6.143057578
 30
0.0
  0
LINE
  5
30F
100
AcDbEntity
  8
0
100
AcDbLine
 62
9
  6
CONTINUOUS
 10
11.0473183383
 20
5.5306667428
 11
11.3816522264
 21
5.5305933603
  0
SPLINE
  5
310
100
AcDbEntity
  8
0
100
AcDbSpline
 62
9
  6
CONTINUOUS
 70
0
 71
3
 72
27
 73
23
 74
0
 42
0.0000001
 43
0.0000001
 44
0.0000000001
 40
0.0
 40
0.0
 40
0.0
 40
0.0
 40
0.0193692282
 40
0.0387290844
 40
0.0583637316
 40
0.0785035374
 40
0.0993246436
 40
0.120953678
 40
0.1669276628
 40
0.216750392
 40
0.2703776214
 40
0.2985552074
 40
0.3275990626
 40
0.3881547426
 40
0.4518188038
 40
0.5185063406
 40
0.5883048818
 40
0.6614814753
 40
0.738506266
 40
0.820028514
 40
0.9068643936
 40
1.0
 40
1.0
 40
1.0
 40
1.0
 10
11.307314463
 20
5.7582991537
 30
0.0
 10
11.3071667519
 20
5.7566857213
 30
0.0
 10
11.3070625712
 20
5.7534390173
 30
0.0
 10
11.3074650809
 20
5.7485643074
 30
0.0
 10
11.3083890335
 20
5.7436965115
 30
0.0
 10
11.309796661
 20
5.7388206565
 30
0.0
 10
11.3116507227
 20
5.7339193399
 30
0.0
 10
11.314733449
 20
5.727190912
 30
0.0
 10
11.3195748406
 20
5.7186266815
 30
0.0
 10
11.3264665676
 20
5.7081946549
 30
0.0
 10
11.3328709681
 20
5.6992373056
 30
0.0
 10
11.3383274712
 20
5.6917407809
 30
0.0
 10
11.3441292403
 20
5.6837786535
 30
0.0
 10
11.3516045044
 20
5.6733627812
 30
0.0
 10
11.360557125
 20
5.660135556
 30
0.0
 10
11.3693365433
 20
5.6458719071
 30
0.0
 10
11.3776657367
 20
5.6304250527
 30
0.0
 10
11.3852671748
 20
5.613647395
 30
0.0
 10
11.3918570455
 20
5.5953956324
 30
0.0
 10
11.3971635362
 20
5.5755405034
 30
0.0
 10
11.4009226001
 20
5.5539644796
 30
0.0
 10
11.4021717065
 20
5.538938767
 30
0.0
 10
11.4024882337
 20
5.5311546765
 30
0.0
  0
LINE
  5
311
100
AcDbEntity
  8
0
100
AcDbLine
 62
9
  6
CONTINUOUS
 10
11.4224506534
 20
5.5681046022
 11
11.4224441992
 21
5.5760391349
  0
LINE
  5
312
100
AcDbEntity
  8
0
100
AcDbLine
 62
9
  6
CONTINUOUS
 10
11.4224441992
 20
5.5760391349
 11
11.4222288987
 21
5.7638730353
  0
LINE
  5
313
100
AcDbEntity
  8
0
100
AcDbLine
 62
9
  6
CONTINUOUS
 10
11.4222288987
 20
5.7638730353
 11
11.4213029794
 21
6.2384040514
  0
SPLINE
  5
314
100
AcDbEntity
  8
0
100
AcDbSpline
 62
9
  6
CONTINUOUS
 70
0
 71
3
 72
9
 73
5
 74
0
 42
0.0000001
 43
0.0000001
 44
0.0000000001
 40
0.0
 40
0.0
 40
0.0
 40
0.0
 40
0.4951786903
 40
1.0
 40
1.0
 40
1.0
 40
1.0
 10
12.0066554907
 20
8.83413374
 30
0.0
 10
12.006057509
 20
8.8339563549
 30
0.0
 10
12.0048116867
 20
8.8337165687
 30
0.0
 10
12.0035438405
 20
8.8337201519
 30
0.0
 10
12.002910651
 20
8.8337786158
 30
0.0
  0
LINE
  5
315
100
AcDbEntity
  8
0
100
AcDbLine
 62
9
  6
CONTINUOUS
 10
12.002910651
 20
8.8337786158
 11
12.000968037
 21
8.8341337081
  0
SPLINE
  5
316
100
AcDbEntity
  8
0
100
AcDbSpline
 62
9
  6
CONTINUOUS
 70
0
 71
3
 72
15
 73
11
 74
0
 42
0.0000001
 43
0.0000001
 44
0.0000000001
 40
0.0
 40
0.0
 40
0.0
 40
0.0
 40
0.0840127666
 40
0.1752717333
 40
0.278442004
 40
0.3958997258
 40
0.5281892164
 40
0.6744370197
 40
0.8328001878
 40
1.0
 40
1.0
 40
1.0
 40
1.0
 10
12.0401734557
 20
8.8595855799
 30
0.0
 10
12.0399013242
 20
8.8591601309
 30
0.0
 10
12.0391700731
 20
8.8583697614
 30
0.0
 10
12.037690377
 20
8.8575430063
 30
0.0
 10
12.0358631174
 20
8.8570602365
 30
0.0
 10
12.0337372664
 20
8.8569124964
 30
0.0
 10
12.0313572378
 20
8.8570992272
 30
0.0
 10
12.0287762646
 20
8.8576124097
 30
0.0
 10
12.0260600853
 20
8.8584424064
 30
0.0
 10
12.0242420204
 20
8.8591738595
 30
0.0
 10
12.0233250821
 20
8.859585528
 30
0.0
  0
SPLINE
  5
317
100
AcDbEntity
  8
0
100
AcDbSpline
 62
9
  6
CONTINUOUS
 70
0
 71
3
 72
32
 73
28
 74
0
 42
0.0000001
 43
0.0000001
 44
0.0000000001
 40
0.0
 40
0.0
 40
0.0
 40
0.0
 40
0.1039478281
 40
0.1990706704
 40
0.2879784251
 40
0.3725806407
 40
0.4539459642
 40
0.5322711701
 40
0.6071334872
 40
0.6776496475
 40
0.7426043111
 40
0.800568238
 40
0.8264560514
 40
0.8500344218
 40
0.8711371409
 40
0.8896342801
 40
0.9054694375
 40
0.9187417757
 40
0.9298726721
 40
0.9349429183
 40
0.9399151606
 40
0.9450144709
 40
0.9504700162
 40
0.9564889784
 40
0.9632440399
 40
0.9794733361
 40
1.0
 40
1.0
 40
1.0
 40
1.0
 10
11.4209808436
 20
6.2586782825
 30
0.0
 10
11.4172504404
 20
6.2592722344
 30
0.0
 10
11.4100114218
 20
6.2599098188
 30
0.0
 10
11.3995299465
 20
6.2591995962
 30
0.0
 10
11.3899700033
 20
6.2570514363
 30
0.0
 10
11.381285458
 20
6.253755015
 30
0.0
 10
11.3734187557
 20
6.2496006144
 30
0.0
 10
11.3663205095
 20
6.2448602219
 30
0.0
 10
11.3599484775
 20
6.2398010826
 30
0.0
 10
11.3542646887
 20
6.2346858533
 30
0.0
 10
11.349233146
 20
6.2297759711
 30
0.0
 10
11.3454304449
 20
6.2259314145
 30
0.0
 10
11.3426554581
 20
6.2231853465
 30
0.0
 10
11.3407990472
 20
6.2214157995
 30
0.0
 10
11.3390844062
 20
6.2198879939
 30
0.0
 10
11.3375075751
 20
6.2186319631
 30
0.0
 10
11.3360609758
 20
6.2176764911
 30
0.0
 10
11.3347336573
 20
6.2170477491
 30
0.0
 10
11.3336672633
 20
6.216824605
 30
0.0
 10
11.3328950286
 20
6.2168811152
 30
0.0
 10
11.3323620007
 20
6.2170332126
 30
0.0
 10
11.3318604203
 20
6.2173002686
 30
0.0
 10
11.331391773
 20
6.2176839015
 30
0.0
 10
11.3309551037
 20
6.2181854715
 30
0.0
 10
11.3303778384
 20
6.219070453
 30
0.0
 10
11.3297484555
 20
6.2205313833
 30
0.0
 10
11.3293876308
 20
6.2218194992
 30
0.0
 10
11.3292145423
 20
6.2225450637
 30
0.0
  0
LINE
  5
318
100
AcDbEntity
  8
0
100
AcDbLine
 62
9
  6
CONTINUOUS
 10
11.3292145423
 20
6.2225450637
 11
11.3286758891
 21
6.225315052
  0
SPLINE
  5
319
100
AcDbEntity
  8
0
100
AcDbSpline
 62
9
  6
CONTINUOUS
 70
0
 71
3
 72
11
 73
7
 74
0
 42
0.0000001
 43
0.0000001
 44
0.0000000001
 40
0.0
 40
0.0
 40
0.0
 40
0.0
 40
0.1806338464
 40
0.4054315327
 40
0.6775630043
 40
1.0
 40
1.0
 40
1.0
 40
1.0
 10
11.3286758891
 20
6.225315052
 30
0.0
 10
11.3284316599
 20
6.2268509398
 30
0.0
 10
11.3280351281
 20
6.2303219377
 30
0.0
 10
11.3276512698
 20
6.2361437309
 30
0.0
 10
11.327408296
 20
6.2431948621
 30
0.0
 10
11.327338712
 20
6.2483136137
 30
0.0
 10
11.3273189124
 20
6.2510895957
 30
0.0
  0
ENDSEC
  0
SECTION
  2
OBJECTS
  0
DICTIONARY
  5
C
100
AcDbDictionary
280
0
281
1
  3
ACAD_GROUP
350
D
  3
ACAD_MLINESTYLE
350
17
  3
ACAD_LAYOUT
350
1A
  3
ACAD_PLOTSETTINGS
350
19
  3
ACAD_PLOTSTYLENAME
350
E
  0
DICTIONARY
  5
D
102
{ACAD_REACTORS
330
C
102
}
100
AcDbDictionary
280
0
281
1
  0
ACDBDICTIONARYWDFLT
  5
E
102
{ACAD_REACTORS
330
C
102
}
100
AcDbDictionary
281
1
  3
Normal
350
F
100
AcDbDictionaryWithDefault
340
F
  0
DICTIONARY
  5
17
102
{ACAD_REACTORS
330
C
102
}
100
AcDbDictionary
280
0
281
1
  3
Standard
350
18
  0
DICTIONARY
  5
19
102
{ACAD_REACTORS
330
C
102
}
100
AcDbDictionary
281
1
  0
DICTIONARY
  5
1A
102
{ACAD_REACTORS
330
C
102
}
100
AcDbDictionary
281
1
  3
Model
350
31A
  3
Layout1
350
31B
  0
ACDBPLACEHOLDER
  5
F
102
{ACAD_REACTORS
330
E
102
}
  0
MLINESTYLE
  5
18
102
{ACAD_REACTORS
330
17
102
}
100
AcDbMlineStyle
  2
STANDARD
 70
0
  3

 62
256
 51
90.0
 52
90.0
 71
2
 49
0.5
 62
256
  6
BYLAYER
 49
-0.5
 62
256
  6
BYLAYER
  0
LAYOUT
  5
31A
102
{ACAD_REACTORS
330
1A
102
}
100
AcDbPlotSettings
  1

  2
none_device
  4
ANSI_C_(22.00_x_17.00_Inches)
  6

 40
0.0
 41
0.0
 42
0.0
 43
0.0
 44
558.8
 45
431.8
 46
0.0
 47
0.0
 48
0.0
 49
0.0
140
0.0
141
0.0
142
1.0
143
1.0
 70
1024
 72
0
 73
0
 74
0
  7

 75
0
147
1.0
148
0.0
149
0.0
100
AcDbLayout
  1
Model
 70
0
 71
0
 10
0.0
 20
0.0
 11
22.0
 21
17.0
 12
0.0
 22
0.0
 32
0.0
 14
0.0
 24
0.0
 34
0.0
 15
0.0
 25
0.0
 35
0.0
146
0.0
 13
0.0
 23
0.0
 33
0.0
 16
1.0
 26
0.0
 36
0.0
 17
0.0
 27
1.0
 37
0.0
 76
0
330
205
345
0
346
0
  0
LAYOUT
  5
31B
102
{ACAD_REACTORS
330
1A
102
}
100
AcDbPlotSettings
  1

  2
none_device
  4
ANSI_C_(22.00_x_17.00_Inches)
  6

 40
0.0
 41
0.0
 42
0.0
 43
0.0
 44
558.8
 45
431.8
 46
0.0
 47
0.0
 48
0.0
 49
0.0
140
0.0
141
0.0
142
1.0
143
1.0
 70
0
 72
0
 73
0
 74
0
  7

 75
0
147
1.0
148
0.0
149
0.0
100
AcDbLayout
  1
Layout1
 70
0
 71
1
 10
0.0
 20
0.0
 11
22.0
 21
17.0
 12
0.0
 22
0.0
 32
0.0
 14
0.0
 24
0.0
 34
0.0
 15
0.0
 25
0.0
 35
0.0
146
0.0
 13
0.0
 23
0.0
 33
0.0
 16
1.0
 26
0.0
 36
0.0
 17
0.0
 27
1.0
 37
0.0
 76
0
330
206
345
0
346
0
  0
ENDSEC
  0
EOF
