999
DXF file: E:\BT Custom\CADOUTPUT\_RIGHT.dxf
999
Pro/ENGINEER 2018400 by Parametric Technology Corporation
  0
SECTION
  2
HEADER
  9
$ACADVER
  1
AC1018
  9
$DWGCODEPAGE
  3
ANSI_1252
  9
$EXTMAX
 10
22.0
 20
17.0
 30
0.0
  9
$EXTMIN
 10
0.0
 20
0.0
 30
0.0
  9
$LIMMIN
 10
0.0
 20
0.0
  9
$LIMMAX
 10
22.0
 20
17.0
  9
$VIEWCTR
 10
11.0
 20
8.5
  9
$VIEWSIZE
 40
17.0
  9
$CLAYER
  8
0
  9
$LTSCALE
 40
1.21
  9
$CELTYPE
  6
BYLAYER
  9
$DIMSCALE
 40
1.0
  9
$DIMASZ
 40
0.1
  9
$DIMEXO
 40
0.0625
  9
$DIMDLI
 40
0.836
  9
$DIMEXE
 40
0.125
  9
$DIMCEN
 40
0.198
  9
$DIMLFAC
 40
1.0
  9
$DIMBLK
  1
_FILLED
  9
$DIMALT
 70
1
  9
$DIMALTD
 70
2
  9
$DIMALTTD
 70
2
  9
$DIMALTF
 40
25.4
  9
$DIMTXT
 40
0.08
  9
$DIMTOL
 70
1
  9
$DIMLIM
 70
0
  9
$DIMTFAC
 40
1.0
  9
$DIMTP
 40
0.001
  9
$DIMTM
 40
0.001
  9
$DIMGAP
 40
0.09
  9
$DIMDSEP
 70
46
  9
$AUNITS
 70
0
  9
$PDMODE
 70
3
  9
$PDSIZE
 40
0.06
  9
$HANDSEED
  5
488
  9
$TILEMODE
 70
1
  9
$MEASUREMENT
 70
0
  9
$INSUNITS
 70
1
  0
ENDSEC
  0
SECTION
  2
CLASSES
  0
CLASS
  1
ACDBDICTIONARYWDFLT
  2
AcDbDictionaryWithDefault
  3
AutoCAD 2000
 90
0
 91
1
280
0
281
0
  0
CLASS
  1
ACDBPLACEHOLDER
  2
AcDbPlaceHolder
  3
AutoCAD 2000
 90
0
 91
1
280
0
281
0
  0
CLASS
  1
LAYOUT
  2
AcDbLayout
  3
AutoCAD 2000
 90
0
 91
0
280
0
281
0
  0
ENDSEC
  0
SECTION
  2
TABLES
  0
TABLE
  2
VPORT
  5
8
100
AcDbSymbolTable
 70
2
  0
VPORT
  5
1F4
100
AcDbSymbolTableRecord
100
AcDbViewportTableRecord
  2
*ACTIVE
 70
0
 10
0.0
 20
0.0
 11
1.0
 21
1.0
 12
11.0
 22
8.5
 13
0.0
 23
0.0
 14
1.0
 24
1.0
 15
0.0
 25
0.0
 16
0.0
 26
0.0
 36
1.0
 17
0.0
 27
0.0
 37
0.0
 40
17.0
 41
1.2941176471
 42
50.0
 43
0.0
 44
0.0
 50
0.0
 51
0.0
 71
0
 72
100
 73
1
 74
1
 75
0
 76
0
 77
0
 78
0
  0
ENDTAB
  0
TABLE
  2
LTYPE
  5
5
100
AcDbSymbolTable
 70
6
  0
LTYPE
  5
14
100
AcDbSymbolTableRecord
100
AcDbLinetypeTableRecord
  2
BYBLOCK
 70
0
  3

 72
65
 73
0
 40
0.0
  0
LTYPE
  5
15
100
AcDbSymbolTableRecord
100
AcDbLinetypeTableRecord
  2
BYLAYER
 70
0
  3

 72
65
 73
0
 40
0.0
  0
LTYPE
  5
16
100
AcDbSymbolTableRecord
100
AcDbLinetypeTableRecord
  2
CONTINUOUS
 70
64
  3
Solid line
 72
65
 73
0
 40
0.0
  0
LTYPE
  5
1F5
100
AcDbSymbolTableRecord
100
AcDbLinetypeTableRecord
  2
CENTER
 70
64
  3
____ _ ____ _ ____ _ ____ _ ____ _ ____ _ ____
 72
65
 73
4
 40
0.6
 49
0.375
 74
0
 49
-0.075
 74
0
 49
0.075
 74
0
 49
-0.075
 74
0
  0
LTYPE
  5
1F6
100
AcDbSymbolTableRecord
100
AcDbLinetypeTableRecord
  2
HIDDEN
 70
64
  3
- - - - - - - - - - - - - - - - - - - -
 72
65
 73
2
 40
0.2
 49
0.1
 74
0
 49
-0.1
 74
0
  0
LTYPE
  5
1F7
100
AcDbSymbolTableRecord
100
AcDbLinetypeTableRecord
  2
PHANTOM
 70
64
  3
_____ _ _ _____ _ _ _____ _ _ _____
 72
65
 73
6
 40
0.8
 49
0.45
 74
0
 49
-0.05
 74
0
 49
0.1
 74
0
 49
-0.05
 74
0
 49
0.1
 74
0
 49
-0.05
 74
0
  0
LTYPE
  5
1F8
100
AcDbSymbolTableRecord
100
AcDbLinetypeTableRecord
  2
DOT
 70
64
  3
. . . . . . . . . . . . . . . . . . . .
 72
65
 73
2
 40
0.2
 49
0.1
 74
0
 49
-0.1
 74
0
  0
LTYPE
  5
1F9
100
AcDbSymbolTableRecord
100
AcDbLinetypeTableRecord
  2
DASHED
 70
64
  3
- - - - - - - - - - - - - - - - - - - -
 72
65
 73
2
 40
0.2
 49
0.1
 74
0
 49
-0.1
 74
0
  0
ENDTAB
  0
TABLE
  2
LAYER
  5
2
100
AcDbSymbolTable
 70
36
  0
LAYER
  5
10
100
AcDbSymbolTableRecord
100
AcDbLayerTableRecord
  2
0
 70
0
 62
7
  6
CONTINUOUS
370
-3
390
F
  0
LAYER
  5
1FA
100
AcDbSymbolTableRecord
100
AcDbLayerTableRecord
  2
DEFAULT_1
 70
0
 62
7
  6
CENTER
370
-3
390
F
  0
LAYER
  5
1FB
100
AcDbSymbolTableRecord
100
AcDbLayerTableRecord
  2
DEFAULT_2
 70
0
 62
8
  6
HIDDEN
370
-3
390
F
  0
LAYER
  5
1FC
100
AcDbSymbolTableRecord
100
AcDbLayerTableRecord
  2
DEFAULT_3
 70
0
 62
7
  6
PHANTOM
370
-3
390
F
  0
LAYER
  5
1FD
100
AcDbSymbolTableRecord
100
AcDbLayerTableRecord
  2
ALL_FEATURES
 70
0
 62
7
  6
CONTINUOUS
370
-3
390
F
  0
LAYER
  5
1FE
100
AcDbSymbolTableRecord
100
AcDbLayerTableRecord
  2
AXES_FEATURES
 70
0
 62
7
  6
CONTINUOUS
370
-3
390
F
  0
LAYER
  5
1FF
100
AcDbSymbolTableRecord
100
AcDbLayerTableRecord
  2
DEFAULT_COORDINATE_SYSTEM
 70
0
 62
7
  6
CONTINUOUS
370
-3
390
F
  0
LAYER
  5
200
100
AcDbSymbolTableRecord
100
AcDbLayerTableRecord
  2
DEFAULT_DATUM_AXES
 70
0
 62
7
  6
CONTINUOUS
370
-3
390
F
  0
LAYER
  5
201
100
AcDbSymbolTableRecord
100
AcDbLayerTableRecord
  2
DEFAULT_DATUM_PLANES
 70
0
 62
7
  6
CONTINUOUS
370
-3
390
F
  0
LAYER
  5
202
100
AcDbSymbolTableRecord
100
AcDbLayerTableRecord
  2
DIMENSIONS
 70
0
 62
7
  6
CONTINUOUS
370
-3
390
F
  0
ENDTAB
  0
TABLE
  2
STYLE
  5
3
100
AcDbSymbolTable
 70
1
  0
STYLE
  5
11
100
AcDbSymbolTableRecord
100
AcDbTextStyleTableRecord
  2
STANDARD
 70
0
 40
0.0
 41
0.8
 50
0.0
 71
0
 42
0.2
  3
txt
  4

  0
STYLE
  5
203
100
AcDbSymbolTableRecord
100
AcDbTextStyleTableRecord
  2
TEXTSTYLE_1
 70
0
 40
0.0
 41
0.8
 50
0.0
 71
0
 42
0.2
  3
gdt
  4

  0
ENDTAB
  0
TABLE
  2
VIEW
  5
6
100
AcDbSymbolTable
 70
0
  0
ENDTAB
  0
TABLE
  2
UCS
  5
7
100
AcDbSymbolTable
 70
0
  0
ENDTAB
  0
TABLE
  2
APPID
  5
9
100
AcDbSymbolTable
 70
1
  0
APPID
  5
204
100
AcDbSymbolTableRecord
100
AcDbRegAppTableRecord
  2
ACAD
 70
0
  0
ENDTAB
  0
TABLE
  2
BLOCK_RECORD
  5
1
100
AcDbSymbolTable
 70
0
  0
BLOCK_RECORD
  5
205
100
AcDbSymbolTableRecord
100
AcDbBlockTableRecord
  2
*Model_Space
  0
BLOCK_RECORD
  5
206
100
AcDbSymbolTableRecord
100
AcDbBlockTableRecord
  2
*Paper_Space
  0
BLOCK_RECORD
  5
207
100
AcDbSymbolTableRecord
100
AcDbBlockTableRecord
  2
_FILLED
  0
ENDTAB
  0
TABLE
  2
DIMSTYLE
  5
A
100
AcDbSymbolTable
 70
1
100
AcDbDimStyleTable
 71
0
  0
DIMSTYLE
105
208
100
AcDbSymbolTableRecord
100
AcDbDimStyleTableRecord
  2
STANDARD
 70
0
  3

  4

 40
1.0
 41
0.1
 42
0.0625
 43
0.38
 44
0.125
 45
0.0
 46
0.0
 47
0.001
 48
0.001
140
0.08
141
0.09
142
0.0
143
25.4
144
1.0
145
0.0
146
1.0
147
0.09
 71
1.0
 72
0.0
 73
1
 74
1
 75
0
 76
0
 77
0
 78
4
 79
1
170
1
171
2
172
0
173
0
174
0
175
0
176
0
177
0
178
0
270
2
179
3
271
3
272
3
273
2
274
2
275
0
280
0
281
0
282
0
283
1
284
4
285
0
286
0
287
3
288
0
340
11
278
46
341
207
342
207
343
207
344
207
  0
ENDTAB
  0
ENDSEC
  0
SECTION
  2
BLOCKS
  0
BLOCK
  5
20
100
AcDbEntity
  8
0
100
AcDbBlockBegin
  2
*Model_Space
 70
0
 10
0.0
 20
0.0
 30
0.0
  3
*Model_Space
  1

  0
ENDBLK
  5
21
100
AcDbEntity
  8
0
100
AcDbBlockEnd
  0
BLOCK
  5
1C
100
AcDbEntity
  8
0
100
AcDbBlockBegin
  2
*Paper_Space
 70
0
 10
0.0
 20
0.0
 30
0.0
  3
*Paper_Space
  1

  0
ENDBLK
  5
1D
100
AcDbEntity
  8
0
100
AcDbBlockEnd
  0
BLOCK
  5
209
100
AcDbEntity
  8
0
100
AcDbBlockBegin
  2
_FILLED
 70
64
 10
0.0
 20
0.0
  3
_FILLED
  1

  0
SOLID
  5
20A
100
AcDbEntity
  8
0
  6
BYBLOCK
 62
0
100
AcDbTrace
 10
0.0
 20
0.0
 11
-1.0
 21
0.2
 12
-1.0
 22
-0.2
 13
-1.0
 23
-0.2
  0
ENDBLK
  5
20B
100
AcDbEntity
  8
0
  6
BYBLOCK
 62
0
100
AcDbBlockEnd
  0
ENDSEC
  0
SECTION
  2
ENTITIES
  0
LINE
  5
20C
100
AcDbEntity
  8
0
100
AcDbLine
 62
7
  6
CONTINUOUS
 10
12.7460948486
 20
5.259891804
 11
12.5710948486
 21
5.259891804
  0
LINE
  5
20D
100
AcDbEntity
  8
0
100
AcDbLine
 62
7
  6
CONTINUOUS
 10
11.0260948486
 20
6.389891804
 11
10.9360948486
 21
6.389891804
  0
LINE
  5
20E
100
AcDbEntity
  8
0
100
AcDbLine
 62
7
  6
CONTINUOUS
 10
12.1210948486
 20
6.603891804
 11
11.8530948486
 21
6.603891804
  0
LINE
  5
20F
100
AcDbEntity
  8
0
100
AcDbLine
 62
7
  6
CONTINUOUS
 10
11.2620948486
 20
6.662891804
 11
11.8410948486
 21
6.662891804
  0
LINE
  5
210
100
AcDbEntity
  8
0
100
AcDbLine
 62
7
  6
CONTINUOUS
 10
10.9290998791
 20
6.3906913007
 11
10.7930998791
 21
6.4221913007
  0
LINE
  5
211
100
AcDbEntity
  8
0
100
AcDbLine
 62
9
  6
CONTINUOUS
 10
8.7041046126
 20
9.3340570874
 11
8.7041046126
 21
8.6857265207
  0
LINE
  5
212
100
AcDbEntity
  8
0
100
AcDbLine
 62
9
  6
CONTINUOUS
 10
8.7229118019
 20
9.4793496852
 11
8.7229118019
 21
8.5404339229
  0
LINE
  5
213
100
AcDbEntity
  8
0
100
AcDbLine
 62
7
  6
CONTINUOUS
 10
11.2620948486
 20
7.016891804
 11
11.8410948486
 21
7.016891804
  0
LWPOLYLINE
  5
214
100
AcDbEntity
  8
0
100
AcDbPolyline
 62
7
  6
CONTINUOUS
 90
20
 70
0
 10
8.7229118015
 20
8.5404339278
 10
8.7232307616
 20
8.5376257522
 10
8.7241217547
 20
8.5335417743
 10
8.7254937498
 20
8.5295948149
 10
8.7273280033
 20
8.5258409547
 10
8.7296064653
 20
8.5223398692
 10
8.7323078737
 20
8.5191558261
 10
8.7353927614
 20
8.5163392103
 10
8.7388005617
 20
8.5139218605
 10
8.7424739573
 20
8.5119304669
 10
8.7463573363
 20
8.5103920686
 10
8.7503971486
 20
8.5093346771
 10
8.7545344786
 20
8.5087888881
 10
8.7587082775
 20
8.5087755082
 10
8.7628525492
 20
8.5092806825
 10
8.7669068632
 20
8.5102825838
 10
8.7708125847
 20
8.5117606254
 10
8.7745124992
 20
8.5136964711
 10
8.7779436678
 20
8.5160701522
 10
8.779984928
 20
8.5178237315
  0
LINE
  5
215
100
AcDbEntity
  8
0
100
AcDbLine
 62
9
  6
CONTINUOUS
 10
8.7799849279
 20
8.5178237314
 11
8.7799849279
 21
9.5019598767
  0
LINE
  5
216
100
AcDbEntity
  8
0
100
AcDbLine
 62
9
  6
CONTINUOUS
 10
8.8405004262
 20
8.5444432721
 11
8.8405004262
 21
9.4753403359
  0
LINE
  5
217
100
AcDbEntity
  8
0
100
AcDbLine
 62
9
  6
CONTINUOUS
 10
8.9425620256
 20
8.7860522153
 11
8.9425620256
 21
9.2337313928
  0
LINE
  5
218
100
AcDbEntity
  8
0
100
AcDbLine
 62
7
  6
CONTINUOUS
 10
8.8498440036
 20
8.3365106508
 11
8.9290328276
 21
8.7609074443
  0
LINE
  5
219
100
AcDbEntity
  8
0
100
AcDbLine
 62
7
  6
CONTINUOUS
 10
10.9290998791
 20
7.2890923074
 11
10.7930998791
 21
7.2575923074
  0
LINE
  5
21A
100
AcDbEntity
  8
0
100
AcDbLine
 62
7
  6
CONTINUOUS
 10
12.1210948486
 20
7.075891804
 11
11.8530948486
 21
7.075891804
  0
LINE
  5
21B
100
AcDbEntity
  8
0
100
AcDbLine
 62
7
  6
CONTINUOUS
 10
11.0260948486
 20
7.289891804
 11
10.9360948486
 21
7.289891804
  0
LINE
  5
21C
100
AcDbEntity
  8
0
100
AcDbLine
 62
7
  6
CONTINUOUS
 10
12.1016183876
 20
7.2729018131
 11
11.9960948486
 21
7.2756650442
  0
LINE
  5
21D
100
AcDbEntity
  8
0
100
AcDbLine
 62
7
  6
CONTINUOUS
 10
8.84985275
 20
9.6832260827
 11
8.9290328276
 21
9.2588761638
  0
LINE
  5
21E
100
AcDbEntity
  8
0
100
AcDbLine
 62
7
  6
CONTINUOUS
 10
9.3719002557
 20
9.6832729573
 11
9.2927114318
 21
9.2588761638
  0
LINE
  5
21F
100
AcDbEntity
  8
0
100
AcDbLine
 62
7
  6
CONTINUOUS
 10
9.3718915093
 20
8.3365575254
 11
9.2927114318
 21
8.7609074443
  0
LWPOLYLINE
  5
220
100
AcDbEntity
  8
0
100
AcDbPolyline
 62
7
  6
CONTINUOUS
 90
17
 70
0
 10
9.5478721297
 20
9.3319808135
 10
9.5475948739
 20
9.336163782
 10
9.5467669786
 20
9.3403348676
 10
9.5454035852
 20
9.3444035601
 10
9.543529126
 20
9.348282847
 10
9.5411761895
 20
9.3518874293
 10
9.5383831817
 20
9.3551373871
 10
9.5351834825
 20
9.3579763971
 10
9.5316265458
 20
9.3603778478
 10
9.5277705839
 20
9.3623143904
 10
9.5236931583
 20
9.3637479293
 10
9.5194787256
 20
9.364644737
 10
9.5152021369
 20
9.3649790712
 10
9.5109276192
 20
9.3647341819
 10
9.5067176491
 20
9.363928056
 10
9.5026284559
 20
9.3625845785
 10
9.4999175031
 20
9.3613585339
  0
LINE
  5
221
100
AcDbEntity
  8
0
100
AcDbLine
 62
9
  6
CONTINUOUS
 10
9.4346606828
 20
9.3526197472
 11
9.4346606828
 21
8.6671638609
  0
LINE
  5
222
100
AcDbEntity
  8
0
100
AcDbLine
 62
9
  6
CONTINUOUS
 10
9.4999175031
 20
9.3613585339
 11
9.4999175031
 21
8.6584250742
  0
LINE
  5
223
100
AcDbEntity
  8
0
100
AcDbLine
 62
7
  6
CONTINUOUS
 10
9.5478721297
 20
8.6878029012
 11
9.5478721297
 21
9.3319807069
  0
LWPOLYLINE
  5
224
100
AcDbEntity
  8
0
100
AcDbPolyline
 62
7
  6
CONTINUOUS
 90
17
 70
0
 10
9.4999175031
 20
8.6584250742
 10
9.5026284559
 20
8.6571990296
 10
9.5067176491
 20
8.6558555521
 10
9.5109276192
 20
8.6550494262
 10
9.5152021369
 20
8.6548045369
 10
9.5194787256
 20
8.6551388711
 10
9.5236931583
 20
8.6560356788
 10
9.5277705839
 20
8.6574692177
 10
9.5316265458
 20
8.6594057603
 10
9.5351834825
 20
8.661807211
 10
9.5383831817
 20
8.664646221
 10
9.5411761895
 20
8.6678961788
 10
9.543529126
 20
8.6715007611
 10
9.5454035852
 20
8.675380048
 10
9.5467669786
 20
8.6794487405
 10
9.5475948739
 20
8.683619826
 10
9.5478721297
 20
8.6878027946
  0
LWPOLYLINE
  5
225
100
AcDbEntity
  8
0
100
AcDbPolyline
 62
7
  6
CONTINUOUS
 90
20
 70
0
 10
8.779984928
 20
9.5019598766
 10
8.7779436678
 20
9.5037134559
 10
8.7745124992
 20
9.506087137
 10
8.7708125847
 20
9.5080229827
 10
8.7669068632
 20
9.5095010243
 10
8.7628525492
 20
9.5105029256
 10
8.7587082775
 20
9.5110080999
 10
8.7545344786
 20
9.51099472
 10
8.7503971486
 20
9.510448931
 10
8.7463573363
 20
9.5093915395
 10
8.7424739573
 20
9.5078531412
 10
8.7388005617
 20
9.5058617476
 10
8.7353927614
 20
9.5034443978
 10
8.7323078737
 20
9.5006277819
 10
8.7296064653
 20
9.4974437389
 10
8.7273280033
 20
9.4939426534
 10
8.7254937498
 20
9.4901887932
 10
8.7241217547
 20
9.4862418338
 10
8.7232307616
 20
9.4821578559
 10
8.7229118015
 20
9.4793496803
  0
LINE
  5
226
100
AcDbEntity
  8
0
100
AcDbLine
 62
7
  6
CONTINUOUS
 10
11.2620948486
 20
7.064891804
 11
11.0481088077
 21
7.2807180636
  0
LWPOLYLINE
  5
227
100
AcDbEntity
  8
0
100
AcDbPolyline
 62
7
  6
CONTINUOUS
 90
7
 70
0
 10
10.1208882125
 20
8.5774983492
 10
10.1212569537
 20
8.5710321154
 10
10.1223294203
 20
8.564744704
 10
10.1240682994
 20
8.5586798723
 10
10.1264521193
 20
8.5528814807
 10
10.1294715465
 20
8.5474001208
 10
10.1331151077
 20
8.5422982431
  0
LINE
  5
228
100
AcDbEntity
  8
0
100
AcDbLine
 62
7
  6
CONTINUOUS
 10
9.9320721662
 20
8.7041319105
 11
9.9320721662
 21
9.3156516976
  0
LINE
  5
229
100
AcDbEntity
  8
0
100
AcDbLine
 62
9
  6
CONTINUOUS
 10
9.9693121662
 20
8.666891804
 11
9.9693121662
 21
9.352891804
  0
LINE
  5
22A
100
AcDbEntity
  8
0
100
AcDbLine
 62
7
  6
CONTINUOUS
 10
10.1208882125
 20
9.4422852589
 11
10.1208882125
 21
8.5774983492
  0
LWPOLYLINE
  5
22B
100
AcDbEntity
  8
0
100
AcDbPolyline
 62
7
  6
CONTINUOUS
 90
8
 70
0
 10
10.1350995799
 20
9.4796815649
 10
10.1331151077
 20
9.477485365
 10
10.1294715465
 20
9.4723834873
 10
10.1264521193
 20
9.4669021274
 10
10.1240682994
 20
9.4611037358
 10
10.1223294203
 20
9.4550389041
 10
10.1212569537
 20
9.4487514927
 10
10.1208882125
 20
9.4422852589
  0
LINE
  5
22C
100
AcDbEntity
  8
0
100
AcDbLine
 62
7
  6
CONTINUOUS
 10
10.1630474585
 20
9.4967992199
 11
10.162731649
 21
9.4967032383
  0
LINE
  5
22D
100
AcDbEntity
  8
0
100
AcDbLine
 62
7
  6
CONTINUOUS
 10
11.4520721297
 20
8.4382723298
 11
11.2009951059
 21
8.4382723298
  0
LINE
  5
22E
100
AcDbEntity
  8
0
100
AcDbLine
 62
7
  6
CONTINUOUS
 10
10.162731649
 20
8.5230803698
 11
10.1630474585
 21
8.5229843882
  0
LINE
  5
22F
100
AcDbEntity
  8
0
100
AcDbLine
 62
7
  6
CONTINUOUS
 10
10.1331151077
 20
8.5422982431
 11
10.1350995799
 21
8.5401020432
  0
LINE
  5
230
100
AcDbEntity
  8
0
100
AcDbLine
 62
9
  6
CONTINUOUS
 10
10.2177217672
 20
8.5390415503
 11
10.2177217287
 21
8.5392877686
  0
LINE
  5
231
100
AcDbEntity
  8
0
100
AcDbLine
 62
9
  6
CONTINUOUS
 10
10.2177218252
 20
8.5460330598
 11
10.2177215992
 21
8.5522285916
  0
LINE
  5
232
100
AcDbEntity
  8
0
100
AcDbLine
 62
9
  6
CONTINUOUS
 10
10.2177218136
 20
8.561361055
 11
10.2177216703
 21
8.5715589184
  0
LINE
  5
233
100
AcDbEntity
  8
0
100
AcDbLine
 62
9
  6
CONTINUOUS
 10
10.2177216224
 20
9.4675549831
 11
10.217721705
 21
9.4737506416
  0
LINE
  5
234
100
AcDbEntity
  8
0
100
AcDbLine
 62
9
  6
CONTINUOUS
 10
10.2177218244
 20
8.6352297474
 11
10.2177216003
 21
8.6544478741
  0
LINE
  5
235
100
AcDbEntity
  8
0
100
AcDbLine
 62
9
  6
CONTINUOUS
 10
10.2177217435
 20
8.5998872086
 11
10.2177216377
 21
8.6157097969
  0
LINE
  5
236
100
AcDbEntity
  8
0
100
AcDbLine
 62
9
  6
CONTINUOUS
 10
10.2177218023
 20
8.6775515309
 11
10.2177216642
 21
8.6998073927
  0
LINE
  5
237
100
AcDbEntity
  8
0
100
AcDbLine
 62
9
  6
CONTINUOUS
 10
10.2177218066
 20
8.8084367635
 11
10.2177215989
 21
8.8363681897
  0
LINE
  5
238
100
AcDbEntity
  8
0
100
AcDbLine
 62
9
  6
CONTINUOUS
 10
10.2177216015
 20
9.435469156
 11
10.2177216387
 21
9.4476013813
  0
LINE
  5
239
100
AcDbEntity
  8
0
100
AcDbLine
 62
9
  6
CONTINUOUS
 10
10.2177217598
 20
8.7523637695
 11
10.2177216293
 21
8.7783830096
  0
LINE
  5
23A
100
AcDbEntity
  8
0
100
AcDbLine
 62
9
  6
CONTINUOUS
 10
10.2177217178
 20
8.5393457599
 11
10.2177216407
 21
8.5414238304
  0
LINE
  5
23B
100
AcDbEntity
  8
0
100
AcDbLine
 62
9
  6
CONTINUOUS
 10
10.217721817
 20
8.8682625085
 11
10.2177216727
 21
8.8975859848
  0
LINE
  5
23C
100
AcDbEntity
  8
0
100
AcDbLine
 62
9
  6
CONTINUOUS
 10
10.2177215959
 20
9.385580632
 11
10.217721618
 21
9.4031418789
  0
LINE
  5
23D
100
AcDbEntity
  8
0
100
AcDbLine
 62
9
  6
CONTINUOUS
 10
10.217721615
 20
9.4040738524
 11
10.2177216284
 21
9.4198964133
  0
LINE
  5
23E
100
AcDbEntity
  8
0
100
AcDbLine
 62
9
  6
CONTINUOUS
 10
10.2177216343
 20
9.4482247476
 11
10.2177216414
 21
9.4584226428
  0
LINE
  5
23F
100
AcDbEntity
  8
0
100
AcDbLine
 62
9
  6
CONTINUOUS
 10
10.2177215975
 20
9.1221977641
 11
10.2177216593
 21
9.1515209006
  0
LINE
  5
240
100
AcDbEntity
  8
0
100
AcDbLine
 62
9
  6
CONTINUOUS
 10
10.2177216086
 20
9.0588880401
 11
10.2177217349
 21
9.0890569383
  0
LINE
  5
241
100
AcDbEntity
  8
0
100
AcDbLine
 62
9
  6
CONTINUOUS
 10
10.2177216081
 20
9.2128812356
 11
10.2177216282
 21
9.2399194432
  0
LINE
  5
242
100
AcDbEntity
  8
0
100
AcDbLine
 62
9
  6
CONTINUOUS
 10
10.2177217569
 20
8.9625857314
 11
10.2177216228
 21
8.9929673426
  0
LINE
  5
243
100
AcDbEntity
  8
0
100
AcDbLine
 62
9
  6
CONTINUOUS
 10
10.2177215961
 20
9.2950733325
 11
10.2177215982
 21
9.3186955327
  0
LINE
  5
244
100
AcDbEntity
  8
0
100
AcDbLine
 62
9
  6
CONTINUOUS
 10
10.2177215972
 20
9.319976347
 11
10.2177216004
 21
9.3422319932
  0
LINE
  5
245
100
AcDbEntity
  8
0
100
AcDbLine
 62
9
  6
CONTINUOUS
 10
10.2177215977
 20
9.3653357389
 11
10.2177215959
 21
9.3845538264
  0
LINE
  5
246
100
AcDbEntity
  8
0
100
AcDbLine
 62
9
  6
CONTINUOUS
 10
10.2177216184
 20
9.1834153805
 11
10.2177216127
 21
9.2113466423
  0
LINE
  5
247
100
AcDbEntity
  8
0
100
AcDbLine
 62
9
  6
CONTINUOUS
 10
10.2177216014
 20
9.3434335978
 11
10.2177215968
 21
9.3642189271
  0
LINE
  5
248
100
AcDbEntity
  8
0
100
AcDbLine
 62
9
  6
CONTINUOUS
 10
10.2177216333
 20
8.9946655894
 11
10.2177217457
 21
9.0251182017
  0
LINE
  5
249
100
AcDbEntity
  8
0
100
AcDbLine
 62
9
  6
CONTINUOUS
 10
10.2177216105
 20
9.2688406392
 11
10.2177215969
 21
9.2937192873
  0
LINE
  5
24A
100
AcDbEntity
  8
0
100
AcDbLine
 62
9
  6
CONTINUOUS
 10
10.2177217445
 20
8.9307266556
 11
10.2177217707
 21
8.9608958545
  0
LINE
  5
24B
100
AcDbEntity
  8
0
100
AcDbLine
 62
9
  6
CONTINUOUS
 10
10.2177217398
 20
9.0268160664
 11
10.2177216024
 21
9.0571976375
  0
LINE
  5
24C
100
AcDbEntity
  8
0
100
AcDbLine
 62
9
  6
CONTINUOUS
 10
10.2177216279
 20
9.2414006012
 11
10.2177216075
 21
9.2674197163
  0
LINE
  5
24D
100
AcDbEntity
  8
0
100
AcDbLine
 62
9
  6
CONTINUOUS
 10
10.2177216559
 20
9.1531404269
 11
10.2177216136
 21
9.1818345813
  0
LINE
  5
24E
100
AcDbEntity
  8
0
100
AcDbLine
 62
9
  6
CONTINUOUS
 10
10.2177216574
 20
8.899236784
 11
10.2177217292
 21
8.9290524808
  0
LINE
  5
24F
100
AcDbEntity
  8
0
100
AcDbLine
 62
9
  6
CONTINUOUS
 10
10.2177217511
 20
8.7260642162
 11
10.2177217738
 21
8.7509432925
  0
LINE
  5
250
100
AcDbEntity
  8
0
100
AcDbLine
 62
9
  6
CONTINUOUS
 10
10.2177217318
 20
9.0907311225
 11
10.2177215953
 21
9.1205467395
  0
LINE
  5
251
100
AcDbEntity
  8
0
100
AcDbLine
 62
9
  6
CONTINUOUS
 10
10.2177217392
 20
8.5850443195
 11
10.217721757
 21
8.5990546073
  0
LINE
  5
252
100
AcDbEntity
  8
0
100
AcDbLine
 62
9
  6
CONTINUOUS
 10
10.2177216304
 20
9.4207292228
 11
10.2177215985
 21
9.4347393246
  0
LINE
  5
253
100
AcDbEntity
  8
0
100
AcDbLine
 62
9
  6
CONTINUOUS
 10
10.2177216484
 20
9.4589366626
 11
10.2177216298
 21
9.467152655
  0
LINE
  5
254
100
AcDbEntity
  8
0
100
AcDbLine
 62
9
  6
CONTINUOUS
 10
10.2177216499
 20
8.7010880469
 11
10.2177217358
 21
8.7247105518
  0
LINE
  5
255
100
AcDbEntity
  8
0
100
AcDbLine
 62
9
  6
CONTINUOUS
 10
10.2177215966
 20
8.8379490464
 11
10.2177218098
 21
8.8666434757
  0
LINE
  5
256
100
AcDbEntity
  8
0
100
AcDbLine
 62
9
  6
CONTINUOUS
 10
10.217721642
 20
8.7798641521
 11
10.2177218107
 21
8.8069027709
  0
LINE
  5
257
100
AcDbEntity
  8
0
100
AcDbLine
 62
9
  6
CONTINUOUS
 10
10.2177216552
 20
8.5721822332
 11
10.2177217248
 21
8.58431466
  0
LINE
  5
258
100
AcDbEntity
  8
0
100
AcDbLine
 62
9
  6
CONTINUOUS
 10
10.2177215969
 20
8.6555646809
 11
10.2177217954
 21
8.676350386
  0
LINE
  5
259
100
AcDbEntity
  8
0
100
AcDbLine
 62
9
  6
CONTINUOUS
 10
10.2177217158
 20
9.4740393016
 11
10.2177216839
 21
9.4781859722
  0
LINE
  5
25A
100
AcDbEntity
  8
0
100
AcDbLine
 62
9
  6
CONTINUOUS
 10
10.2177216519
 20
8.6166417288
 11
10.217721829
 21
8.6342034104
  0
LINE
  5
25B
100
AcDbEntity
  8
0
100
AcDbLine
 62
9
  6
CONTINUOUS
 10
10.2177215966
 20
8.5526309315
 11
10.2177218065
 21
8.5608471872
  0
LINE
  5
25C
100
AcDbEntity
  8
0
100
AcDbLine
 62
9
  6
CONTINUOUS
 10
10.2177216553
 20
8.5415976102
 11
10.2177218302
 21
8.5457444601
  0
LINE
  5
25D
100
AcDbEntity
  8
0
100
AcDbLine
 62
9
  6
CONTINUOUS
 10
10.2813364978
 20
8.562318949
 11
10.2813364978
 21
9.4574646591
  0
LINE
  5
25E
100
AcDbEntity
  8
0
100
AcDbLine
 62
9
  6
CONTINUOUS
 10
10.2177216716
 20
9.4783597394
 11
10.2177216785
 21
9.4804378882
  0
LINE
  5
25F
100
AcDbEntity
  8
0
100
AcDbLine
 62
9
  6
CONTINUOUS
 10
10.2177216912
 20
9.4804958819
 11
10.2177217533
 21
9.4807146994
  0
LINE
  5
260
100
AcDbEntity
  8
0
100
AcDbLine
 62
7
  6
CONTINUOUS
 10
11.4520721297
 20
8.519891804
 11
11.4620721297
 21
8.519891804
  0
LINE
  5
261
100
AcDbEntity
  8
0
100
AcDbLine
 62
7
  6
CONTINUOUS
 10
10.1904104298
 20
8.5229843882
 11
10.1630474585
 21
8.5229843882
  0
LINE
  5
262
100
AcDbEntity
  8
0
100
AcDbLine
 62
7
  6
CONTINUOUS
 10
10.1904104298
 20
8.5241194817
 11
10.1630474585
 21
8.5241194817
  0
LINE
  5
263
100
AcDbEntity
  8
0
100
AcDbLine
 62
7
  6
CONTINUOUS
 10
10.1904104298
 20
8.5275194701
 11
10.1630474585
 21
8.5275194701
  0
LINE
  5
264
100
AcDbEntity
  8
0
100
AcDbLine
 62
7
  6
CONTINUOUS
 10
10.1904104298
 20
8.533168501
 11
10.1630474585
 21
8.533168501
  0
LINE
  5
265
100
AcDbEntity
  8
0
100
AcDbLine
 62
7
  6
CONTINUOUS
 10
10.1904104298
 20
8.541040236
 11
10.1630474585
 21
8.541040236
  0
LINE
  5
266
100
AcDbEntity
  8
0
100
AcDbLine
 62
7
  6
CONTINUOUS
 10
10.1904104298
 20
8.5510979734
 11
10.1630474585
 21
8.5510979734
  0
LINE
  5
267
100
AcDbEntity
  8
0
100
AcDbLine
 62
7
  6
CONTINUOUS
 10
10.1904104298
 20
8.5632948194
 11
10.1630474585
 21
8.5632948194
  0
LINE
  5
268
100
AcDbEntity
  8
0
100
AcDbLine
 62
7
  6
CONTINUOUS
 10
10.1904104298
 20
8.5775739068
 11
10.1630474585
 21
8.5775739068
  0
LINE
  5
269
100
AcDbEntity
  8
0
100
AcDbLine
 62
7
  6
CONTINUOUS
 10
11.4520721297
 20
8.5914373063
 11
11.2009951059
 21
8.5914373063
  0
LINE
  5
26A
100
AcDbEntity
  8
0
100
AcDbLine
 62
7
  6
CONTINUOUS
 10
10.1904104298
 20
8.5938686597
 11
10.1630474585
 21
8.5938686597
  0
LINE
  5
26B
100
AcDbEntity
  8
0
100
AcDbLine
 62
7
  6
CONTINUOUS
 10
10.1904104298
 20
8.6121031046
 11
10.1630474585
 21
8.6121031046
  0
LINE
  5
26C
100
AcDbEntity
  8
0
100
AcDbLine
 62
7
  6
CONTINUOUS
 10
10.1904104298
 20
8.632192224
 11
10.1630474585
 21
8.632192224
  0
LINE
  5
26D
100
AcDbEntity
  8
0
100
AcDbLine
 62
7
  6
CONTINUOUS
 10
10.1904104298
 20
8.6540423533
 11
10.1630474585
 21
8.6540423533
  0
LINE
  5
26E
100
AcDbEntity
  8
0
100
AcDbLine
 62
7
  6
CONTINUOUS
 10
9.9693121662
 20
8.666891804
 11
10.1208882125
 21
8.666891804
  0
LINE
  5
26F
100
AcDbEntity
  8
0
100
AcDbLine
 62
7
  6
CONTINUOUS
 10
10.135170143
 20
8.6775516169
 11
10.2185225668
 21
8.6775516169
  0
LINE
  5
270
100
AcDbEntity
  8
0
100
AcDbLine
 62
7
  6
CONTINUOUS
 10
10.135170143
 20
8.701006075
 11
10.2185229198
 21
8.701006075
  0
LINE
  5
271
100
AcDbEntity
  8
0
100
AcDbLine
 62
7
  6
CONTINUOUS
 10
10.1904104298
 20
8.7026104039
 11
10.1630474585
 21
8.7026104039
  0
LINE
  5
272
100
AcDbEntity
  8
0
100
AcDbLine
 62
7
  6
CONTINUOUS
 10
10.135170143
 20
8.725900701
 11
10.2185227047
 21
8.725900701
  0
LINE
  5
273
100
AcDbEntity
  8
0
100
AcDbLine
 62
7
  6
CONTINUOUS
 10
10.1904104298
 20
8.7291018786
 11
10.1630474585
 21
8.7291018786
  0
LINE
  5
274
100
AcDbEntity
  8
0
100
AcDbLine
 62
7
  6
CONTINUOUS
 10
9.5478721297
 20
8.744891804
 11
9.9320721662
 21
8.744891804
  0
LINE
  5
275
100
AcDbEntity
  8
0
100
AcDbLine
 62
7
  6
CONTINUOUS
 10
10.135170143
 20
8.7521194246
 11
10.2185226466
 21
8.7521194246
  0
LINE
  5
276
100
AcDbEntity
  8
0
100
AcDbLine
 62
7
  6
CONTINUOUS
 10
10.1904104298
 20
8.7569025256
 11
10.1630474585
 21
8.7569025256
  0
LINE
  5
277
100
AcDbEntity
  8
0
100
AcDbLine
 62
9
  6
CONTINUOUS
 10
10.5771913419
 20
8.5503167147
 11
10.5771913419
 21
9.4694668934
  0
LINE
  5
278
100
AcDbEntity
  8
0
100
AcDbLine
 62
7
  6
CONTINUOUS
 10
10.135170143
 20
8.779540002
 11
10.2185229731
 21
8.779540002
  0
LINE
  5
279
100
AcDbEntity
  8
0
100
AcDbLine
 62
7
  6
CONTINUOUS
 10
10.1904104298
 20
8.7858827254
 11
10.1630474585
 21
8.7858827254
  0
LINE
  5
27A
100
AcDbEntity
  8
0
100
AcDbLine
 62
7
  6
CONTINUOUS
 10
10.135170143
 20
8.8080345858
 11
10.2185225423
 21
8.8080345858
  0
LINE
  5
27B
100
AcDbEntity
  8
0
100
AcDbLine
 62
7
  6
CONTINUOUS
 10
10.1904104298
 20
8.8159073589
 11
10.1630474585
 21
8.8159073589
  0
LINE
  5
27C
100
AcDbEntity
  8
0
100
AcDbLine
 62
7
  6
CONTINUOUS
 10
10.135170143
 20
8.8374703212
 11
10.2185230679
 21
8.8374703212
  0
LINE
  5
27D
100
AcDbEntity
  8
0
100
AcDbLine
 62
7
  6
CONTINUOUS
 10
10.1904104298
 20
8.8468364375
 11
10.1630474585
 21
8.8468364375
  0
LINE
  5
27E
100
AcDbEntity
  8
0
100
AcDbLine
 62
7
  6
CONTINUOUS
 10
10.135170143
 20
8.8677099651
 11
10.2185225307
 21
8.8677099651
  0
LINE
  5
27F
100
AcDbEntity
  8
0
100
AcDbLine
 62
7
  6
CONTINUOUS
 10
10.1904104298
 20
8.8785257554
 11
10.1630474585
 21
8.8785257554
  0
LINE
  5
280
100
AcDbEntity
  8
0
100
AcDbLine
 62
7
  6
CONTINUOUS
 10
10.135170143
 20
8.8986125264
 11
10.2185228999
 21
8.8986125264
  0
LINE
  5
281
100
AcDbEntity
  8
0
100
AcDbLine
 62
7
  6
CONTINUOUS
 10
10.1904104298
 20
8.9108275625
 11
10.1630474585
 21
8.9108275625
  0
LINE
  5
282
100
AcDbEntity
  8
0
100
AcDbLine
 62
7
  6
CONTINUOUS
 10
10.135170143
 20
8.9300339231
 11
10.218522721
 21
8.9300339231
  0
LINE
  5
283
100
AcDbEntity
  8
0
100
AcDbLine
 62
7
  6
CONTINUOUS
 10
10.1904104298
 20
8.9435912528
 11
10.1630474585
 21
8.9435912528
  0
LINE
  5
284
100
AcDbEntity
  8
0
100
AcDbLine
 62
7
  6
CONTINUOUS
 10
10.135170143
 20
8.961827654
 11
10.2185226539
 21
8.961827654
  0
LINE
  5
285
100
AcDbEntity
  8
0
100
AcDbLine
 62
7
  6
CONTINUOUS
 10
10.1904104298
 20
8.9766640669
 11
10.1630474585
 21
8.9766640669
  0
LINE
  5
286
100
AcDbEntity
  8
0
100
AcDbLine
 62
7
  6
CONTINUOUS
 10
10.135170143
 20
8.9938454823
 11
10.2185229918
 21
8.9938454823
  0
LINE
  5
287
100
AcDbEntity
  8
0
100
AcDbLine
 62
7
  6
CONTINUOUS
 10
10.1904104298
 20
9.009891804
 11
10.1630474585
 21
9.009891804
  0
LINE
  5
288
100
AcDbEntity
  8
0
100
AcDbLine
 62
7
  6
CONTINUOUS
 10
10.135170143
 20
9.0259381258
 11
10.2185227062
 21
9.0259381258
  0
LINE
  5
289
100
AcDbEntity
  8
0
100
AcDbLine
 62
7
  6
CONTINUOUS
 10
10.1904104298
 20
9.0431195412
 11
10.1630474585
 21
9.0431195412
  0
LINE
  5
28A
100
AcDbEntity
  8
0
100
AcDbLine
 62
7
  6
CONTINUOUS
 10
10.7690948486
 20
6.45239202
 11
10.7690948486
 21
7.2273915881
  0
LINE
  5
28B
100
AcDbEntity
  8
0
100
AcDbLine
 62
9
  6
CONTINUOUS
 10
10.7930998791
 20
6.4221913007
 11
10.7930998791
 21
7.2575923074
  0
LINE
  5
28C
100
AcDbEntity
  8
0
100
AcDbLine
 62
9
  6
CONTINUOUS
 10
10.8751001084
 20
8.57929373
 11
10.8751001084
 21
9.4404898781
  0
LINE
  5
28D
100
AcDbEntity
  8
0
100
AcDbLine
 62
9
  6
CONTINUOUS
 10
10.9290998791
 20
6.3906913007
 11
10.9290998791
 21
7.2890923074
  0
LINE
  5
28E
100
AcDbEntity
  8
0
100
AcDbLine
 62
9
  6
CONTINUOUS
 10
10.9360948486
 20
6.389891804
 11
10.9360948486
 21
7.289891804
  0
LINE
  5
28F
100
AcDbEntity
  8
0
100
AcDbLine
 62
9
  6
CONTINUOUS
 10
11.0260948486
 20
6.389891804
 11
11.0260948486
 21
7.289891804
  0
LINE
  5
290
100
AcDbEntity
  8
0
100
AcDbLine
 62
9
  6
CONTINUOUS
 10
11.0323214428
 20
8.598589454
 11
11.0323214428
 21
9.4211941541
  0
LINE
  5
291
100
AcDbEntity
  8
0
100
AcDbLine
 62
7
  6
CONTINUOUS
 10
10.135170143
 20
9.057955954
 11
10.2185230482
 21
9.057955954
  0
LINE
  5
292
100
AcDbEntity
  8
0
100
AcDbLine
 62
7
  6
CONTINUOUS
 10
10.1904104298
 20
9.0761923553
 11
10.1630474585
 21
9.0761923553
  0
LINE
  5
293
100
AcDbEntity
  8
0
100
AcDbLine
 62
7
  6
CONTINUOUS
 10
10.135170143
 20
9.089749685
 11
10.2185227295
 21
9.089749685
  0
LINE
  5
294
100
AcDbEntity
  8
0
100
AcDbLine
 62
7
  6
CONTINUOUS
 10
10.1904104298
 20
9.1089560456
 11
10.1630474585
 21
9.1089560456
  0
LINE
  5
295
100
AcDbEntity
  8
0
100
AcDbLine
 62
7
  6
CONTINUOUS
 10
10.135170143
 20
9.1211710817
 11
10.2185230706
 21
9.1211710817
  0
LINE
  5
296
100
AcDbEntity
  8
0
100
AcDbLine
 62
7
  6
CONTINUOUS
 10
10.1904104298
 20
9.1412578527
 11
10.1630474585
 21
9.1412578527
  0
LINE
  5
297
100
AcDbEntity
  8
0
100
AcDbLine
 62
7
  6
CONTINUOUS
 10
10.135170143
 20
9.152073643
 11
10.218522918
 21
9.152073643
  0
LINE
  5
298
100
AcDbEntity
  8
0
100
AcDbLine
 62
7
  6
CONTINUOUS
 10
11.4520721297
 20
9.1630567805
 11
11.2009951059
 21
9.1630567805
  0
LINE
  5
299
100
AcDbEntity
  8
0
100
AcDbLine
 62
7
  6
CONTINUOUS
 10
10.1904104298
 20
9.1729471706
 11
10.1630474585
 21
9.1729471706
  0
LINE
  5
29A
100
AcDbEntity
  8
0
100
AcDbLine
 62
7
  6
CONTINUOUS
 10
10.135170143
 20
9.1823132869
 11
10.2185230216
 21
9.1823132869
  0
LINE
  5
29B
100
AcDbEntity
  8
0
100
AcDbLine
 62
7
  6
CONTINUOUS
 10
10.1904104298
 20
9.2038762492
 11
10.1630474585
 21
9.2038762492
  0
LINE
  5
29C
100
AcDbEntity
  8
0
100
AcDbLine
 62
7
  6
CONTINUOUS
 10
10.135170143
 20
9.2117490223
 11
10.2185230354
 21
9.2117490223
  0
LINE
  5
29D
100
AcDbEntity
  8
0
100
AcDbLine
 62
7
  6
CONTINUOUS
 10
10.1904104298
 20
9.2339008827
 11
10.1630474585
 21
9.2339008827
  0
LINE
  5
29E
100
AcDbEntity
  8
0
100
AcDbLine
 62
7
  6
CONTINUOUS
 10
10.135170143
 20
9.2402436061
 11
10.2185229914
 21
9.2402436061
  0
LINE
  5
29F
100
AcDbEntity
  8
0
100
AcDbLine
 62
7
  6
CONTINUOUS
 10
10.1904104298
 20
9.2628810825
 11
10.1630474585
 21
9.2628810825
  0
LINE
  5
2A0
100
AcDbEntity
  8
0
100
AcDbLine
 62
7
  6
CONTINUOUS
 10
10.135170143
 20
9.2676641835
 11
10.2185230387
 21
9.2676641835
  0
LINE
  5
2A1
100
AcDbEntity
  8
0
100
AcDbLine
 62
7
  6
CONTINUOUS
 10
9.5478721297
 20
9.274891804
 11
9.9320721662
 21
9.274891804
  0
LINE
  5
2A2
100
AcDbEntity
  8
0
100
AcDbLine
 62
7
  6
CONTINUOUS
 10
10.1904104298
 20
9.2906817295
 11
10.1630474585
 21
9.2906817295
  0
LINE
  5
2A3
100
AcDbEntity
  8
0
100
AcDbLine
 62
7
  6
CONTINUOUS
 10
10.135170143
 20
9.2938829071
 11
10.2185230703
 21
9.2938829071
  0
LINE
  5
2A4
100
AcDbEntity
  8
0
100
AcDbLine
 62
7
  6
CONTINUOUS
 10
10.1904104298
 20
9.3171732042
 11
10.1630474585
 21
9.3171732042
  0
LINE
  5
2A5
100
AcDbEntity
  8
0
100
AcDbLine
 62
7
  6
CONTINUOUS
 10
10.135170143
 20
9.3187775331
 11
10.2185230677
 21
9.3187775331
  0
LINE
  5
2A6
100
AcDbEntity
  8
0
100
AcDbLine
 62
9
  6
CONTINUOUS
 10
11.0481088077
 20
6.3990655445
 11
11.0481088077
 21
7.2807180636
  0
LINE
  5
2A7
100
AcDbEntity
  8
0
100
AcDbLine
 62
9
  6
CONTINUOUS
 10
11.114486191
 20
8.5953737672
 11
11.114486191
 21
9.4244098409
  0
LINE
  5
2A8
100
AcDbEntity
  8
0
100
AcDbLine
 62
9
  6
CONTINUOUS
 10
11.155557511
 20
8.5687981743
 11
11.155557511
 21
9.4509854338
  0
LINE
  5
2A9
100
AcDbEntity
  8
0
100
AcDbLine
 62
9
  6
CONTINUOUS
 10
11.1865791684
 20
8.5013158528
 11
11.1865791684
 21
9.5184677553
  0
LINE
  5
2AA
100
AcDbEntity
  8
0
100
AcDbLine
 62
7
  6
CONTINUOUS
 10
11.2620948486
 20
6.6148922659
 11
11.2620948486
 21
7.0648913422
  0
LINE
  5
2AB
100
AcDbEntity
  8
0
100
AcDbLine
 62
7
  6
CONTINUOUS
 10
11.1920619901
 20
9.5404708465
 11
11.1865791684
 21
9.5184677553
  0
LINE
  5
2AC
100
AcDbEntity
  8
0
100
AcDbLine
 62
7
  6
CONTINUOUS
 10
11.768208563
 20
10.0080180745
 11
11.7361831968
 21
9.9401198277
  0
LINE
  5
2AD
100
AcDbEntity
  8
0
100
AcDbLine
 62
7
  6
CONTINUOUS
 10
10.1904104298
 20
8.5229843882
 11
10.190713905
 21
8.5230723391
  0
LINE
  5
2AE
100
AcDbEntity
  8
0
100
AcDbLine
 62
7
  6
CONTINUOUS
 10
10.135170143
 20
9.3422319912
 11
10.2185230606
 21
9.3422319912
  0
LINE
  5
2AF
100
AcDbEntity
  8
0
100
AcDbLine
 62
7
  6
CONTINUOUS
 10
9.9693121662
 20
9.352891804
 11
10.1208882125
 21
9.352891804
  0
LINE
  5
2B0
100
AcDbEntity
  8
0
100
AcDbLine
 62
7
  6
CONTINUOUS
 10
10.1904104298
 20
9.3657412548
 11
10.1630474585
 21
9.3657412548
  0
LINE
  5
2B1
100
AcDbEntity
  8
0
100
AcDbLine
 62
7
  6
CONTINUOUS
 10
10.1904104298
 20
9.3875913841
 11
10.1630474585
 21
9.3875913841
  0
LINE
  5
2B2
100
AcDbEntity
  8
0
100
AcDbLine
 62
7
  6
CONTINUOUS
 10
10.1904104298
 20
9.4076805035
 11
10.1630474585
 21
9.4076805035
  0
LINE
  5
2B3
100
AcDbEntity
  8
0
100
AcDbLine
 62
7
  6
CONTINUOUS
 10
10.1904104298
 20
9.4259149484
 11
10.1630474585
 21
9.4259149484
  0
LINE
  5
2B4
100
AcDbEntity
  8
0
100
AcDbLine
 62
7
  6
CONTINUOUS
 10
10.1904104298
 20
9.4422097013
 11
10.1630474585
 21
9.4422097013
  0
LINE
  5
2B5
100
AcDbEntity
  8
0
100
AcDbLine
 62
7
  6
CONTINUOUS
 10
10.1904104298
 20
9.4564887887
 11
10.1630474585
 21
9.4564887887
  0
LINE
  5
2B6
100
AcDbEntity
  8
0
100
AcDbLine
 62
7
  6
CONTINUOUS
 10
10.1904104298
 20
9.4686856347
 11
10.1630474585
 21
9.4686856347
  0
LINE
  5
2B7
100
AcDbEntity
  8
0
100
AcDbLine
 62
7
  6
CONTINUOUS
 10
10.1904104298
 20
9.4787433721
 11
10.1630474585
 21
9.4787433721
  0
LINE
  5
2B8
100
AcDbEntity
  8
0
100
AcDbLine
 62
7
  6
CONTINUOUS
 10
10.1904104298
 20
9.4866151071
 11
10.1630474585
 21
9.4866151071
  0
LINE
  5
2B9
100
AcDbEntity
  8
0
100
AcDbLine
 62
7
  6
CONTINUOUS
 10
10.1904104298
 20
9.492264138
 11
10.1630474585
 21
9.492264138
  0
LINE
  5
2BA
100
AcDbEntity
  8
0
100
AcDbLine
 62
7
  6
CONTINUOUS
 10
10.1904104298
 20
9.4956641263
 11
10.1630474585
 21
9.4956641263
  0
LINE
  5
2BB
100
AcDbEntity
  8
0
100
AcDbLine
 62
7
  6
CONTINUOUS
 10
10.1904104298
 20
9.4967992199
 11
10.1630474585
 21
9.4967992199
  0
LINE
  5
2BC
100
AcDbEntity
  8
0
100
AcDbLine
 62
7
  6
CONTINUOUS
 10
11.4520721297
 20
9.499891804
 11
11.4620721297
 21
9.499891804
  0
LINE
  5
2BD
100
AcDbEntity
  8
0
100
AcDbLine
 62
7
  6
CONTINUOUS
 10
11.4520721297
 20
9.5815112783
 11
11.2009951059
 21
9.5815112783
  0
LINE
  5
2BE
100
AcDbEntity
  8
0
100
AcDbLine
 62
7
  6
CONTINUOUS
 10
10.190713905
 20
9.496711269
 11
10.1904104298
 21
9.4967992199
  0
LINE
  5
2BF
100
AcDbEntity
  8
0
100
AcDbLine
 62
7
  6
CONTINUOUS
 10
11.768208563
 20
8.0117655336
 11
11.7361831968
 21
8.0796637804
  0
LINE
  5
2C0
100
AcDbEntity
  8
0
100
AcDbLine
 62
7
  6
CONTINUOUS
 10
11.1920619901
 20
8.4793127616
 11
11.1865791684
 21
8.5013158528
  0
LINE
  5
2C1
100
AcDbEntity
  8
0
100
AcDbLine
 62
7
  6
CONTINUOUS
 10
11.4520721297
 20
8.4382723298
 11
11.4520721297
 21
9.5815112783
  0
LINE
  5
2C2
100
AcDbEntity
  8
0
100
AcDbLine
 62
7
  6
CONTINUOUS
 10
11.4620721297
 20
8.3181714414
 11
11.4620721297
 21
9.7016121667
  0
LINE
  5
2C3
100
AcDbEntity
  8
0
100
AcDbLine
 62
9
  6
CONTINUOUS
 10
11.6016366083
 20
8.248243273
 11
11.6016366083
 21
9.7715403351
  0
LINE
  5
2C4
100
AcDbEntity
  8
0
100
AcDbLine
 62
9
  6
CONTINUOUS
 10
11.7361831968
 20
8.0796637804
 11
11.7361831968
 21
9.9401198277
  0
LINE
  5
2C5
100
AcDbEntity
  8
0
100
AcDbLine
 62
9
  6
CONTINUOUS
 10
11.768208563
 20
8.0117655336
 11
11.768208563
 21
10.0080180745
  0
LINE
  5
2C6
100
AcDbEntity
  8
0
100
AcDbLine
 62
9
  6
CONTINUOUS
 10
11.8105640128
 20
7.9411977394
 11
11.8105640128
 21
10.0785858687
  0
LINE
  5
2C7
100
AcDbEntity
  8
0
100
AcDbLine
 62
7
  6
CONTINUOUS
 10
11.8410948486
 20
6.615892025
 11
11.8410948486
 21
7.0638915831
  0
LINE
  5
2C8
100
AcDbEntity
  8
0
100
AcDbLine
 62
9
  6
CONTINUOUS
 10
11.8530948486
 20
6.603891804
 11
11.8530948486
 21
7.075891804
  0
LINE
  5
2C9
100
AcDbEntity
  8
0
100
AcDbLine
 62
9
  6
CONTINUOUS
 10
11.855422679
 20
7.9079966989
 11
11.855422679
 21
10.1117869092
  0
LINE
  5
2CA
100
AcDbEntity
  8
0
100
AcDbLine
 62
7
  6
CONTINUOUS
 10
11.9960948486
 20
10.7441185639
 11
11.9960948486
 21
7.2756650442
  0
LINE
  5
2CB
100
AcDbEntity
  8
0
100
AcDbLine
 62
9
  6
CONTINUOUS
 10
12.1016183876
 20
7.2729018131
 11
12.1016183876
 21
10.746881795
  0
LINE
  5
2CC
100
AcDbEntity
  8
0
100
AcDbLine
 62
7
  6
CONTINUOUS
 10
12.1210948486
 20
12.242891804
 11
12.1210948486
 21
5.776891804
  0
LINE
  5
2CD
100
AcDbEntity
  8
0
100
AcDbLine
 62
9
  6
CONTINUOUS
 10
12.1801067119
 20
12.3200895898
 11
12.1801067119
 21
5.6996940183
  0
LINE
  5
2CE
100
AcDbEntity
  8
0
100
AcDbLine
 62
7
  6
CONTINUOUS
 10
12.1016183876
 20
10.746881795
 11
11.9960948486
 21
10.7441185639
  0
LINE
  5
2CF
100
AcDbEntity
  8
0
100
AcDbLine
 62
9
  6
CONTINUOUS
 10
12.4914928505
 20
12.687861867
 11
12.4914928505
 21
5.3319217411
  0
LINE
  5
2D0
100
AcDbEntity
  8
0
100
AcDbLine
 62
9
  6
CONTINUOUS
 10
12.5710948486
 20
12.759891804
 11
12.5710948486
 21
5.259891804
  0
LINE
  5
2D1
100
AcDbEntity
  8
0
100
AcDbLine
 62
7
  6
CONTINUOUS
 10
12.7460948486
 20
12.759891804
 11
12.7460948486
 21
5.259891804
  0
LINE
  5
2D2
100
AcDbEntity
  8
0
100
AcDbLine
 62
7
  6
CONTINUOUS
 10
11.2620948486
 20
6.614891804
 11
11.0481088077
 21
6.3990655445
  0
LINE
  5
2D3
100
AcDbEntity
  8
0
100
AcDbLine
 62
7
  6
CONTINUOUS
 10
12.7460948486
 20
12.759891804
 11
12.5710948486
 21
12.759891804
  0
ARC
  5
2D4
100
AcDbEntity
  8
0
100
AcDbCircle
 62
7
  6
CONTINUOUS
 10
7.4461793271
 20
8.4490332901
 40
1.279999952
100
AcDbArc
 50
4.0947903216
 51
10.6562742843
  0
ARC
  5
2D5
100
AcDbEntity
  8
0
100
AcDbCircle
 62
7
  6
CONTINUOUS
 10
8.7867004152
 20
8.7826485352
 40
0.69477793
100
AcDbArc
 50
81.4697639456
 51
85.5588642768
  0
ARC
  5
2D6
100
AcDbEntity
  8
0
100
AcDbCircle
 62
9
  6
CONTINUOUS
 10
8.0699064625
 20
8.6114854236
 40
0.6563775686
100
AcDbArc
 50
5.8103910779
 51
14.9370859838
  0
ARC
  5
2D7
100
AcDbEntity
  8
0
100
AcDbCircle
 62
7
  6
CONTINUOUS
 10
8.848243875
 20
8.4447441365
 40
0.099999893
100
AcDbArc
 50
94.4411357243
 51
133.0465642998
  0
ARC
  5
2D8
100
AcDbEntity
  8
0
100
AcDbCircle
 62
7
  6
CONTINUOUS
 10
10.4710721359
 20
6.8326013872
 40
2.6389999968
100
AcDbArc
 50
81.1934452325
 51
87.6954064276
  0
ARC
  5
2D9
100
AcDbEntity
  8
0
100
AcDbCircle
 62
7
  6
CONTINUOUS
 10
10.5034025041
 20
7.6359510922
 40
1.8349999961
100
AcDbArc
 50
87.6954064276
 51
96.9507945778
  0
ARC
  5
2DA
100
AcDbEntity
  8
0
100
AcDbCircle
 62
7
  6
CONTINUOUS
 10
9.454756011
 20
8.569203782
 40
0.0999999992
100
AcDbArc
 50
63.1526561488
 51
101.5927103269
  0
ARC
  5
2DB
100
AcDbEntity
  8
0
100
AcDbCircle
 62
7
  6
CONTINUOUS
 10
9.036778939
 20
8.7407961467
 40
0.1096069744
100
AcDbArc
 50
164.9856543779
 51
169.4271496663
  0
ARC
  5
2DC
100
AcDbEntity
  8
0
100
AcDbCircle
 62
7
  6
CONTINUOUS
 10
9.01891505
 20
8.7633755034
 40
0.1031335664
100
AcDbArc
 50
190.3082428406
 51
200.8703341713
  0
ARC
  5
2DD
100
AcDbEntity
  8
0
100
AcDbCircle
 62
7
  6
CONTINUOUS
 10
9.2079750304
 20
8.7623873102
 40
0.0978974411
100
AcDbArc
 50
2.3030364693
 51
6.0894123166
  0
ARC
  5
2DE
100
AcDbEntity
  8
0
100
AcDbCircle
 62
7
  6
CONTINUOUS
 10
9.2083392626
 20
8.762403138
 40
0.0975328671
100
AcDbArc
 50
0.0007593772
 51
2.3023442008
  0
ARC
  5
2DF
100
AcDbEntity
  8
0
100
AcDbCircle
 62
9
  6
CONTINUOUS
 10
9.022603069
 20
8.7434374113
 40
0.0951871427
100
AcDbArc
 50
164.1608388357
 51
169.4243535674
  0
ARC
  5
2E0
100
AcDbEntity
  8
0
100
AcDbCircle
 62
7
  6
CONTINUOUS
 10
10.1973147733
 20
8.6825547641
 40
0.0689997211
100
AcDbArc
 50
287.0071567477
 51
287.2017838135
  0
ARC
  5
2E1
100
AcDbEntity
  8
0
100
AcDbCircle
 62
7
  6
CONTINUOUS
 10
10.1959718759
 20
8.6528589207
 40
0.0572629045
100
AcDbArc
 50
292.0467271736
 51
292.3198034969
  0
ARC
  5
2E2
100
AcDbEntity
  8
0
100
AcDbCircle
 62
7
  6
CONTINUOUS
 10
10.1766698893
 20
8.5784041867
 40
0.0570977803
100
AcDbArc
 50
283.9248653303
 51
284.2506498146
  0
ARC
  5
2E3
100
AcDbEntity
  8
0
100
AcDbCircle
 62
7
  6
CONTINUOUS
 10
10.1770957574
 20
8.5769538284
 40
0.0557782801
100
AcDbArc
 50
221.2656375551
 51
250.3848232252
  0
ARC
  5
2E4
100
AcDbEntity
  8
0
100
AcDbCircle
 62
7
  6
CONTINUOUS
 10
10.1765403471
 20
8.5755302727
 40
0.0542507019
100
AcDbArc
 50
250.4326551315
 51
255.2446060366
  0
ARC
  5
2E5
100
AcDbEntity
  8
0
100
AcDbCircle
 62
7
  6
CONTINUOUS
 10
10.1763076574
 20
8.5746975909
 40
0.0533862175
100
AcDbArc
 50
255.2584913257
 51
255.6181860694
  0
ARC
  5
2E6
100
AcDbEntity
  8
0
100
AcDbCircle
 62
7
  6
CONTINUOUS
 10
10.1793177723
 20
8.576317486
 40
0.0533080724
100
AcDbArc
 50
315.8700660427
 51
316.0851959645
  0
ARC
  5
2E7
100
AcDbEntity
  8
0
100
AcDbCircle
 62
7
  6
CONTINUOUS
 10
10.1943046478
 20
8.6309924277
 40
0.0515710242
100
AcDbArc
 50
296.6826789766
 51
297.0019138225
  0
ARC
  5
2E8
100
AcDbEntity
  8
0
100
AcDbCircle
 62
7
  6
CONTINUOUS
 10
10.1821055487
 20
8.5786853316
 40
0.0514198083
100
AcDbArc
 50
312.2316876418
 51
313.7158810458
  0
ARC
  5
2E9
100
AcDbEntity
  8
0
100
AcDbCircle
 62
7
  6
CONTINUOUS
 10
10.1850036053
 20
8.5833097199
 40
0.0495983486
100
AcDbArc
 50
311.0668160625
 51
311.2675318674
  0
ARC
  5
2EA
100
AcDbEntity
  8
0
100
AcDbCircle
 62
7
  6
CONTINUOUS
 10
10.1923293063
 20
8.614065878
 40
0.0489796219
100
AcDbArc
 50
300.8912769633
 51
301.2252567734
  0
ARC
  5
2EB
100
AcDbEntity
  8
0
100
AcDbCircle
 62
7
  6
CONTINUOUS
 10
10.187628756
 20
8.5906930417
 40
0.0485211632
100
AcDbArc
 50
308.0648745777
 51
308.3307620655
  0
ARC
  5
2EC
100
AcDbEntity
  8
0
100
AcDbCircle
 62
7
  6
CONTINUOUS
 10
10.1901122786
 20
8.6007912486
 40
0.0481351927
100
AcDbArc
 50
304.6809640099
 51
304.9944727315
  0
ARC
  5
2ED
100
AcDbEntity
  8
0
100
AcDbCircle
 62
7
  6
CONTINUOUS
 10
10.2453454903
 20
8.3895297294
 40
0.2674652781
100
AcDbArc
 50
95.7555110214
 51
95.9280974898
  0
ARC
  5
2EE
100
AcDbEntity
  8
0
100
AcDbCircle
 62
7
  6
CONTINUOUS
 10
10.2460308283
 20
8.4986133722
 40
0.1395187612
100
AcDbArc
 50
101.3712725732
 51
101.7086830531
  0
ARC
  5
2EF
100
AcDbEntity
  8
0
100
AcDbCircle
 62
7
  6
CONTINUOUS
 10
10.3035619927
 20
8.540469222
 40
0.1039271335
100
AcDbArc
 50
145.4286391263
 51
145.6891839932
  0
ARC
  5
2F0
100
AcDbEntity
  8
0
100
AcDbCircle
 62
7
  6
CONTINUOUS
 10
10.3005663857
 20
8.526538676
 40
0.1010017048
100
AcDbArc
 50
144.8455416722
 51
145.1090840215
  0
ARC
  5
2F1
100
AcDbEntity
  8
0
100
AcDbCircle
 62
7
  6
CONTINUOUS
 10
10.2475437711
 20
8.5203098964
 40
0.1008424095
100
AcDbArc
 50
106.7253271434
 51
107.2019392108
  0
ARC
  5
2F2
100
AcDbEntity
  8
0
100
AcDbCircle
 62
7
  6
CONTINUOUS
 10
10.2986180644
 20
8.5279043226
 40
0.0986224365
100
AcDbArc
 50
144.3056505313
 51
144.8424898329
  0
ARC
  5
2F3
100
AcDbEntity
  8
0
100
AcDbCircle
 62
7
  6
CONTINUOUS
 10
10.2972970994
 20
8.5145423429
 40
0.0978936311
100
AcDbArc
 50
144.1120285884
 51
144.3791934047
  0
ARC
  5
2F4
100
AcDbEntity
  8
0
100
AcDbCircle
 62
7
  6
CONTINUOUS
 10
10.2957801163
 20
8.5030718247
 40
0.0971141627
100
AcDbArc
 50
143.2521322947
 51
143.4960342435
  0
ARC
  5
2F5
100
AcDbEntity
  8
0
100
AcDbCircle
 62
7
  6
CONTINUOUS
 10
10.2959920511
 20
8.5154834124
 40
0.09628467
100
AcDbArc
 50
143.5701396942
 51
144.1104808229
  0
ARC
  5
2F6
100
AcDbEntity
  8
0
100
AcDbCircle
 62
7
  6
CONTINUOUS
 10
10.2923993211
 20
8.5055867224
 40
0.0929005625
100
AcDbArc
 50
142.6764437951
 51
143.2474544144
  0
ARC
  5
2F7
100
AcDbEntity
  8
0
100
AcDbCircle
 62
7
  6
CONTINUOUS
 10
10.2897908685
 20
8.4967959134
 40
0.0909217366
100
AcDbArc
 50
142.2334372651
 51
142.4340590072
  0
ARC
  5
2F8
100
AcDbEntity
  8
0
100
AcDbCircle
 62
7
  6
CONTINUOUS
 10
10.2894805978
 20
8.4970367056
 40
0.0905289915
100
AcDbArc
 50
141.6107527832
 51
142.2336431293
  0
ARC
  5
2F9
100
AcDbEntity
  8
0
100
AcDbCircle
 62
7
  6
CONTINUOUS
 10
10.2854508099
 20
8.4912700208
 40
0.0869180431
100
AcDbArc
 50
140.3553578762
 51
141.0458563748
  0
ARC
  5
2FA
100
AcDbEntity
  8
0
100
AcDbCircle
 62
7
  6
CONTINUOUS
 10
10.2816751287
 20
8.487246006
 40
0.0838170459
100
AcDbArc
 50
138.8903602587
 51
139.6411539036
  0
ARC
  5
2FB
100
AcDbEntity
  8
0
100
AcDbCircle
 62
7
  6
CONTINUOUS
 10
10.2493859737
 20
8.5227631291
 40
0.0833713048
100
AcDbArc
 50
111.7273818619
 51
112.3232290748
  0
ARC
  5
2FC
100
AcDbEntity
  8
0
100
AcDbCircle
 62
7
  6
CONTINUOUS
 10
10.2775125027
 20
8.4855255916
 40
0.0804073574
100
AcDbArc
 50
137.192101896
 51
138.0412459933
  0
ARC
  5
2FD
100
AcDbEntity
  8
0
100
AcDbCircle
 62
7
  6
CONTINUOUS
 10
10.2736357182
 20
8.485507817
 40
0.0776204499
100
AcDbArc
 50
135.2374773276
 51
135.5198537698
  0
ARC
  5
2FE
100
AcDbEntity
  8
0
100
AcDbCircle
 62
7
  6
CONTINUOUS
 10
10.2735058683
 20
8.4856378561
 40
0.0774366894
100
AcDbArc
 50
135.521186399
 51
136.0886524802
  0
ARC
  5
2FF
100
AcDbEntity
  8
0
100
AcDbCircle
 62
7
  6
CONTINUOUS
 10
10.2522766049
 20
8.5172298879
 40
0.076110859
100
AcDbArc
 50
116.7777818669
 51
117.0034305123
  0
ARC
  5
300
100
AcDbEntity
  8
0
100
AcDbCircle
 62
7
  6
CONTINUOUS
 10
10.2519732618
 20
8.5178216102
 40
0.0754459271
100
AcDbArc
 50
116.3191565178
 51
116.7745745745
  0
ARC
  5
301
100
AcDbEntity
  8
0
100
AcDbCircle
 62
7
  6
CONTINUOUS
 10
10.2695239197
 20
8.4876481361
 40
0.0747932968
100
AcDbArc
 50
132.9916959093
 51
133.2734275589
  0
ARC
  5
302
100
AcDbEntity
  8
0
100
AcDbCircle
 62
7
  6
CONTINUOUS
 10
10.2693306477
 20
8.4878542849
 40
0.0745107176
100
AcDbArc
 50
133.2738823404
 51
133.8405263011
  0
ARC
  5
303
100
AcDbEntity
  8
0
100
AcDbCircle
 62
7
  6
CONTINUOUS
 10
10.2723232286
 20
8.4883870045
 40
0.0744799058
100
AcDbArc
 50
83.0492054218
 51
137.1474842961
  0
ARC
  5
304
100
AcDbEntity
  8
0
100
AcDbCircle
 62
7
  6
CONTINUOUS
 10
10.2657015674
 20
8.4913467555
 40
0.0727509922
100
AcDbArc
 50
130.4286595214
 51
130.7078334231
  0
ARC
  5
305
100
AcDbEntity
  8
0
100
AcDbCircle
 62
7
  6
CONTINUOUS
 10
10.2653516019
 20
8.4917579327
 40
0.072211053
100
AcDbArc
 50
130.7101192944
 51
131.2732940716
  0
ARC
  5
306
100
AcDbEntity
  8
0
100
AcDbCircle
 62
7
  6
CONTINUOUS
 10
10.2548630384
 20
8.5109118073
 40
0.0716488667
100
AcDbArc
 50
120.477342453
 51
120.9756914543
  0
ARC
  5
307
100
AcDbEntity
  8
0
100
AcDbCircle
 62
7
  6
CONTINUOUS
 10
10.2547944983
 20
8.5110297109
 40
0.071512502
100
AcDbArc
 50
120.9772270811
 51
121.2267474959
  0
ARC
  5
308
100
AcDbEntity
  8
0
100
AcDbCircle
 62
7
  6
CONTINUOUS
 10
10.2617898999
 20
8.4968844901
 40
0.0710611275
100
AcDbArc
 50
127.5076824964
 51
127.7806527723
  0
ARC
  5
309
100
AcDbEntity
  8
0
100
AcDbCircle
 62
7
  6
CONTINUOUS
 10
10.2584182512
 20
8.5032122938
 40
0.0709755621
100
AcDbArc
 50
124.2014919276
 51
124.4646745781
  0
ARC
  5
30A
100
AcDbEntity
  8
0
100
AcDbCircle
 62
7
  6
CONTINUOUS
 10
10.2614443772
 20
8.4973291389
 40
0.0704980129
100
AcDbArc
 50
127.7801015393
 51
128.3306521161
  0
ARC
  5
30B
100
AcDbEntity
  8
0
100
AcDbCircle
 62
7
  6
CONTINUOUS
 10
10.2579173283
 20
8.5039457302
 40
0.0700873908
100
AcDbArc
 50
124.4663518069
 51
124.9991672071
  0
ARC
  5
30C
100
AcDbEntity
  8
0
100
AcDbCircle
 62
7
  6
CONTINUOUS
 10
10.3085812544
 20
8.6166409795
 40
0.1087231564
100
AcDbArc
 50
146.43572863
 51
146.6915862125
  0
ARC
  5
30D
100
AcDbEntity
  8
0
100
AcDbCircle
 62
7
  6
CONTINUOUS
 10
10.3077846409
 20
8.5744602332
 40
0.1080770108
100
AcDbArc
 50
146.1892448018
 51
146.4451810537
  0
ARC
  5
30E
100
AcDbEntity
  8
0
100
AcDbCircle
 62
7
  6
CONTINUOUS
 10
10.3061164947
 20
8.596220575
 40
0.1058493127
100
AcDbArc
 50
146.3653438239
 51
146.6264455958
  0
ARC
  5
30F
100
AcDbEntity
  8
0
100
AcDbCircle
 62
7
  6
CONTINUOUS
 10
10.3057918147
 20
8.641794732
 40
0.1054601496
100
AcDbArc
 50
145.8433784998
 51
146.6277671015
  0
ARC
  5
310
100
AcDbEntity
  8
0
100
AcDbCircle
 62
7
  6
CONTINUOUS
 10
10.3054739372
 20
8.5966485109
 40
0.1050772965
100
AcDbArc
 50
145.842203072
 51
146.3655532327
  0
ARC
  5
311
100
AcDbEntity
  8
0
100
AcDbCircle
 62
7
  6
CONTINUOUS
 10
10.3049672628
 20
8.6668401197
 40
0.1046939057
100
AcDbArc
 50
145.6583608845
 51
146.4446203281
  0
ARC
  5
312
100
AcDbEntity
  8
0
100
AcDbCircle
 62
7
  6
CONTINUOUS
 10
10.3052125392
 20
8.61886656
 40
0.1046856591
100
AcDbArc
 50
145.9038372743
 51
146.4313678951
  0
ARC
  5
313
100
AcDbEntity
  8
0
100
AcDbCircle
 62
7
  6
CONTINUOUS
 10
10.3042548179
 20
8.5576285695
 40
0.1042182063
100
AcDbArc
 50
145.8690461306
 51
146.1310533504
  0
ARC
  5
314
100
AcDbEntity
  8
0
100
AcDbCircle
 62
7
  6
CONTINUOUS
 10
10.303740677
 20
8.6932060472
 40
0.1035997043
100
AcDbArc
 50
145.3429153273
 51
146.1326339431
  0
ARC
  5
315
100
AcDbEntity
  8
0
100
AcDbCircle
 62
7
  6
CONTINUOUS
 10
10.3040057555
 20
8.5769797483
 40
0.1035352225
100
AcDbArc
 50
145.6538597813
 51
146.1840694588
  0
ARC
  5
316
100
AcDbEntity
  8
0
100
AcDbCircle
 62
7
  6
CONTINUOUS
 10
10.3031569732
 20
8.5583712371
 40
0.1028927567
100
AcDbArc
 50
145.340473784
 51
145.8683572585
  0
ARC
  5
317
100
AcDbEntity
  8
0
100
AcDbCircle
 62
7
  6
CONTINUOUS
 10
10.3009396222
 20
8.5422687813
 40
0.1007466932
100
AcDbArc
 50
144.8911547698
 51
145.4250993425
  0
ARC
  5
318
100
AcDbEntity
  8
0
100
AcDbCircle
 62
7
  6
CONTINUOUS
 10
10.2453082451
 20
8.9667510823
 40
0.2670914872
100
AcDbArc
 50
264.0714030888
 51
264.244405759
  0
ARC
  5
319
100
AcDbEntity
  8
0
100
AcDbCircle
 62
7
  6
CONTINUOUS
 10
10.2460813123
 20
8.8629345325
 40
0.139777494
100
AcDbArc
 50
258.2927152872
 51
258.6290353624
  0
ARC
  5
31A
100
AcDbEntity
  8
0
100
AcDbCircle
 62
7
  6
CONTINUOUS
 10
10.3015958214
 20
8.7211425252
 40
0.1015448838
100
AcDbArc
 50
144.8940444059
 51
145.6886823719
  0
ARC
  5
31B
100
AcDbEntity
  8
0
100
AcDbCircle
 62
7
  6
CONTINUOUS
 10
10.2474653975
 20
8.848432152
 40
0.1005675112
100
AcDbArc
 50
252.7951577494
 51
253.2740533554
  0
ARC
  5
31C
100
AcDbEntity
  8
0
100
AcDbCircle
 62
7
  6
CONTINUOUS
 10
10.2995339907
 20
8.7498429758
 40
0.0997452668
100
AcDbArc
 50
144.3098058449
 51
145.1100697335
  0
ARC
  5
31D
100
AcDbEntity
  8
0
100
AcDbCircle
 62
7
  6
CONTINUOUS
 10
10.2963173083
 20
8.7800556461
 40
0.0966870661
100
AcDbArc
 50
143.5714701469
 51
144.3790399707
  0
ARC
  5
31E
100
AcDbEntity
  8
0
100
AcDbCircle
 62
7
  6
CONTINUOUS
 10
10.2934129632
 20
8.8106210934
 40
0.0941685518
100
AcDbArc
 50
142.6817772083
 51
143.4966758613
  0
ARC
  5
31F
100
AcDbEntity
  8
0
100
AcDbCircle
 62
7
  6
CONTINUOUS
 10
10.289419357
 20
8.8424416411
 40
0.0904515118
100
AcDbArc
 50
141.6104021242
 51
142.4365456615
  0
ARC
  5
320
100
AcDbEntity
  8
0
100
AcDbCircle
 62
7
  6
CONTINUOUS
 10
10.2855281155
 20
8.8745151836
 40
0.0870175461
100
AcDbArc
 50
140.3558331628
 51
141.1911633277
  0
ARC
  5
321
100
AcDbEntity
  8
0
100
AcDbCircle
 62
7
  6
CONTINUOUS
 10
10.2815594432
 20
8.9068168111
 40
0.0836649846
100
AcDbArc
 50
138.8894998733
 51
139.7339016653
  0
ARC
  5
322
100
AcDbEntity
  8
0
100
AcDbCircle
 62
7
  6
CONTINUOUS
 10
10.2494642074
 20
8.8571867019
 40
0.0835845081
100
AcDbArc
 50
247.6801610482
 51
248.2733394402
  0
ARC
  5
323
100
AcDbEntity
  8
0
100
AcDbCircle
 62
7
  6
CONTINUOUS
 10
10.2776144026
 20
8.9391123407
 40
0.0805450905
100
AcDbArc
 50
137.1927474993
 51
138.0388823141
  0
ARC
  5
324
100
AcDbEntity
  8
0
100
AcDbCircle
 62
7
  6
CONTINUOUS
 10
10.2733725036
 20
8.9715390396
 40
0.0772512839
100
AcDbArc
 50
135.2363749754
 51
136.0890925959
  0
ARC
  5
325
100
AcDbEntity
  8
0
100
AcDbCircle
 62
7
  6
CONTINUOUS
 10
10.2517252741
 20
8.8751605027
 40
0.0748886515
100
AcDbArc
 50
242.9925076521
 51
243.6814555511
  0
ARC
  5
326
100
AcDbEntity
  8
0
100
AcDbCircle
 62
7
  6
CONTINUOUS
 10
10.2694011358
 20
9.0033808849
 40
0.0746124518
100
AcDbArc
 50
132.99214432
 51
133.8394753668
  0
ARC
  5
327
100
AcDbEntity
  8
0
100
AcDbCircle
 62
7
  6
CONTINUOUS
 10
10.2651740747
 20
8.9848002054
 40
0.0719422997
100
AcDbArc
 50
228.7285017425
 51
229.5747732391
  0
ARC
  5
328
100
AcDbEntity
  8
0
100
AcDbCircle
 62
7
  6
CONTINUOUS
 10
10.2547444424
 20
8.8990216256
 40
0.0714181423
100
AcDbArc
 50
238.7753112922
 51
239.5242729415
  0
ARC
  5
329
100
AcDbEntity
  8
0
100
AcDbCircle
 62
7
  6
CONTINUOUS
 10
10.2614657445
 20
8.9545629711
 40
0.0705304201
100
AcDbArc
 50
231.6668998387
 51
232.4931952664
  0
ARC
  5
32A
100
AcDbEntity
  8
0
100
AcDbCircle
 62
7
  6
CONTINUOUS
 10
10.2577552806
 20
8.9254430609
 40
0.0698019987
100
AcDbArc
 50
234.9991252246
 51
235.8017796629
  0
ARC
  5
32B
100
AcDbEntity
  8
0
100
AcDbCircle
 62
7
  6
CONTINUOUS
 10
9.9693121662
 20
8.704131804
 40
0.03724
100
AcDbArc
 50
180.0
 51
270.0
  0
ARC
  5
32C
100
AcDbEntity
  8
0
100
AcDbCircle
 62
7
  6
CONTINUOUS
 10
7.4461793271
 20
9.570750318
 40
1.279999952
100
AcDbArc
 50
349.3437257157
 51
355.9052096784
  0
ARC
  5
32D
100
AcDbEntity
  8
0
100
AcDbCircle
 62
7
  6
CONTINUOUS
 10
8.7867004152
 20
9.2371350729
 40
0.69477793
100
AcDbArc
 50
274.4411357232
 51
278.5302360544
  0
ARC
  5
32E
100
AcDbEntity
  8
0
100
AcDbCircle
 62
7
  6
CONTINUOUS
 10
8.848243875
 20
9.5750394716
 40
0.099999893
100
AcDbArc
 50
226.9534357002
 51
265.5588642757
  0
ARC
  5
32F
100
AcDbEntity
  8
0
100
AcDbCircle
 62
7
  6
CONTINUOUS
 10
9.0371227894
 20
9.2790655692
 40
0.1099593195
100
AcDbArc
 50
190.5799837629
 51
195.005726912
  0
ARC
  5
330
100
AcDbEntity
  8
0
100
AcDbCircle
 62
7
  6
CONTINUOUS
 10
9.0189150501
 20
9.2564081047
 40
0.1031335665
100
AcDbArc
 50
159.1296658329
 51
169.6917568034
  0
ARC
  5
331
100
AcDbEntity
  8
0
100
AcDbCircle
 62
7
  6
CONTINUOUS
 10
9.2079747648
 20
9.257396312
 40
0.0978977071
100
AcDbArc
 50
353.9069099518
 51
357.6969681244
  0
ARC
  5
332
100
AcDbEntity
  8
0
100
AcDbCircle
 62
7
  6
CONTINUOUS
 10
9.208339263
 20
9.2573804701
 40
0.0975328667
100
AcDbArc
 50
357.6976624128
 51
359.9992406275
  0
ARC
  5
333
100
AcDbEntity
  8
0
100
AcDbCircle
 62
9
  6
CONTINUOUS
 10
9.0230864926
 20
9.2764596487
 40
0.0956831795
100
AcDbArc
 50
190.5892994115
 51
195.8255072925
  0
ARC
  5
334
100
AcDbEntity
  8
0
100
AcDbCircle
 62
7
  6
CONTINUOUS
 10
9.454756011
 20
9.4505798261
 40
0.0999999992
100
AcDbArc
 50
258.4072896731
 51
296.8473438512
  0
ARC
  5
335
100
AcDbEntity
  8
0
100
AcDbCircle
 62
7
  6
CONTINUOUS
 10
10.4269060163
 20
9.009891804
 40
1.7530338866
100
AcDbArc
 50
169.3437257157
 51
190.6562742843
  0
ARC
  5
336
100
AcDbEntity
  8
0
100
AcDbCircle
 62
7
  6
CONTINUOUS
 10
10.2455567587
 20
9.0505942761
 40
0.2695423525
100
AcDbArc
 50
95.7561454881
 51
95.9274057814
  0
ARC
  5
337
100
AcDbEntity
  8
0
100
AcDbCircle
 62
7
  6
CONTINUOUS
 10
10.2463988468
 20
9.155291761
 40
0.1413667737
100
AcDbArc
 50
101.3725462128
 51
101.7040854811
  0
ARC
  5
338
100
AcDbEntity
  8
0
100
AcDbCircle
 62
7
  6
CONTINUOUS
 10
10.2477760873
 20
9.1703279453
 40
0.1016370215
100
AcDbArc
 50
106.7274175331
 51
107.1998233947
  0
ARC
  5
339
100
AcDbEntity
  8
0
100
AcDbCircle
 62
7
  6
CONTINUOUS
 10
10.301591651
 20
9.2986393165
 40
0.1015404411
100
AcDbArc
 50
214.3117796325
 51
215.1064994323
  0
ARC
  5
33A
100
AcDbEntity
  8
0
100
AcDbCircle
 62
7
  6
CONTINUOUS
 10
10.2991648275
 20
9.2696819103
 40
0.0992940993
100
AcDbArc
 50
214.8927396017
 51
215.69338432
  0
ARC
  5
33B
100
AcDbEntity
  8
0
100
AcDbCircle
 62
7
  6
CONTINUOUS
 10
10.2963471386
 20
9.2397494993
 40
0.0967238941
100
AcDbArc
 50
215.6206887499
 51
216.4282855548
  0
ARC
  5
33C
100
AcDbEntity
  8
0
100
AcDbCircle
 62
7
  6
CONTINUOUS
 10
10.2931919108
 20
9.2089995009
 40
0.0938936195
100
AcDbArc
 50
216.505792646
 51
217.3210323534
  0
ARC
  5
33D
100
AcDbEntity
  8
0
100
AcDbCircle
 62
7
  6
CONTINUOUS
 10
10.2895909741
 20
9.1774760809
 40
0.090669178
100
AcDbArc
 50
217.5656594952
 51
218.3887448566
  0
ARC
  5
33E
100
AcDbEntity
  8
0
100
AcDbCircle
 62
7
  6
CONTINUOUS
 10
10.2853959797
 20
9.1451615702
 40
0.0868476171
100
AcDbArc
 50
218.8084314181
 51
219.6455063188
  0
ARC
  5
33F
100
AcDbEntity
  8
0
100
AcDbCircle
 62
7
  6
CONTINUOUS
 10
10.2496689074
 20
9.1620921765
 40
0.0841291509
100
AcDbArc
 50
111.7289085711
 51
112.3180312297
  0
ARC
  5
340
100
AcDbEntity
  8
0
100
AcDbCircle
 62
7
  6
CONTINUOUS
 10
10.2817470907
 20
9.1131301885
 40
0.0839135013
100
AcDbArc
 50
220.2709163164
 51
221.1104896415
  0
ARC
  5
341
100
AcDbEntity
  8
0
100
AcDbCircle
 62
7
  6
CONTINUOUS
 10
10.2774361034
 20
9.0805071792
 40
0.0803029885
100
AcDbArc
 50
221.9569689192
 51
222.8076691634
  0
ARC
  5
342
100
AcDbEntity
  8
0
100
AcDbCircle
 62
7
  6
CONTINUOUS
 10
10.273427967
 20
9.0483009956
 40
0.0773301961
100
AcDbArc
 50
223.9142368241
 51
224.7645207613
  0
ARC
  5
343
100
AcDbEntity
  8
0
100
AcDbCircle
 62
7
  6
CONTINUOUS
 10
10.2520605673
 20
9.1439511991
 40
0.0756393474
100
AcDbArc
 50
116.320209744
 51
116.9997326665
  0
ARC
  5
344
100
AcDbEntity
  8
0
100
AcDbCircle
 62
7
  6
CONTINUOUS
 10
10.2691574581
 20
9.016142297
 40
0.0742560693
100
AcDbArc
 50
226.1540989624
 51
227.0081372354
  0
ARC
  5
345
100
AcDbEntity
  8
0
100
AcDbCircle
 62
7
  6
CONTINUOUS
 10
10.2653029029
 20
9.0348357141
 40
0.0721382618
100
AcDbArc
 50
130.4270494786
 51
131.2700285826
  0
ARC
  5
346
100
AcDbEntity
  8
0
100
AcDbCircle
 62
7
  6
CONTINUOUS
 10
10.2548820375
 20
9.1205322162
 40
0.0716859731
100
AcDbArc
 50
120.4774007871
 51
121.2237782076
  0
ARC
  5
347
100
AcDbEntity
  8
0
100
AcDbCircle
 62
7
  6
CONTINUOUS
 10
10.2616336363
 20
9.0650030757
 40
0.0708051253
100
AcDbArc
 50
127.5072793367
 51
128.3293808983
  0
ARC
  5
348
100
AcDbEntity
  8
0
100
AcDbCircle
 62
7
  6
CONTINUOUS
 10
10.2580442755
 20
9.093919901
 40
0.0703121284
100
AcDbArc
 50
124.2000777097
 51
124.993874464
  0
ARC
  5
349
100
AcDbEntity
  8
0
100
AcDbCircle
 62
7
  6
CONTINUOUS
 10
9.9693121662
 20
9.315651804
 40
0.03724
100
AcDbArc
 50
90.0
 51
180.0
  0
ARC
  5
34A
100
AcDbEntity
  8
0
100
AcDbCircle
 62
7
  6
CONTINUOUS
 10
10.1973119897
 20
9.3372174469
 40
0.069011454
100
AcDbArc
 50
72.7982459587
 51
72.992673822
  0
ARC
  5
34B
100
AcDbEntity
  8
0
100
AcDbCircle
 62
7
  6
CONTINUOUS
 10
10.1959595304
 20
9.3668876358
 40
0.057301967
100
AcDbArc
 50
67.6803223697
 51
67.9526569714
  0
ARC
  5
34C
100
AcDbEntity
  8
0
100
AcDbCircle
 62
7
  6
CONTINUOUS
 10
10.1766698943
 20
9.4413794414
 40
0.0570977598
100
AcDbArc
 50
75.7493497639
 51
76.0751346673
  0
ARC
  5
34D
100
AcDbEntity
  8
0
100
AcDbCircle
 62
7
  6
CONTINUOUS
 10
10.1767268123
 20
9.4415955361
 40
0.0568743035
100
AcDbArc
 50
71.2533865902
 51
75.7513361264
  0
ARC
  5
34E
100
AcDbEntity
  8
0
100
AcDbCircle
 62
7
  6
CONTINUOUS
 10
10.1764061779
 20
9.4433478867
 40
0.0555601283
100
AcDbArc
 50
41.9622439085
 51
42.1359656448
  0
ARC
  5
34F
100
AcDbEntity
  8
0
100
AcDbCircle
 62
7
  6
CONTINUOUS
 10
10.1763076636
 20
9.445085993
 40
0.0533862425
100
AcDbArc
 50
104.3818139249
 51
104.741504439
  0
ARC
  5
350
100
AcDbEntity
  8
0
100
AcDbCircle
 62
7
  6
CONTINUOUS
 10
10.1792887395
 20
9.4434352308
 40
0.0533504799
100
AcDbArc
 50
43.9148656747
 51
44.1321833043
  0
ARC
  5
351
100
AcDbEntity
  8
0
100
AcDbCircle
 62
7
  6
CONTINUOUS
 10
10.1942913414
 20
9.3887583682
 40
0.0516064439
100
AcDbArc
 50
62.9982688709
 51
63.3187405138
  0
ARC
  5
352
100
AcDbEntity
  8
0
100
AcDbCircle
 62
7
  6
CONTINUOUS
 10
10.1821051547
 20
9.4410985698
 40
0.0514198263
100
AcDbArc
 50
46.2823612605
 51
47.767830593
  0
ARC
  5
353
100
AcDbEntity
  8
0
100
AcDbCircle
 62
7
  6
CONTINUOUS
 10
10.1849837749
 20
9.4364464825
 40
0.0496322052
100
AcDbArc
 50
48.7326568629
 51
48.9332972155
  0
ARC
  5
354
100
AcDbEntity
  8
0
100
AcDbCircle
 62
7
  6
CONTINUOUS
 10
10.1923267253
 20
9.4057126007
 40
0.0489853657
100
AcDbArc
 50
58.7747639122
 51
59.107194266
  0
ARC
  5
355
100
AcDbEntity
  8
0
100
AcDbCircle
 62
7
  6
CONTINUOUS
 10
10.1876308039
 20
9.4290942625
 40
0.0485169481
100
AcDbArc
 50
51.6691862921
 51
51.9342383499
  0
ARC
  5
356
100
AcDbEntity
  8
0
100
AcDbCircle
 62
7
  6
CONTINUOUS
 10
10.1900874329
 20
9.4189492708
 40
0.0481849621
100
AcDbArc
 50
55.0057819495
 51
55.3183750584
  0
ARC
  5
357
100
AcDbEntity
  8
0
100
AcDbCircle
 62
7
  6
CONTINUOUS
 10
10.3061582701
 20
9.4015516647
 40
0.1058241753
100
AcDbArc
 50
213.3116804492
 51
213.8513459597
  0
ARC
  5
358
100
AcDbEntity
  8
0
100
AcDbCircle
 62
7
  6
CONTINUOUS
 10
10.3058756513
 20
9.423403406
 40
0.1055603686
100
AcDbArc
 50
213.3731494791
 51
213.8958574162
  0
ARC
  5
359
100
AcDbEntity
  8
0
100
AcDbCircle
 62
7
  6
CONTINUOUS
 10
10.3056775073
 20
9.3779122632
 40
0.1053224224
100
AcDbArc
 50
213.3725976629
 51
214.1570915751
  0
ARC
  5
35A
100
AcDbEntity
  8
0
100
AcDbCircle
 62
7
  6
CONTINUOUS
 10
10.3055524424
 20
9.4011462462
 40
0.1050952097
100
AcDbArc
 50
213.8517690377
 51
214.0959064405
  0
ARC
  5
35B
100
AcDbEntity
  8
0
100
AcDbCircle
 62
7
  6
CONTINUOUS
 10
10.3052825327
 20
9.4230055866
 40
0.1048461911
100
AcDbArc
 50
213.8961647522
 51
214.1579614216
  0
ARC
  5
35C
100
AcDbEntity
  8
0
100
AcDbCircle
 62
7
  6
CONTINUOUS
 10
10.3050235914
 20
9.4434923495
 40
0.1047635682
100
AcDbArc
 50
213.5582898009
 51
214.0824050965
  0
ARC
  5
35D
100
AcDbEntity
  8
0
100
AcDbCircle
 62
7
  6
CONTINUOUS
 10
10.3048327123
 20
9.3528572921
 40
0.1045338815
100
AcDbArc
 50
213.5577673059
 51
214.3443458561
  0
ARC
  5
35E
100
AcDbEntity
  8
0
100
AcDbCircle
 62
7
  6
CONTINUOUS
 10
10.3044490497
 20
9.4431042228
 40
0.1040702138
100
AcDbArc
 50
214.0826832407
 51
214.3451571387
  0
ARC
  5
35F
100
AcDbEntity
  8
0
100
AcDbCircle
 62
7
  6
CONTINUOUS
 10
10.3036667989
 20
9.4617607341
 40
0.1035101801
100
AcDbArc
 50
213.8694052501
 51
214.3957865159
  0
ARC
  5
360
100
AcDbEntity
  8
0
100
AcDbCircle
 62
7
  6
CONTINUOUS
 10
10.3034682665
 20
9.3263939418
 40
0.1032708876
100
AcDbArc
 50
213.8693318951
 51
214.6593556819
  0
ARC
  5
361
100
AcDbEntity
  8
0
100
AcDbCircle
 62
7
  6
CONTINUOUS
 10
10.3031022836
 20
9.4613755173
 40
0.1028267561
100
AcDbArc
 50
214.3963630422
 51
214.6599873855
  0
ARC
  5
362
100
AcDbEntity
  8
0
100
AcDbCircle
 62
7
  6
CONTINUOUS
 10
10.301775401
 20
9.4780941806
 40
0.1017633838
100
AcDbArc
 50
214.3121321593
 51
214.8416680559
  0
ARC
  5
363
100
AcDbEntity
  8
0
100
AcDbCircle
 62
7
  6
CONTINUOUS
 10
10.3012362287
 20
9.4777206077
 40
0.1011074406
100
AcDbArc
 50
214.8424788882
 51
215.1076701587
  0
ARC
  5
364
100
AcDbEntity
  8
0
100
AcDbCircle
 62
7
  6
CONTINUOUS
 10
10.2455575591
 20
9.6323273667
 40
0.2695495801
100
AcDbArc
 50
264.0725872737
 51
264.2438386333
  0
ARC
  5
365
100
AcDbEntity
  8
0
100
AcDbCircle
 62
7
  6
CONTINUOUS
 10
10.2463991998
 20
9.522982906
 40
0.1413683659
100
AcDbArc
 50
258.2959095451
 51
258.6274382765
  0
ARC
  5
366
100
AcDbEntity
  8
0
100
AcDbCircle
 62
7
  6
CONTINUOUS
 10
10.2477724787
 20
9.5002225123
 40
0.1016253307
100
AcDbArc
 50
252.8001180965
 51
253.272714969
  0
ARC
  5
367
100
AcDbEntity
  8
0
100
AcDbCircle
 62
7
  6
CONTINUOUS
 10
10.2993058437
 20
9.4923696644
 40
0.0994668693
100
AcDbArc
 50
214.8935595372
 51
215.4271658378
  0
ARC
  5
368
100
AcDbEntity
  8
0
100
AcDbCircle
 62
7
  6
CONTINUOUS
 10
10.2988429644
 20
9.4920410829
 40
0.0988992226
100
AcDbArc
 50
215.427496377
 51
215.6945659078
  0
ARC
  5
369
100
AcDbEntity
  8
0
100
AcDbCircle
 62
7
  6
CONTINUOUS
 10
10.2965216047
 20
9.5046835754
 40
0.0969383667
100
AcDbArc
 50
215.6202718302
 51
216.1584593786
  0
ARC
  5
36A
100
AcDbEntity
  8
0
100
AcDbCircle
 62
7
  6
CONTINUOUS
 10
10.2960877834
 20
9.5043683143
 40
0.096402094
100
AcDbArc
 50
216.1593064941
 51
216.4286693405
  0
ARC
  5
36B
100
AcDbEntity
  8
0
100
AcDbCircle
 62
7
  6
CONTINUOUS
 10
10.2933031287
 20
9.5148791018
 40
0.0940326174
100
AcDbArc
 50
216.5064505557
 51
217.0498454389
  0
ARC
  5
36C
100
AcDbEntity
  8
0
100
AcDbCircle
 62
7
  6
CONTINUOUS
 10
10.2929249683
 20
9.5145957863
 40
0.093560103
100
AcDbArc
 50
217.0509035626
 51
217.3227946744
  0
ARC
  5
36D
100
AcDbEntity
  8
0
100
AcDbCircle
 62
7
  6
CONTINUOUS
 10
10.2896855304
 20
9.5229051472
 40
0.0907879542
100
AcDbArc
 50
217.5647725419
 51
218.1137869275
  0
ARC
  5
36E
100
AcDbEntity
  8
0
100
AcDbCircle
 62
7
  6
CONTINUOUS
 10
10.2894025592
 20
9.5226843615
 40
0.0904290418
100
AcDbArc
 50
218.1143861399
 51
218.3888655513
  0
ARC
  5
36F
100
AcDbEntity
  8
0
100
AcDbCircle
 62
7
  6
CONTINUOUS
 10
10.2859518519
 20
9.5289236402
 40
0.087565271
100
AcDbArc
 50
218.8114529727
 51
219.3659692361
  0
ARC
  5
370
100
AcDbEntity
  8
0
100
AcDbCircle
 62
7
  6
CONTINUOUS
 10
10.2857468014
 20
9.5287595174
 40
0.087302646
100
AcDbArc
 50
219.3680513948
 51
219.6451058772
  0
ARC
  5
371
100
AcDbEntity
  8
0
100
AcDbCircle
 62
7
  6
CONTINUOUS
 10
10.2819095875
 20
9.5327380325
 40
0.0841255511
100
AcDbArc
 50
220.2689781214
 51
220.8285978251
  0
ARC
  5
372
100
AcDbEntity
  8
0
100
AcDbCircle
 62
7
  6
CONTINUOUS
 10
10.2496633309
 20
9.4977094278
 40
0.0841138717
100
AcDbArc
 50
247.681973841
 51
248.2710303575
  0
ARC
  5
373
100
AcDbEntity
  8
0
100
AcDbCircle
 62
7
  6
CONTINUOUS
 10
10.2817538429
 20
9.5326060815
 40
0.0839214347
100
AcDbArc
 50
220.8299512582
 51
221.1094980223
  0
ARC
  5
374
100
AcDbEntity
  8
0
100
AcDbCircle
 62
7
  6
CONTINUOUS
 10
10.2775027041
 20
9.5342499347
 40
0.0803946067
100
AcDbArc
 50
221.9595332442
 51
222.8084643249
  0
ARC
  5
375
100
AcDbEntity
  8
0
100
AcDbCircle
 62
7
  6
CONTINUOUS
 10
10.2734074765
 20
9.5340502888
 40
0.0772995311
100
AcDbArc
 50
223.9124779935
 51
224.7630227161
  0
ARC
  5
376
100
AcDbEntity
  8
0
100
AcDbCircle
 62
7
  6
CONTINUOUS
 10
10.2520694308
 20
9.5021518934
 40
0.0756586306
100
AcDbArc
 50
243.0003694083
 51
243.6795475099
  0
ARC
  5
377
100
AcDbEntity
  8
0
100
AcDbCircle
 62
7
  6
CONTINUOUS
 10
10.2693339831
 20
9.5319320744
 40
0.0745150556
100
AcDbArc
 50
226.1587558321
 51
227.0084424839
  0
ARC
  5
378
100
AcDbEntity
  8
0
100
AcDbCircle
 62
7
  6
CONTINUOUS
 10
10.2723232286
 20
9.5313966036
 40
0.0744799058
100
AcDbArc
 50
222.8525157039
 51
276.9507945782
  0
ARC
  5
379
100
AcDbEntity
  8
0
100
AcDbCircle
 62
7
  6
CONTINUOUS
 10
10.2653455855
 20
9.5280206854
 40
0.0722031561
100
AcDbArc
 50
228.7300684642
 51
229.5723845449
  0
ARC
  5
37A
100
AcDbEntity
  8
0
100
AcDbCircle
 62
7
  6
CONTINUOUS
 10
10.254866418
 20
9.5088780254
 40
0.0716559125
100
AcDbArc
 50
238.7758795269
 51
239.5228976506
  0
ARC
  5
37B
100
AcDbEntity
  8
0
100
AcDbCircle
 62
7
  6
CONTINUOUS
 10
10.2616079702
 20
9.5226636442
 40
0.0707636049
100
AcDbArc
 50
231.6699618461
 51
232.4930388777
  0
ARC
  5
37C
100
AcDbEntity
  8
0
100
AcDbCircle
 62
7
  6
CONTINUOUS
 10
10.258061006
 20
9.5160472781
 40
0.0703411095
100
AcDbArc
 50
235.0061702316
 51
235.7995194505
  0
ARC
  5
37D
100
AcDbEntity
  8
0
100
AcDbCircle
 62
7
  6
CONTINUOUS
 10
10.4710721359
 20
11.1871822209
 40
2.6389999968
100
AcDbArc
 50
272.3045935724
 51
278.8065547675
  0
ARC
  5
37E
100
AcDbEntity
  8
0
100
AcDbCircle
 62
7
  6
CONTINUOUS
 10
10.5034025041
 20
10.3838325159
 40
1.8349999961
100
AcDbArc
 50
263.0492054222
 51
272.3045935724
  0
ARC
  5
37F
100
AcDbEntity
  8
0
100
AcDbCircle
 62
7
  6
CONTINUOUS
 10
13.6643488997
 20
-11.9515882829
 40
21.0481163619
100
AcDbArc
 50
101.5927103259
 51
101.9258488505
  0
ARC
  5
380
100
AcDbEntity
  8
0
100
AcDbCircle
 62
7
  6
CONTINUOUS
 10
11.2590721271
 20
6.1008608576
 40
2.5080000028
100
AcDbArc
 50
95.1872496666
 51
98.8065547675
  0
ARC
  5
381
100
AcDbEntity
  8
0
100
AcDbCircle
 62
7
  6
CONTINUOUS
 10
12.0663338633
 20
8.4780730693
 40
0.6078409296
100
AcDbArc
 50
249.6970355865
 51
263.3643665393
  0
ARC
  5
382
100
AcDbEntity
  8
0
100
AcDbCircle
 62
7
  6
CONTINUOUS
 10
11.2962515324
 20
7.8665275967
 40
0.4888424103
100
AcDbArc
 50
25.8490587855
 51
51.3390445145
  0
ARC
  5
383
100
AcDbEntity
  8
0
100
AcDbCircle
 62
7
  6
CONTINUOUS
 10
12.0686072358
 20
5.2895807818
 40
0.425
100
AcDbArc
 50
5.7176220275
 51
74.7903499152
  0
ARC
  5
384
100
AcDbEntity
  8
0
100
AcDbCircle
 62
7
  6
CONTINUOUS
 10
11.3680362041
 20
7.9562547533
 40
0.3739337434
100
AcDbArc
 50
51.3390445145
 51
75.43503933
  0
ARC
  5
385
100
AcDbEntity
  8
0
100
AcDbCircle
 62
7
  6
CONTINUOUS
 10
12.1080547947
 20
8.1677494535
 40
0.3739337434
100
AcDbArc
 50
204.6543569553
 51
217.2907938915
  0
ARC
  5
386
100
AcDbEntity
  8
0
100
AcDbCircle
 62
7
  6
CONTINUOUS
 10
11.0610721279
 20
8.2818918067
 40
0.3180000027
100
AcDbArc
 50
80.330261138
 51
95.1872496666
  0
ARC
  5
387
100
AcDbEntity
  8
0
100
AcDbCircle
 62
7
  6
CONTINUOUS
 10
10.9620721292
 20
8.4389813494
 40
0.2330000021
100
AcDbArc
 50
15.5173434455
 51
33.859188203
  0
ARC
  5
388
100
AcDbEntity
  8
0
100
AcDbCircle
 62
7
  6
CONTINUOUS
 10
11.8901210967
 20
8.0017837973
 40
0.1
100
AcDbArc
 50
217.2907938915
 51
249.6970355865
  0
ARC
  5
389
100
AcDbEntity
  8
0
100
AcDbCircle
 62
7
  6
CONTINUOUS
 10
12.5710948486
 20
5.339891804
 40
0.08
100
AcDbArc
 50
185.7176220275
 51
270.0
  0
ARC
  5
38A
100
AcDbEntity
  8
0
100
AcDbCircle
 62
7
  6
CONTINUOUS
 10
12.2010948486
 20
5.776891804
 40
0.08
100
AcDbArc
 50
180.0
 51
254.7903499152
  0
ARC
  5
38B
100
AcDbEntity
  8
0
100
AcDbCircle
 62
7
  6
CONTINUOUS
 10
11.1040721278
 20
8.5342546398
 40
0.0620000037
100
AcDbArc
 50
33.859188203
 51
80.330261138
  0
ARC
  5
38C
100
AcDbEntity
  8
0
100
AcDbCircle
 62
7
  6
CONTINUOUS
 10
11.0260948486
 20
7.258891804
 40
0.031
100
AcDbArc
 50
44.7546926505
 51
90.0
  0
ARC
  5
38D
100
AcDbEntity
  8
0
100
AcDbCircle
 62
7
  6
CONTINUOUS
 10
10.9360948486
 20
7.258891804
 40
0.031
100
AcDbArc
 50
90.0
 51
103.0407610339
  0
ARC
  5
38E
100
AcDbEntity
  8
0
100
AcDbCircle
 62
7
  6
CONTINUOUS
 10
11.0260948486
 20
6.420891804
 40
0.031
100
AcDbArc
 50
270.0
 51
315.2453073495
  0
ARC
  5
38F
100
AcDbEntity
  8
0
100
AcDbCircle
 62
7
  6
CONTINUOUS
 10
10.9360948486
 20
6.420891804
 40
0.031
100
AcDbArc
 50
256.9592389661
 51
270.0
  0
ARC
  5
390
100
AcDbEntity
  8
0
100
AcDbCircle
 62
7
  6
CONTINUOUS
 10
10.8000948486
 20
7.227391804
 40
0.031
100
AcDbArc
 50
103.0407610339
 51
180.0
  0
ARC
  5
391
100
AcDbEntity
  8
0
100
AcDbCircle
 62
7
  6
CONTINUOUS
 10
10.8000948486
 20
6.452391804
 40
0.031
100
AcDbArc
 50
180.0
 51
256.9592389661
  0
ARC
  5
392
100
AcDbEntity
  8
0
100
AcDbCircle
 62
7
  6
CONTINUOUS
 10
12.1010948486
 20
7.2529086666
 40
0.02
100
AcDbArc
 50
0.0
 51
88.5
  0
ARC
  5
393
100
AcDbEntity
  8
0
100
AcDbCircle
 62
7
  6
CONTINUOUS
 10
11.8530948486
 20
7.063891804
 40
0.012
100
AcDbArc
 50
90.0
 51
180.0
  0
ARC
  5
394
100
AcDbEntity
  8
0
100
AcDbCircle
 62
7
  6
CONTINUOUS
 10
11.8530948486
 20
6.615891804
 40
0.012
100
AcDbArc
 50
180.0
 51
270.0
  0
ARC
  5
395
100
AcDbEntity
  8
0
100
AcDbCircle
 62
7
  6
CONTINUOUS
 10
13.6643488997
 20
29.971371891
 40
21.0481163619
100
AcDbArc
 50
258.0741511495
 51
258.4072896741
  0
ARC
  5
396
100
AcDbEntity
  8
0
100
AcDbCircle
 62
7
  6
CONTINUOUS
 10
11.2590721271
 20
11.9189227505
 40
2.5080000028
100
AcDbArc
 50
261.1934452325
 51
264.8127503334
  0
ARC
  5
397
100
AcDbEntity
  8
0
100
AcDbCircle
 62
7
  6
CONTINUOUS
 10
12.0663338633
 20
9.5417105388
 40
0.6078409296
100
AcDbArc
 50
96.6356334607
 51
110.3029644135
  0
ARC
  5
398
100
AcDbEntity
  8
0
100
AcDbCircle
 62
7
  6
CONTINUOUS
 10
11.2962515324
 20
10.1532560114
 40
0.4888424103
100
AcDbArc
 50
308.6609554855
 51
334.1509412145
  0
ARC
  5
399
100
AcDbEntity
  8
0
100
AcDbCircle
 62
7
  6
CONTINUOUS
 10
12.0686072358
 20
12.7302028263
 40
0.425
100
AcDbArc
 50
285.2096500848
 51
354.2823779725
  0
ARC
  5
39A
100
AcDbEntity
  8
0
100
AcDbCircle
 62
7
  6
CONTINUOUS
 10
11.3680362041
 20
10.0635288548
 40
0.3739337434
100
AcDbArc
 50
284.56496067
 51
308.6609554855
  0
ARC
  5
39B
100
AcDbEntity
  8
0
100
AcDbCircle
 62
7
  6
CONTINUOUS
 10
12.1080547947
 20
9.8520341546
 40
0.3739337434
100
AcDbArc
 50
142.7092061085
 51
155.3456430447
  0
ARC
  5
39C
100
AcDbEntity
  8
0
100
AcDbCircle
 62
7
  6
CONTINUOUS
 10
11.0610721279
 20
9.7378918014
 40
0.3180000027
100
AcDbArc
 50
264.8127503334
 51
279.669738862
  0
ARC
  5
39D
100
AcDbEntity
  8
0
100
AcDbCircle
 62
7
  6
CONTINUOUS
 10
10.9620721292
 20
9.5808022587
 40
0.2330000021
100
AcDbArc
 50
326.140811797
 51
344.4826565545
  0
ARC
  5
39E
100
AcDbEntity
  8
0
100
AcDbCircle
 62
7
  6
CONTINUOUS
 10
11.8901210967
 20
10.0179998108
 40
0.1
100
AcDbArc
 50
110.3029644135
 51
142.7092061085
  0
ARC
  5
39F
100
AcDbEntity
  8
0
100
AcDbCircle
 62
7
  6
CONTINUOUS
 10
12.5710948486
 20
12.679891804
 40
0.08
100
AcDbArc
 50
90.0
 51
174.2823779725
  0
ARC
  5
3A0
100
AcDbEntity
  8
0
100
AcDbCircle
 62
7
  6
CONTINUOUS
 10
12.2010948486
 20
12.242891804
 40
0.08
100
AcDbArc
 50
105.2096500848
 51
180.0
  0
ARC
  5
3A1
100
AcDbEntity
  8
0
100
AcDbCircle
 62
7
  6
CONTINUOUS
 10
11.1040721278
 20
9.4855289683
 40
0.0620000037
100
AcDbArc
 50
279.669738862
 51
326.140811797
  0
ARC
  5
3A2
100
AcDbEntity
  8
0
100
AcDbCircle
 62
7
  6
CONTINUOUS
 10
12.1010948486
 20
10.7668749415
 40
0.02
100
AcDbArc
 50
271.5
 51
360.0
  0
SPLINE
  5
3A3
100
AcDbEntity
  8
0
100
AcDbSpline
 62
7
  6
CONTINUOUS
 70
0
 71
3
 72
27
 73
23
 74
0
 42
0.0000001
 43
0.0000001
 44
0.0000000001
 40
0.0
 40
0.0
 40
0.0
 40
0.0
 40
0.1321185783
 40
0.1656312035
 40
0.1992378324
 40
0.266539186
 40
0.3336758378
 40
0.4002951369
 40
0.4660731415
 40
0.5307334913
 40
0.5940644918
 40
0.6559338782
 40
0.7162981156
 40
0.7752054956
 40
0.8041662591
 40
0.832820043
 40
0.8611944088
 40
0.8893197643
 40
0.9172289369
 40
0.9449562694
 40
0.9725337786
 40
1.0
 40
1.0
 40
1.0
 40
1.0
 10
9.0394128079
 20
8.8690890029
 30
0.0
 10
9.0523206153
 20
8.873149146
 30
0.0
 10
9.0690171947
 20
8.8767676423
 30
0.0
 10
9.0893020872
 20
8.8789799271
 30
0.0
 10
9.1030430921
 20
8.8798958845
 30
0.0
 10
9.1202750857
 20
8.8799605708
 30
0.0
 10
9.1408251105
 20
8.8783170786
 30
0.0
 10
9.1610100927
 20
8.8749681843
 30
0.0
 10
9.1805843718
 20
8.8699454763
 30
0.0
 10
9.1993119899
 20
8.8632944897
 30
0.0
 10
9.2169671905
 20
8.855072745
 30
0.0
 10
9.2333353314
 20
8.8453472437
 30
0.0
 10
9.2482084608
 20
8.8341964877
 30
0.0
 10
9.2592559655
 20
8.8237248566
 30
0.0
 10
9.2671163717
 20
8.8147361776
 30
0.0
 10
9.272479361
 20
8.8077424007
 30
0.0
 10
9.2773171273
 20
8.8004779896
 30
0.0
 10
9.2816056613
 20
8.7929635571
 30
0.0
 10
9.2853212115
 20
8.785223009
 30
0.0
 10
9.2884412758
 20
8.777283583
 30
0.0
 10
9.2909457588
 20
8.7691767198
 30
0.0
 10
9.2921954494
 20
8.7636727498
 30
0.0
 10
9.2927114318
 20
8.7609074443
 30
0.0
  0
SPLINE
  5
3A4
100
AcDbEntity
  8
0
100
AcDbSpline
 62
7
  6
CONTINUOUS
 70
0
 71
3
 72
50
 73
46
 74
0
 42
0.0000001
 43
0.0000001
 44
0.0000000001
 40
0.0
 40
0.0
 40
0.0
 40
0.0
 40
0.0135499294
 40
0.0271191362
 40
0.0407281308
 40
0.0543957501
 40
0.0681410397
 40
0.0819823824
 40
0.0959372847
 40
0.1100222846
 40
0.124252777
 40
0.1386426855
 40
0.1679371453
 40
0.1979944428
 40
0.2288591548
 40
0.2605425365
 40
0.2930227988
 40
0.3262474109
 40
0.3601361178
 40
0.3945850828
 40
0.4294712325
 40
0.4646569638
 40
0.4999949156
 40
0.5353328604
 40
0.5705185703
 40
0.6054046886
 40
0.6398536085
 40
0.6737422568
 40
0.7069668067
 40
0.7394469932
 40
0.7711302939
 40
0.8019949241
 40
0.8320521388
 40
0.8467959811
 40
0.8613575455
 40
0.8757474156
 40
0.8899778708
 40
0.904062838
 40
0.9180177102
 40
0.931859025
 40
0.9456042926
 40
0.9592718933
 40
0.9728808721
 40
0.9864500767
 40
1.0
 40
1.0
 40
1.0
 40
1.0
 10
9.4533721297
 20
8.1735876622
 30
0.0
 10
9.4533721297
 20
8.1693503148
 30
0.0
 10
9.453082345
 20
8.1608667494
 30
0.0
 10
9.4517806288
 20
8.1481875284
 30
0.0
 10
9.449618077
 20
8.135588639
 30
0.0
 10
9.4466042288
 20
8.123109582
 30
0.0
 10
9.4427524031
 20
8.1107872925
 30
0.0
 10
9.4380788438
 20
8.0986566431
 30
0.0
 10
9.432602033
 20
8.0867501486
 30
0.0
 10
9.4263425458
 20
8.0750980432
 30
0.0
 10
9.41932222
 20
8.0637277213
 30
0.0
 10
9.4089190139
 20
8.0488919697
 30
0.0
 10
9.3940824757
 20
8.0311710644
 30
0.0
 10
9.3737458734
 20
8.0115475937
 30
0.0
 10
9.3509798168
 20
7.9935760451
 30
0.0
 10
9.3260102689
 20
7.9773886322
 30
0.0
 10
9.2990723103
 20
7.9631017666
 30
0.0
 10
9.2704140227
 20
7.9508208572
 30
0.0
 10
9.2402965657
 20
7.9406384686
 30
0.0
 10
9.2089939417
 20
7.9326333116
 30
0.0
 10
9.176791478
 20
7.9268687606
 30
0.0
 10
9.1439837454
 20
7.9233911538
 30
0.0
 10
9.1108717285
 20
7.9222287648
 30
0.0
 10
9.0777597197
 20
7.9233912043
 30
0.0
 10
9.0449520129
 20
7.9268688774
 30
0.0
 10
9.0127495881
 20
7.9326334663
 30
0.0
 10
8.9814470161
 20
7.9406386684
 30
0.0
 10
8.9513296356
 20
7.9508210897
 30
0.0
 10
8.9226713943
 20
7.9631020443
 30
0.0
 10
8.895733614
 20
7.9773888045
 30
0.0
 10
8.8707638174
 20
7.9935766442
 30
0.0
 10
8.8479990557
 20
8.0115466382
 30
0.0
 10
8.8309388575
 20
8.0280097219
 30
0.0
 10
8.8186500839
 20
8.041934289
 30
0.0
 10
8.8101792087
 20
8.0526656089
 30
0.0
 10
8.8024217977
 20
8.0637280255
 30
0.0
 10
8.7954016761
 20
8.0750981301
 30
0.0
 10
8.789142165
 20
8.0867502634
 30
0.0
 10
8.7836653857
 20
8.0986567219
 30
0.0
 10
8.7789918341
 20
8.1107873521
 30
0.0
 10
8.7751400195
 20
8.1231096216
 30
0.0
 10
8.7721261786
 20
8.1355886623
 30
0.0
 10
8.769963628
 20
8.1481875402
 30
0.0
 10
8.7686619148
 20
8.1608667539
 30
0.0
 10
8.7683721297
 20
8.1693503167
 30
0.0
 10
8.7683721297
 20
8.1735876622
 30
0.0
  0
SPLINE
  5
3A5
100
AcDbEntity
  8
0
100
AcDbSpline
 62
7
  6
CONTINUOUS
 70
0
 71
3
 72
50
 73
46
 74
0
 42
0.0000001
 43
0.0000001
 44
0.0000000001
 40
0.0
 40
0.0
 40
0.0
 40
0.0
 40
0.0135499294
 40
0.0271191362
 40
0.0407281308
 40
0.0543957501
 40
0.0681410397
 40
0.0819823824
 40
0.0959372847
 40
0.1100222846
 40
0.124252777
 40
0.1386426855
 40
0.1679371453
 40
0.1979944428
 40
0.2288591548
 40
0.2605425365
 40
0.2930227988
 40
0.3262474109
 40
0.3601361178
 40
0.3945850828
 40
0.4294712325
 40
0.4646569638
 40
0.4999949156
 40
0.5353328604
 40
0.5705185703
 40
0.6054046886
 40
0.6398536085
 40
0.6737422568
 40
0.7069668067
 40
0.7394469932
 40
0.7711302939
 40
0.8019949241
 40
0.8320521388
 40
0.8467959811
 40
0.8613575455
 40
0.8757474156
 40
0.8899778708
 40
0.904062838
 40
0.9180177102
 40
0.931859025
 40
0.9456042926
 40
0.9592718933
 40
0.9728808721
 40
0.9864500767
 40
1.0
 40
1.0
 40
1.0
 40
1.0
 10
8.7683721297
 20
8.1735876622
 30
0.0
 10
8.7683721297
 20
8.1778250096
 30
0.0
 10
8.7686619144
 20
8.186308575
 30
0.0
 10
8.7699636305
 20
8.198987796
 30
0.0
 10
8.7721261823
 20
8.2115866853
 30
0.0
 10
8.7751400305
 20
8.2240657423
 30
0.0
 10
8.7789918563
 20
8.2363880318
 30
0.0
 10
8.7836654155
 20
8.2485186812
 30
0.0
 10
8.7891422264
 20
8.2604251757
 30
0.0
 10
8.7954017135
 20
8.2720772811
 30
0.0
 10
8.8024220394
 20
8.283447603
 30
0.0
 10
8.8128252454
 20
8.2982833546
 30
0.0
 10
8.8276617836
 20
8.3160042599
 30
0.0
 10
8.847998386
 20
8.3356277306
 30
0.0
 10
8.8707644425
 20
8.3535992792
 30
0.0
 10
8.8957339904
 20
8.3697866921
 30
0.0
 10
8.9226719491
 20
8.3840735577
 30
0.0
 10
8.9513302366
 20
8.3963544671
 30
0.0
 10
8.9814476936
 20
8.4065368558
 30
0.0
 10
9.0127503177
 20
8.4145420127
 30
0.0
 10
9.0449527814
 20
8.4203065637
 30
0.0
 10
9.077760514
 20
8.4237841706
 30
0.0
 10
9.1108725308
 20
8.4249465595
 30
0.0
 10
9.1439845397
 20
8.4237841201
 30
0.0
 10
9.1767922465
 20
8.4203064469
 30
0.0
 10
9.2089946713
 20
8.414541858
 30
0.0
 10
9.2402972432
 20
8.406536656
 30
0.0
 10
9.2704146237
 20
8.3963542346
 30
0.0
 10
9.299072865
 20
8.3840732801
 30
0.0
 10
9.3260106453
 20
8.3697865199
 30
0.0
 10
9.350980442
 20
8.3535986801
 30
0.0
 10
9.3737452036
 20
8.3356286861
 30
0.0
 10
9.3908054019
 20
8.3191656025
 30
0.0
 10
9.4030941755
 20
8.3052410354
 30
0.0
 10
9.4115650506
 20
8.2945097155
 30
0.0
 10
9.4193224617
 20
8.2834472989
 30
0.0
 10
9.4263425832
 20
8.2720771943
 30
0.0
 10
9.4326020944
 20
8.2604250609
 30
0.0
 10
9.4380788736
 20
8.2485186025
 30
0.0
 10
9.4427524252
 20
8.2363879722
 30
0.0
 10
9.4466042398
 20
8.2240657028
 30
0.0
 10
9.4496180808
 20
8.2115866621
 30
0.0
 10
9.4517806314
 20
8.1989877842
 30
0.0
 10
9.4530823445
 20
8.1863085704
 30
0.0
 10
9.4533721297
 20
8.1778250077
 30
0.0
 10
9.4533721297
 20
8.1735876622
 30
0.0
  0
SPLINE
  5
3A6
100
AcDbEntity
  8
0
100
AcDbSpline
 62
7
  6
CONTINUOUS
 70
0
 71
3
 72
27
 73
23
 74
0
 42
0.0000001
 43
0.0000001
 44
0.0000000001
 40
0.0
 40
0.0
 40
0.0
 40
0.0
 40
0.0274656022
 40
0.0550424033
 40
0.082769394
 40
0.1106783642
 40
0.1388037321
 40
0.167178391
 40
0.1958327193
 40
0.2247943017
 40
0.2837042055
 40
0.3440720406
 40
0.4059458401
 40
0.4692816756
 40
0.5339467199
 40
0.5997287494
 40
0.6663507456
 40
0.7334880242
 40
0.8007873298
 40
0.8343918016
 40
0.8679015017
 40
1.0
 40
1.0
 40
1.0
 40
1.0
 10
9.2927114318
 20
9.2588761638
 30
0.0
 10
9.2921951398
 20
9.2561091991
 30
0.0
 10
9.2909445763
 20
9.2506019554
 30
0.0
 10
9.2884380183
 20
9.2424903745
 30
0.0
 10
9.2853151842
 20
9.2345464595
 30
0.0
 10
9.2815961636
 20
9.2268016993
 30
0.0
 10
9.2773035272
 20
9.2192833859
 30
0.0
 10
9.2724610739
 20
9.2120154555
 30
0.0
 10
9.2670928449
 20
9.2050185605
 30
0.0
 10
9.2592247141
 20
9.1960262243
 30
0.0
 10
9.2481663866
 20
9.1855511532
 30
0.0
 10
9.2332789965
 20
9.1743982799
 30
0.0
 10
9.2168955588
 20
9.1646726946
 30
0.0
 10
9.1992244431
 20
9.156452971
 30
0.0
 10
9.180480703
 20
9.1498061995
 30
0.0
 10
9.1608905514
 20
9.1447899477
 30
0.0
 10
9.1406904364
 20
9.1414497161
 30
0.0
 10
9.1201265138
 20
9.1398170914
 30
0.0
 10
9.1028841783
 20
9.139892608
 30
0.0
 10
9.0891359537
 20
9.1408182321
 30
0.0
 10
9.0688425461
 20
9.1430457389
 30
0.0
 10
9.0521404803
 20
9.1466789031
 30
0.0
 10
9.0392301287
 20
9.1507521578
 30
0.0
  0
SPLINE
  5
3A7
100
AcDbEntity
  8
0
100
AcDbSpline
 62
7
  6
CONTINUOUS
 70
0
 71
3
 72
50
 73
46
 74
0
 42
0.0000001
 43
0.0000001
 44
0.0000000001
 40
0.0
 40
0.0
 40
0.0
 40
0.0
 40
0.0135499294
 40
0.0271191362
 40
0.0407281308
 40
0.0543957501
 40
0.0681410397
 40
0.0819823824
 40
0.0959372847
 40
0.1100222846
 40
0.124252777
 40
0.1386426855
 40
0.1679371453
 40
0.1979944428
 40
0.2288591548
 40
0.2605425365
 40
0.2930227988
 40
0.3262474109
 40
0.3601361178
 40
0.3945850828
 40
0.4294712325
 40
0.4646569638
 40
0.4999949156
 40
0.5353328604
 40
0.5705185703
 40
0.6054046886
 40
0.6398536085
 40
0.6737422568
 40
0.7069668067
 40
0.7394469932
 40
0.7711302939
 40
0.8019949241
 40
0.8320521388
 40
0.8467959811
 40
0.8613575455
 40
0.8757474156
 40
0.8899778708
 40
0.904062838
 40
0.9180177102
 40
0.931859025
 40
0.9456042926
 40
0.9592718933
 40
0.9728808721
 40
0.9864500767
 40
1.0
 40
1.0
 40
1.0
 40
1.0
 10
9.4533721297
 20
9.8461959459
 30
0.0
 10
9.4533721297
 20
9.8419585985
 30
0.0
 10
9.453082345
 20
9.8334750331
 30
0.0
 10
9.4517806288
 20
9.8207958121
 30
0.0
 10
9.449618077
 20
9.8081969228
 30
0.0
 10
9.4466042288
 20
9.7957178658
 30
0.0
 10
9.4427524031
 20
9.7833955763
 30
0.0
 10
9.4380788438
 20
9.7712649269
 30
0.0
 10
9.432602033
 20
9.7593584324
 30
0.0
 10
9.4263425458
 20
9.7477063269
 30
0.0
 10
9.41932222
 20
9.7363360051
 30
0.0
 10
9.4089190139
 20
9.7215002535
 30
0.0
 10
9.3940824757
 20
9.7037793482
 30
0.0
 10
9.3737458734
 20
9.6841558775
 30
0.0
 10
9.3509798168
 20
9.6661843289
 30
0.0
 10
9.3260102689
 20
9.649996916
 30
0.0
 10
9.2990723103
 20
9.6357100504
 30
0.0
 10
9.2704140227
 20
9.623429141
 30
0.0
 10
9.2402965657
 20
9.6132467523
 30
0.0
 10
9.2089939417
 20
9.6052415953
 30
0.0
 10
9.176791478
 20
9.5994770443
 30
0.0
 10
9.1439837454
 20
9.5959994375
 30
0.0
 10
9.1108717285
 20
9.5948370486
 30
0.0
 10
9.0777597197
 20
9.595999488
 30
0.0
 10
9.0449520129
 20
9.5994771612
 30
0.0
 10
9.0127495881
 20
9.6052417501
 30
0.0
 10
8.9814470161
 20
9.6132469521
 30
0.0
 10
8.9513296356
 20
9.6234293735
 30
0.0
 10
8.9226713943
 20
9.635710328
 30
0.0
 10
8.895733614
 20
9.6499970882
 30
0.0
 10
8.8707638174
 20
9.666184928
 30
0.0
 10
8.8479990557
 20
9.684154922
 30
0.0
 10
8.8309388575
 20
9.7006180056
 30
0.0
 10
8.8186500839
 20
9.7145425727
 30
0.0
 10
8.8101792087
 20
9.7252738926
 30
0.0
 10
8.8024217977
 20
9.7363363092
 30
0.0
 10
8.7954016761
 20
9.7477064138
 30
0.0
 10
8.789142165
 20
9.7593585472
 30
0.0
 10
8.7836653857
 20
9.7712650056
 30
0.0
 10
8.7789918341
 20
9.7833956359
 30
0.0
 10
8.7751400195
 20
9.7957179053
 30
0.0
 10
8.7721261786
 20
9.808196946
 30
0.0
 10
8.769963628
 20
9.8207958239
 30
0.0
 10
8.7686619148
 20
9.8334750377
 30
0.0
 10
8.7683721297
 20
9.8419586004
 30
0.0
 10
8.7683721297
 20
9.8461959459
 30
0.0
  0
SPLINE
  5
3A8
100
AcDbEntity
  8
0
100
AcDbSpline
 62
7
  6
CONTINUOUS
 70
0
 71
3
 72
50
 73
46
 74
0
 42
0.0000001
 43
0.0000001
 44
0.0000000001
 40
0.0
 40
0.0
 40
0.0
 40
0.0
 40
0.0135499294
 40
0.0271191362
 40
0.0407281308
 40
0.0543957501
 40
0.0681410397
 40
0.0819823824
 40
0.0959372847
 40
0.1100222846
 40
0.124252777
 40
0.1386426855
 40
0.1679371453
 40
0.1979944428
 40
0.2288591548
 40
0.2605425365
 40
0.2930227988
 40
0.3262474109
 40
0.3601361178
 40
0.3945850828
 40
0.4294712325
 40
0.4646569638
 40
0.4999949156
 40
0.5353328604
 40
0.5705185703
 40
0.6054046886
 40
0.6398536085
 40
0.6737422568
 40
0.7069668067
 40
0.7394469932
 40
0.7711302939
 40
0.8019949241
 40
0.8320521388
 40
0.8467959811
 40
0.8613575455
 40
0.8757474156
 40
0.8899778708
 40
0.904062838
 40
0.9180177102
 40
0.931859025
 40
0.9456042926
 40
0.9592718933
 40
0.9728808721
 40
0.9864500767
 40
1.0
 40
1.0
 40
1.0
 40
1.0
 10
8.7683721297
 20
9.8461959459
 30
0.0
 10
8.7683721297
 20
9.8504332933
 30
0.0
 10
8.7686619144
 20
9.8589168587
 30
0.0
 10
8.7699636305
 20
9.8715960797
 30
0.0
 10
8.7721261823
 20
9.8841949691
 30
0.0
 10
8.7751400305
 20
9.8966740261
 30
0.0
 10
8.7789918563
 20
9.9089963156
 30
0.0
 10
8.7836654155
 20
9.921126965
 30
0.0
 10
8.7891422264
 20
9.9330334595
 30
0.0
 10
8.7954017135
 20
9.9446855649
 30
0.0
 10
8.8024220394
 20
9.9560558867
 30
0.0
 10
8.8128252454
 20
9.9708916384
 30
0.0
 10
8.8276617836
 20
9.9886125437
 30
0.0
 10
8.847998386
 20
10.0082360144
 30
0.0
 10
8.8707644425
 20
10.026207563
 30
0.0
 10
8.8957339904
 20
10.0423949759
 30
0.0
 10
8.9226719491
 20
10.0566818415
 30
0.0
 10
8.9513302366
 20
10.0689627509
 30
0.0
 10
8.9814476936
 20
10.0791451395
 30
0.0
 10
9.0127503177
 20
10.0871502965
 30
0.0
 10
9.0449527814
 20
10.0929148475
 30
0.0
 10
9.077760514
 20
10.0963924543
 30
0.0
 10
9.1108725308
 20
10.0975548433
 30
0.0
 10
9.1439845397
 20
10.0963924038
 30
0.0
 10
9.1767922465
 20
10.0929147307
 30
0.0
 10
9.2089946713
 20
10.0871501418
 30
0.0
 10
9.2402972432
 20
10.0791449397
 30
0.0
 10
9.2704146237
 20
10.0689625184
 30
0.0
 10
9.299072865
 20
10.0566815638
 30
0.0
 10
9.3260106453
 20
10.0423948036
 30
0.0
 10
9.350980442
 20
10.0262069639
 30
0.0
 10
9.3737452036
 20
10.0082369698
 30
0.0
 10
9.3908054019
 20
9.9917738862
 30
0.0
 10
9.4030941755
 20
9.9778493191
 30
0.0
 10
9.4115650506
 20
9.9671179992
 30
0.0
 10
9.4193224617
 20
9.9560555826
 30
0.0
 10
9.4263425832
 20
9.944685478
 30
0.0
 10
9.4326020944
 20
9.9330333447
 30
0.0
 10
9.4380788736
 20
9.9211268862
 30
0.0
 10
9.4427524252
 20
9.9089962559
 30
0.0
 10
9.4466042398
 20
9.8966739865
 30
0.0
 10
9.4496180808
 20
9.8841949458
 30
0.0
 10
9.4517806314
 20
9.8715960679
 30
0.0
 10
9.4530823445
 20
9.8589168542
 30
0.0
 10
9.4533721297
 20
9.8504332914
 30
0.0
 10
9.4533721297
 20
9.8461959459
 30
0.0
  0
SPLINE
  5
3A9
100
AcDbEntity
  8
0
100
AcDbSpline
 62
7
  6
CONTINUOUS
 70
0
 71
3
 72
39
 73
35
 74
0
 42
0.0000001
 43
0.0000001
 44
0.0000000001
 40
0.0
 40
0.0
 40
0.0
 40
0.0
 40
0.0250263671
 40
0.0508366459
 40
0.0774364994
 40
0.1048019165
 40
0.1328871862
 40
0.1616332717
 40
0.1909745296
 40
0.2208439846
 40
0.251177133
 40
0.2819144279
 40
0.3130028293
 40
0.3443966031
 40
0.3760574926
 40
0.4079544277
 40
0.4400627508
 40
0.4723631127
 40
0.5048400655
 40
0.5374806388
 40
0.5702728181
 40
0.6032043269
 40
0.6362614158
 40
0.6694278678
 40
0.7026841287
 40
0.7360064408
 40
0.7693660217
 40
0.8027282443
 40
0.8360516365
 40
0.8692865947
 40
0.9023744899
 40
0.9352452896
 40
0.9678190537
 40
1.0
 40
1.0
 40
1.0
 40
1.0
 10
9.3066636771
 20
9.2534059017
 30
0.0
 10
9.3060017217
 20
9.249622582
 30
0.0
 10
9.3042483072
 20
9.2420039763
 30
0.0
 10
9.3004578073
 20
9.2307228485
 30
0.0
 10
9.2955027363
 20
9.2195091339
 30
0.0
 10
9.2894257463
 20
9.2084631622
 30
0.0
 10
9.2822735539
 20
9.1976842899
 30
0.0
 10
9.2740961854
 20
9.1872731547
 30
0.0
 10
9.264945941
 20
9.1773306104
 30
0.0
 10
9.2548773199
 20
9.1679578748
 30
0.0
 10
9.2439476404
 20
9.1592563072
 30
0.0
 10
9.2322183691
 20
9.1513268234
 30
0.0
 10
9.2197569305
 20
9.1442684761
 30
0.0
 10
9.2066386102
 20
9.1381759531
 30
0.0
 10
9.1929480308
 20
9.1331358902
 30
0.0
 10
9.1787795867
 20
9.1292222775
 30
0.0
 10
9.1642363281
 20
9.1264915903
 30
0.0
 10
9.1494271108
 20
9.1249786731
 30
0.0
 10
9.134462328
 20
9.1246943759
 30
0.0
 10
9.1194490631
 20
9.1256256739
 30
0.0
 10
9.1044866764
 20
9.1277382285
 30
0.0
 10
9.0896637246
 20
9.1309808083
 30
0.0
 10
9.0750565861
 20
9.1352904824
 30
0.0
 10
9.0607297324
 20
9.140597667
 30
0.0
 10
9.0467372094
 20
9.146830287
 30
0.0
 10
9.0331248231
 20
9.1539167781
 30
0.0
 10
9.0199325802
 20
9.1617879033
 30
0.0
 10
9.0071970828
 20
9.1703775556
 30
0.0
 10
8.9949537998
 20
9.1796228005
 30
0.0
 10
8.9832389612
 20
9.1894632687
 30
0.0
 10
8.9720914362
 20
9.199840036
 30
0.0
 10
8.9615535069
 20
9.2106944471
 30
0.0
 10
8.9516732013
 20
9.2219657846
 30
0.0
 10
8.9455149903
 20
9.2297726303
 30
0.0
 10
8.9425620256
 20
9.2337313928
 30
0.0
  0
SPLINE
  5
3AA
100
AcDbEntity
  8
0
100
AcDbSpline
 62
7
  6
CONTINUOUS
 70
0
 71
3
 72
15
 73
11
 74
0
 42
0.0000001
 43
0.0000001
 44
0.0000000001
 40
0.0
 40
0.0
 40
0.0
 40
0.0
 40
0.1117749245
 40
0.2278125746
 40
0.3479566014
 40
0.4719655169
 40
0.5995347861
 40
0.7303131725
 40
0.8639334439
 40
1.0
 40
1.0
 40
1.0
 40
1.0
 10
8.9043347241
 20
8.7049614248
 30
0.0
 10
8.9049154099
 20
8.7082803081
 30
0.0
 10
8.9063757991
 20
8.714998573
 30
0.0
 10
8.90935062
 20
8.7250649018
 30
0.0
 10
8.9131215352
 20
8.7352545966
 30
0.0
 10
8.9176524661
 20
8.7455097834
 30
0.0
 10
8.9229031073
 20
8.7557763284
 30
0.0
 10
8.9288298646
 20
8.7660035215
 30
0.0
 10
8.935387012
 20
8.7761439194
 30
0.0
 10
8.9401096724
 20
8.7827645757
 30
0.0
 10
8.9425620256
 20
8.7860522153
 30
0.0
  0
SPLINE
  5
3AB
100
AcDbEntity
  8
0
100
AcDbSpline
 62
7
  6
CONTINUOUS
 70
0
 71
3
 72
11
 73
7
 74
0
 42
0.0000001
 43
0.0000001
 44
0.0000000001
 40
0.0
 40
0.0
 40
0.0
 40
0.0
 40
0.1978699166
 40
0.4314070708
 40
0.6998728862
 40
1.0
 40
1.0
 40
1.0
 40
1.0
 10
10.135170143
 20
9.364136926
 30
0.0
 10
10.1370019246
 20
9.3643323616
 30
0.0
 10
10.141002434
 20
9.3646955086
 30
0.0
 10
10.147503571
 20
9.3651389394
 30
0.0
 10
10.15496284
 20
9.365505468
 30
0.0
 10
10.1602540622
 20
9.3656743722
 30
0.0
 10
10.1630474585
 20
9.3657412548
 30
0.0
  0
SPLINE
  5
3AC
100
AcDbEntity
  8
0
100
AcDbSpline
 62
7
  6
CONTINUOUS
 70
0
 71
3
 72
13
 73
9
 74
0
 42
0.0000001
 43
0.0000001
 44
0.0000000001
 40
0.0
 40
0.0
 40
0.0
 40
0.0
 40
0.0953093823
 40
0.1992559503
 40
0.311866644
 40
0.43314633
 40
0.7010915023
 40
1.0
 40
1.0
 40
1.0
 40
1.0
 10
10.135170143
 20
9.3843902064
 30
0.0
 10
10.1360429192
 20
9.384576008
 30
0.0
 10
10.1378733908
 20
9.3849373742
 30
0.0
 10
10.1407514282
 20
9.3854312241
 30
0.0
 10
10.1438803241
 20
9.3858961571
 30
0.0
 10
10.1485411906
 20
9.3864913434
 30
0.0
 10
10.1549545776
 20
9.387120206
 30
0.0
 10
10.1602521153
 20
9.3874578376
 30
0.0
 10
10.1630474585
 20
9.3875913841
 30
0.0
  0
SPLINE
  5
3AD
100
AcDbEntity
  8
0
100
AcDbSpline
 62
7
  6
CONTINUOUS
 70
0
 71
3
 72
14
 73
10
 74
0
 42
0.0000001
 43
0.0000001
 44
0.0000000001
 40
0.0
 40
0.0
 40
0.0
 40
0.0
 40
0.0966265863
 40
0.2014482259
 40
0.3145276324
 40
0.4359017761
 40
0.5654873826
 40
0.7030426087
 40
1.0
 40
1.0
 40
1.0
 40
1.0
 10
10.135170143
 20
9.4028974024
 30
0.0
 10
10.1360401188
 20
9.4031741307
 30
0.0
 10
10.1378661066
 20
9.4037129754
 30
0.0
 10
10.1407451114
 20
9.404451368
 30
0.0
 10
10.1438748668
 20
9.405146404
 30
0.0
 10
10.1472537608
 20
9.405791401
 30
0.0
 10
10.1508776499
 20
9.4063786985
 30
0.0
 10
10.1561598238
 20
9.4070913487
 30
0.0
 10
10.160248928
 20
9.407480735
 30
0.0
 10
10.1630474585
 20
9.4076805035
 30
0.0
  0
SPLINE
  5
3AE
100
AcDbEntity
  8
0
100
AcDbSpline
 62
7
  6
CONTINUOUS
 70
0
 71
3
 72
14
 73
10
 74
0
 42
0.0000001
 43
0.0000001
 44
0.0000000001
 40
0.0
 40
0.0
 40
0.0
 40
0.0
 40
0.0983415679
 40
0.2043126138
 40
0.318015156
 40
0.4395231894
 40
0.5687888842
 40
0.7056075869
 40
1.0
 40
1.0
 40
1.0
 40
1.0
 10
10.135170143
 20
9.419572225
 30
0.0
 10
10.1360366923
 20
9.4199377404
 30
0.0
 10
10.1378569651
 20
9.4206504203
 30
0.0
 10
10.140737019
 20
9.4216303446
 30
0.0
 10
10.1438677537
 20
9.4225526261
 30
0.0
 10
10.1472475225
 20
9.4234084216
 30
0.0
 10
10.1508722634
 20
9.4241876109
 30
0.0
 10
10.1561492572
 20
9.4251319702
 30
0.0
 10
10.1602445841
 20
9.4256496304
 30
0.0
 10
10.1630474585
 20
9.4259149484
 30
0.0
  0
SPLINE
  5
3AF
100
AcDbEntity
  8
0
100
AcDbSpline
 62
7
  6
CONTINUOUS
 70
0
 71
3
 72
14
 73
10
 74
0
 42
0.0000001
 43
0.0000001
 44
0.0000000001
 40
0.0
 40
0.0
 40
0.0
 40
0.0
 40
0.1003497971
 40
0.207680094
 40
0.3221290823
 40
0.4438073899
 40
0.572704256
 40
0.7086558025
 40
1.0
 40
1.0
 40
1.0
 40
1.0
 10
10.135170143
 20
9.4343369282
 30
0.0
 10
10.136032965
 20
9.4347886652
 30
0.0
 10
10.1378467271
 20
9.4356706055
 30
0.0
 10
10.1407277286
 20
9.4368878937
 30
0.0
 10
10.143859414
 20
9.4380334759
 30
0.0
 10
10.1472400821
 20
9.4390963846
 30
0.0
 10
10.1508657494
 20
9.4400640962
 30
0.0
 10
10.1561363174
 20
9.4412352316
 30
0.0
 10
10.1602391952
 20
9.4418797477
 30
0.0
 10
10.1630474585
 20
9.4422097013
 30
0.0
  0
SPLINE
  5
3B0
100
AcDbEntity
  8
0
100
AcDbSpline
 62
7
  6
CONTINUOUS
 70
0
 71
3
 72
39
 73
35
 74
0
 42
0.0000001
 43
0.0000001
 44
0.0000000001
 40
0.0
 40
0.0
 40
0.0
 40
0.0
 40
0.0321809101
 40
0.0647546257
 40
0.0976253979
 40
0.1307132432
 40
0.1639481561
 40
0.1972715076
 40
0.2306336858
 40
0.2639932313
 40
0.2973155009
 40
0.3305717345
 40
0.3637381595
 40
0.3967952072
 40
0.4297266873
 40
0.4625188811
 40
0.4951595281
 40
0.5276366044
 40
0.5599371243
 40
0.5920455899
 40
0.6239426442
 40
0.6556036272
 40
0.6869974735
 40
0.7180859192
 40
0.748823234
 40
0.779156379
 40
0.8090258092
 40
0.8383670135
 40
0.8671130307
 40
0.8951982318
 40
0.922563593
 40
0.9491634067
 40
0.9749736533
 40
1.0
 40
1.0
 40
1.0
 40
1.0
 10
8.9425620256
 20
8.7860522153
 30
0.0
 10
8.9455149869
 20
8.7900109733
 30
0.0
 10
8.951673189
 20
8.7978178095
 30
0.0
 10
8.9615534835
 20
8.8090891338
 30
0.0
 10
8.9720913969
 20
8.8199435334
 30
0.0
 10
8.9832389062
 20
8.8303202897
 30
0.0
 10
8.9949537254
 20
8.8401607484
 30
0.0
 10
9.0071969889
 20
8.8494059859
 30
0.0
 10
9.0199324679
 20
8.8579956323
 30
0.0
 10
9.0331246906
 20
8.8658667546
 30
0.0
 10
9.0467370573
 20
8.8729532481
 30
0.0
 10
9.0607295624
 20
8.8791858718
 30
0.0
 10
9.0750563979
 20
8.8844930631
 30
0.0
 10
9.0896635186
 20
8.8888027448
 30
0.0
 10
9.1044864589
 20
8.892045337
 30
0.0
 10
9.1194488524
 20
8.8941579079
 30
0.0
 10
9.1344621486
 20
8.895089225
 30
0.0
 10
9.1494269864
 20
8.8948049401
 30
0.0
 10
9.1642362696
 20
8.8932920267
 30
0.0
 10
9.1787795923
 20
8.8905613304
 30
0.0
 10
9.1929480887
 20
8.8866477016
 30
0.0
 10
9.2066387066
 20
8.8816076164
 30
0.0
 10
9.2197570522
 20
8.8755150712
 30
0.0
 10
9.2322185029
 20
8.8684567024
 30
0.0
 10
9.2439477748
 20
8.8605272029
 30
0.0
 10
9.2548774448
 20
8.8518256255
 30
0.0
 10
9.2649460483
 20
8.8424528895
 30
0.0
 10
9.2740962691
 20
8.8325103541
 30
0.0
 10
9.2822736122
 20
8.8220992363
 30
0.0
 10
9.2894257824
 20
8.811320385
 30
0.0
 10
9.2955027562
 20
8.8002744333
 30
0.0
 10
9.3004578162
 20
8.7890607354
 30
0.0
 10
9.3042483105
 20
8.7777796208
 30
0.0
 10
9.3060017225
 20
8.7701610229
 30
0.0
 10
9.3066636772
 20
8.7663777062
 30
0.0
  0
SPLINE
  5
3B1
100
AcDbEntity
  8
0
100
AcDbSpline
 62
7
  6
CONTINUOUS
 70
0
 71
3
 72
15
 73
11
 74
0
 42
0.0000001
 43
0.0000001
 44
0.0000000001
 40
0.0
 40
0.0
 40
0.0
 40
0.0
 40
0.1360665562
 40
0.2696868281
 40
0.4004652146
 40
0.5280344838
 40
0.6520433993
 40
0.7721874261
 40
0.8882250755
 40
1.0
 40
1.0
 40
1.0
 40
1.0
 10
8.9425620256
 20
9.2337313928
 30
0.0
 10
8.9401096724
 20
9.2370190324
 30
0.0
 10
8.935387012
 20
9.2436396888
 30
0.0
 10
8.9288298646
 20
9.2537800866
 30
0.0
 10
8.9229031073
 20
9.2640072798
 30
0.0
 10
8.917652466
 20
9.2742738247
 30
0.0
 10
8.9131215352
 20
9.2845290116
 30
0.0
 10
8.9093506199
 20
9.2947187063
 30
0.0
 10
8.9063757991
 20
9.3047850351
 30
0.0
 10
8.9049154099
 20
9.3115033
 30
0.0
 10
8.904334724
 20
9.3148221833
 30
0.0
  0
SPLINE
  5
3B2
100
AcDbEntity
  8
0
100
AcDbSpline
 62
7
  6
CONTINUOUS
 70
0
 71
3
 72
14
 73
10
 74
0
 42
0.0000001
 43
0.0000001
 44
0.0000000001
 40
0.0
 40
0.0
 40
0.0
 40
0.0
 40
0.102547039
 40
0.2113804575
 40
0.3266667022
 40
0.44854826
 40
0.5770491922
 40
0.712046616
 40
1.0
 40
1.0
 40
1.0
 40
1.0
 10
10.135170143
 20
9.4471226724
 30
0.0
 10
10.1360292047
 20
9.4476577548
 30
0.0
 10
10.1378360782
 20
9.4487036131
 30
0.0
 10
10.1407177978
 20
9.4501528916
 30
0.0
 10
10.1438502875
 20
9.4515167311
 30
0.0
 10
10.1472317784
 20
9.4527820764
 30
0.0
 10
10.1508583625
 20
9.4539340569
 30
0.0
 10
10.1561214253
 20
9.4553258928
 30
0.0
 10
10.1602328963
 20
9.4560953675
 30
0.0
 10
10.1630474585
 20
9.4564887887
 30
0.0
  0
SPLINE
  5
3B3
100
AcDbEntity
  8
0
100
AcDbSpline
 62
7
  6
CONTINUOUS
 70
0
 71
3
 72
13
 73
9
 74
0
 42
0.0000001
 43
0.0000001
 44
0.0000000001
 40
0.0
 40
0.0
 40
0.0
 40
0.0
 40
0.2151718656
 40
0.331366303
 40
0.4534920861
 40
0.5816029844
 40
0.71561444
 40
1.0
 40
1.0
 40
1.0
 40
1.0
 10
10.135170143
 20
9.4578698444
 30
0.0
 10
10.1369257113
 20
9.4591325809
 30
0.0
 10
10.1397677185
 20
9.4608907945
 30
0.0
 10
10.143840578
 20
9.4629394968
 30
0.0
 10
10.1472230042
 20
9.4644017289
 30
0.0
 10
10.1508503487
 20
9.4657328008
 30
0.0
 10
10.1561050452
 20
9.4673381901
 30
0.0
 10
10.16022584
 20
9.4682301814
 30
0.0
 10
10.1630474585
 20
9.4686856347
 30
0.0
  0
SPLINE
  5
3B4
100
AcDbEntity
  8
0
100
AcDbSpline
 62
7
  6
CONTINUOUS
 70
0
 71
3
 72
11
 73
7
 74
0
 42
0.0000001
 43
0.0000001
 44
0.0000000001
 40
0.0
 40
0.0
 40
0.0
 40
0.0
 40
0.219130316
 40
0.458570068
 40
0.7192295606
 40
1.0
 40
1.0
 40
1.0
 40
1.0
 10
10.135170143
 20
9.4665283361
 30
0.0
 10
10.1369122959
 20
9.4679435358
 30
0.0
 10
10.1407735176
 20
9.4706466411
 30
0.0
 10
10.1473145584
 20
9.4740750437
 30
0.0
 10
10.1548157591
 20
9.4769046615
 30
0.0
 10
10.1602181905
 20
9.478227602
 30
0.0
 10
10.1630474585
 20
9.4787433721
 30
0.0
  0
SPLINE
  5
3B5
100
AcDbEntity
  8
0
100
AcDbSpline
 62
7
  6
CONTINUOUS
 70
0
 71
3
 72
12
 73
8
 74
0
 42
0.0000001
 43
0.0000001
 44
0.0000000001
 40
0.0
 40
0.0
 40
0.0
 40
0.0
 40
0.2229477266
 40
0.4635435642
 40
0.5909004747
 40
0.7229267699
 40
1.0
 40
1.0
 40
1.0
 40
1.0
 10
10.135170143
 20
9.4730577774
 30
0.0
 10
10.1369001533
 20
9.4746175438
 30
0.0
 10
10.140735568
 20
9.477603307
 30
0.0
 10
10.146085323
 20
9.4807208609
 30
0.0
 10
10.1508334224
 20
9.4829066987
 30
0.0
 10
10.1560696647
 20
9.4849137397
 30
0.0
 10
10.1602101188
 20
9.4860410265
 30
0.0
 10
10.1630474585
 20
9.4866151071
 30
0.0
  0
SPLINE
  5
3B6
100
AcDbEntity
  8
0
100
AcDbSpline
 62
7
  6
CONTINUOUS
 70
0
 71
3
 72
11
 73
7
 74
0
 42
0.0000001
 43
0.0000001
 44
0.0000000001
 40
0.0
 40
0.0
 40
0.0
 40
0.0
 40
0.2266769696
 40
0.4684840578
 40
0.7264505542
 40
1.0
 40
1.0
 40
1.0
 40
1.0
 10
10.135170143
 20
9.4774277251
 30
0.0
 10
10.1368893601
 20
9.4791240005
 30
0.0
 10
10.1407006931
 20
9.482376496
 30
0.0
 10
10.1472433928
 20
9.4865557132
 30
0.0
 10
10.1547527832
 20
9.4900078205
 30
0.0
 10
10.1602017966
 20
9.4916340524
 30
0.0
 10
10.1630474585
 20
9.492264138
 30
0.0
  0
SPLINE
  5
3B7
100
AcDbEntity
  8
0
100
AcDbSpline
 62
7
  6
CONTINUOUS
 70
0
 71
3
 72
13
 73
9
 74
0
 42
0.0000001
 43
0.0000001
 44
0.0000000001
 40
0.0
 40
0.0
 40
0.0
 40
0.0
 40
0.1136021734
 40
0.2302384106
 40
0.3500675438
 40
0.4732685846
 40
0.7299321614
 40
1.0
 40
1.0
 40
1.0
 40
1.0
 10
10.135170143
 20
9.4796178046
 30
0.0
 10
10.1360142706
 20
9.4805185878
 30
0.0
 10
10.1377904094
 20
9.4822841468
 30
0.0
 10
10.1406717603
 20
9.4847724017
 30
0.0
 10
10.1438049452
 20
9.4871145165
 30
0.0
 10
10.1483768234
 20
9.4900515738
 30
0.0
 10
10.1547219628
 20
9.4932116316
 30
0.0
 10
10.160193392
 20
9.4949806446
 30
0.0
 10
10.1630474585
 20
9.4956641263
 30
0.0
  0
SPLINE
  5
3B8
100
AcDbEntity
  8
0
100
AcDbSpline
 62
7
  6
CONTINUOUS
 70
0
 71
3
 72
13
 73
9
 74
0
 42
0.0000001
 43
0.0000001
 44
0.0000000001
 40
0.0
 40
0.0
 40
0.0
 40
0.0
 40
0.2971241337
 40
0.4353104548
 40
0.5654597769
 40
0.7998072124
 40
0.9040488384
 40
1.0
 40
1.0
 40
1.0
 40
1.0
 10
10.1904104298
 20
9.3875913841
 30
0.0
 10
10.1931143463
 20
9.3874664781
 30
0.0
 10
10.197073649
 20
9.3872271317
 30
0.0
 10
10.2022064287
 20
9.3867876053
 30
0.0
 10
10.2067616792
 20
9.3863161304
 30
0.0
 10
10.2109968323
 20
9.3857586074
 30
0.0
 10
10.2149018787
 20
9.3851075872
 30
0.0
 10
10.2166934144
 20
9.384765061
 30
0.0
 10
10.2175496732
 20
9.3845892842
 30
0.0
  0
LINE
  5
3B9
100
AcDbEntity
  8
0
100
AcDbLine
 62
7
  6
CONTINUOUS
 10
10.2175496732
 20
9.3845892842
 11
10.2177216084
 21
9.3845538244
  0
SPLINE
  5
3BA
100
AcDbEntity
  8
0
100
AcDbSpline
 62
7
  6
CONTINUOUS
 70
0
 71
3
 72
11
 73
7
 74
0
 42
0.0000001
 43
0.0000001
 44
0.0000000001
 40
0.0
 40
0.0
 40
0.0
 40
0.0
 40
0.2985263779
 40
0.5674523496
 40
0.8013784397
 40
1.0
 40
1.0
 40
1.0
 40
1.0
 10
10.1904104298
 20
9.3657412548
 30
0.0
 10
10.1931226613
 20
9.3656784634
 30
0.0
 10
10.1982774389
 20
9.3655220631
 30
0.0
 10
10.2055526947
 20
9.3651823953
 30
0.0
 10
10.2119140896
 20
9.3647616205
 30
0.0
 10
10.2158301204
 20
9.3644143503
 30
0.0
 10
10.2176256052
 20
9.3642288692
 30
0.0
  0
SPLINE
  5
3BB
100
AcDbEntity
  8
0
100
AcDbSpline
 62
7
  6
CONTINUOUS
 70
0
 71
3
 72
8
 73
4
 74
0
 42
0.0000001
 43
0.0000001
 44
0.0000000001
 40
0.0
 40
0.0
 40
0.0
 40
0.0
 40
1.0
 40
1.0
 40
1.0
 40
1.0
 10
10.2176256052
 20
9.3642288692
 30
0.0
 10
10.2176576022
 20
9.3642255552
 30
0.0
 10
10.2176895993
 20
9.3642222412
 30
0.0
 10
10.2177215964
 20
9.3642189272
 30
0.0
  0
SPLINE
  5
3BC
100
AcDbEntity
  8
0
100
AcDbSpline
 62
7
  6
CONTINUOUS
 70
0
 71
3
 72
13
 73
9
 74
0
 42
0.0000001
 43
0.0000001
 44
0.0000000001
 40
0.0
 40
0.0
 40
0.0
 40
0.0
 40
0.2951371965
 40
0.4327345119
 40
0.5626219975
 40
0.7975575254
 40
0.9027083472
 40
1.0
 40
1.0
 40
1.0
 40
1.0
 10
10.1904104298
 20
9.4076805035
 30
0.0
 10
10.193110187
 20
9.40749416
 30
0.0
 10
10.1970638117
 20
9.4071370344
 30
0.0
 10
10.202181481
 20
9.4064829479
 30
0.0
 10
10.2067346509
 20
9.4057798726
 30
0.0
 10
10.2109662045
 20
9.4049483509
 30
0.0
 10
10.2148587444
 20
9.4039807172
 30
0.0
 10
10.2166443497
 20
9.4034717825
 30
0.0
 10
10.2174974246
 20
9.4032108481
 30
0.0
  0
SPLINE
  5
3BD
100
AcDbEntity
  8
0
100
AcDbSpline
 62
7
  6
CONTINUOUS
 70
0
 71
3
 72
13
 73
9
 74
0
 42
0.0000001
 43
0.0000001
 44
0.0000000001
 40
0.0
 40
0.0
 40
0.0
 40
0.0
 40
0.2926596847
 40
0.4295224699
 40
0.5590830965
 40
0.7947531089
 40
0.9010383972
 40
1.0
 40
1.0
 40
1.0
 40
1.0
 10
10.1904104298
 20
9.4259149484
 30
0.0
 10
10.1931101322
 20
9.425667849
 30
0.0
 10
10.1970638883
 20
9.4251940097
 30
0.0
 10
10.2021708872
 20
9.4243288197
 30
0.0
 10
10.2067280752
 20
9.423396319
 30
0.0
 10
10.2109597975
 20
9.4222933328
 30
0.0
 10
10.2148400422
 20
9.4210153241
 30
0.0
 10
10.2166194469
 20
9.4203434516
 30
0.0
 10
10.2174691182
 20
9.4199993394
 30
0.0
  0
SPLINE
  5
3BE
100
AcDbEntity
  8
0
100
AcDbSpline
 62
7
  6
CONTINUOUS
 70
0
 71
3
 72
11
 73
7
 74
0
 42
0.0000001
 43
0.0000001
 44
0.0000000001
 40
0.0
 40
0.0
 40
0.0
 40
0.0
 40
0.2479974986
 40
0.4981241972
 40
0.7492683314
 40
1.0
 40
1.0
 40
1.0
 40
1.0
 10
11.2009951059
 20
8.4382723298
 30
0.0
 10
11.2005140399
 20
8.4417120484
 30
0.0
 10
11.1992871418
 20
8.4485849741
 30
0.0
 10
11.1969670098
 20
8.4588198765
 30
0.0
 10
11.1944483685
 20
8.4690459256
 30
0.0
 10
11.1928201217
 20
8.4758840867
 30
0.0
 10
11.1920620105
 20
8.4793127618
 30
0.0
  0
SPLINE
  5
3BF
100
AcDbEntity
  8
0
100
AcDbSpline
 62
7
  6
CONTINUOUS
 70
0
 71
3
 72
14
 73
10
 74
0
 42
0.0000001
 43
0.0000001
 44
0.0000000001
 40
0.0
 40
0.0
 40
0.0
 40
0.0
 40
0.2897768468
 40
0.4257868761
 40
0.5549653957
 40
0.6769060902
 40
0.7915369581
 40
0.8991269912
 40
1.0
 40
1.0
 40
1.0
 40
1.0
 10
10.1904104298
 20
9.4422097013
 30
0.0
 10
10.1931139899
 20
9.4419025561
 30
0.0
 10
10.1970734336
 20
9.4413129731
 30
0.0
 10
10.2021739187
 20
9.4402402437
 30
0.0
 10
10.2056982424
 20
9.4393449954
 30
0.0
 10
10.2089872658
 20
9.4383525325
 30
0.0
 10
10.2120352338
 20
9.4372749086
 30
0.0
 10
10.214844403
 20
9.4361262465
 30
0.0
 10
10.2166176968
 20
9.435294984
 30
0.0
 10
10.2174640161
 20
9.4348696705
 30
0.0
  0
SPLINE
  5
3C0
100
AcDbEntity
  8
0
100
AcDbSpline
 62
7
  6
CONTINUOUS
 70
0
 71
3
 72
11
 73
7
 74
0
 42
0.0000001
 43
0.0000001
 44
0.0000000001
 40
0.0
 40
0.0
 40
0.0
 40
0.0
 40
0.2479974986
 40
0.4981241972
 40
0.7492683314
 40
1.0
 40
1.0
 40
1.0
 40
1.0
 10
11.2009951059
 20
9.5815112783
 30
0.0
 10
11.2005140399
 20
9.5780715597
 30
0.0
 10
11.1992871418
 20
9.571198634
 30
0.0
 10
11.1969670098
 20
9.5609637315
 30
0.0
 10
11.1944483685
 20
9.5507376825
 30
0.0
 10
11.1928201217
 20
9.5438995214
 30
0.0
 10
11.1920620105
 20
9.5404708463
 30
0.0
  0
SPLINE
  5
3C1
100
AcDbEntity
  8
0
100
AcDbSpline
 62
7
  6
CONTINUOUS
 70
0
 71
3
 72
14
 73
10
 74
0
 42
0.0000001
 43
0.0000001
 44
0.0000000001
 40
0.0
 40
0.0
 40
0.0
 40
0.0
 40
0.28327929
 40
0.4173950139
 40
0.5457553156
 40
0.6680712115
 40
0.784346322
 40
0.8948780652
 40
1.0
 40
1.0
 40
1.0
 40
1.0
 10
10.1904104298
 20
9.4686856347
 30
0.0
 10
10.1931307865
 20
9.4682610502
 30
0.0
 10
10.19711389
 20
9.4674437197
 30
0.0
 10
10.2022108928
 20
9.4659683522
 30
0.0
 10
10.2057431509
 20
9.4647331058
 30
0.0
 10
10.2090384766
 20
9.4633636999
 30
0.0
 10
10.2120910232
 20
9.4618770832
 30
0.0
 10
10.2149033887
 20
9.4602926647
 30
0.0
 10
10.2166652555
 20
9.4591544209
 30
0.0
 10
10.2175054391
 20
9.4585730454
 30
0.0
  0
SPLINE
  5
3C2
100
AcDbEntity
  8
0
100
AcDbSpline
 62
7
  6
CONTINUOUS
 70
0
 71
3
 72
14
 73
10
 74
0
 42
0.0000001
 43
0.0000001
 44
0.0000000001
 40
0.0
 40
0.0
 40
0.0
 40
0.0
 40
0.2717566477
 40
0.4026600414
 40
0.5297867397
 40
0.6529749889
 40
0.772251587
 40
0.8878387482
 40
1.0
 40
1.0
 40
1.0
 40
1.0
 10
10.1904104298
 20
8.5275194701
 30
0.0
 10
10.1930389989
 20
8.5280822367
 30
0.0
 10
10.1968885905
 20
8.5291597831
 30
0.0
 10
10.2017744328
 20
8.5310621413
 30
0.0
 10
10.2051929718
 20
8.5326609695
 30
0.0
 10
10.2083943799
 20
8.5344320757
 30
0.0
 10
10.2113721474
 20
8.5363546461
 30
0.0
 10
10.2141273246
 20
8.5384060713
 30
0.0
 10
10.2158448721
 20
8.5398667
 30
0.0
 10
10.2166663543
 20
8.5406124094
 30
0.0
  0
LINE
  5
3C3
100
AcDbEntity
  8
0
100
AcDbLine
 62
7
  6
CONTINUOUS
 10
10.2176408925
 20
8.5415203476
 11
10.2177205373
 21
8.5415966661
  0
SPLINE
  5
3C4
100
AcDbEntity
  8
0
100
AcDbSpline
 62
7
  6
CONTINUOUS
 70
0
 71
3
 72
14
 73
10
 74
0
 42
0.0000001
 43
0.0000001
 44
0.0000000001
 40
0.0
 40
0.0
 40
0.0
 40
0.0
 40
0.2866215641
 40
0.4217074182
 40
0.5504822646
 40
0.672598751
 40
0.7880249922
 40
0.8970480052
 40
1.0
 40
1.0
 40
1.0
 40
1.0
 10
10.1904104298
 20
9.4564887887
 30
0.0
 10
10.1931210882
 20
9.4561224234
 30
0.0
 10
10.1970906234
 20
9.4554182445
 30
0.0
 10
10.2021880954
 20
9.4541419012
 30
0.0
 10
10.2057153997
 20
9.4530750926
 30
0.0
 10
10.2090068178
 20
9.4518924211
 30
0.0
 10
10.212056534
 20
9.4506083502
 30
0.0
 10
10.2148669588
 20
9.4492396902
 30
0.0
 10
10.2166343453
 20
9.4482528333
 30
0.0
 10
10.2174774534
 20
9.4477483822
 30
0.0
  0
SPLINE
  5
3C5
100
AcDbEntity
  8
0
100
AcDbSpline
 62
7
  6
CONTINUOUS
 70
0
 71
3
 72
13
 73
9
 74
0
 42
0.0000001
 43
0.0000001
 44
0.0000000001
 40
0.0
 40
0.0
 40
0.0
 40
0.0
 40
0.2798757707
 40
0.4130214105
 40
0.5409841894
 40
0.6635304098
 40
0.7806955203
 40
1.0
 40
1.0
 40
1.0
 40
1.0
 10
10.1904104298
 20
9.4787433721
 30
0.0
 10
10.1931425393
 20
9.4782617872
 30
0.0
 10
10.1971418653
 20
9.4773331752
 30
0.0
 10
10.2022403454
 20
9.4756641084
 30
0.0
 10
10.2057789359
 20
9.4742642513
 30
0.0
 10
10.209079452
 20
9.4727122441
 30
0.0
 10
10.2130659055
 20
9.4705149793
 30
0.0
 10
10.2158332228
 20
9.4686321382
 30
0.0
 10
10.217544681
 20
9.4672918307
 30
0.0
  0
SPLINE
  5
3C6
100
AcDbEntity
  8
0
100
AcDbSpline
 62
7
  6
CONTINUOUS
 70
0
 71
3
 72
13
 73
9
 74
0
 42
0.0000001
 43
0.0000001
 44
0.0000000001
 40
0.0
 40
0.0
 40
0.0
 40
0.0
 40
0.2696786309
 40
0.3999743812
 40
0.5268212789
 40
0.6501128826
 40
0.7699253016
 40
1.0
 40
1.0
 40
1.0
 40
1.0
 10
10.1904104298
 20
9.4956641263
 30
0.0
 10
10.1931685952
 20
9.4950254574
 30
0.0
 10
10.1972015427
 20
9.4937890631
 30
0.0
 10
10.2022837299
 20
9.4915986957
 30
0.0
 10
10.2058292593
 20
9.4897517875
 30
0.0
 10
10.2091342563
 20
9.4877047396
 30
0.0
 10
10.2131564903
 20
9.4847844149
 30
0.0
 10
10.2158983982
 20
9.4823176252
 30
0.0
 10
10.2175802615
 20
9.4805840268
 30
0.0
  0
SPLINE
  5
3C7
100
AcDbEntity
  8
0
100
AcDbSpline
 62
7
  6
CONTINUOUS
 70
0
 71
3
 72
13
 73
9
 74
0
 42
0.0000001
 43
0.0000001
 44
0.0000000001
 40
0.0
 40
0.0
 40
0.0
 40
0.0
 40
0.2764322877
 40
0.4086024107
 40
0.5361698136
 40
0.6589508416
 40
0.7770044444
 40
1.0
 40
1.0
 40
1.0
 40
1.0
 10
10.1904104298
 20
9.4866151071
 30
0.0
 10
10.193155432
 20
9.4860780792
 30
0.0
 10
10.1971722935
 20
9.4850407649
 30
0.0
 10
10.2022729349
 20
9.4831846291
 30
0.0
 10
10.2058185161
 20
9.4816250131
 30
0.0
 10
10.2091243848
 20
9.4798959759
 30
0.0
 10
10.2131273631
 20
9.4774414886
 30
0.0
 10
10.2158878542
 20
9.4753487302
 30
0.0
 10
10.217589017
 20
9.4738664501
 30
0.0
  0
SPLINE
  5
3C8
100
AcDbEntity
  8
0
100
AcDbSpline
 62
7
  6
CONTINUOUS
 70
0
 71
3
 72
14
 73
10
 74
0
 42
0.0000001
 43
0.0000001
 44
0.0000000001
 40
0.0
 40
0.0
 40
0.0
 40
0.0
 40
0.2717567324
 40
0.4026601817
 40
0.5297869254
 40
0.6529752231
 40
0.7722519459
 40
0.8878390696
 40
1.0
 40
1.0
 40
1.0
 40
1.0
 10
10.1904104298
 20
9.492264138
 30
0.0
 10
10.1930389947
 20
9.4917013723
 30
0.0
 10
10.1968885801
 20
9.4906238279
 30
0.0
 10
10.2017744152
 20
9.4887214742
 30
0.0
 10
10.2051929497
 20
9.48712265
 30
0.0
 10
10.2083943534
 20
9.485351546
 30
0.0
 10
10.2113721205
 20
9.4834289855
 30
0.0
 10
10.2141272908
 20
9.4813775652
 30
0.0
 10
10.2158448206
 20
9.4799169274
 30
0.0
 10
10.2166662926
 20
9.4791712147
 30
0.0
  0
LINE
  5
3C9
100
AcDbEntity
  8
0
100
AcDbLine
 62
7
  6
CONTINUOUS
 10
10.2176416511
 20
9.4782624766
 11
10.2177201946
 21
9.478187211
  0
SPLINE
  5
3CA
100
AcDbEntity
  8
0
100
AcDbSpline
 62
7
  6
CONTINUOUS
 70
0
 71
3
 72
13
 73
9
 74
0
 42
0.0000001
 43
0.0000001
 44
0.0000000001
 40
0.0
 40
0.0
 40
0.0
 40
0.0
 40
0.2700678439
 40
0.5267314097
 40
0.6499324502
 40
0.769761579
 40
0.8863978202
 40
1.0
 40
1.0
 40
1.0
 40
1.0
 10
10.1630474585
 20
8.5241194817
 30
0.0
 10
10.160193392
 20
8.5248029635
 30
0.0
 10
10.1547219628
 20
8.5265719765
 30
0.0
 10
10.1483768234
 20
8.5297320343
 30
0.0
 10
10.1438049454
 20
8.5326690915
 30
0.0
 10
10.1406717605
 20
8.5350112063
 30
0.0
 10
10.1377904095
 20
8.5374994611
 30
0.0
 10
10.1360142706
 20
8.5392650203
 30
0.0
 10
10.135170143
 20
8.5401658035
 30
0.0
  0
SPLINE
  5
3CB
100
AcDbEntity
  8
0
100
AcDbSpline
 62
7
  6
CONTINUOUS
 70
0
 71
3
 72
11
 73
7
 74
0
 42
0.0000001
 43
0.0000001
 44
0.0000000001
 40
0.0
 40
0.0
 40
0.0
 40
0.0
 40
0.2735494421
 40
0.5315159382
 40
0.7733230335
 40
1.0
 40
1.0
 40
1.0
 40
1.0
 10
10.1630474585
 20
8.5275194701
 30
0.0
 10
10.1602017966
 20
8.5281495557
 30
0.0
 10
10.1547527833
 20
8.5297757876
 30
0.0
 10
10.1472433929
 20
8.5332278949
 30
0.0
 10
10.1407006931
 20
8.5374071121
 30
0.0
 10
10.1368893601
 20
8.5406596077
 30
0.0
 10
10.135170143
 20
8.542355883
 30
0.0
  0
SPLINE
  5
3CC
100
AcDbEntity
  8
0
100
AcDbSpline
 62
7
  6
CONTINUOUS
 70
0
 71
3
 72
12
 73
8
 74
0
 42
0.0000001
 43
0.0000001
 44
0.0000000001
 40
0.0
 40
0.0
 40
0.0
 40
0.0
 40
0.2770732263
 40
0.4090995249
 40
0.5364564318
 40
0.7770522765
 40
1.0
 40
1.0
 40
1.0
 40
1.0
 10
10.1630474585
 20
8.533168501
 30
0.0
 10
10.1602101188
 20
8.5337425815
 30
0.0
 10
10.1560696648
 20
8.5348698685
 30
0.0
 10
10.1508334224
 20
8.5368769093
 30
0.0
 10
10.1460853231
 20
8.5390627472
 30
0.0
 10
10.140735568
 20
8.542180301
 30
0.0
 10
10.1369001533
 20
8.5451660643
 30
0.0
 10
10.135170143
 20
8.5467258307
 30
0.0
  0
SPLINE
  5
3CD
100
AcDbEntity
  8
0
100
AcDbSpline
 62
7
  6
CONTINUOUS
 70
0
 71
3
 72
11
 73
7
 74
0
 42
0.0000001
 43
0.0000001
 44
0.0000000001
 40
0.0
 40
0.0
 40
0.0
 40
0.0
 40
0.2807704356
 40
0.541429928
 40
0.780869687
 40
1.0
 40
1.0
 40
1.0
 40
1.0
 10
10.1630474585
 20
8.541040236
 30
0.0
 10
10.1602181905
 20
8.5415560061
 30
0.0
 10
10.1548157592
 20
8.5428789466
 30
0.0
 10
10.1473145585
 20
8.5457085644
 30
0.0
 10
10.1407735176
 20
8.549136967
 30
0.0
 10
10.1369122959
 20
8.5518400723
 30
0.0
 10
10.135170143
 20
8.553255272
 30
0.0
  0
SPLINE
  5
3CE
100
AcDbEntity
  8
0
100
AcDbSpline
 62
7
  6
CONTINUOUS
 70
0
 71
3
 72
13
 73
9
 74
0
 42
0.0000001
 43
0.0000001
 44
0.0000000001
 40
0.0
 40
0.0
 40
0.0
 40
0.0
 40
0.2843855656
 40
0.4183970099
 40
0.5465079082
 40
0.6686336912
 40
0.7848281244
 40
1.0
 40
1.0
 40
1.0
 40
1.0
 10
10.1630474585
 20
8.5510979734
 30
0.0
 10
10.1602258399
 20
8.5515534267
 30
0.0
 10
10.1561050452
 20
8.552445418
 30
0.0
 10
10.1508503488
 20
8.5540508073
 30
0.0
 10
10.1472230043
 20
8.5553818791
 30
0.0
 10
10.1438405782
 20
8.5568441112
 30
0.0
 10
10.1397677186
 20
8.5588928136
 30
0.0
 10
10.1369257114
 20
8.5606510272
 30
0.0
 10
10.135170143
 20
8.5619137636
 30
0.0
  0
SPLINE
  5
3CF
100
AcDbEntity
  8
0
100
AcDbSpline
 62
7
  6
CONTINUOUS
 70
0
 71
3
 72
14
 73
10
 74
0
 42
0.0000001
 43
0.0000001
 44
0.0000000001
 40
0.0
 40
0.0
 40
0.0
 40
0.0
 40
0.2879533801
 40
0.4229508075
 40
0.551451736
 40
0.6733333007
 40
0.7886195456
 40
0.8974529616
 40
1.0
 40
1.0
 40
1.0
 40
1.0
 10
10.1630474585
 20
8.5632948194
 30
0.0
 10
10.1602328963
 20
8.5636882406
 30
0.0
 10
10.1561214253
 20
8.5644577153
 30
0.0
 10
10.1508583626
 20
8.5658495512
 30
0.0
 10
10.1472317785
 20
8.5670015317
 30
0.0
 10
10.1438502875
 20
8.568266877
 30
0.0
 10
10.1407177977
 20
8.5696307166
 30
0.0
 10
10.1378360781
 20
8.571079995
 30
0.0
 10
10.1360292047
 20
8.5721258533
 30
0.0
 10
10.135170143
 20
8.5726609357
 30
0.0
  0
SPLINE
  5
3D0
100
AcDbEntity
  8
0
100
AcDbSpline
 62
7
  6
CONTINUOUS
 70
0
 71
3
 72
14
 73
10
 74
0
 42
0.0000001
 43
0.0000001
 44
0.0000000001
 40
0.0
 40
0.0
 40
0.0
 40
0.0
 40
0.2913438303
 40
0.4272951356
 40
0.5561920732
 40
0.6778705699
 40
0.7923198657
 40
0.8996502765
 40
1.0
 40
1.0
 40
1.0
 40
1.0
 10
10.1630474585
 20
8.5775739068
 30
0.0
 10
10.1602391987
 20
8.57790386
 30
0.0
 10
10.1561363267
 20
8.5785483747
 30
0.0
 10
10.1508657638
 20
8.5797195088
 30
0.0
 10
10.1472400959
 20
8.5806872192
 30
0.0
 10
10.1438594225
 20
8.5817501291
 30
0.0
 10
10.1407277314
 20
8.5828957132
 30
0.0
 10
10.1378467267
 20
8.5841130026
 30
0.0
 10
10.1360329644
 20
8.5849949432
 30
0.0
 10
10.135170143
 20
8.5854466799
 30
0.0
  0
SPLINE
  5
3D1
100
AcDbEntity
  8
0
100
AcDbSpline
 62
7
  6
CONTINUOUS
 70
0
 71
3
 72
14
 73
10
 74
0
 42
0.0000001
 43
0.0000001
 44
0.0000000001
 40
0.0
 40
0.0
 40
0.0
 40
0.0
 40
0.2943924189
 40
0.43121111
 40
0.5604768049
 40
0.6819848382
 40
0.7956873764
 40
0.9016584263
 40
1.0
 40
1.0
 40
1.0
 40
1.0
 10
10.1630474585
 20
8.5938686597
 30
0.0
 10
10.1602445841
 20
8.5941339777
 30
0.0
 10
10.1561492572
 20
8.5946516379
 30
0.0
 10
10.1508722635
 20
8.5955959972
 30
0.0
 10
10.1472475227
 20
8.5963751865
 30
0.0
 10
10.1438677539
 20
8.597230982
 30
0.0
 10
10.1407370192
 20
8.5981532635
 30
0.0
 10
10.1378569652
 20
8.5991331878
 30
0.0
 10
10.1360366924
 20
8.5998458676
 30
0.0
 10
10.135170143
 20
8.6002113831
 30
0.0
  0
SPLINE
  5
3D2
100
AcDbEntity
  8
0
100
AcDbSpline
 62
7
  6
CONTINUOUS
 70
0
 71
3
 72
14
 73
10
 74
0
 42
0.0000001
 43
0.0000001
 44
0.0000000001
 40
0.0
 40
0.0
 40
0.0
 40
0.0
 40
0.2969573872
 40
0.4345126171
 40
0.5640982198
 40
0.6854723705
 40
0.7985517771
 40
0.9033734143
 40
1.0
 40
1.0
 40
1.0
 40
1.0
 10
10.1630474585
 20
8.6121031046
 30
0.0
 10
10.160248928
 20
8.6123028731
 30
0.0
 10
10.1561598238
 20
8.6126922594
 30
0.0
 10
10.1508776499
 20
8.6134049095
 30
0.0
 10
10.1472537608
 20
8.6139922071
 30
0.0
 10
10.1438748668
 20
8.6146372041
 30
0.0
 10
10.1407451114
 20
8.6153322401
 30
0.0
 10
10.1378661065
 20
8.6160706327
 30
0.0
 10
10.1360401188
 20
8.6166094774
 30
0.0
 10
10.135170143
 20
8.6168862056
 30
0.0
  0
SPLINE
  5
3D3
100
AcDbEntity
  8
0
100
AcDbSpline
 62
7
  6
CONTINUOUS
 70
0
 71
3
 72
13
 73
9
 74
0
 42
0.0000001
 43
0.0000001
 44
0.0000000001
 40
0.0
 40
0.0
 40
0.0
 40
0.0
 40
0.2989084936
 40
0.5668536659
 40
0.6881333589
 40
0.8007440527
 40
0.9046906182
 40
1.0
 40
1.0
 40
1.0
 40
1.0
 10
10.1630474585
 20
8.632192224
 30
0.0
 10
10.1602521153
 20
8.6323257705
 30
0.0
 10
10.1549545776
 20
8.6326634021
 30
0.0
 10
10.1485411906
 20
8.6332922647
 30
0.0
 10
10.1438803241
 20
8.633887451
 30
0.0
 10
10.1407514281
 20
8.634352384
 30
0.0
 10
10.1378733908
 20
8.6348462339
 30
0.0
 10
10.1360429192
 20
8.6352076001
 30
0.0
 10
10.135170143
 20
8.6353934017
 30
0.0
  0
SPLINE
  5
3D4
100
AcDbEntity
  8
0
100
AcDbSpline
 62
7
  6
CONTINUOUS
 70
0
 71
3
 72
11
 73
7
 74
0
 42
0.0000001
 43
0.0000001
 44
0.0000000001
 40
0.0
 40
0.0
 40
0.0
 40
0.0
 40
0.3001271096
 40
0.5685929251
 40
0.8021300863
 40
1.0
 40
1.0
 40
1.0
 40
1.0
 10
10.1630474585
 20
8.6540423533
 30
0.0
 10
10.1602540623
 20
8.6541092359
 30
0.0
 10
10.1549628401
 20
8.65427814
 30
0.0
 10
10.1475035711
 20
8.6546446687
 30
0.0
 10
10.141002434
 20
8.6550880994
 30
0.0
 10
10.1370019246
 20
8.6554512465
 30
0.0
 10
10.135170143
 20
8.6556466821
 30
0.0
  0
SPLINE
  5
3D5
100
AcDbEntity
  8
0
100
AcDbSpline
 62
7
  6
CONTINUOUS
 70
0
 71
3
 72
13
 73
9
 74
0
 42
0.0000001
 43
0.0000001
 44
0.0000000001
 40
0.0
 40
0.0
 40
0.0
 40
0.0
 40
0.2696786751
 40
0.3999750101
 40
0.526821613
 40
0.6501121283
 40
0.7699240556
 40
1.0
 40
1.0
 40
1.0
 40
1.0
 10
10.1904104298
 20
8.5241194817
 30
0.0
 10
10.1931686073
 20
8.5247581535
 30
0.0
 10
10.1972015785
 20
8.5259945549
 30
0.0
 10
10.2022837864
 20
8.5281849424
 30
0.0
 10
10.2058293229
 20
8.5300318536
 30
0.0
 10
10.2091343243
 20
8.532078891
 30
0.0
 10
10.2131565372
 20
8.5349992698
 30
0.0
 10
10.2158985027
 20
8.53746604
 30
0.0
 10
10.2175803141
 20
8.5391997211
 30
0.0
  0
SPLINE
  5
3D6
100
AcDbEntity
  8
0
100
AcDbSpline
 62
7
  6
CONTINUOUS
 70
0
 71
3
 72
14
 73
10
 74
0
 42
0.0000001
 43
0.0000001
 44
0.0000000001
 40
0.0
 40
0.0
 40
0.0
 40
0.0
 40
0.2866182369
 40
0.4217032832
 40
0.5504779908
 40
0.6725949896
 40
0.7880222987
 40
0.8970466681
 40
1.0
 40
1.0
 40
1.0
 40
1.0
 10
10.1904104298
 20
8.5632948194
 30
0.0
 10
10.1931208934
 20
8.5636611584
 30
0.0
 10
10.1970901515
 20
8.5643652762
 30
0.0
 10
10.2021872875
 20
8.5656414887
 30
0.0
 10
10.2057143888
 20
8.5667081863
 30
0.0
 10
10.2090056418
 20
8.5678907338
 30
0.0
 10
10.2120552288
 20
8.5691746693
 30
0.0
 10
10.2148655521
 20
8.5705431889
 30
0.0
 10
10.2166328822
 20
8.5715299496
 30
0.0
 10
10.2174759638
 20
8.5720343544
 30
0.0
  0
SPLINE
  5
3D7
100
AcDbEntity
  8
0
100
AcDbSpline
 62
7
  6
CONTINUOUS
 70
0
 71
3
 72
13
 73
9
 74
0
 42
0.0000001
 43
0.0000001
 44
0.0000000001
 40
0.0
 40
0.0
 40
0.0
 40
0.0
 40
0.2926528275
 40
0.4295146989
 40
0.5590750323
 40
0.7947477825
 40
0.9010368999
 40
1.0
 40
1.0
 40
1.0
 40
1.0
 10
10.1904104298
 20
8.5938686597
 30
0.0
 10
10.1931097696
 20
8.5941157259
 30
0.0
 10
10.1970630166
 20
8.5945894889
 30
0.0
 10
10.2021693845
 20
8.5954545153
 30
0.0
 10
10.2067260977
 20
8.5963868335
 30
0.0
 10
10.2109574336
 20
8.5974896024
 30
0.0
 10
10.214837367
 20
8.5987673472
 30
0.0
 10
10.2166166366
 20
8.599439122
 30
0.0
 10
10.2174662302
 20
8.5997831921
 30
0.0
  0
SPLINE
  5
3D8
100
AcDbEntity
  8
0
100
AcDbSpline
 62
7
  6
CONTINUOUS
 70
0
 71
3
 72
11
 73
7
 74
0
 42
0.0000001
 43
0.0000001
 44
0.0000000001
 40
0.0
 40
0.0
 40
0.0
 40
0.0
 40
0.2985262164
 40
0.5674521386
 40
0.8013783032
 40
1.0
 40
1.0
 40
1.0
 40
1.0
 10
10.1904104298
 20
8.6540423533
 30
0.0
 10
10.1931226552
 20
8.6541051445
 30
0.0
 10
10.1982774221
 20
8.6542615444
 30
0.0
 10
10.2055526642
 20
8.6546012112
 30
0.0
 10
10.2119140497
 20
8.6550219846
 30
0.0
 10
10.2158300758
 20
8.6553692536
 30
0.0
 10
10.2176255588
 20
8.6555547342
 30
0.0
  0
SPLINE
  5
3D9
100
AcDbEntity
  8
0
100
AcDbSpline
 62
7
  6
CONTINUOUS
 70
0
 71
3
 72
8
 73
4
 74
0
 42
0.0000001
 43
0.0000001
 44
0.0000000001
 40
0.0
 40
0.0
 40
0.0
 40
0.0
 40
1.0
 40
1.0
 40
1.0
 40
1.0
 10
10.2176255588
 20
8.6555547342
 30
0.0
 10
10.2176575694
 20
8.6555580496
 30
0.0
 10
10.2176895801
 20
8.655561365
 30
0.0
 10
10.2177215907
 20
8.6555646804
 30
0.0
  0
SPLINE
  5
3DA
100
AcDbEntity
  8
0
100
AcDbSpline
 62
7
  6
CONTINUOUS
 70
0
 71
3
 72
13
 73
9
 74
0
 42
0.0000001
 43
0.0000001
 44
0.0000000001
 40
0.0
 40
0.0
 40
0.0
 40
0.0
 40
0.2798753422
 40
0.41302081
 40
0.5409834755
 40
0.6635295991
 40
0.7806945832
 40
1.0
 40
1.0
 40
1.0
 40
1.0
 10
10.1904104298
 20
8.541040236
 30
0.0
 10
10.1931425276
 20
8.5415218188
 30
0.0
 10
10.1971418369
 20
8.5424504258
 30
0.0
 10
10.2022402972
 20
8.5441194828
 30
0.0
 10
10.2057788757
 20
8.5455193312
 30
0.0
 10
10.2090793823
 20
8.5470713272
 30
0.0
 10
10.2130658302
 20
8.5492685912
 30
0.0
 10
10.215833159
 20
8.5511514088
 30
0.0
 10
10.2175446405
 20
8.5524916918
 30
0.0
  0
SPLINE
  5
3DB
100
AcDbEntity
  8
0
100
AcDbSpline
 62
7
  6
CONTINUOUS
 70
0
 71
3
 72
14
 73
10
 74
0
 42
0.0000001
 43
0.0000001
 44
0.0000000001
 40
0.0
 40
0.0
 40
0.0
 40
0.0
 40
0.289774997
 40
0.4257848795
 40
0.5549638599
 40
0.6769056787
 40
0.791538453
 40
0.8991291751
 40
1.0
 40
1.0
 40
1.0
 40
1.0
 10
10.1904104298
 20
8.5775739068
 30
0.0
 10
10.1931138219
 20
8.5778810329
 30
0.0
 10
10.197073027
 20
8.5784705721
 30
0.0
 10
10.2021732205
 20
8.5795432056
 30
0.0
 10
10.2056973693
 20
8.5804383744
 30
0.0
 10
10.2089862527
 20
8.5814307506
 30
0.0
 10
10.2120341066
 20
8.5825082609
 30
0.0
 10
10.21484314
 20
8.5836568204
 30
0.0
 10
10.2166163165
 20
8.5844880457
 30
0.0
 10
10.2174625597
 20
8.5849133473
 30
0.0
  0
SPLINE
  5
3DC
100
AcDbEntity
  8
0
100
AcDbSpline
 62
7
  6
CONTINUOUS
 70
0
 71
3
 72
13
 73
9
 74
0
 42
0.0000001
 43
0.0000001
 44
0.0000000001
 40
0.0
 40
0.0
 40
0.0
 40
0.0
 40
0.2971137656
 40
0.4352980463
 40
0.5654476674
 40
0.7998036759
 40
0.9040493852
 40
1.0
 40
1.0
 40
1.0
 40
1.0
 10
10.1904104298
 20
8.632192224
 30
0.0
 10
10.1931138058
 20
8.632317105
 30
0.0
 10
10.1970723425
 20
8.6325563948
 30
0.0
 10
10.2022041693
 20
8.6329957932
 30
0.0
 10
10.2067587358
 20
8.6334671401
 30
0.0
 10
10.2109933199
 20
8.634024484
 30
0.0
 10
10.2148978481
 20
8.634675312
 30
0.0
 10
10.2166891242
 20
8.6350177662
 30
0.0
 10
10.2175452373
 20
8.6351935108
 30
0.0
  0
LINE
  5
3DD
100
AcDbEntity
  8
0
100
AcDbLine
 62
7
  6
CONTINUOUS
 10
10.2175452373
 20
8.6351935108
 11
10.2177174919
 21
8.6352290364
  0
SPLINE
  5
3DE
100
AcDbEntity
  8
0
100
AcDbSpline
 62
7
  6
CONTINUOUS
 70
0
 71
3
 72
13
 73
9
 74
0
 42
0.0000001
 43
0.0000001
 44
0.0000000001
 40
0.0
 40
0.0
 40
0.0
 40
0.0
 40
0.2764297301
 40
0.4085994467
 40
0.5361670635
 40
0.6589489669
 40
0.7770040367
 40
1.0
 40
1.0
 40
1.0
 40
1.0
 10
10.1904104298
 20
8.533168501
 30
0.0
 10
10.1931551389
 20
8.5337054716
 30
0.0
 10
10.1971715826
 20
8.5347426515
 30
0.0
 10
10.2022717326
 20
8.5365985062
 30
0.0
 10
10.2058170129
 20
8.5381578834
 30
0.0
 10
10.209122638
 20
8.5398866554
 30
0.0
 10
10.2131253611
 20
8.5423407322
 30
0.0
 10
10.2158856826
 20
8.5444332011
 30
0.0
 10
10.2175866797
 20
8.5459153427
 30
0.0
  0
SPLINE
  5
3DF
100
AcDbEntity
  8
0
100
AcDbSpline
 62
7
  6
CONTINUOUS
 70
0
 71
3
 72
14
 73
10
 74
0
 42
0.0000001
 43
0.0000001
 44
0.0000000001
 40
0.0
 40
0.0
 40
0.0
 40
0.0
 40
0.2832727658
 40
0.4173877709
 40
0.5457479426
 40
0.6680644698
 40
0.7843419666
 40
0.8948772446
 40
1.0
 40
1.0
 40
1.0
 40
1.0
 10
10.1904104298
 20
8.5510979734
 30
0.0
 10
10.1931302904
 20
8.5515224804
 30
0.0
 10
10.1971126937
 20
8.5523396315
 30
0.0
 10
10.2022088507
 20
8.5538146199
 30
0.0
 10
10.205740589
 20
8.5550495367
 30
0.0
 10
10.209035486
 20
8.5564185636
 30
0.0
 10
10.2120876927
 20
8.5579047862
 30
0.0
 10
10.2148997799
 20
8.5594887855
 30
0.0
 10
10.2166614456
 20
8.560626807
 30
0.0
 10
10.2175015085
 20
8.5612080848
 30
0.0
  0
SPLINE
  5
3E0
100
AcDbEntity
  8
0
100
AcDbSpline
 62
7
  6
CONTINUOUS
 70
0
 71
3
 72
13
 73
9
 74
0
 42
0.0000001
 43
0.0000001
 44
0.0000000001
 40
0.0
 40
0.0
 40
0.0
 40
0.0
 40
0.2951351393
 40
0.4327320106
 40
0.5626194983
 40
0.7975564577
 40
0.9027081235
 40
1.0
 40
1.0
 40
1.0
 40
1.0
 10
10.1904104298
 20
8.6121031046
 30
0.0
 10
10.1931100822
 20
8.6122894409
 30
0.0
 10
10.1970635583
 20
8.61264655
 30
0.0
 10
10.2021810436
 20
8.6133005997
 30
0.0
 10
10.2067340799
 20
8.6140036375
 30
0.0
 10
10.2109655245
 20
8.614835109
 30
0.0
 10
10.2148579702
 20
8.6158026871
 30
0.0
 10
10.2166435309
 20
8.6163115989
 30
0.0
 10
10.2174965813
 20
8.616572523
 30
0.0
  0
SPLINE
  5
3E1
100
AcDbEntity
  8
0
100
AcDbSpline
 62
9
  6
CONTINUOUS
 70
0
 71
3
 72
49
 73
45
 74
0
 42
0.0000001
 43
0.0000001
 44
0.0000000001
 40
0.0
 40
0.0
 40
0.0
 40
0.0
 40
0.0128549059
 40
0.025741809
 40
0.0386890529
 40
0.0517269994
 40
0.0648834095
 40
0.0781841522
 40
0.0916531049
 40
0.1053115769
 40
0.1191782295
 40
0.1332689682
 40
0.1621610384
 40
0.1920699302
 40
0.2230217202
 40
0.2550018514
 40
0.2879594231
 40
0.3218119018
 40
0.3564500225
 40
0.3917425235
 40
0.4275407677
 40
0.4636832625
 40
0.5
 40
0.5363167375
 40
0.5724592323
 40
0.6082574765
 40
0.6435499775
 40
0.6781880982
 40
0.7120405769
 40
0.7449981486
 40
0.7769782798
 40
0.8079300698
 40
0.8378389616
 40
0.8667310318
 40
0.8808217705
 40
0.8946884231
 40
0.9083468951
 40
0.9218158478
 40
0.9351165905
 40
0.9482730006
 40
0.9613109471
 40
0.974258191
 40
0.9871450941
 40
1.0
 40
1.0
 40
1.0
 40
1.0
 10
8.796016602
 20
8.1524399497
 30
0.0
 10
8.796016602
 20
8.1487964726
 30
0.0
 10
8.7962703323
 20
8.1414979277
 30
0.0
 10
8.7974102213
 20
8.1305833154
 30
0.0
 10
8.7993070937
 20
8.119721427
 30
0.0
 10
8.8019559581
 20
8.108939716
 30
0.0
 10
8.8053501719
 20
8.0982639647
 30
0.0
 10
8.8094812822
 20
8.0877201604
 30
0.0
 10
8.8143390906
 20
8.0773338033
 30
0.0
 10
8.8199114538
 20
8.0671299656
 30
0.0
 10
8.8261849087
 20
8.0571328887
 30
0.0
 10
8.8355398213
 20
8.0440042879
 30
0.0
 10
8.8489576616
 20
8.0282344143
 30
0.0
 10
8.867431855
 20
8.0106839975
 30
0.0
 10
8.8882366501
 20
7.9945064459
 30
0.0
 10
8.9111699452
 20
7.9798546399
 30
0.0
 10
8.9360121286
 20
7.9668649239
 30
0.0
 10
8.962525396
 20
7.9556591455
 30
0.0
 10
8.990456457
 20
7.9463427191
 30
0.0
 10
9.0195384722
 20
7.9390035786
 30
0.0
 10
9.0494935546
 20
7.9337110412
 30
0.0
 10
9.0800354304
 20
7.9305153148
 30
0.0
 10
9.1108721297
 20
7.929446718
 30
0.0
 10
9.141708829
 20
7.9305153148
 30
0.0
 10
9.1722507048
 20
7.9337110412
 30
0.0
 10
9.2022057871
 20
7.9390035786
 30
0.0
 10
9.2312878024
 20
7.9463427191
 30
0.0
 10
9.2592188634
 20
7.9556591455
 30
0.0
 10
9.2857321308
 20
7.9668649239
 30
0.0
 10
9.3105743141
 20
7.9798546399
 30
0.0
 10
9.3335076092
 20
7.9945064459
 30
0.0
 10
9.3543124044
 20
8.0106839975
 30
0.0
 10
9.3727865978
 20
8.0282344143
 30
0.0
 10
9.386204438
 20
8.0440042879
 30
0.0
 10
9.3955593506
 20
8.0571328887
 30
0.0
 10
9.4018328056
 20
8.0671299656
 30
0.0
 10
9.4074051687
 20
8.0773338033
 30
0.0
 10
9.4122629771
 20
8.0877201604
 30
0.0
 10
9.4163940875
 20
8.0982639647
 30
0.0
 10
9.4197883013
 20
8.108939716
 30
0.0
 10
9.4224371657
 20
8.119721427
 30
0.0
 10
9.4243340381
 20
8.1305833154
 30
0.0
 10
9.4254739271
 20
8.1414979277
 30
0.0
 10
9.4257276573
 20
8.1487964726
 30
0.0
 10
9.4257276573
 20
8.1524399497
 30
0.0
  0
SPLINE
  5
3E2
100
AcDbEntity
  8
0
100
AcDbSpline
 62
9
  6
CONTINUOUS
 70
0
 71
3
 72
17
 73
13
 74
0
 42
0.0000001
 43
0.0000001
 44
0.0000000001
 40
0.0
 40
0.0
 40
0.0
 40
0.0
 40
0.1378450979
 40
0.2711559244
 40
0.3361676572
 40
0.4001361873
 40
0.4631305288
 40
0.5252229978
 40
0.6469785504
 40
0.7661571982
 40
0.8835440401
 40
1.0
 40
1.0
 40
1.0
 40
1.0
 10
10.135170143
 20
9.3422319912
 30
0.0
 10
10.1340388757
 20
9.3413476681
 30
0.0
 10
10.1318884125
 20
9.3395090866
 30
0.0
 10
10.129461156
 20
9.3369757745
 30
0.0
 10
10.1277356675
 20
9.3348558257
 30
0.0
 10
10.1265594702
 20
9.3332372912
 30
0.0
 10
10.1254911376
 20
9.3315816425
 30
0.0
 10
10.1242199959
 20
9.3293452717
 30
0.0
 10
10.1228964623
 20
9.3264711317
 30
0.0
 10
10.12174446
 20
9.3229113926
 30
0.0
 10
10.121045834
 20
9.3192918517
 30
0.0
 10
10.1208882214
 20
9.3168532379
 30
0.0
 10
10.1208882124
 20
9.3156401481
 30
0.0
  0
SPLINE
  5
3E3
100
AcDbEntity
  8
0
100
AcDbSpline
 62
7
  6
CONTINUOUS
 70
0
 71
3
 72
13
 73
9
 74
0
 42
0.0000001
 43
0.0000001
 44
0.0000000001
 40
0.0
 40
0.0
 40
0.0
 40
0.0
 40
0.125024286
 40
0.250061372
 40
0.3750947934
 40
0.5001378858
 40
0.7500423076
 40
1.0
 40
1.0
 40
1.0
 40
1.0
 10
10.1630474585
 20
9.3657412548
 30
0.0
 10
10.1615879732
 20
9.3652291887
 30
0.0
 10
10.1587231032
 20
9.3640436247
 30
0.0
 10
10.1546317168
 20
9.3618395419
 30
0.0
 10
10.1507654682
 20
9.3592610184
 30
0.0
 10
10.1459323999
 20
9.3553905327
 30
0.0
 10
10.1405041149
 20
9.3498413109
 30
0.0
 10
10.1368363592
 20
9.3448369874
 30
0.0
 10
10.135170143
 20
9.3422319912
 30
0.0
  0
SPLINE
  5
3E4
100
AcDbEntity
  8
0
100
AcDbSpline
 62
7
  6
CONTINUOUS
 70
0
 71
3
 72
15
 73
11
 74
0
 42
0.0000001
 43
0.0000001
 44
0.0000000001
 40
0.0
 40
0.0
 40
0.0
 40
0.0
 40
0.1250676162
 40
0.2501261236
 40
0.3751545469
 40
0.5001652177
 40
0.6251534127
 40
0.7501153148
 40
0.875078099
 40
1.0
 40
1.0
 40
1.0
 40
1.0
 10
10.1904104298
 20
9.3875913841
 30
0.0
 10
10.1918275007
 20
9.3871117644
 30
0.0
 10
10.1946156085
 20
9.386010685
 30
0.0
 10
10.1986173589
 20
9.383966043
 30
0.0
 10
10.2024124458
 20
9.3815607375
 30
0.0
 10
10.2059767984
 20
9.3788274336
 30
0.0
 10
10.2092940504
 20
9.3758010447
 30
0.0
 10
10.2123590789
 20
9.3725213197
 30
0.0
 10
10.2151782295
 20
9.3690302055
 30
0.0
 10
10.2168995783
 20
9.3665836491
 30
0.0
 10
10.2177215812
 20
9.3653357614
 30
0.0
  0
SPLINE
  5
3E5
100
AcDbEntity
  8
0
100
AcDbSpline
 62
7
  6
CONTINUOUS
 70
0
 71
3
 72
15
 73
11
 74
0
 42
0.0000001
 43
0.0000001
 44
0.0000000001
 40
0.0
 40
0.0
 40
0.0
 40
0.0
 40
0.1249880904
 40
0.2499881029
 40
0.3749812867
 40
0.4999811224
 40
0.6249828899
 40
0.7499814893
 40
0.8750018934
 40
1.0
 40
1.0
 40
1.0
 40
1.0
 10
10.1904104298
 20
9.3657412548
 30
0.0
 10
10.1918276
 20
9.3652604807
 30
0.0
 10
10.1946159384
 20
9.3641567132
 30
0.0
 10
10.1986176898
 20
9.3621072529
 30
0.0
 10
10.2024127601
 20
9.359696296
 30
0.0
 10
10.2059770776
 20
9.3569565902
 30
0.0
 10
10.209294279
 20
9.3539231365
 30
0.0
 10
10.2123592513
 20
9.3506357771
 30
0.0
 10
10.21517835
 20
9.3471365408
 30
0.0
 10
10.2168995483
 20
9.3446844608
 30
0.0
 10
10.2177214916
 20
9.3434337477
 30
0.0
  0
SPLINE
  5
3E6
100
AcDbEntity
  8
0
100
AcDbSpline
 62
7
  6
CONTINUOUS
 70
0
 71
3
 72
15
 73
11
 74
0
 42
0.0000001
 43
0.0000001
 44
0.0000000001
 40
0.0
 40
0.0
 40
0.0
 40
0.0
 40
0.1253063465
 40
0.2505405442
 40
0.3756749014
 40
0.5007182456
 40
0.6256657887
 40
0.7505175153
 40
0.8753071744
 40
1.0
 40
1.0
 40
1.0
 40
1.0
 10
10.1904104298
 20
9.4076805035
 30
0.0
 10
10.191827188
 20
9.4072043458
 30
0.0
 10
10.1946145753
 20
9.4061113283
 30
0.0
 10
10.1986162794
 20
9.4040811476
 30
0.0
 10
10.202411378
 20
9.4016928067
 30
0.0
 10
10.2059758034
 20
9.3989787224
 30
0.0
 10
10.2092931814
 20
9.3959735438
 30
0.0
 10
10.2123583614
 20
9.3927167413
 30
0.0
 10
10.2151776491
 20
9.3892500065
 30
0.0
 10
10.216899435
 20
9.3868200256
 30
0.0
 10
10.2177216085
 20
9.385580615
 30
0.0
  0
SPLINE
  5
3E7
100
AcDbEntity
  8
0
100
AcDbSpline
 62
7
  6
CONTINUOUS
 70
0
 71
3
 72
9
 73
5
 74
0
 42
0.0000001
 43
0.0000001
 44
0.0000000001
 40
0.0
 40
0.0
 40
0.0
 40
0.0
 40
0.5055349672
 40
1.0
 40
1.0
 40
1.0
 40
1.0
 10
9.3066636772
 20
8.7663777062
 30
0.0
 10
9.307173204
 20
8.7634655716
 30
0.0
 10
9.3079463358
 20
8.7576610817
 30
0.0
 10
9.308213821
 20
8.7518104485
 30
0.0
 10
9.308213821
 20
8.7489188118
 30
0.0
  0
SPLINE
  5
3E8
100
AcDbEntity
  8
0
100
AcDbSpline
 62
7
  6
CONTINUOUS
 70
0
 71
3
 72
23
 73
19
 74
0
 42
0.0000001
 43
0.0000001
 44
0.0000000001
 40
0.0
 40
0.0
 40
0.0
 40
0.0
 40
0.0624992074
 40
0.1250011695
 40
0.1875047114
 40
0.2500080805
 40
0.3125097214
 40
0.3750087229
 40
0.4375051482
 40
0.5000000004
 40
0.5624948526
 40
0.6249912778
 40
0.6874902792
 40
0.74999192
 40
0.8124952891
 40
0.874998831
 40
0.9375007929
 40
1.0
 40
1.0
 40
1.0
 40
1.0
 10
11.2009951059
 20
8.5914373063
 30
0.0
 10
11.2005485959
 20
8.6033523869
 30
0.0
 10
11.1994275867
 20
8.6271746841
 30
0.0
 10
11.1972985014
 20
8.6628833024
 30
0.0
 10
11.1949598328
 20
8.6985792787
 30
0.0
 10
11.1926448512
 20
8.7342767531
 30
0.0
 10
11.1905727809
 20
8.7699887714
 30
0.0
 10
11.1889365996
 20
8.805722803
 30
0.0
 10
11.1878889401
 20
8.8414783382
 30
0.0
 10
11.1875283313
 20
8.8772470437
 30
0.0
 10
11.1878889394
 20
8.9130157492
 30
0.0
 10
11.1889365992
 20
8.9487712843
 30
0.0
 10
11.1905727808
 20
8.9845053159
 30
0.0
 10
11.1926448512
 20
9.020217334
 30
0.0
 10
11.1949598329
 20
9.0559148085
 30
0.0
 10
11.1972985014
 20
9.0916107847
 30
0.0
 10
11.1994275867
 20
9.1273194029
 30
0.0
 10
11.2005485959
 20
9.1511417
 30
0.0
 10
11.2009951059
 20
9.1630567805
 30
0.0
  0
SPLINE
  5
3E9
100
AcDbEntity
  8
0
100
AcDbSpline
 62
7
  6
CONTINUOUS
 70
0
 71
3
 72
15
 73
11
 74
0
 42
0.0000001
 43
0.0000001
 44
0.0000000001
 40
0.0
 40
0.0
 40
0.0
 40
0.0
 40
0.1257046975
 40
0.251232368
 40
0.376543985
 40
0.5016423467
 40
0.6265223726
 40
0.7511902202
 40
0.8756904801
 40
1.0
 40
1.0
 40
1.0
 40
1.0
 10
10.1904104298
 20
9.4259149484
 30
0.0
 10
10.1918266455
 20
9.4254445472
 30
0.0
 10
10.1946127886
 20
9.4243649337
 30
0.0
 10
10.1986143432
 20
9.4223588242
 30
0.0
 10
10.2024093966
 20
9.4199987281
 30
0.0
 10
10.2059738881
 20
9.4173166472
 30
0.0
 10
10.2092914317
 20
9.4143467888
 30
0.0
 10
10.2123568352
 20
9.4111281616
 30
0.0
 10
10.2151763212
 20
9.4077020156
 30
0.0
 10
10.2168988162
 20
9.4052996256
 30
0.0
 10
10.2177212622
 20
9.4040743223
 30
0.0
  0
SPLINE
  5
3EA
100
AcDbEntity
  8
0
100
AcDbSpline
 62
7
  6
CONTINUOUS
 70
0
 71
3
 72
15
 73
11
 74
0
 42
0.0000001
 43
0.0000001
 44
0.0000000001
 40
0.0
 40
0.0
 40
0.0
 40
0.0
 40
0.1249777719
 40
0.250031496
 40
0.37512733
 40
0.500218698
 40
0.6252631525
 40
0.7502362347
 40
0.8751394475
 40
1.0
 40
1.0
 40
1.0
 40
1.0
 10
11.2009951059
 20
9.1630567805
 30
0.0
 10
11.2005484598
 20
9.1717818836
 30
0.0
 10
11.1994270164
 20
9.1892259342
 30
0.0
 10
11.1972981345
 20
9.2153629983
 30
0.0
 10
11.1949598753
 20
9.2414896952
 30
0.0
 10
11.1926452549
 20
9.267617871
 30
0.0
 10
11.1905732938
 20
9.2937584516
 30
0.0
 10
11.1889369521
 20
9.3199177627
 30
0.0
 10
11.1878890331
 20
9.3460951542
 30
0.0
 10
11.1876485331
 20
9.3635556958
 30
0.0
 10
11.1876485331
 20
9.3722840294
 30
0.0
  0
SPLINE
  5
3EB
100
AcDbEntity
  8
0
100
AcDbSpline
 62
7
  6
CONTINUOUS
 70
0
 71
3
 72
15
 73
11
 74
0
 42
0.0000001
 43
0.0000001
 44
0.0000000001
 40
0.0
 40
0.0
 40
0.0
 40
0.0
 40
0.1248605525
 40
0.2497637654
 40
0.3747368476
 40
0.4997813021
 40
0.62487267
 40
0.749968504
 40
0.8750222282
 40
1.0
 40
1.0
 40
1.0
 40
1.0
 10
11.1876485331
 20
9.3722840294
 30
0.0
 10
11.1876485331
 20
9.381012363
 30
0.0
 10
11.1878890331
 20
9.3984729046
 30
0.0
 10
11.1889369521
 20
9.4246502961
 30
0.0
 10
11.1905732938
 20
9.4508096072
 30
0.0
 10
11.1926452549
 20
9.4769501878
 30
0.0
 10
11.1949598753
 20
9.5030783636
 30
0.0
 10
11.1972981345
 20
9.5292050606
 30
0.0
 10
11.1994270164
 20
9.5553421246
 30
0.0
 10
11.2005484598
 20
9.5727861752
 30
0.0
 10
11.2009951059
 20
9.5815112783
 30
0.0
  0
SPLINE
  5
3EC
100
AcDbEntity
  8
0
100
AcDbSpline
 62
7
  6
CONTINUOUS
 70
0
 71
3
 72
15
 73
11
 74
0
 42
0.0000001
 43
0.0000001
 44
0.0000000001
 40
0.0
 40
0.0
 40
0.0
 40
0.0
 40
0.1262632613
 40
0.2522030908
 40
0.3777642979
 40
0.5029408601
 40
0.6277268795
 40
0.7521368113
 40
0.8762301928
 40
1.0
 40
1.0
 40
1.0
 40
1.0
 10
10.1904104298
 20
9.4422097013
 30
0.0
 10
10.1918259092
 20
9.441747308
 30
0.0
 10
10.194610351
 20
9.4406863337
 30
0.0
 10
10.1986117232
 20
9.4387137344
 30
0.0
 10
10.2024067333
 20
9.4363929627
 30
0.0
 10
10.2059713326
 20
9.433755443
 30
0.0
 10
10.2092891209
 20
9.4308347679
 30
0.0
 10
10.2123548471
 20
9.4276692989
 30
0.0
 10
10.2151746251
 20
9.4242996765
 30
0.0
 10
10.2168981439
 20
9.4219357184
 30
0.0
 10
10.2177209879
 20
9.4207300635
 30
0.0
  0
SPLINE
  5
3ED
100
AcDbEntity
  8
0
100
AcDbSpline
 62
9
  6
CONTINUOUS
 70
0
 71
3
 72
26
 73
22
 74
0
 42
0.0000001
 43
0.0000001
 44
0.0000000001
 40
0.0
 40
0.0
 40
0.0
 40
0.0
 40
0.065386621
 40
0.1324602237
 40
0.2007765101
 40
0.2698402325
 40
0.3391266586
 40
0.4081024112
 40
0.4762461653
 40
0.5430696489
 40
0.608139027
 40
0.6710972185
 40
0.7316870305
 40
0.7897747216
 40
0.845372945
 40
0.8723050793
 40
0.8986963026
 40
0.9245962669
 40
0.9500653569
 40
0.9751738448
 40
1.0
 40
1.0
 40
1.0
 40
1.0
 10
9.0151563819
 20
8.8545763287
 30
0.0
 10
9.0217337354
 20
8.8574215468
 30
0.0
 10
9.0353634338
 20
8.8625016861
 30
0.0
 10
9.0566522156
 20
8.8681886023
 30
0.0
 10
9.0787698165
 20
8.8719726451
 30
0.0
 10
9.1013762866
 20
8.873795903
 30
0.0
 10
9.1241277344
 20
8.8736310944
 30
0.0
 10
9.1466769979
 20
8.8714807471
 30
0.0
 10
9.1686803396
 20
8.8673771553
 30
0.0
 10
9.1898024255
 20
8.8613820186
 30
0.0
 10
9.2097215812
 20
8.8535849529
 30
0.0
 10
9.2281342318
 20
8.8441021318
 30
0.0
 10
9.2447599053
 20
8.8330730175
 30
0.0
 10
9.2593415142
 20
8.8206619251
 30
0.0
 10
9.2697139089
 20
8.8091912529
 30
0.0
 10
9.2767252457
 20
8.7995179637
 30
0.0
 10
9.2812895955
 20
8.7921214797
 30
0.0
 10
9.2851957485
 20
8.7845370349
 30
0.0
 10
9.2884283683
 20
8.7767933268
 30
0.0
 10
9.2909740358
 20
8.7689212824
 30
0.0
 10
9.2922123393
 20
8.7635822242
 30
0.0
 10
9.2927114317
 20
8.7609074443
 30
0.0
  0
SPLINE
  5
3EE
100
AcDbEntity
  8
0
100
AcDbSpline
 62
7
  6
CONTINUOUS
 70
0
 71
3
 72
15
 73
11
 74
0
 42
0.0000001
 43
0.0000001
 44
0.0000000001
 40
0.0
 40
0.0
 40
0.0
 40
0.0
 40
0.1314603439
 40
0.2612707617
 40
0.3892119603
 40
0.5151759986
 40
0.6391267159
 40
0.7611345543
 40
0.8813814298
 40
1.0
 40
1.0
 40
1.0
 40
1.0
 10
10.1904104298
 20
8.5275194701
 30
0.0
 10
10.1918195643
 20
8.5279100209
 30
0.0
 10
10.1945890061
 20
8.5288041413
 30
0.0
 10
10.1985881229
 20
8.530474597
 30
0.0
 10
10.2023820305
 20
8.5324405048
 30
0.0
 10
10.2059469027
 20
8.5346756084
 30
0.0
 10
10.2092663575
 20
8.5371518885
 30
0.0
 10
10.2123347066
 20
8.5398369213
 30
0.0
 10
10.2151569809
 20
8.5426957806
 30
0.0
 10
10.2168908608
 20
8.5447120518
 30
0.0
 10
10.2177178481
 20
8.5457401302
 30
0.0
  0
SPLINE
  5
3EF
100
AcDbEntity
  8
0
100
AcDbSpline
 62
7
  6
CONTINUOUS
 70
0
 71
3
 72
15
 73
11
 74
0
 42
0.0000001
 43
0.0000001
 44
0.0000000001
 40
0.0
 40
0.0
 40
0.0
 40
0.0
 40
0.1278630878
 40
0.2549875867
 40
0.3812703301
 40
0.5066776992
 40
0.631198828
 40
0.7548695716
 40
0.8777905926
 40
1.0
 40
1.0
 40
1.0
 40
1.0
 10
10.1904104298
 20
9.4686856347
 30
0.0
 10
10.1918239122
 20
9.4682458108
 30
0.0
 10
10.1946036775
 20
9.467237323
 30
0.0
 10
10.1986045926
 20
9.465359337
 30
0.0
 10
10.2023995123
 20
9.4631496228
 30
0.0
 10
10.2059644349
 20
9.4606379818
 30
0.0
 10
10.2092829364
 20
9.4578562661
 30
0.0
 10
10.2123495998
 20
9.4548409895
 30
0.0
 10
10.215170254
 20
9.4516310813
 30
0.0
 10
10.2168968534
 20
9.4493757688
 30
0.0
 10
10.2177209154
 20
9.4482256414
 30
0.0
  0
SPLINE
  5
3F0
100
AcDbEntity
  8
0
100
AcDbSpline
 62
7
  6
CONTINUOUS
 70
0
 71
3
 72
15
 73
11
 74
0
 42
0.0000001
 43
0.0000001
 44
0.0000000001
 40
0.0
 40
0.0
 40
0.0
 40
0.0
 40
0.1269826679
 40
0.2534544515
 40
0.3793388835
 40
0.5046179665
 40
0.6292840405
 40
0.7533616271
 40
0.8769291197
 40
1.0
 40
1.0
 40
1.0
 40
1.0
 10
10.1904104298
 20
9.4564887887
 30
0.0
 10
10.1918250357
 20
9.4560365938
 30
0.0
 10
10.1946074255
 20
9.4549993412
 30
0.0
 10
10.1986086979
 20
9.4530694462
 30
0.0
 10
10.202403764
 20
9.4507987889
 30
0.0
 10
10.205968593
 20
9.4482180633
 30
0.0
 10
10.2092867703
 20
9.4453600783
 30
0.0
 10
10.2123529628
 20
9.4422623604
 30
0.0
 10
10.2151731797
 20
9.4389648021
 30
0.0
 10
10.2168981036
 20
9.4366498686
 30
0.0
 10
10.2177215078
 20
9.4354692759
 30
0.0
  0
SPLINE
  5
3F1
100
AcDbEntity
  8
0
100
AcDbSpline
 62
7
  6
CONTINUOUS
 70
0
 71
3
 72
15
 73
11
 74
0
 42
0.0000001
 43
0.0000001
 44
0.0000000001
 40
0.0
 40
0.0
 40
0.0
 40
0.0
 40
0.1289042475
 40
0.2568030059
 40
0.3835606197
 40
0.5091236819
 40
0.6334760088
 40
0.7566654383
 40
0.8788179227
 40
1.0
 40
1.0
 40
1.0
 40
1.0
 10
10.1904104298
 20
9.4787433721
 30
0.0
 10
10.191822649
 20
9.4783179912
 30
0.0
 10
10.1945994272
 20
9.4773430586
 30
0.0
 10
10.1985999662
 20
9.4755257651
 30
0.0
 10
10.202394739
 20
9.4733873217
 30
0.0
 10
10.205959785
 20
9.470956491
 30
0.0
 10
10.2092786788
 20
9.4682640058
 30
0.0
 10
10.2123459067
 20
9.4653451839
 30
0.0
 10
10.2151671013
 20
9.4622378341
 30
0.0
 10
10.216895773
 20
9.4600523205
 30
0.0
 10
10.2177206616
 20
9.4589378486
 30
0.0
  0
SPLINE
  5
3F2
100
AcDbEntity
  8
0
100
AcDbSpline
 62
7
  6
CONTINUOUS
 70
0
 71
3
 72
13
 73
9
 74
0
 42
0.0000001
 43
0.0000001
 44
0.0000000001
 40
0.0
 40
0.0
 40
0.0
 40
0.0
 40
0.2664999745
 40
0.3959107189
 40
0.5224189455
 40
0.6459556042
 40
0.7666031309
 40
1.0
 40
1.0
 40
1.0
 40
1.0
 10
10.1907253236
 20
8.5230634125
 30
0.0
 10
10.1934614782
 20
8.5237583404
 30
0.0
 10
10.1974588587
 20
8.5250949528
 30
0.0
 10
10.2024768097
 20
8.5274370174
 30
0.0
 10
10.2059834337
 20
8.5294102684
 30
0.0
 10
10.2092523704
 20
8.5315929822
 30
0.0
 10
10.2132413212
 20
8.5347097941
 30
0.0
 10
10.2159483345
 20
8.5373274774
 30
0.0
 10
10.2176070051
 20
8.5391608888
 30
0.0
  0
LINE
  5
3F3
100
AcDbEntity
  8
0
100
AcDbLine
 62
7
  6
CONTINUOUS
 10
10.2176070051
 20
8.5391608888
 11
10.217719475
 21
8.5392855857
  0
SPLINE
  5
3F4
100
AcDbEntity
  8
0
100
AcDbSpline
 62
7
  6
CONTINUOUS
 70
0
 71
3
 72
15
 73
11
 74
0
 42
0.0000001
 43
0.0000001
 44
0.0000000001
 40
0.0
 40
0.0
 40
0.0
 40
0.0
 40
0.1329672062
 40
0.2639114434
 40
0.3925616732
 40
0.5187741753
 40
0.6424962205
 40
0.7638069104
 40
0.8829185691
 40
1.0
 40
1.0
 40
1.0
 40
1.0
 10
10.1904104298
 20
9.4956641263
 30
0.0
 10
10.1918181048
 20
9.4952936832
 30
0.0
 10
10.194583898
 20
9.4944461175
 30
0.0
 10
10.1985827901
 20
9.4928606015
 30
0.0
 10
10.2023766767
 20
9.4909945156
 30
0.0
 10
10.2059418213
 20
9.4888727012
 30
0.0
 10
10.2092618952
 20
9.4865216203
 30
0.0
 10
10.2123310866
 20
9.4839719473
 30
0.0
 10
10.215154285
 20
9.4812571134
 30
0.0
 10
10.2168917475
 20
9.4793391624
 30
0.0
 10
10.2177202431
 20
9.4783612322
 30
0.0
  0
SPLINE
  5
3F5
100
AcDbEntity
  8
0
100
AcDbSpline
 62
7
  6
CONTINUOUS
 70
0
 71
3
 72
15
 73
11
 74
0
 42
0.0000001
 43
0.0000001
 44
0.0000000001
 40
0.0
 40
0.0
 40
0.0
 40
0.0
 40
0.1301047409
 40
0.2588993908
 40
0.3862096575
 40
0.5119575961
 40
0.6361188319
 40
0.7587530658
 40
0.8800140108
 40
1.0
 40
1.0
 40
1.0
 40
1.0
 10
10.1904104298
 20
9.4866151071
 30
0.0
 10
10.1918212889
 20
9.4862061537
 30
0.0
 10
10.1945947981
 20
9.4852693487
 30
0.0
 10
10.1985949964
 20
9.4835211967
 30
0.0
 10
10.2023896612
 20
9.4814639643
 30
0.0
 10
10.2059548872
 20
9.4791252393
 30
0.0
 10
10.2092742602
 20
9.4765344791
 30
0.0
 10
10.2123421589
 20
9.4737256231
 30
0.0
 10
10.2151640181
 20
9.470735216
 30
0.0
 10
10.2168952143
 20
9.4686293513
 30
0.0
 10
10.2177211301
 20
9.4675555518
 30
0.0
  0
LINE
  5
3F6
100
AcDbEntity
  8
0
100
AcDbLine
 62
7
  6
CONTINUOUS
 10
10.2178062349
 20
8.5415236403
 11
10.2177208876
 21
8.5414230545
  0
LINE
  5
3F7
100
AcDbEntity
  8
0
100
AcDbLine
 62
7
  6
CONTINUOUS
 10
10.2178590471
 20
8.5459152384
 11
10.2177178481
 21
8.5457401302
  0
SPLINE
  5
3F8
100
AcDbEntity
  8
0
100
AcDbSpline
 62
7
  6
CONTINUOUS
 70
0
 71
3
 72
22
 73
18
 74
0
 42
0.0000001
 43
0.0000001
 44
0.0000000001
 40
0.0
 40
0.0
 40
0.0
 40
0.0
 40
0.0628746579
 40
0.1253911663
 40
0.1875420598
 40
0.2493926015
 40
0.3110690493
 40
0.3727336344
 40
0.434551039
 40
0.496654327
 40
0.559118363
 40
0.6219460488
 40
0.6850688799
 40
0.7483600638
 40
0.8116568866
 40
0.8747886455
 40
1.0
 40
1.0
 40
1.0
 40
1.0
 10
11.1920620105
 20
8.4793127618
 30
0.0
 10
11.191547151
 20
8.4816412938
 30
0.0
 10
11.1905713682
 20
8.4862967461
 30
0.0
 10
11.1893375276
 20
8.493303813
 30
0.0
 10
11.1883994673
 20
8.5003182205
 30
0.0
 10
11.1878050844
 20
8.5073387593
 30
0.0
 10
11.1875852051
 20
8.5143629336
 30
0.0
 10
11.1877513173
 20
8.5213873538
 30
0.0
 10
11.1882946704
 20
8.5284085809
 30
0.0
 10
11.1891870931
 20
8.5354239445
 30
0.0
 10
11.1903829218
 20
8.5424320868
 30
0.0
 10
11.1918217559
 20
8.5494330997
 30
0.0
 10
11.1934315393
 20
8.5564283966
 30
0.0
 10
11.1951314673
 20
8.5634202027
 30
0.0
 10
11.1968349121
 20
8.5704118386
 30
0.0
 10
11.1989837899
 20
8.5797103655
 30
0.0
 10
11.2003373109
 20
8.5867339406
 30
0.0
 10
11.2009951059
 20
8.5914373063
 30
0.0
  0
SPLINE
  5
3F9
100
AcDbEntity
  8
0
100
AcDbSpline
 62
7
  6
CONTINUOUS
 70
0
 71
3
 72
15
 73
11
 74
0
 42
0.0000001
 43
0.0000001
 44
0.0000000001
 40
0.0
 40
0.0
 40
0.0
 40
0.0
 40
0.1314612104
 40
0.2612716337
 40
0.3892125091
 40
0.5151766269
 40
0.6391272664
 40
0.7611345845
 40
0.8813811634
 40
1.0
 40
1.0
 40
1.0
 40
1.0
 10
10.1904104298
 20
9.492264138
 30
0.0
 10
10.1918197004
 20
9.4918735494
 30
0.0
 10
10.1945893971
 20
9.4909793322
 30
0.0
 10
10.1985888622
 20
9.4893086803
 30
0.0
 10
10.2023830704
 20
9.4873425204
 30
0.0
 10
10.2059482004
 20
9.4851071209
 30
0.0
 10
10.2092678699
 20
9.4826305127
 30
0.0
 10
10.2123363662
 20
9.4799451059
 30
0.0
 10
10.2151587955
 20
9.4770859031
 30
0.0
 10
10.2168928142
 20
9.4750694382
 30
0.0
 10
10.2177198809
 20
9.4740412675
 30
0.0
  0
SPLINE
  5
3FA
100
AcDbEntity
  8
0
100
AcDbSpline
 62
9
  6
CONTINUOUS
 70
0
 71
3
 72
11
 73
7
 74
0
 42
0.0000001
 43
0.0000001
 44
0.0000000001
 40
0.0
 40
0.0
 40
0.0
 40
0.0
 40
0.254305658
 40
0.5067855743
 40
0.7558324708
 40
1.0
 40
1.0
 40
1.0
 40
1.0
 10
9.5148721297
 20
8.7588059575
 30
0.0
 10
9.5135801487
 20
8.7588059575
 30
0.0
 10
9.5110041644
 20
8.7589188406
 30
0.0
 10
9.5071915903
 20
8.7594117483
 30
0.0
 10
9.5034841987
 20
8.7602119185
 30
0.0
 10
9.5010854235
 20
8.7609492751
 30
0.0
 10
9.4999175036
 20
8.7613672958
 30
0.0
  0
SPLINE
  5
3FB
100
AcDbEntity
  8
0
100
AcDbSpline
 62
7
  6
CONTINUOUS
 70
0
 71
3
 72
13
 73
9
 74
0
 42
0.0000001
 43
0.0000001
 44
0.0000000001
 40
0.0
 40
0.0
 40
0.0
 40
0.0
 40
0.2648784098
 40
0.3936759831
 40
0.5198586712
 40
0.6434470338
 40
0.7645659342
 40
1.0
 40
1.0
 40
1.0
 40
1.0
 10
10.1950052747
 20
9.4954526082
 30
0.0
 10
10.1972893527
 20
9.4946769842
 30
0.0
 10
10.2006156098
 20
9.4933032847
 30
0.0
 10
10.2047922982
 20
9.4910692653
 30
0.0
 10
10.2077199796
 20
9.489243731
 30
0.0
 10
10.2104648876
 20
9.4872713057
 30
0.0
 10
10.2138473206
 20
9.4844971695
 30
0.0
 10
10.216168643
 20
9.4822126659
 30
0.0
 10
10.2176070608
 20
9.4806227455
 30
0.0
  0
SPLINE
  5
3FC
100
AcDbEntity
  8
0
100
AcDbSpline
 62
9
  6
CONTINUOUS
 70
0
 71
3
 72
21
 73
17
 74
0
 42
0.0000001
 43
0.0000001
 44
0.0000000001
 40
0.0
 40
0.0
 40
0.0
 40
0.0
 40
0.0514730618
 40
0.1034676183
 40
0.156415304
 40
0.2106868639
 40
0.2665721489
 40
0.3243026531
 40
0.3840506734
 40
0.4459337259
 40
0.5758499351
 40
0.6436423503
 40
0.7129648144
 40
0.7835604626
 40
0.8551488495
 40
1.0
 40
1.0
 40
1.0
 40
1.0
 10
9.5478721297
 20
8.7821404813
 30
0.0
 10
9.5478721297
 20
8.7813766795
 30
0.0
 10
9.5477587494
 20
8.7798392076
 30
0.0
 10
9.5472636234
 20
8.7775645984
 30
0.0
 10
9.5464574999
 20
8.7753367727
 30
0.0
 10
9.5453543474
 20
8.7731759197
 30
0.0
 10
9.5439663443
 20
8.7711006151
 30
0.0
 10
9.5423047881
 20
8.7691301827
 30
0.0
 10
9.5403811378
 20
8.7672837412
 30
0.0
 10
9.5374349751
 20
8.7649829471
 30
0.0
 10
9.5340631867
 20
8.7630703098
 30
0.0
 10
9.5304064208
 20
8.7615385341
 30
0.0
 10
9.527478531
 20
8.760565553
 30
0.0
 10
9.524433594
 20
8.7597934018
 30
0.0
 10
9.5202392205
 20
8.7590396876
 30
0.0
 10
9.5170215563
 20
8.7588059575
 30
0.0
 10
9.5148721297
 20
8.7588059575
 30
0.0
  0
SPLINE
  5
3FD
100
AcDbEntity
  8
0
100
AcDbSpline
 62
9
  6
CONTINUOUS
 70
0
 71
3
 72
26
 73
22
 74
0
 42
0.0000001
 43
0.0000001
 44
0.0000000001
 40
0.0
 40
0.0
 40
0.0
 40
0.0
 40
0.0248261807
 40
0.0499346798
 40
0.0754037606
 40
0.1013036911
 40
0.1276948524
 40
0.1546268946
 40
0.2102248441
 40
0.2683121494
 40
0.328901491
 40
0.3918591681
 40
0.4569280374
 40
0.523751073
 40
0.5918944967
 40
0.660870092
 40
0.7301565848
 40
0.7992206412
 40
0.8675375609
 40
0.9346121135
 40
1.0
 40
1.0
 40
1.0
 40
1.0
 10
9.2927114317
 20
9.2588761638
 30
0.0
 10
9.2922123596
 20
9.2562014925
 30
0.0
 10
9.2909741164
 20
9.2508626514
 30
0.0
 10
9.2884285947
 20
9.2429909197
 30
0.0
 10
9.2851961753
 20
9.2352475113
 30
0.0
 10
9.2812902756
 20
9.2276633495
 30
0.0
 10
9.2767262297
 20
9.2202671285
 30
0.0
 10
9.2697153701
 20
9.2105941668
 30
0.0
 10
9.2593436893
 20
9.1991238334
 30
0.0
 10
9.2447630687
 20
9.1867130058
 30
0.0
 10
9.2281384981
 20
9.1756840085
 30
0.0
 10
9.2097270278
 20
9.1662011424
 30
0.0
 10
9.1898090896
 20
9.1584038586
 30
0.0
 10
9.1686882156
 20
9.1524083255
 30
0.0
 10
9.1466860364
 20
9.1483041571
 30
0.0
 10
9.1241378411
 20
9.1461530574
 30
0.0
 10
9.1013873236
 20
9.1459873285
 30
0.0
 10
9.0787816039
 20
9.1478095128
 30
0.0
 10
9.0566645347
 20
9.1515923462
 30
0.0
 10
9.0353760305
 20
9.1572779405
 30
0.0
 10
9.0217463638
 20
9.1623571135
 30
0.0
 10
9.0151689697
 20
9.1652018347
 30
0.0
  0
SPLINE
  5
3FE
100
AcDbEntity
  8
0
100
AcDbSpline
 62
9
  6
CONTINUOUS
 70
0
 71
3
 72
26
 73
22
 74
0
 42
0.0000001
 43
0.0000001
 44
0.0000000001
 40
0.0
 40
0.0
 40
0.0
 40
0.0
 40
0.0624652367
 40
0.1274840165
 40
0.1945429259
 40
0.2630871987
 40
0.332527704
 40
0.4022061435
 40
0.471398871
 40
0.5394451334
 40
0.60578824
 40
0.6699459023
 40
0.7010856293
 40
0.731527781
 40
0.7612352084
 40
0.7901901054
 40
0.8184159369
 40
0.8459503749
 40
0.8991110519
 40
0.9502318626
 40
1.0
 40
1.0
 40
1.0
 40
1.0
 10
8.7799848345
 20
8.6619470714
 30
0.0
 10
8.7787928545
 20
8.6611598173
 30
0.0
 10
8.7762454238
 20
8.6597222645
 30
0.0
 10
8.7721279017
 20
8.6580141803
 30
0.0
 10
8.7677174522
 20
8.6567201014
 30
0.0
 10
8.7631000385
 20
8.6558605906
 30
0.0
 10
8.7583605962
 20
8.6554548635
 30
0.0
 10
8.75358884
 20
8.6555302719
 30
0.0
 10
8.7488827717
 20
8.6560995596
 30
0.0
 10
8.7443339013
 20
8.6571285566
 30
0.0
 10
8.7400249022
 20
8.6585855083
 30
0.0
 10
8.7366653088
 20
8.6601488222
 30
0.0
 10
8.7341784247
 20
8.6615956419
 30
0.0
 10
8.7324442191
 20
8.6627607394
 30
0.0
 10
8.7308336846
 20
8.6640119392
 30
0.0
 10
8.7293578282
 20
8.6653451408
 30
0.0
 10
8.7280217875
 20
8.666750886
 30
0.0
 10
8.726450505
 20
8.6686861477
 30
0.0
 10
8.7248352716
 20
8.67124943
 30
0.0
 10
8.7234921834
 20
8.6745252796
 30
0.0
 10
8.723026445
 20
8.6768026019
 30
0.0
 10
8.7229118032
 20
8.6779349394
 30
0.0
  0
SPLINE
  5
3FF
100
AcDbEntity
  8
0
100
AcDbSpline
 62
7
  6
CONTINUOUS
 70
0
 71
3
 72
9
 73
5
 74
0
 42
0.0000001
 43
0.0000001
 44
0.0000000001
 40
0.0
 40
0.0
 40
0.0
 40
0.0
 40
0.5099366951
 40
1.0
 40
1.0
 40
1.0
 40
1.0
 10
8.904334724
 20
9.3148221833
 30
0.0
 10
8.9037818456
 20
9.3179821347
 30
0.0
 10
8.9029381106
 20
9.3242241181
 30
0.0
 10
8.9026367738
 20
9.3305176349
 30
0.0
 10
8.9026367738
 20
9.3336005674
 30
0.0
  0
SPLINE
  5
400
100
AcDbEntity
  8
0
100
AcDbSpline
 62
7
  6
CONTINUOUS
 70
0
 71
3
 72
13
 73
9
 74
0
 42
0.0000001
 43
0.0000001
 44
0.0000000001
 40
0.0
 40
0.0
 40
0.0
 40
0.0
 40
0.1251050349
 40
0.2501999646
 40
0.3752670444
 40
0.5003195995
 40
0.7501741062
 40
1.0
 40
1.0
 40
1.0
 40
1.0
 10
10.1630474585
 20
9.3875913841
 30
0.0
 10
10.1615880944
 20
9.3870805541
 30
0.0
 10
10.158723491
 20
9.3858978946
 30
0.0
 10
10.1546321026
 20
9.3836989989
 30
0.0
 10
10.1507658315
 20
9.3811265201
 30
0.0
 10
10.1459331578
 20
9.377265439
 30
0.0
 10
10.1405050968
 20
9.3717296815
 30
0.0
 10
10.1368365988
 20
9.3667362229
 30
0.0
 10
10.135170143
 20
9.364136926
 30
0.0
  0
SPLINE
  5
401
100
AcDbEntity
  8
0
100
AcDbSpline
 62
7
  6
CONTINUOUS
 70
0
 71
3
 72
11
 73
7
 74
0
 42
0.0000001
 43
0.0000001
 44
0.0000000001
 40
0.0
 40
0.0
 40
0.0
 40
0.0
 40
0.2473963185
 40
0.4958656918
 40
0.7464053185
 40
1.0
 40
1.0
 40
1.0
 40
1.0
 10
9.3058721297
 20
8.7624044306
 30
0.0
 10
9.3058721297
 20
8.7593880426
 30
0.0
 10
9.3055908088
 20
8.7533384933
 30
0.0
 10
9.3043279852
 20
8.7443134679
 30
0.0
 10
9.302229833
 20
8.735367944
 30
0.0
 10
9.3002941282
 20
8.7295241521
 30
0.0
 10
9.2991960851
 20
8.7266337318
 30
0.0
  0
SPLINE
  5
402
100
AcDbEntity
  8
0
100
AcDbSpline
 62
7
  6
CONTINUOUS
 70
0
 71
3
 72
11
 73
7
 74
0
 42
0.0000001
 43
0.0000001
 44
0.0000000001
 40
0.0
 40
0.0
 40
0.0
 40
0.0
 40
0.2363609038
 40
0.4814117601
 40
0.7360004163
 40
1.0
 40
1.0
 40
1.0
 40
1.0
 10
10.135170143
 20
8.542355883
 30
0.0
 10
10.1368645853
 20
8.5403009264
 30
0.0
 10
10.1406141787
 20
8.5363517863
 30
0.0
 10
10.1471498189
 20
8.5311986248
 30
0.0
 10
10.1546622927
 20
8.5269339848
 30
0.0
 10
10.160176969
 20
8.5249007181
 30
0.0
 10
10.1630474585
 20
8.5241194817
 30
0.0
  0
SPLINE
  5
403
100
AcDbEntity
  8
0
100
AcDbSpline
 62
7
  6
CONTINUOUS
 70
0
 71
3
 72
13
 73
9
 74
0
 42
0.0000001
 43
0.0000001
 44
0.0000000001
 40
0.0
 40
0.0
 40
0.0
 40
0.0
 40
0.2389193654
 40
0.4847908953
 40
0.610687846
 40
0.7385546395
 40
0.8683739931
 40
1.0
 40
1.0
 40
1.0
 40
1.0
 10
10.135170143
 20
8.5467258307
 30
0.0
 10
10.1368585296
 20
8.5445693098
 30
0.0
 10
10.1405912391
 20
8.5404244353
 30
0.0
 10
10.1459956332
 20
8.535931644
 30
0.0
 10
10.1507947699
 20
8.5327961114
 30
0.0
 10
10.1546619027
 20
8.5306922276
 30
0.0
 10
10.158752562
 20
8.5288950209
 30
0.0
 10
10.1615969818
 20
8.5279352306
 30
0.0
 10
10.1630474585
 20
8.5275194701
 30
0.0
  0
SPLINE
  5
404
100
AcDbEntity
  8
0
100
AcDbSpline
 62
7
  6
CONTINUOUS
 70
0
 71
3
 72
12
 73
8
 74
0
 42
0.0000001
 43
0.0000001
 44
0.0000000001
 40
0.0
 40
0.0
 40
0.0
 40
0.0
 40
0.2413369058
 40
0.4881003876
 40
0.7409017665
 40
0.8697343193
 40
1.0
 40
1.0
 40
1.0
 40
1.0
 10
10.135170143
 20
8.553255272
 30
0.0
 10
10.136853394
 20
8.5510067574
 30
0.0
 10
10.1405726137
 20
8.5466842679
 30
0.0
 10
10.1470989403
 20
8.5410032265
 30
0.0
 10
10.153327571
 20
8.5371001523
 30
0.0
 10
10.1587465797
 20
8.5346095611
 30
0.0
 10
10.1615952302
 20
8.5336038448
 30
0.0
 10
10.1630474585
 20
8.533168501
 30
0.0
  0
SPLINE
  5
405
100
AcDbEntity
  8
0
100
AcDbSpline
 62
7
  6
CONTINUOUS
 70
0
 71
3
 72
12
 73
8
 74
0
 42
0.0000001
 43
0.0000001
 44
0.0000000001
 40
0.0
 40
0.0
 40
0.0
 40
0.0
 40
0.2434091256
 40
0.4909199658
 40
0.7430193704
 40
0.8709602
 40
1.0
 40
1.0
 40
1.0
 40
1.0
 10
10.135170143
 20
8.5619137636
 30
0.0
 10
10.1368490809
 20
8.5595831666
 30
0.0
 10
10.140555973
 20
8.5551029731
 30
0.0
 10
10.1470783756
 20
8.5491977521
 30
0.0
 10
10.1533146325
 20
8.5451325706
 30
0.0
 10
10.1587412736
 20
8.5425399606
 30
0.0
 10
10.1615936225
 20
8.5414931321
 30
0.0
 10
10.1630474585
 20
8.541040236
 30
0.0
  0
SPLINE
  5
406
100
AcDbEntity
  8
0
100
AcDbSpline
 62
7
  6
CONTINUOUS
 70
0
 71
3
 72
13
 73
9
 74
0
 42
0.0000001
 43
0.0000001
 44
0.0000000001
 40
0.0
 40
0.0
 40
0.0
 40
0.0
 40
0.2451332899
 40
0.4932382957
 40
0.6186395363
 40
0.7449079971
 40
0.8720507693
 40
1.0
 40
1.0
 40
1.0
 40
1.0
 10
10.135170143
 20
8.5726609357
 30
0.0
 10
10.1368455051
 20
8.5702584887
 30
0.0
 10
10.1405409708
 20
8.5656411518
 30
0.0
 10
10.1459601095
 20
8.5605700537
 30
0.0
 10
10.1507785541
 20
8.5570329303
 30
0.0
 10
10.1546454288
 20
8.5546690976
 30
0.0
 10
10.1587367039
 20
8.5526491617
 30
0.0
 10
10.1615921824
 20
8.5515662917
 30
0.0
 10
10.1630474585
 20
8.5510979734
 30
0.0
  0
SPLINE
  5
407
100
AcDbEntity
  8
0
100
AcDbSpline
 62
7
  6
CONTINUOUS
 70
0
 71
3
 72
13
 73
9
 74
0
 42
0.0000001
 43
0.0000001
 44
0.0000000001
 40
0.0
 40
0.0
 40
0.0
 40
0.0
 40
0.2466238322
 40
0.4952787122
 40
0.6205667408
 40
0.7464530093
 40
0.8729477767
 40
1.0
 40
1.0
 40
1.0
 40
1.0
 10
10.135170143
 20
8.5854466799
 30
0.0
 10
10.1368425944
 20
8.5829829084
 30
0.0
 10
10.1405293828
 20
8.578248215
 30
0.0
 10
10.1459515567
 20
8.5730324675
 30
0.0
 10
10.1507745572
 20
8.5693946203
 30
0.0
 10
10.1546412812
 20
8.566965824
 30
0.0
 10
10.1587326293
 20
8.564890185
 30
0.0
 10
10.1615909307
 20
8.5637763416
 30
0.0
 10
10.1630474585
 20
8.5632948194
 30
0.0
  0
SPLINE
  5
408
100
AcDbEntity
  8
0
100
AcDbSpline
 62
7
  6
CONTINUOUS
 70
0
 71
3
 72
11
 73
7
 74
0
 42
0.0000001
 43
0.0000001
 44
0.0000000001
 40
0.0
 40
0.0
 40
0.0
 40
0.0
 40
0.2473963185
 40
0.4958656918
 40
0.7464053185
 40
1.0
 40
1.0
 40
1.0
 40
1.0
 10
9.3058721297
 20
9.2573791775
 30
0.0
 10
9.3058721297
 20
9.2603955655
 30
0.0
 10
9.3055908088
 20
9.2664451148
 30
0.0
 10
9.3043279852
 20
9.2754701402
 30
0.0
 10
9.302229833
 20
9.2844156641
 30
0.0
 10
9.3002941282
 20
9.290259456
 30
0.0
 10
9.2991960851
 20
9.2931498762
 30
0.0
  0
SPLINE
  5
409
100
AcDbEntity
  8
0
100
AcDbSpline
 62
7
  6
CONTINUOUS
 70
0
 71
3
 72
13
 73
9
 74
0
 42
0.0000001
 43
0.0000001
 44
0.0000000001
 40
0.0
 40
0.0
 40
0.0
 40
0.0
 40
0.2478330651
 40
0.496938011
 40
0.6221358688
 40
0.747712455
 40
0.8736798214
 40
1.0
 40
1.0
 40
1.0
 40
1.0
 10
10.135170143
 20
8.6002113831
 30
0.0
 10
10.1368402899
 20
8.5976970698
 30
0.0
 10
10.1405201146
 20
8.5928657827
 30
0.0
 10
10.1459446123
 20
8.587530738
 30
0.0
 10
10.1507712843
 20
8.5838097359
 30
0.0
 10
10.1546378582
 20
8.5813273713
 30
0.0
 10
10.1587292411
 20
8.5792057884
 30
0.0
 10
10.1615898837
 20
8.5780663387
 30
0.0
 10
10.1630474585
 20
8.5775739068
 30
0.0
  0
SPLINE
  5
40A
100
AcDbEntity
  8
0
100
AcDbSpline
 62
7
  6
CONTINUOUS
 70
0
 71
3
 72
13
 73
9
 74
0
 42
0.0000001
 43
0.0000001
 44
0.0000000001
 40
0.0
 40
0.0
 40
0.0
 40
0.0
 40
0.2487666848
 40
0.4982215787
 40
0.6233508489
 40
0.7486886017
 40
0.8742477467
 40
1.0
 40
1.0
 40
1.0
 40
1.0
 10
10.135170143
 20
8.6168862056
 30
0.0
 10
10.1368385444
 20
8.6143323505
 30
0.0
 10
10.1405130392
 20
8.6094255694
 30
0.0
 10
10.1459392473
 20
8.6039971511
 30
0.0
 10
10.1507687388
 20
8.6002110101
 30
0.0
 10
10.1546351797
 20
8.597686722
 30
0.0
 10
10.1587265734
 20
8.5955291748
 30
0.0
 10
10.1615890555
 20
8.5943696438
 30
0.0
 10
10.1630474585
 20
8.5938686597
 30
0.0
  0
SPLINE
  5
40B
100
AcDbEntity
  8
0
100
AcDbSpline
 62
7
  6
CONTINUOUS
 70
0
 71
3
 72
13
 73
9
 74
0
 42
0.0000001
 43
0.0000001
 44
0.0000000001
 40
0.0
 40
0.0
 40
0.0
 40
0.0
 40
0.2494296895
 40
0.4991343919
 40
0.6242155071
 40
0.7493837963
 40
0.8746525014
 40
1.0
 40
1.0
 40
1.0
 40
1.0
 10
10.135170143
 20
8.6353934017
 30
0.0
 10
10.1368373223
 20
8.6328111769
 30
0.0
 10
10.1405080573
 20
8.6278502728
 30
0.0
 10
10.1459354359
 20
8.6223548456
 30
0.0
 10
10.1507669214
 20
8.618521929
 30
0.0
 10
10.1546332583
 20
8.6159675565
 30
0.0
 10
10.158724651
 20
8.6137841973
 30
0.0
 10
10.1615884566
 20
8.6126102333
 30
0.0
 10
10.1630474585
 20
8.6121031046
 30
0.0
  0
SPLINE
  5
40C
100
AcDbEntity
  8
0
100
AcDbSpline
 62
7
  6
CONTINUOUS
 70
0
 71
3
 72
13
 73
9
 74
0
 42
0.0000001
 43
0.0000001
 44
0.0000000001
 40
0.0
 40
0.0
 40
0.0
 40
0.0
 40
0.2498258971
 40
0.4996803966
 40
0.624732955
 40
0.7498000321
 40
0.8748949567
 40
1.0
 40
1.0
 40
1.0
 40
1.0
 10
10.135170143
 20
8.6556466821
 30
0.0
 10
10.1368365988
 20
8.6530473851
 30
0.0
 10
10.1405050969
 20
8.6480539266
 30
0.0
 10
10.1459331578
 20
8.6425181691
 30
0.0
 10
10.1507658314
 20
8.6386570881
 30
0.0
 10
10.1546321024
 20
8.6360846093
 30
0.0
 10
10.1587234909
 20
8.6338857136
 30
0.0
 10
10.1615880943
 20
8.6327030541
 30
0.0
 10
10.1630474585
 20
8.632192224
 30
0.0
  0
SPLINE
  5
40D
100
AcDbEntity
  8
0
100
AcDbSpline
 62
7
  6
CONTINUOUS
 70
0
 71
3
 72
13
 73
9
 74
0
 42
0.0000001
 43
0.0000001
 44
0.0000000001
 40
0.0
 40
0.0
 40
0.0
 40
0.0
 40
0.2499576957
 40
0.4998621104
 40
0.6249052061
 40
0.7499386247
 40
0.8749757055
 40
1.0
 40
1.0
 40
1.0
 40
1.0
 10
10.135170143
 20
8.6775516169
 30
0.0
 10
10.1368363592
 20
8.6749466206
 30
0.0
 10
10.1405041149
 20
8.6699422972
 30
0.0
 10
10.1459323999
 20
8.6643930754
 30
0.0
 10
10.1507654682
 20
8.6605225898
 30
0.0
 10
10.1546317167
 20
8.6579440662
 30
0.0
 10
10.1587231031
 20
8.6557399835
 30
0.0
 10
10.1615879731
 20
8.6545544195
 30
0.0
 10
10.1630474585
 20
8.6540423533
 30
0.0
  0
SPLINE
  5
40E
100
AcDbEntity
  8
0
100
AcDbSpline
 62
7
  6
CONTINUOUS
 70
0
 71
3
 72
11
 73
7
 74
0
 42
0.0000001
 43
0.0000001
 44
0.0000000001
 40
0.0
 40
0.0
 40
0.0
 40
0.0
 40
0.2545508113
 40
0.5050907246
 40
0.7530297236
 40
1.0
 40
1.0
 40
1.0
 40
1.0
 10
9.308213821
 20
8.7489188118
 30
0.0
 10
9.308213821
 20
8.7459461291
 30
0.0
 10
9.3079362615
 20
8.7400433402
 30
0.0
 10
9.3066597905
 20
8.7313281765
 30
0.0
 10
9.3045348052
 20
8.7228712169
 30
0.0
 10
9.3025615578
 20
8.7174265528
 30
0.0
 10
9.3014440818
 20
8.7147676802
 30
0.0
  0
SPLINE
  5
40F
100
AcDbEntity
  8
0
100
AcDbSpline
 62
7
  6
CONTINUOUS
 70
0
 71
3
 72
13
 73
9
 74
0
 42
0.0000001
 43
0.0000001
 44
0.0000000001
 40
0.0
 40
0.0
 40
0.0
 40
0.0
 40
0.2498258971
 40
0.4996803966
 40
0.624732955
 40
0.7498000321
 40
0.8748949567
 40
1.0
 40
1.0
 40
1.0
 40
1.0
 10
10.135170143
 20
8.701006075
 30
0.0
 10
10.1368365988
 20
8.698406778
 30
0.0
 10
10.1405050969
 20
8.6934133195
 30
0.0
 10
10.1459331578
 20
8.6878775619
 30
0.0
 10
10.1507658314
 20
8.684016481
 30
0.0
 10
10.1546321024
 20
8.6814440021
 30
0.0
 10
10.1587234909
 20
8.6792451065
 30
0.0
 10
10.1615880943
 20
8.6780624469
 30
0.0
 10
10.1630474585
 20
8.6775516169
 30
0.0
  0
SPLINE
  5
410
100
AcDbEntity
  8
0
100
AcDbSpline
 62
7
  6
CONTINUOUS
 70
0
 71
3
 72
11
 73
7
 74
0
 42
0.0000001
 43
0.0000001
 44
0.0000000001
 40
0.0
 40
0.0
 40
0.0
 40
0.0
 40
0.3001271096
 40
0.5685929251
 40
0.8021300863
 40
1.0
 40
1.0
 40
1.0
 40
1.0
 10
10.1630474585
 20
8.7026104039
 30
0.0
 10
10.1602540623
 20
8.7025435213
 30
0.0
 10
10.1549628401
 20
8.7023746171
 30
0.0
 10
10.1475035711
 20
8.7020080884
 30
0.0
 10
10.141002434
 20
8.7015646577
 30
0.0
 10
10.1370019246
 20
8.7012015107
 30
0.0
 10
10.135170143
 20
8.701006075
 30
0.0
  0
SPLINE
  5
411
100
AcDbEntity
  8
0
100
AcDbSpline
 62
7
  6
CONTINUOUS
 70
0
 71
3
 72
13
 73
9
 74
0
 42
0.0000001
 43
0.0000001
 44
0.0000000001
 40
0.0
 40
0.0
 40
0.0
 40
0.0
 40
0.2494296752
 40
0.49913439
 40
0.6242155024
 40
0.7493838045
 40
0.8746525195
 40
1.0
 40
1.0
 40
1.0
 40
1.0
 10
10.135170143
 20
8.725900701
 30
0.0
 10
10.1368373222
 20
8.7233184764
 30
0.0
 10
10.1405080571
 20
8.7183575722
 30
0.0
 10
10.1459354358
 20
8.7128621451
 30
0.0
 10
10.1507669214
 20
8.7090292282
 30
0.0
 10
10.1546332586
 20
8.7064748557
 30
0.0
 10
10.1587246512
 20
8.7042914964
 30
0.0
 10
10.1615884568
 20
8.7031175325
 30
0.0
 10
10.1630474585
 20
8.7026104039
 30
0.0
  0
SPLINE
  5
412
100
AcDbEntity
  8
0
100
AcDbSpline
 62
7
  6
CONTINUOUS
 70
0
 71
3
 72
13
 73
9
 74
0
 42
0.0000001
 43
0.0000001
 44
0.0000000001
 40
0.0
 40
0.0
 40
0.0
 40
0.0
 40
0.2989084936
 40
0.5668536659
 40
0.6881333589
 40
0.8007440527
 40
0.9046906182
 40
1.0
 40
1.0
 40
1.0
 40
1.0
 10
10.1630474585
 20
8.7291018786
 30
0.0
 10
10.1602521153
 20
8.7289683322
 30
0.0
 10
10.1549545776
 20
8.7286307006
 30
0.0
 10
10.1485411906
 20
8.728001838
 30
0.0
 10
10.1438803241
 20
8.7274066517
 30
0.0
 10
10.1407514281
 20
8.7269417187
 30
0.0
 10
10.1378733908
 20
8.7264478688
 30
0.0
 10
10.1360429192
 20
8.7260865025
 30
0.0
 10
10.135170143
 20
8.725900701
 30
0.0
  0
SPLINE
  5
413
100
AcDbEntity
  8
0
100
AcDbSpline
 62
7
  6
CONTINUOUS
 70
0
 71
3
 72
13
 73
9
 74
0
 42
0.0000001
 43
0.0000001
 44
0.0000000001
 40
0.0
 40
0.0
 40
0.0
 40
0.0
 40
0.2487666848
 40
0.4982215787
 40
0.6233508489
 40
0.7486886017
 40
0.8742477467
 40
1.0
 40
1.0
 40
1.0
 40
1.0
 10
10.135170143
 20
8.7521194246
 30
0.0
 10
10.1368385444
 20
8.7495655694
 30
0.0
 10
10.1405130392
 20
8.7446587883
 30
0.0
 10
10.1459392473
 20
8.73923037
 30
0.0
 10
10.1507687388
 20
8.735444229
 30
0.0
 10
10.1546351797
 20
8.7329199409
 30
0.0
 10
10.1587265734
 20
8.7307623937
 30
0.0
 10
10.1615890555
 20
8.7296028627
 30
0.0
 10
10.1630474585
 20
8.7291018786
 30
0.0
  0
SPLINE
  5
414
100
AcDbEntity
  8
0
100
AcDbSpline
 62
7
  6
CONTINUOUS
 70
0
 71
3
 72
14
 73
10
 74
0
 42
0.0000001
 43
0.0000001
 44
0.0000000001
 40
0.0
 40
0.0
 40
0.0
 40
0.0
 40
0.2969573872
 40
0.4345126171
 40
0.5640982198
 40
0.6854723705
 40
0.7985517771
 40
0.9033734143
 40
1.0
 40
1.0
 40
1.0
 40
1.0
 10
10.1630474585
 20
8.7569025256
 30
0.0
 10
10.160248928
 20
8.7567027571
 30
0.0
 10
10.1561598238
 20
8.7563133708
 30
0.0
 10
10.1508776499
 20
8.7556007207
 30
0.0
 10
10.1472537608
 20
8.7550134231
 30
0.0
 10
10.1438748668
 20
8.7543684261
 30
0.0
 10
10.1407451114
 20
8.7536733901
 30
0.0
 10
10.1378661065
 20
8.7529349975
 30
0.0
 10
10.1360401188
 20
8.7523961528
 30
0.0
 10
10.135170143
 20
8.7521194246
 30
0.0
  0
SPLINE
  5
415
100
AcDbEntity
  8
0
100
AcDbSpline
 62
7
  6
CONTINUOUS
 70
0
 71
3
 72
13
 73
9
 74
0
 42
0.0000001
 43
0.0000001
 44
0.0000000001
 40
0.0
 40
0.0
 40
0.0
 40
0.0
 40
0.2478330651
 40
0.496938011
 40
0.6221358688
 40
0.747712455
 40
0.8736798214
 40
1.0
 40
1.0
 40
1.0
 40
1.0
 10
10.135170143
 20
8.779540002
 30
0.0
 10
10.1368402899
 20
8.7770256886
 30
0.0
 10
10.1405201146
 20
8.7721944015
 30
0.0
 10
10.1459446123
 20
8.7668593568
 30
0.0
 10
10.1507712843
 20
8.7631383548
 30
0.0
 10
10.1546378582
 20
8.7606559902
 30
0.0
 10
10.1587292411
 20
8.7585344072
 30
0.0
 10
10.1615898837
 20
8.7573949575
 30
0.0
 10
10.1630474585
 20
8.7569025256
 30
0.0
  0
SPLINE
  5
416
100
AcDbEntity
  8
0
100
AcDbSpline
 62
7
  6
CONTINUOUS
 70
0
 71
3
 72
14
 73
10
 74
0
 42
0.0000001
 43
0.0000001
 44
0.0000000001
 40
0.0
 40
0.0
 40
0.0
 40
0.0
 40
0.2943924193
 40
0.431211109
 40
0.5604768033
 40
0.6819848376
 40
0.7956873752
 40
0.9016584254
 40
1.0
 40
1.0
 40
1.0
 40
1.0
 10
10.1630474585
 20
8.7858827254
 30
0.0
 10
10.1602445841
 20
8.7856174074
 30
0.0
 10
10.1561492572
 20
8.7850997472
 30
0.0
 10
10.1508722635
 20
8.7841553879
 30
0.0
 10
10.1472475227
 20
8.7833761986
 30
0.0
 10
10.1438677539
 20
8.7825204032
 30
0.0
 10
10.1407370192
 20
8.7815981216
 30
0.0
 10
10.1378569652
 20
8.7806181973
 30
0.0
 10
10.1360366924
 20
8.7799055175
 30
0.0
 10
10.135170143
 20
8.779540002
 30
0.0
  0
SPLINE
  5
417
100
AcDbEntity
  8
0
100
AcDbSpline
 62
7
  6
CONTINUOUS
 70
0
 71
3
 72
13
 73
9
 74
0
 42
0.0000001
 43
0.0000001
 44
0.0000000001
 40
0.0
 40
0.0
 40
0.0
 40
0.0
 40
0.2466238474
 40
0.4952787132
 40
0.6205667456
 40
0.7464530001
 40
0.8729477561
 40
1.0
 40
1.0
 40
1.0
 40
1.0
 10
10.135170143
 20
8.8080345858
 30
0.0
 10
10.1368425945
 20
8.8055708142
 30
0.0
 10
10.140529383
 20
8.8008361209
 30
0.0
 10
10.1459515569
 20
8.7956203733
 30
0.0
 10
10.1507745572
 20
8.7919825264
 30
0.0
 10
10.1546412809
 20
8.7895537301
 30
0.0
 10
10.1587326291
 20
8.7874780913
 30
0.0
 10
10.1615909305
 20
8.7863642477
 30
0.0
 10
10.1630474585
 20
8.7858827254
 30
0.0
  0
SPLINE
  5
418
100
AcDbEntity
  8
0
100
AcDbSpline
 62
7
  6
CONTINUOUS
 70
0
 71
3
 72
14
 73
10
 74
0
 42
0.0000001
 43
0.0000001
 44
0.0000000001
 40
0.0
 40
0.0
 40
0.0
 40
0.0
 40
0.2913441935
 40
0.4272957437
 40
0.5561926061
 40
0.6778709206
 40
0.7923199091
 40
0.8996502035
 40
1.0
 40
1.0
 40
1.0
 40
1.0
 10
10.1630474585
 20
8.8159073589
 30
0.0
 10
10.1602391952
 20
8.8155774053
 30
0.0
 10
10.1561363175
 20
8.8149328891
 30
0.0
 10
10.1508657495
 20
8.8137617538
 30
0.0
 10
10.1472400821
 20
8.8127940422
 30
0.0
 10
10.143859414
 20
8.8117311335
 30
0.0
 10
10.1407277285
 20
8.8105855513
 30
0.0
 10
10.137846727
 20
8.8093682631
 30
0.0
 10
10.136032965
 20
8.8084863228
 30
0.0
 10
10.135170143
 20
8.8080345858
 30
0.0
  0
SPLINE
  5
419
100
AcDbEntity
  8
0
100
AcDbSpline
 62
7
  6
CONTINUOUS
 70
0
 71
3
 72
13
 73
9
 74
0
 42
0.0000001
 43
0.0000001
 44
0.0000000001
 40
0.0
 40
0.0
 40
0.0
 40
0.0
 40
0.2451332758
 40
0.4932382938
 40
0.6186395315
 40
0.7449080055
 40
0.8720507876
 40
1.0
 40
1.0
 40
1.0
 40
1.0
 10
10.135170143
 20
8.8374703212
 30
0.0
 10
10.136845505
 20
8.8350678744
 30
0.0
 10
10.1405409707
 20
8.8304505374
 30
0.0
 10
10.1459601093
 20
8.8253794394
 30
0.0
 10
10.1507785541
 20
8.8218423157
 30
0.0
 10
10.154645429
 20
8.819478483
 30
0.0
 10
10.1587367042
 20
8.817458547
 30
0.0
 10
10.1615921827
 20
8.8163756772
 30
0.0
 10
10.1630474585
 20
8.8159073589
 30
0.0
  0
SPLINE
  5
41A
100
AcDbEntity
  8
0
100
AcDbSpline
 62
9
  6
CONTINUOUS
 70
0
 71
3
 72
13
 73
9
 74
0
 42
0.0000001
 43
0.0000001
 44
0.0000000001
 40
0.0
 40
0.0
 40
0.0
 40
0.0
 40
0.2609951731
 40
0.3907885935
 40
0.5188995853
 40
0.6445412151
 40
0.7670159211
 40
1.0
 40
1.0
 40
1.0
 40
1.0
 10
10.281336566
 20
9.326373601
 30
0.0
 10
10.2756079051
 20
9.3258797593
 30
0.0
 10
10.2669473483
 20
9.3258475333
 30
0.0
 10
10.2555883568
 20
9.3272123311
 30
0.0
 10
10.2473024814
 20
9.3289220266
 30
0.0
 10
10.2393489505
 20
9.3312979087
 30
0.0
 10
10.2295024798
 20
9.3352409334
 30
0.0
 10
10.2226517624
 20
9.3391824873
 30
0.0
 10
10.2185230584
 20
9.3422319912
 30
0.0
  0
SPLINE
  5
41B
100
AcDbEntity
  8
0
100
AcDbSpline
 62
7
  6
CONTINUOUS
 70
0
 71
3
 72
14
 73
10
 74
0
 42
0.0000001
 43
0.0000001
 44
0.0000000001
 40
0.0
 40
0.0
 40
0.0
 40
0.0
 40
0.2879533801
 40
0.4229508075
 40
0.551451736
 40
0.6733333007
 40
0.7886195456
 40
0.8974529616
 40
1.0
 40
1.0
 40
1.0
 40
1.0
 10
10.1630474585
 20
8.8468364375
 30
0.0
 10
10.1602328963
 20
8.8464430163
 30
0.0
 10
10.1561214253
 20
8.8456735415
 30
0.0
 10
10.1508583626
 20
8.8442817057
 30
0.0
 10
10.1472317785
 20
8.8431297252
 30
0.0
 10
10.1438502875
 20
8.8418643799
 30
0.0
 10
10.1407177977
 20
8.8405005403
 30
0.0
 10
10.1378360781
 20
8.8390512619
 30
0.0
 10
10.1360292047
 20
8.8380054036
 30
0.0
 10
10.135170143
 20
8.8374703212
 30
0.0
  0
SPLINE
  5
41C
100
AcDbEntity
  8
0
100
AcDbSpline
 62
7
  6
CONTINUOUS
 70
0
 71
3
 72
12
 73
8
 74
0
 42
0.0000001
 43
0.0000001
 44
0.0000000001
 40
0.0
 40
0.0
 40
0.0
 40
0.0
 40
0.2434091256
 40
0.4909199658
 40
0.7430193704
 40
0.8709602
 40
1.0
 40
1.0
 40
1.0
 40
1.0
 10
10.135170143
 20
8.8677099651
 30
0.0
 10
10.1368490809
 20
8.8653793681
 30
0.0
 10
10.140555973
 20
8.8608991746
 30
0.0
 10
10.1470783756
 20
8.8549939536
 30
0.0
 10
10.1533146325
 20
8.850928772
 30
0.0
 10
10.1587412736
 20
8.8483361621
 30
0.0
 10
10.1615936225
 20
8.8472893336
 30
0.0
 10
10.1630474585
 20
8.8468364375
 30
0.0
  0
SPLINE
  5
41D
100
AcDbEntity
  8
0
100
AcDbSpline
 62
7
  6
CONTINUOUS
 70
0
 71
3
 72
13
 73
9
 74
0
 42
0.0000001
 43
0.0000001
 44
0.0000000001
 40
0.0
 40
0.0
 40
0.0
 40
0.0
 40
0.2843855656
 40
0.4183970099
 40
0.5465079082
 40
0.6686336912
 40
0.7848281244
 40
1.0
 40
1.0
 40
1.0
 40
1.0
 10
10.1630474585
 20
8.8785257554
 30
0.0
 10
10.1602258399
 20
8.878070302
 30
0.0
 10
10.1561050452
 20
8.8771783108
 30
0.0
 10
10.1508503488
 20
8.8755729215
 30
0.0
 10
10.1472230043
 20
8.8742418496
 30
0.0
 10
10.1438405782
 20
8.8727796176
 30
0.0
 10
10.1397677186
 20
8.8707309152
 30
0.0
 10
10.1369257114
 20
8.8689727016
 30
0.0
 10
10.135170143
 20
8.8677099651
 30
0.0
  0
SPLINE
  5
41E
100
AcDbEntity
  8
0
100
AcDbSpline
 62
7
  6
CONTINUOUS
 70
0
 71
3
 72
12
 73
8
 74
0
 42
0.0000001
 43
0.0000001
 44
0.0000000001
 40
0.0
 40
0.0
 40
0.0
 40
0.0
 40
0.2413369058
 40
0.4881003876
 40
0.7409017665
 40
0.8697343193
 40
1.0
 40
1.0
 40
1.0
 40
1.0
 10
10.135170143
 20
8.8986125264
 30
0.0
 10
10.136853394
 20
8.8963640118
 30
0.0
 10
10.1405726137
 20
8.8920415223
 30
0.0
 10
10.1470989403
 20
8.8863604808
 30
0.0
 10
10.153327571
 20
8.8824574067
 30
0.0
 10
10.1587465797
 20
8.8799668155
 30
0.0
 10
10.1615952302
 20
8.8789610992
 30
0.0
 10
10.1630474585
 20
8.8785257554
 30
0.0
  0
SPLINE
  5
41F
100
AcDbEntity
  8
0
100
AcDbSpline
 62
7
  6
CONTINUOUS
 70
0
 71
3
 72
11
 73
7
 74
0
 42
0.0000001
 43
0.0000001
 44
0.0000000001
 40
0.0
 40
0.0
 40
0.0
 40
0.0
 40
0.2807704356
 40
0.541429928
 40
0.780869687
 40
1.0
 40
1.0
 40
1.0
 40
1.0
 10
10.1630474585
 20
8.9108275625
 30
0.0
 10
10.1602181905
 20
8.9103117924
 30
0.0
 10
10.1548157592
 20
8.9089888519
 30
0.0
 10
10.1473145585
 20
8.9061592341
 30
0.0
 10
10.1407735176
 20
8.9027308314
 30
0.0
 10
10.1369122959
 20
8.9000277261
 30
0.0
 10
10.135170143
 20
8.8986125264
 30
0.0
  0
SPLINE
  5
420
100
AcDbEntity
  8
0
100
AcDbSpline
 62
7
  6
CONTINUOUS
 70
0
 71
3
 72
13
 73
9
 74
0
 42
0.0000001
 43
0.0000001
 44
0.0000000001
 40
0.0
 40
0.0
 40
0.0
 40
0.0
 40
0.2389193515
 40
0.4847908935
 40
0.6106878411
 40
0.7385546481
 40
0.8683740119
 40
1.0
 40
1.0
 40
1.0
 40
1.0
 10
10.135170143
 20
8.9300339231
 30
0.0
 10
10.1368585295
 20
8.9278774023
 30
0.0
 10
10.1405912389
 20
8.9237325278
 30
0.0
 10
10.1459956331
 20
8.9192397366
 30
0.0
 10
10.1507947699
 20
8.9161042037
 30
0.0
 10
10.1546619029
 20
8.9140003199
 30
0.0
 10
10.1587525623
 20
8.9122031131
 30
0.0
 10
10.161596982
 20
8.9112433229
 30
0.0
 10
10.1630474585
 20
8.9108275625
 30
0.0
  0
SPLINE
  5
421
100
AcDbEntity
  8
0
100
AcDbSpline
 62
7
  6
CONTINUOUS
 70
0
 71
3
 72
12
 73
8
 74
0
 42
0.0000001
 43
0.0000001
 44
0.0000000001
 40
0.0
 40
0.0
 40
0.0
 40
0.0
 40
0.2770732263
 40
0.4090995249
 40
0.5364564318
 40
0.7770522765
 40
1.0
 40
1.0
 40
1.0
 40
1.0
 10
10.1630474585
 20
8.9435912528
 30
0.0
 10
10.1602101188
 20
8.9430171723
 30
0.0
 10
10.1560696648
 20
8.9418898853
 30
0.0
 10
10.1508334224
 20
8.9398828445
 30
0.0
 10
10.1460853231
 20
8.9376970066
 30
0.0
 10
10.140735568
 20
8.9345794528
 30
0.0
 10
10.1369001533
 20
8.9315936895
 30
0.0
 10
10.135170143
 20
8.9300339231
 30
0.0
  0
SPLINE
  5
422
100
AcDbEntity
  8
0
100
AcDbSpline
 62
7
  6
CONTINUOUS
 70
0
 71
3
 72
11
 73
7
 74
0
 42
0.0000001
 43
0.0000001
 44
0.0000000001
 40
0.0
 40
0.0
 40
0.0
 40
0.0
 40
0.2363609038
 40
0.4814117601
 40
0.7360004163
 40
1.0
 40
1.0
 40
1.0
 40
1.0
 10
10.135170143
 20
8.961827654
 30
0.0
 10
10.1368645853
 20
8.9597726975
 30
0.0
 10
10.1406141787
 20
8.9558235573
 30
0.0
 10
10.1471498189
 20
8.9506703959
 30
0.0
 10
10.1546622927
 20
8.9464057559
 30
0.0
 10
10.160176969
 20
8.9443724892
 30
0.0
 10
10.1630474585
 20
8.9435912528
 30
0.0
  0
SPLINE
  5
423
100
AcDbEntity
  8
0
100
AcDbSpline
 62
7
  6
CONTINUOUS
 70
0
 71
3
 72
11
 73
7
 74
0
 42
0.0000001
 43
0.0000001
 44
0.0000000001
 40
0.0
 40
0.0
 40
0.0
 40
0.0
 40
0.2735494421
 40
0.5315159382
 40
0.7733230335
 40
1.0
 40
1.0
 40
1.0
 40
1.0
 10
10.1630474585
 20
8.9766640669
 30
0.0
 10
10.1602017966
 20
8.9760339813
 30
0.0
 10
10.1547527833
 20
8.9744077495
 30
0.0
 10
10.1472433929
 20
8.9709556421
 30
0.0
 10
10.1407006931
 20
8.9667764249
 30
0.0
 10
10.1368893601
 20
8.9635239294
 30
0.0
 10
10.135170143
 20
8.961827654
 30
0.0
  0
SPLINE
  5
424
100
AcDbEntity
  8
0
100
AcDbSpline
 62
7
  6
CONTINUOUS
 70
0
 71
3
 72
11
 73
7
 74
0
 42
0.0000001
 43
0.0000001
 44
0.0000000001
 40
0.0
 40
0.0
 40
0.0
 40
0.0
 40
0.2334011949
 40
0.4774362205
 40
0.7330470902
 40
1.0
 40
1.0
 40
1.0
 40
1.0
 10
10.135170143
 20
8.9938454823
 30
0.0
 10
10.1368716688
 20
8.9919013124
 30
0.0
 10
10.1406397921
 20
8.9881666652
 30
0.0
 10
10.1471786386
 20
8.9833154457
 30
0.0
 10
10.1546911711
 20
8.979303331
 30
0.0
 10
10.1601850658
 20
8.9773980321
 30
0.0
 10
10.1630474585
 20
8.9766640669
 30
0.0
  0
SPLINE
  5
425
100
AcDbEntity
  8
0
100
AcDbSpline
 62
7
  6
CONTINUOUS
 70
0
 71
3
 72
13
 73
9
 74
0
 42
0.0000001
 43
0.0000001
 44
0.0000000001
 40
0.0
 40
0.0
 40
0.0
 40
0.0
 40
0.2700678439
 40
0.5267314097
 40
0.6499324502
 40
0.769761579
 40
0.8863978202
 40
1.0
 40
1.0
 40
1.0
 40
1.0
 10
10.1630474585
 20
9.009891804
 30
0.0
 10
10.160193392
 20
9.0092083223
 30
0.0
 10
10.1547219628
 20
9.0074393093
 30
0.0
 10
10.1483768234
 20
9.0042792515
 30
0.0
 10
10.1438049454
 20
9.0013421943
 30
0.0
 10
10.1406717605
 20
8.9990000795
 30
0.0
 10
10.1377904095
 20
8.9965118247
 30
0.0
 10
10.1360142706
 20
8.9947462655
 30
0.0
 10
10.135170143
 20
8.9938454823
 30
0.0
  0
SPLINE
  5
426
100
AcDbEntity
  8
0
100
AcDbSpline
 62
7
  6
CONTINUOUS
 70
0
 71
3
 72
13
 73
9
 74
0
 42
0.0000001
 43
0.0000001
 44
0.0000000001
 40
0.0
 40
0.0
 40
0.0
 40
0.0
 40
0.1136021804
 40
0.2302384241
 40
0.3500675527
 40
0.4732685863
 40
0.7299321524
 40
1.0
 40
1.0
 40
1.0
 40
1.0
 10
10.135170143
 20
9.0259381258
 30
0.0
 10
10.1360142706
 20
9.0250373426
 30
0.0
 10
10.1377904096
 20
9.0232717834
 30
0.0
 10
10.1406717606
 20
9.0207835285
 30
0.0
 10
10.1438049454
 20
9.0184414138
 30
0.0
 10
10.1483768234
 20
9.0155043566
 30
0.0
 10
10.1547219627
 20
9.0123442988
 30
0.0
 10
10.1601933919
 20
9.0105752858
 30
0.0
 10
10.1630474585
 20
9.009891804
 30
0.0
  0
SPLINE
  5
427
100
AcDbEntity
  8
0
100
AcDbSpline
 62
7
  6
CONTINUOUS
 70
0
 71
3
 72
11
 73
7
 74
0
 42
0.0000001
 43
0.0000001
 44
0.0000000001
 40
0.0
 40
0.0
 40
0.0
 40
0.0
 40
0.2669529062
 40
0.5225637755
 40
0.7665988083
 40
1.0
 40
1.0
 40
1.0
 40
1.0
 10
10.1630474585
 20
9.0431195412
 30
0.0
 10
10.1601850659
 20
9.042385576
 30
0.0
 10
10.1546911712
 20
9.0404802771
 30
0.0
 10
10.1471786387
 20
9.0364681625
 30
0.0
 10
10.1406397921
 20
9.0316169429
 30
0.0
 10
10.1368716688
 20
9.0278822956
 30
0.0
 10
10.135170143
 20
9.0259381258
 30
0.0
  0
SPLINE
  5
428
100
AcDbEntity
  8
0
100
AcDbSpline
 62
7
  6
CONTINUOUS
 70
0
 71
3
 72
11
 73
7
 74
0
 42
0.0000001
 43
0.0000001
 44
0.0000000001
 40
0.0
 40
0.0
 40
0.0
 40
0.0
 40
0.2266769562
 40
0.4684840561
 40
0.7264505633
 40
1.0
 40
1.0
 40
1.0
 40
1.0
 10
10.135170143
 20
9.057955954
 30
0.0
 10
10.13688936
 20
9.0562596788
 30
0.0
 10
10.140700693
 20
9.0530071833
 30
0.0
 10
10.1472433928
 20
9.048827966
 30
0.0
 10
10.1547527833
 20
9.0453758587
 30
0.0
 10
10.1602017966
 20
9.0437496268
 30
0.0
 10
10.1630474585
 20
9.0431195412
 30
0.0
  0
SPLINE
  5
429
100
AcDbEntity
  8
0
100
AcDbSpline
 62
7
  6
CONTINUOUS
 70
0
 71
3
 72
11
 73
7
 74
0
 42
0.0000001
 43
0.0000001
 44
0.0000000001
 40
0.0
 40
0.0
 40
0.0
 40
0.0
 40
0.2639995802
 40
0.518588236
 40
0.7636390993
 40
1.0
 40
1.0
 40
1.0
 40
1.0
 10
10.1630474585
 20
9.0761923553
 30
0.0
 10
10.160176969
 20
9.0754111189
 30
0.0
 10
10.1546622928
 20
9.0733778522
 30
0.0
 10
10.1471498189
 20
9.0691132123
 30
0.0
 10
10.1406141787
 20
9.0639600508
 30
0.0
 10
10.1368645853
 20
9.0600109106
 30
0.0
 10
10.135170143
 20
9.057955954
 30
0.0
  0
SPLINE
  5
42A
100
AcDbEntity
  8
0
100
AcDbSpline
 62
7
  6
CONTINUOUS
 70
0
 71
3
 72
12
 73
8
 74
0
 42
0.0000001
 43
0.0000001
 44
0.0000000001
 40
0.0
 40
0.0
 40
0.0
 40
0.0
 40
0.222947759
 40
0.463543943
 40
0.5909008913
 40
0.7229270069
 40
1.0
 40
1.0
 40
1.0
 40
1.0
 10
10.135170143
 20
9.089749685
 30
0.0
 10
10.1369001536
 20
9.0881899184
 30
0.0
 10
10.1407355715
 20
9.0852041529
 30
0.0
 10
10.1460853304
 20
9.0820865968
 30
0.0
 10
10.1508334325
 20
9.0799007599
 30
0.0
 10
10.1560696711
 20
9.0778937204
 30
0.0
 10
10.1602101212
 20
9.0767664353
 30
0.0
 10
10.1630474585
 20
9.0761923553
 30
0.0
  0
SPLINE
  5
42B
100
AcDbEntity
  8
0
100
AcDbSpline
 62
7
  6
CONTINUOUS
 70
0
 71
3
 72
13
 73
9
 74
0
 42
0.0000001
 43
0.0000001
 44
0.0000000001
 40
0.0
 40
0.0
 40
0.0
 40
0.0
 40
0.131625986
 40
0.2614453512
 40
0.3893121545
 40
0.5152090987
 40
0.7610806443
 40
1.0
 40
1.0
 40
1.0
 40
1.0
 10
10.1630474585
 20
9.1089560456
 30
0.0
 10
10.1615969821
 20
9.1085402852
 30
0.0
 10
10.1587525623
 20
9.107580495
 30
0.0
 10
10.154661903
 20
9.1057832882
 30
0.0
 10
10.15079477
 20
9.1036794044
 30
0.0
 10
10.1459956332
 20
9.1005438716
 30
0.0
 10
10.140591239
 20
9.0960510804
 30
0.0
 10
10.1368585295
 20
9.0919062059
 30
0.0
 10
10.135170143
 20
9.089749685
 30
0.0
  0
SPLINE
  5
42C
100
AcDbEntity
  8
0
100
AcDbSpline
 62
7
  6
CONTINUOUS
 70
0
 71
3
 72
11
 73
7
 74
0
 42
0.0000001
 43
0.0000001
 44
0.0000000001
 40
0.0
 40
0.0
 40
0.0
 40
0.0
 40
0.219130316
 40
0.458570068
 40
0.7192295606
 40
1.0
 40
1.0
 40
1.0
 40
1.0
 10
10.135170143
 20
9.1211710817
 30
0.0
 10
10.1369122959
 20
9.1197558819
 30
0.0
 10
10.1407735176
 20
9.1170527767
 30
0.0
 10
10.1473145584
 20
9.113624374
 30
0.0
 10
10.1548157591
 20
9.1107947562
 30
0.0
 10
10.1602181905
 20
9.1094718157
 30
0.0
 10
10.1630474585
 20
9.1089560456
 30
0.0
  0
SPLINE
  5
42D
100
AcDbEntity
  8
0
100
AcDbSpline
 62
7
  6
CONTINUOUS
 70
0
 71
3
 72
12
 73
8
 74
0
 42
0.0000001
 43
0.0000001
 44
0.0000000001
 40
0.0
 40
0.0
 40
0.0
 40
0.0
 40
0.1302656721
 40
0.2590982301
 40
0.5118996085
 40
0.7586630974
 40
1.0
 40
1.0
 40
1.0
 40
1.0
 10
10.1630474585
 20
9.1412578527
 30
0.0
 10
10.1615952303
 20
9.1408225089
 30
0.0
 10
10.1587465798
 20
9.1398167927
 30
0.0
 10
10.1533275712
 20
9.1373262015
 30
0.0
 10
10.1470989403
 20
9.1334231273
 30
0.0
 10
10.1405726136
 20
9.1277420858
 30
0.0
 10
10.136853394
 20
9.1234195962
 30
0.0
 10
10.135170143
 20
9.1211710817
 30
0.0
  0
SPLINE
  5
42E
100
AcDbEntity
  8
0
100
AcDbSpline
 62
7
  6
CONTINUOUS
 70
0
 71
3
 72
13
 73
9
 74
0
 42
0.0000001
 43
0.0000001
 44
0.0000000001
 40
0.0
 40
0.0
 40
0.0
 40
0.0
 40
0.2151718656
 40
0.331366303
 40
0.4534920861
 40
0.5816029844
 40
0.71561444
 40
1.0
 40
1.0
 40
1.0
 40
1.0
 10
10.135170143
 20
9.152073643
 30
0.0
 10
10.1369257113
 20
9.1508109065
 30
0.0
 10
10.1397677185
 20
9.1490526929
 30
0.0
 10
10.143840578
 20
9.1470039906
 30
0.0
 10
10.1472230042
 20
9.1455417585
 30
0.0
 10
10.1508503487
 20
9.1442106866
 30
0.0
 10
10.1561050452
 20
9.1426052973
 30
0.0
 10
10.16022584
 20
9.141713306
 30
0.0
 10
10.1630474585
 20
9.1412578527
 30
0.0
  0
SPLINE
  5
42F
100
AcDbEntity
  8
0
100
AcDbSpline
 62
7
  6
CONTINUOUS
 70
0
 71
3
 72
12
 73
8
 74
0
 42
0.0000001
 43
0.0000001
 44
0.0000000001
 40
0.0
 40
0.0
 40
0.0
 40
0.0
 40
0.1290397914
 40
0.2569806262
 40
0.5090800303
 40
0.7565908776
 40
1.0
 40
1.0
 40
1.0
 40
1.0
 10
10.1630474585
 20
9.1729471706
 30
0.0
 10
10.1615936226
 20
9.1724942745
 30
0.0
 10
10.1587412737
 20
9.1714474461
 30
0.0
 10
10.1533146327
 20
9.1688548361
 30
0.0
 10
10.1470783756
 20
9.1647896546
 30
0.0
 10
10.140555973
 20
9.1588844335
 30
0.0
 10
10.1368490808
 20
9.1544042399
 30
0.0
 10
10.135170143
 20
9.152073643
 30
0.0
  0
SPLINE
  5
430
100
AcDbEntity
  8
0
100
AcDbSpline
 62
7
  6
CONTINUOUS
 70
0
 71
3
 72
14
 73
10
 74
0
 42
0.0000001
 43
0.0000001
 44
0.0000000001
 40
0.0
 40
0.0
 40
0.0
 40
0.0
 40
0.102547039
 40
0.2113804575
 40
0.3266667022
 40
0.44854826
 40
0.5770491922
 40
0.712046616
 40
1.0
 40
1.0
 40
1.0
 40
1.0
 10
10.135170143
 20
9.1823132869
 30
0.0
 10
10.1360292047
 20
9.1817782045
 30
0.0
 10
10.1378360782
 20
9.1807323462
 30
0.0
 10
10.1407177978
 20
9.1792830677
 30
0.0
 10
10.1438502875
 20
9.1779192282
 30
0.0
 10
10.1472317784
 20
9.1766538829
 30
0.0
 10
10.1508583625
 20
9.1755019024
 30
0.0
 10
10.1561214253
 20
9.1741100665
 30
0.0
 10
10.1602328963
 20
9.1733405918
 30
0.0
 10
10.1630474585
 20
9.1729471706
 30
0.0
  0
SPLINE
  5
431
100
AcDbEntity
  8
0
100
AcDbSpline
 62
7
  6
CONTINUOUS
 70
0
 71
3
 72
13
 73
9
 74
0
 42
0.0000001
 43
0.0000001
 44
0.0000000001
 40
0.0
 40
0.0
 40
0.0
 40
0.0
 40
0.1279492222
 40
0.2550919995
 40
0.3813604632
 40
0.5067617005
 40
0.7548667134
 40
1.0
 40
1.0
 40
1.0
 40
1.0
 10
10.1630474585
 20
9.2038762492
 30
0.0
 10
10.1615921825
 20
9.2034079309
 30
0.0
 10
10.158736704
 20
9.202325061
 30
0.0
 10
10.1546454289
 20
9.200305125
 30
0.0
 10
10.1507785542
 20
9.1979412924
 30
0.0
 10
10.1459601095
 20
9.1944041688
 30
0.0
 10
10.1405409708
 20
9.1893330708
 30
0.0
 10
10.1368455051
 20
9.1847157338
 30
0.0
 10
10.135170143
 20
9.1823132869
 30
0.0
  0
SPLINE
  5
432
100
AcDbEntity
  8
0
100
AcDbSpline
 62
7
  6
CONTINUOUS
 70
0
 71
3
 72
14
 73
10
 74
0
 42
0.0000001
 43
0.0000001
 44
0.0000000001
 40
0.0
 40
0.0
 40
0.0
 40
0.0
 40
0.1003497971
 40
0.207680094
 40
0.3221290823
 40
0.4438073899
 40
0.572704256
 40
0.7086558025
 40
1.0
 40
1.0
 40
1.0
 40
1.0
 10
10.135170143
 20
9.2117490223
 30
0.0
 10
10.136032965
 20
9.2112972853
 30
0.0
 10
10.1378467271
 20
9.210415345
 30
0.0
 10
10.1407277286
 20
9.2091980568
 30
0.0
 10
10.143859414
 20
9.2080524746
 30
0.0
 10
10.1472400821
 20
9.2069895659
 30
0.0
 10
10.1508657494
 20
9.2060218543
 30
0.0
 10
10.1561363174
 20
9.2048507189
 30
0.0
 10
10.1602391952
 20
9.2042062028
 30
0.0
 10
10.1630474585
 20
9.2038762492
 30
0.0
  0
SPLINE
  5
433
100
AcDbEntity
  8
0
100
AcDbSpline
 62
7
  6
CONTINUOUS
 70
0
 71
3
 72
13
 73
9
 74
0
 42
0.0000001
 43
0.0000001
 44
0.0000000001
 40
0.0
 40
0.0
 40
0.0
 40
0.0
 40
0.1270522331
 40
0.2535469957
 40
0.3794332539
 40
0.5047212821
 40
0.7533761569
 40
1.0
 40
1.0
 40
1.0
 40
1.0
 10
10.1630474585
 20
9.2339008827
 30
0.0
 10
10.1615909306
 20
9.2334193605
 30
0.0
 10
10.1587326292
 20
9.232305517
 30
0.0
 10
10.1546412811
 20
9.2302298781
 30
0.0
 10
10.1507745573
 20
9.2278010818
 30
0.0
 10
10.1459515569
 20
9.2241632348
 30
0.0
 10
10.140529383
 20
9.2189474872
 30
0.0
 10
10.1368425945
 20
9.2142127938
 30
0.0
 10
10.135170143
 20
9.2117490223
 30
0.0
  0
SPLINE
  5
434
100
AcDbEntity
  8
0
100
AcDbSpline
 62
7
  6
CONTINUOUS
 70
0
 71
3
 72
14
 73
10
 74
0
 42
0.0000001
 43
0.0000001
 44
0.0000000001
 40
0.0
 40
0.0
 40
0.0
 40
0.0
 40
0.0983415743
 40
0.2043126266
 40
0.3180151647
 40
0.439523191
 40
0.5687888897
 40
0.705607577
 40
1.0
 40
1.0
 40
1.0
 40
1.0
 10
10.135170143
 20
9.2402436061
 30
0.0
 10
10.1360366924
 20
9.2398780906
 30
0.0
 10
10.1378569653
 20
9.2391654107
 30
0.0
 10
10.1407370193
 20
9.2381854864
 30
0.0
 10
10.1438677539
 20
9.2372632049
 30
0.0
 10
10.1472475226
 20
9.2364074095
 30
0.0
 10
10.1508722634
 20
9.2356282202
 30
0.0
 10
10.1561492571
 20
9.2346838609
 30
0.0
 10
10.1602445841
 20
9.2341662007
 30
0.0
 10
10.1630474585
 20
9.2339008827
 30
0.0
  0
SPLINE
  5
435
100
AcDbEntity
  8
0
100
AcDbSpline
 62
7
  6
CONTINUOUS
 70
0
 71
3
 72
13
 73
9
 74
0
 42
0.0000001
 43
0.0000001
 44
0.0000000001
 40
0.0
 40
0.0
 40
0.0
 40
0.0
 40
0.1263201701
 40
0.2522875417
 40
0.3778641306
 40
0.5030619851
 40
0.7521669382
 40
1.0
 40
1.0
 40
1.0
 40
1.0
 10
10.1630474585
 20
9.2628810825
 30
0.0
 10
10.1615898838
 20
9.2623886506
 30
0.0
 10
10.1587292412
 20
9.2612492009
 30
0.0
 10
10.1546378584
 20
9.2591276179
 30
0.0
 10
10.1507712844
 20
9.2566452534
 30
0.0
 10
10.1459446123
 20
9.2529242513
 30
0.0
 10
10.1405201146
 20
9.2475892066
 30
0.0
 10
10.1368402899
 20
9.2427579194
 30
0.0
 10
10.135170143
 20
9.2402436061
 30
0.0
  0
SPLINE
  5
436
100
AcDbEntity
  8
0
100
AcDbSpline
 62
7
  6
CONTINUOUS
 70
0
 71
3
 72
14
 73
10
 74
0
 42
0.0000001
 43
0.0000001
 44
0.0000000001
 40
0.0
 40
0.0
 40
0.0
 40
0.0
 40
0.09662658
 40
0.2014482132
 40
0.3145276237
 40
0.4359017745
 40
0.5654873771
 40
0.7030426186
 40
1.0
 40
1.0
 40
1.0
 40
1.0
 10
10.135170143
 20
9.2676641835
 30
0.0
 10
10.1360401187
 20
9.2673874553
 30
0.0
 10
10.1378661064
 20
9.2668486106
 30
0.0
 10
10.1407451112
 20
9.266110218
 30
0.0
 10
10.1438748666
 20
9.265415182
 30
0.0
 10
10.1472537607
 20
9.264770185
 30
0.0
 10
10.1508776499
 20
9.2641828874
 30
0.0
 10
10.1561598238
 20
9.2634702373
 30
0.0
 10
10.1602489281
 20
9.2630808509
 30
0.0
 10
10.1630474585
 20
9.2628810825
 30
0.0
  0
SPLINE
  5
437
100
AcDbEntity
  8
0
100
AcDbSpline
 62
7
  6
CONTINUOUS
 70
0
 71
3
 72
13
 73
9
 74
0
 42
0.0000001
 43
0.0000001
 44
0.0000000001
 40
0.0
 40
0.0
 40
0.0
 40
0.0
 40
0.1257522448
 40
0.251311395
 40
0.3766491506
 40
0.5017784175
 40
0.7512333184
 40
1.0
 40
1.0
 40
1.0
 40
1.0
 10
10.1630474585
 20
9.2906817295
 30
0.0
 10
10.1615890556
 20
9.2901807455
 30
0.0
 10
10.1587265735
 20
9.2890212145
 30
0.0
 10
10.1546351799
 20
9.2868636673
 30
0.0
 10
10.1507687389
 20
9.2843393792
 30
0.0
 10
10.1459392473
 20
9.280553238
 30
0.0
 10
10.1405130392
 20
9.2751248198
 30
0.0
 10
10.1368385444
 20
9.2702180387
 30
0.0
 10
10.135170143
 20
9.2676641835
 30
0.0
  0
SPLINE
  5
438
100
AcDbEntity
  8
0
100
AcDbSpline
 62
7
  6
CONTINUOUS
 70
0
 71
3
 72
13
 73
9
 74
0
 42
0.0000001
 43
0.0000001
 44
0.0000000001
 40
0.0
 40
0.0
 40
0.0
 40
0.0
 40
0.0953093823
 40
0.1992559503
 40
0.311866644
 40
0.43314633
 40
0.7010915023
 40
1.0
 40
1.0
 40
1.0
 40
1.0
 10
10.135170143
 20
9.2938829071
 30
0.0
 10
10.1360429192
 20
9.2936971056
 30
0.0
 10
10.1378733908
 20
9.2933357393
 30
0.0
 10
10.1407514282
 20
9.2928418894
 30
0.0
 10
10.1438803241
 20
9.2923769564
 30
0.0
 10
10.1485411906
 20
9.2917817701
 30
0.0
 10
10.1549545776
 20
9.2911529075
 30
0.0
 10
10.1602521153
 20
9.2908152759
 30
0.0
 10
10.1630474585
 20
9.2906817295
 30
0.0
  0
SPLINE
  5
439
100
AcDbEntity
  8
0
100
AcDbSpline
 62
7
  6
CONTINUOUS
 70
0
 71
3
 72
13
 73
9
 74
0
 42
0.0000001
 43
0.0000001
 44
0.0000000001
 40
0.0
 40
0.0
 40
0.0
 40
0.0
 40
0.1253474902
 40
0.2506162004
 40
0.3757844924
 40
0.5008656043
 40
0.7505703138
 40
1.0
 40
1.0
 40
1.0
 40
1.0
 10
10.1630474585
 20
9.3171732042
 30
0.0
 10
10.1615884567
 20
9.3166660755
 30
0.0
 10
10.1587246511
 20
9.3154921116
 30
0.0
 10
10.1546332585
 20
9.3133087524
 30
0.0
 10
10.1507669214
 20
9.3107543799
 30
0.0
 10
10.145935436
 20
9.3069214632
 30
0.0
 10
10.1405080572
 20
9.3014260361
 30
0.0
 10
10.1368373223
 20
9.2964651319
 30
0.0
 10
10.135170143
 20
9.2938829071
 30
0.0
  0
SPLINE
  5
43A
100
AcDbEntity
  8
0
100
AcDbSpline
 62
7
  6
CONTINUOUS
 70
0
 71
3
 72
11
 73
7
 74
0
 42
0.0000001
 43
0.0000001
 44
0.0000000001
 40
0.0
 40
0.0
 40
0.0
 40
0.0
 40
0.1978699166
 40
0.4314070708
 40
0.6998728862
 40
1.0
 40
1.0
 40
1.0
 40
1.0
 10
10.135170143
 20
9.3187775331
 30
0.0
 10
10.1370019246
 20
9.3185820974
 30
0.0
 10
10.141002434
 20
9.3182189504
 30
0.0
 10
10.147503571
 20
9.3177755197
 30
0.0
 10
10.15496284
 20
9.317408991
 30
0.0
 10
10.1602540622
 20
9.3172400868
 30
0.0
 10
10.1630474585
 20
9.3171732042
 30
0.0
  0
SPLINE
  5
43B
100
AcDbEntity
  8
0
100
AcDbSpline
 62
7
  6
CONTINUOUS
 70
0
 71
3
 72
13
 73
9
 74
0
 42
0.0000001
 43
0.0000001
 44
0.0000000001
 40
0.0
 40
0.0
 40
0.0
 40
0.0
 40
0.1251050349
 40
0.2501999646
 40
0.3752670444
 40
0.5003195995
 40
0.7501741062
 40
1.0
 40
1.0
 40
1.0
 40
1.0
 10
10.1630474585
 20
9.3422319912
 30
0.0
 10
10.1615880944
 20
9.3417211612
 30
0.0
 10
10.158723491
 20
9.3405385017
 30
0.0
 10
10.1546321026
 20
9.338339606
 30
0.0
 10
10.1507658315
 20
9.3357671272
 30
0.0
 10
10.1459331578
 20
9.3319060461
 30
0.0
 10
10.1405050968
 20
9.3263702886
 30
0.0
 10
10.1368365988
 20
9.3213768301
 30
0.0
 10
10.135170143
 20
9.3187775331
 30
0.0
  0
SPLINE
  5
43C
100
AcDbEntity
  8
0
100
AcDbSpline
 62
7
  6
CONTINUOUS
 70
0
 71
3
 72
11
 73
7
 74
0
 42
0.0000001
 43
0.0000001
 44
0.0000000001
 40
0.0
 40
0.0
 40
0.0
 40
0.0
 40
0.2988592032
 40
0.5679001603
 40
0.8016997191
 40
1.0
 40
1.0
 40
1.0
 40
1.0
 10
10.1904104298
 20
9.3171732042
 30
0.0
 10
10.1931352935
 20
9.3172362881
 30
0.0
 10
10.1983123915
 20
9.3173935337
 30
0.0
 10
10.2056162829
 20
9.3177354173
 30
0.0
 10
10.2119970605
 20
9.3181590495
 30
0.0
 10
10.2159227501
 20
9.3185087376
 30
0.0
 10
10.2177215749
 20
9.31869553
 30
0.0
  0
SPLINE
  5
43D
100
AcDbEntity
  8
0
100
AcDbSpline
 62
7
  6
CONTINUOUS
 70
0
 71
3
 72
15
 73
11
 74
0
 42
0.0000001
 43
0.0000001
 44
0.0000000001
 40
0.0
 40
0.0
 40
0.0
 40
0.0
 40
0.1253063465
 40
0.2505405442
 40
0.3756749014
 40
0.5007182455
 40
0.6256657887
 40
0.7505175152
 40
0.8753071744
 40
1.0
 40
1.0
 40
1.0
 40
1.0
 10
10.1904104298
 20
9.3171732042
 30
0.0
 10
10.1918271878
 20
9.3166970466
 30
0.0
 10
10.1946145748
 20
9.3156040292
 30
0.0
 10
10.1986162784
 20
9.3135738488
 30
0.0
 10
10.2024113766
 20
9.3111855083
 30
0.0
 10
10.2059758017
 20
9.3084714246
 30
0.0
 10
10.2092931794
 20
9.3054662464
 30
0.0
 10
10.2123583592
 20
9.3022094445
 30
0.0
 10
10.2151776467
 20
9.2987427103
 30
0.0
 10
10.2168994324
 20
9.2963127297
 30
0.0
 10
10.2177216058
 20
9.2950733193
 30
0.0
  0
SPLINE
  5
43E
100
AcDbEntity
  8
0
100
AcDbSpline
 62
7
  6
CONTINUOUS
 70
0
 71
3
 72
13
 73
9
 74
0
 42
0.0000001
 43
0.0000001
 44
0.0000000001
 40
0.0
 40
0.0
 40
0.0
 40
0.0
 40
0.1253474902
 40
0.2506162004
 40
0.3757844924
 40
0.5008656043
 40
0.7505703138
 40
1.0
 40
1.0
 40
1.0
 40
1.0
 10
10.1630474585
 20
9.4076805035
 30
0.0
 10
10.1615884567
 20
9.4071733748
 30
0.0
 10
10.1587246511
 20
9.4059994108
 30
0.0
 10
10.1546332585
 20
9.4038160517
 30
0.0
 10
10.1507669214
 20
9.4012616792
 30
0.0
 10
10.145935436
 20
9.3974287625
 30
0.0
 10
10.1405080572
 20
9.3919333354
 30
0.0
 10
10.1368373223
 20
9.3869724311
 30
0.0
 10
10.135170143
 20
9.3843902064
 30
0.0
  0
SPLINE
  5
43F
100
AcDbEntity
  8
0
100
AcDbSpline
 62
7
  6
CONTINUOUS
 70
0
 71
3
 72
11
 73
7
 74
0
 42
0.0000001
 43
0.0000001
 44
0.0000000001
 40
0.0
 40
0.0
 40
0.0
 40
0.0
 40
0.2387734622
 40
0.484046331
 40
0.7373761529
 40
1.0
 40
1.0
 40
1.0
 40
1.0
 10
8.909001474
 20
8.6540730094
 30
0.0
 10
8.9079431581
 20
8.6564731939
 30
0.0
 10
8.9060759026
 20
8.6614663392
 30
0.0
 10
8.9040856292
 20
8.6693342071
 30
0.0
 10
8.9028910208
 20
8.6776254293
 30
0.0
 10
8.9026367738
 20
8.6832978713
 30
0.0
 10
8.9026367738
 20
8.6861830406
 30
0.0
  0
SPLINE
  5
440
100
AcDbEntity
  8
0
100
AcDbSpline
 62
7
  6
CONTINUOUS
 70
0
 71
3
 72
15
 73
11
 74
0
 42
0.0000001
 43
0.0000001
 44
0.0000000001
 40
0.0
 40
0.0
 40
0.0
 40
0.0
 40
0.1250676162
 40
0.2501261237
 40
0.3751545469
 40
0.5001652179
 40
0.6251534128
 40
0.7501153149
 40
0.8750780991
 40
1.0
 40
1.0
 40
1.0
 40
1.0
 10
10.1904104298
 20
9.3422319912
 30
0.0
 10
10.1918275012
 20
9.3417523713
 30
0.0
 10
10.1946156101
 20
9.3406512914
 30
0.0
 10
10.1986173619
 20
9.3386066485
 30
0.0
 10
10.2024124501
 20
9.3362013417
 30
0.0
 10
10.2059768037
 20
9.3334680363
 30
0.0
 10
10.2092940566
 20
9.3304416458
 30
0.0
 10
10.2123590857
 20
9.327161919
 30
0.0
 10
10.2151782369
 20
9.3236708031
 30
0.0
 10
10.2168995862
 20
9.3212242457
 30
0.0
 10
10.2177215895
 20
9.3199763575
 30
0.0
  0
SPLINE
  5
441
100
AcDbEntity
  8
0
100
AcDbSpline
 62
7
  6
CONTINUOUS
 70
0
 71
3
 72
13
 73
9
 74
0
 42
0.0000001
 43
0.0000001
 44
0.0000000001
 40
0.0
 40
0.0
 40
0.0
 40
0.0
 40
0.297699264
 40
0.4360381123
 40
0.5662319504
 40
0.8003589534
 40
0.9043633772
 40
1.0
 40
1.0
 40
1.0
 40
1.0
 10
10.1904104298
 20
9.2906817295
 30
0.0
 10
10.1931369776
 20
9.2908076808
 30
0.0
 10
10.1971283547
 20
9.2910494292
 30
0.0
 10
10.2023009938
 20
9.2914942637
 30
0.0
 10
10.2068850202
 20
9.2919713098
 30
0.0
 10
10.2111431611
 20
9.2925356147
 30
0.0
 10
10.2150654645
 20
9.2931946937
 30
0.0
 10
10.216862983
 20
9.2935413838
 30
0.0
 10
10.2177215904
 20
9.293719286
 30
0.0
  0
SPLINE
  5
442
100
AcDbEntity
  8
0
100
AcDbSpline
 62
7
  6
CONTINUOUS
 70
0
 71
3
 72
15
 73
11
 74
0
 42
0.0000001
 43
0.0000001
 44
0.0000000001
 40
0.0
 40
0.0
 40
0.0
 40
0.0
 40
0.1257046996
 40
0.2512323716
 40
0.3765439888
 40
0.5016423506
 40
0.6265223752
 40
0.7511902203
 40
0.8756904795
 40
1.0
 40
1.0
 40
1.0
 40
1.0
 10
10.1904104298
 20
9.2906817295
 30
0.0
 10
10.1918266508
 20
9.2902113265
 30
0.0
 10
10.1946128041
 20
9.2891317085
 30
0.0
 10
10.1986143728
 20
9.2871255893
 30
0.0
 10
10.2024094383
 20
9.2847654812
 30
0.0
 10
10.2059739401
 20
9.2820833862
 30
0.0
 10
10.209291492
 20
9.2791135122
 30
0.0
 10
10.2123569011
 20
9.2758948674
 30
0.0
 10
10.2151763932
 20
9.2724687051
 30
0.0
 10
10.2168988938
 20
9.2700663057
 30
0.0
 10
10.217721343
 20
9.2688409979
 30
0.0
  0
SPLINE
  5
443
100
AcDbEntity
  8
0
100
AcDbSpline
 62
7
  6
CONTINUOUS
 70
0
 71
3
 72
13
 73
9
 74
0
 42
0.0000001
 43
0.0000001
 44
0.0000000001
 40
0.0
 40
0.0
 40
0.0
 40
0.0
 40
0.1257522448
 40
0.251311395
 40
0.3766491506
 40
0.5017784175
 40
0.7512333184
 40
1.0
 40
1.0
 40
1.0
 40
1.0
 10
10.1630474585
 20
9.4259149484
 30
0.0
 10
10.1615890556
 20
9.4254139644
 30
0.0
 10
10.1587265735
 20
9.4242544334
 30
0.0
 10
10.1546351799
 20
9.4220968862
 30
0.0
 10
10.1507687389
 20
9.4195725981
 30
0.0
 10
10.1459392473
 20
9.4157864569
 30
0.0
 10
10.1405130392
 20
9.4103580387
 30
0.0
 10
10.1368385444
 20
9.4054512576
 30
0.0
 10
10.135170143
 20
9.4028974024
 30
0.0
  0
SPLINE
  5
444
100
AcDbEntity
  8
0
100
AcDbSpline
 62
7
  6
CONTINUOUS
 70
0
 71
3
 72
13
 73
9
 74
0
 42
0.0000001
 43
0.0000001
 44
0.0000000001
 40
0.0
 40
0.0
 40
0.0
 40
0.0
 40
0.2958457524
 40
0.4336290106
 40
0.5635694723
 40
0.7982317508
 40
0.9030909358
 40
1.0
 40
1.0
 40
1.0
 40
1.0
 10
10.1904104298
 20
9.2628810825
 30
0.0
 10
10.1931397253
 20
9.2630694648
 30
0.0
 10
10.1971352407
 20
9.2634312833
 30
0.0
 10
10.2023047536
 20
9.2640956814
 30
0.0
 10
10.2068956449
 20
9.264809641
 30
0.0
 10
10.2111573033
 20
9.2656544136
 30
0.0
 10
10.2150721506
 20
9.2666376727
 30
0.0
 10
10.2168654357
 20
9.2671546563
 30
0.0
 10
10.2177215011
 20
9.2674196853
 30
0.0
  0
SPLINE
  5
445
100
AcDbEntity
  8
0
100
AcDbSpline
 62
7
  6
CONTINUOUS
 70
0
 71
3
 72
13
 73
9
 74
0
 42
0.0000001
 43
0.0000001
 44
0.0000000001
 40
0.0
 40
0.0
 40
0.0
 40
0.0
 40
0.1263201701
 40
0.2522875417
 40
0.3778641306
 40
0.5030619851
 40
0.7521669382
 40
1.0
 40
1.0
 40
1.0
 40
1.0
 10
10.1630474585
 20
9.4422097013
 30
0.0
 10
10.1615898838
 20
9.4417172694
 30
0.0
 10
10.1587292412
 20
9.4405778198
 30
0.0
 10
10.1546378584
 20
9.4384562368
 30
0.0
 10
10.1507712844
 20
9.4359738722
 30
0.0
 10
10.1459446123
 20
9.4322528701
 30
0.0
 10
10.1405201146
 20
9.4269178255
 30
0.0
 10
10.1368402899
 20
9.4220865383
 30
0.0
 10
10.135170143
 20
9.419572225
 30
0.0
  0
SPLINE
  5
446
100
AcDbEntity
  8
0
100
AcDbSpline
 62
7
  6
CONTINUOUS
 70
0
 71
3
 72
15
 73
11
 74
0
 42
0.0000001
 43
0.0000001
 44
0.0000000001
 40
0.0
 40
0.0
 40
0.0
 40
0.0
 40
0.1262632633
 40
0.2522030941
 40
0.3777643015
 40
0.5029408635
 40
0.6277268815
 40
0.7521368111
 40
0.8762301919
 40
1.0
 40
1.0
 40
1.0
 40
1.0
 10
10.1904104298
 20
9.2628810825
 30
0.0
 10
10.1918259121
 20
9.2624186882
 30
0.0
 10
10.1946103594
 20
9.2613577114
 30
0.0
 10
10.1986117392
 20
9.259385107
 30
0.0
 10
10.2024067559
 20
9.2570643289
 30
0.0
 10
10.2059713608
 20
9.2544268017
 30
0.0
 10
10.2092891536
 20
9.2515061183
 30
0.0
 10
10.2123548828
 20
9.2483406398
 30
0.0
 10
10.2151746641
 20
9.2449710089
 30
0.0
 10
10.216898186
 20
9.2426070457
 30
0.0
 10
10.2177210317
 20
9.2414013884
 30
0.0
  0
SPLINE
  5
447
100
AcDbEntity
  8
0
100
AcDbSpline
 62
7
  6
CONTINUOUS
 70
0
 71
3
 72
11
 73
7
 74
0
 42
0.0000001
 43
0.0000001
 44
0.0000000001
 40
0.0
 40
0.0
 40
0.0
 40
0.0
 40
0.2469703041
 40
0.494909324
 40
0.7454492228
 40
1.0
 40
1.0
 40
1.0
 40
1.0
 10
9.3014440702
 20
9.3050159553
 30
0.0
 10
9.3025615483
 20
9.3023570805
 30
0.0
 10
9.3045347991
 20
9.2969124119
 30
0.0
 10
9.3066597881
 20
9.2884554451
 30
0.0
 10
9.3079362612
 20
9.2797402744
 30
0.0
 10
9.308213821
 20
9.2738374811
 30
0.0
 10
9.308213821
 20
9.2708647963
 30
0.0
  0
SPLINE
  5
448
100
AcDbEntity
  8
0
100
AcDbSpline
 62
7
  6
CONTINUOUS
 70
0
 71
3
 72
11
 73
7
 74
0
 42
0.0000001
 43
0.0000001
 44
0.0000000001
 40
0.0
 40
0.0
 40
0.0
 40
0.0
 40
0.2668331634
 40
0.5223802845
 40
0.7664567214
 40
1.0
 40
1.0
 40
1.0
 40
1.0
 10
10.1627230775
 20
9.4967149567
 30
0.0
 10
10.1598953756
 20
9.4959709371
 30
0.0
 10
10.1544693136
 20
9.4940572057
 30
0.0
 10
10.1470483574
 20
9.4900603223
 30
0.0
 10
10.1405844629
 20
9.4852443031
 30
0.0
 10
10.1368555716
 20
9.4815435816
 30
0.0
 10
10.135170143
 20
9.4796178046
 30
0.0
  0
SPLINE
  5
449
100
AcDbEntity
  8
0
100
AcDbSpline
 62
7
  6
CONTINUOUS
 70
0
 71
3
 72
13
 73
9
 74
0
 42
0.0000001
 43
0.0000001
 44
0.0000000001
 40
0.0
 40
0.0
 40
0.0
 40
0.0
 40
0.293397936
 40
0.4304536177
 40
0.5600659261
 40
0.7954431709
 40
0.9014291756
 40
1.0
 40
1.0
 40
1.0
 40
1.0
 10
10.1904104298
 20
9.2339008827
 30
0.0
 10
10.1931434291
 20
9.2341510297
 30
0.0
 10
10.1971444604
 20
9.2346319012
 30
0.0
 10
10.2023096208
 20
9.2355124494
 30
0.0
 10
10.2069094962
 20
9.2364612272
 30
0.0
 10
10.2111751968
 20
9.2375841063
 30
0.0
 10
10.2150802391
 20
9.2388852605
 30
0.0
 10
10.2168681451
 20
9.2395690686
 30
0.0
 10
10.2177210888
 20
9.2399192343
 30
0.0
  0
SPLINE
  5
44A
100
AcDbEntity
  8
0
100
AcDbSpline
 62
7
  6
CONTINUOUS
 70
0
 71
3
 72
13
 73
9
 74
0
 42
0.0000001
 43
0.0000001
 44
0.0000000001
 40
0.0
 40
0.0
 40
0.0
 40
0.0
 40
0.1270522331
 40
0.2535469957
 40
0.3794332539
 40
0.5047212821
 40
0.7533761569
 40
1.0
 40
1.0
 40
1.0
 40
1.0
 10
10.1630474585
 20
9.4564887887
 30
0.0
 10
10.1615909306
 20
9.4560072664
 30
0.0
 10
10.1587326292
 20
9.4548934229
 30
0.0
 10
10.1546412811
 20
9.452817784
 30
0.0
 10
10.1507745573
 20
9.4503889878
 30
0.0
 10
10.1459515569
 20
9.4467511407
 30
0.0
 10
10.140529383
 20
9.4415353932
 30
0.0
 10
10.1368425945
 20
9.4368006998
 30
0.0
 10
10.135170143
 20
9.4343369282
 30
0.0
  0
SPLINE
  5
44B
100
AcDbEntity
  8
0
100
AcDbSpline
 62
7
  6
CONTINUOUS
 70
0
 71
3
 72
15
 73
11
 74
0
 42
0.0000001
 43
0.0000001
 44
0.0000000001
 40
0.0
 40
0.0
 40
0.0
 40
0.0
 40
0.1269826594
 40
0.2534544375
 40
0.3793388684
 40
0.5046179528
 40
0.6292840325
 40
0.7533616284
 40
0.8769291243
 40
1.0
 40
1.0
 40
1.0
 40
1.0
 10
10.1904104298
 20
9.2339008827
 30
0.0
 10
10.1918250278
 20
9.2334486903
 30
0.0
 10
10.1946074024
 20
9.2324114443
 30
0.0
 10
10.198608654
 20
9.230481563
 30
0.0
 10
10.202403702
 20
9.2282109231
 30
0.0
 10
10.2059685156
 20
9.2256302176
 30
0.0
 10
10.2092866805
 20
9.222772255
 30
0.0
 10
10.2123528648
 20
9.2196745623
 30
0.0
 10
10.2151730725
 20
9.2163770273
 30
0.0
 10
10.2168979881
 20
9.2140621073
 30
0.0
 10
10.2177213875
 20
9.212881521
 30
0.0
  0
SPLINE
  5
44C
100
AcDbEntity
  8
0
100
AcDbSpline
 62
7
  6
CONTINUOUS
 70
0
 71
3
 72
9
 73
5
 74
0
 42
0.0000001
 43
0.0000001
 44
0.0000000001
 40
0.0
 40
0.0
 40
0.0
 40
0.0
 40
0.4944648682
 40
1.0
 40
1.0
 40
1.0
 40
1.0
 10
9.308213821
 20
9.2708647963
 30
0.0
 10
9.308213821
 20
9.2679731605
 30
0.0
 10
9.3079463346
 20
9.2621225274
 30
0.0
 10
9.3071732043
 20
9.2563180373
 30
0.0
 10
9.3066636771
 20
9.2534059017
 30
0.0
  0
SPLINE
  5
44D
100
AcDbEntity
  8
0
100
AcDbSpline
 62
7
  6
CONTINUOUS
 70
0
 71
3
 72
11
 73
7
 74
0
 42
0.0000001
 43
0.0000001
 44
0.0000000001
 40
0.0
 40
0.0
 40
0.0
 40
0.0
 40
0.2626238473
 40
0.5159536704
 40
0.7612265383
 40
1.0
 40
1.0
 40
1.0
 40
1.0
 10
8.9026367738
 20
9.3336005674
 30
0.0
 10
8.9026367738
 20
9.3364857366
 30
0.0
 10
8.9028910208
 20
9.3421581784
 30
0.0
 10
8.9040856291
 20
9.3504494003
 30
0.0
 10
8.9060759022
 20
9.3583172678
 30
0.0
 10
8.9079431576
 20
9.3633104129
 30
0.0
 10
8.9090014734
 20
9.3657105973
 30
0.0
  0
SPLINE
  5
44E
100
AcDbEntity
  8
0
100
AcDbSpline
 62
7
  6
CONTINUOUS
 70
0
 71
3
 72
14
 73
10
 74
0
 42
0.0000001
 43
0.0000001
 44
0.0000000001
 40
0.0
 40
0.0
 40
0.0
 40
0.0
 40
0.2904631518
 40
0.4266496505
 40
0.5558729716
 40
0.6777311305
 40
0.7921709656
 40
0.8994841076
 40
1.0
 40
1.0
 40
1.0
 40
1.0
 10
10.1904104298
 20
9.2038762492
 30
0.0
 10
10.1931481229
 20
9.2041872722
 30
0.0
 10
10.1971560706
 20
9.204785836
 30
0.0
 10
10.2023157982
 20
9.2058780005
 30
0.0
 10
10.2058757187
 20
9.2067897191
 30
0.0
 10
10.2091936673
 20
9.2078005922
 30
0.0
 10
10.2122641832
 20
9.2088980706
 30
0.0
 10
10.2150900368
 20
9.2100673261
 30
0.0
 10
10.2168717924
 20
9.2109136081
 30
0.0
 10
10.2177213367
 20
9.2113465113
 30
0.0
  0
SPLINE
  5
44F
100
AcDbEntity
  8
0
100
AcDbSpline
 62
7
  6
CONTINUOUS
 70
0
 71
3
 72
9
 73
5
 74
0
 42
0.0000001
 43
0.0000001
 44
0.0000000001
 40
0.0
 40
0.0
 40
0.0
 40
0.0
 40
0.4900633032
 40
1.0
 40
1.0
 40
1.0
 40
1.0
 10
8.9026367738
 20
8.6861830406
 30
0.0
 10
8.9026367738
 20
8.6892659732
 30
0.0
 10
8.9029381106
 20
8.69555949
 30
0.0
 10
8.9037818456
 20
8.7018014734
 30
0.0
 10
8.9043347241
 20
8.7049614248
 30
0.0
  0
SPLINE
  5
450
100
AcDbEntity
  8
0
100
AcDbSpline
 62
7
  6
CONTINUOUS
 70
0
 71
3
 72
15
 73
11
 74
0
 42
0.0000001
 43
0.0000001
 44
0.0000000001
 40
0.0
 40
0.0
 40
0.0
 40
0.0
 40
0.1278631174
 40
0.2549876348
 40
0.3812703824
 40
0.5066777458
 40
0.6311988545
 40
0.7548695666
 40
0.8777905756
 40
1.0
 40
1.0
 40
1.0
 40
1.0
 10
10.1904104298
 20
9.2038762492
 30
0.0
 10
10.191823931
 20
9.2034364194
 30
0.0
 10
10.1946037327
 20
9.2024279164
 30
0.0
 10
10.1986046974
 20
9.2005498985
 30
0.0
 10
10.2023996605
 20
9.1983401439
 30
0.0
 10
10.2059646197
 20
9.1958284561
 30
0.0
 10
10.2092831508
 20
9.1930466884
 30
0.0
 10
10.2123498342
 20
9.190031353
 30
0.0
 10
10.2151705103
 20
9.1868213905
 30
0.0
 10
10.2168971295
 20
9.1845660466
 30
0.0
 10
10.2177212029
 20
9.1834159044
 30
0.0
  0
SPLINE
  5
451
100
AcDbEntity
  8
0
100
AcDbSpline
 62
7
  6
CONTINUOUS
 70
0
 71
3
 72
14
 73
10
 74
0
 42
0.0000001
 43
0.0000001
 44
0.0000000001
 40
0.0
 40
0.0
 40
0.0
 40
0.0
 40
0.2872032447
 40
0.4224363938
 40
0.5512458185
 40
0.6732891351
 40
0.7885522206
 40
0.8973432211
 40
1.0
 40
1.0
 40
1.0
 40
1.0
 10
10.1904104298
 20
9.1729471706
 30
0.0
 10
10.1931535778
 20
9.1733179272
 30
0.0
 10
10.1971693223
 20
9.1740323155
 30
0.0
 10
10.2023227678
 20
9.1753305465
 30
0.0
 10
10.205883836
 20
9.1764159604
 30
0.0
 10
10.2092026779
 20
9.1776194262
 30
0.0
 10
10.2122737525
 20
9.1789259211
 30
0.0
 10
10.2151000068
 20
9.1803178413
 30
0.0
 10
10.2168752407
 20
9.1813214991
 30
0.0
 10
10.2177213231
 20
9.1818344188
 30
0.0
  0
SPLINE
  5
452
100
AcDbEntity
  8
0
100
AcDbSpline
 62
7
  6
CONTINUOUS
 70
0
 71
3
 72
15
 73
11
 74
0
 42
0.0000001
 43
0.0000001
 44
0.0000000001
 40
0.0
 40
0.0
 40
0.0
 40
0.0
 40
0.1289042286
 40
0.2568029751
 40
0.383560586
 40
0.5091236521
 40
0.6334759919
 40
0.7566654415
 40
0.878817934
 40
1.0
 40
1.0
 40
1.0
 40
1.0
 10
10.1904104298
 20
9.1729471706
 30
0.0
 10
10.1918226402
 20
9.1725217924
 30
0.0
 10
10.1945994015
 20
9.1715468665
 30
0.0
 10
10.1985999173
 20
9.1697295876
 30
0.0
 10
10.2023946699
 20
9.1675911623
 30
0.0
 10
10.2059596988
 20
9.1651603528
 30
0.0
 10
10.2092785788
 20
9.1624678911
 30
0.0
 10
10.2123457973
 20
9.1595490958
 30
0.0
 10
10.2151669816
 20
9.1564417706
 30
0.0
 10
10.2168956441
 20
9.1542562712
 30
0.0
 10
10.2177205274
 20
9.1531418059
 30
0.0
  0
SPLINE
  5
453
100
AcDbEntity
  8
0
100
AcDbSpline
 62
7
  6
CONTINUOUS
 70
0
 71
3
 72
13
 73
9
 74
0
 42
0.0000001
 43
0.0000001
 44
0.0000000001
 40
0.0
 40
0.0
 40
0.0
 40
0.0
 40
0.2837617017
 40
0.4180042161
 40
0.5464019263
 40
0.6686709991
 40
0.784830232
 40
1.0
 40
1.0
 40
1.0
 40
1.0
 10
10.1904104298
 20
9.1412578527
 30
0.0
 10
10.193159672
 20
9.1416869456
 30
0.0
 10
10.1971838802
 20
9.1425147981
 30
0.0
 10
10.2023302554
 20
9.1440125127
 30
0.0
 10
10.2058923361
 20
9.1452667783
 30
0.0
 10
10.2092121468
 20
9.1466575822
 30
0.0
 10
10.2132054401
 20
9.1486202119
 30
0.0
 10
10.2159925867
 20
9.1503105023
 30
0.0
 10
10.2177210533
 20
9.1515205361
 30
0.0
  0
SPLINE
  5
454
100
AcDbEntity
  8
0
100
AcDbSpline
 62
7
  6
CONTINUOUS
 70
0
 71
3
 72
13
 73
9
 74
0
 42
0.0000001
 43
0.0000001
 44
0.0000000001
 40
0.0
 40
0.0
 40
0.0
 40
0.0
 40
0.1279492222
 40
0.2550919995
 40
0.3813604632
 40
0.5067617005
 40
0.7548667134
 40
1.0
 40
1.0
 40
1.0
 40
1.0
 10
10.1630474585
 20
9.4686856347
 30
0.0
 10
10.1615921825
 20
9.4682173164
 30
0.0
 10
10.158736704
 20
9.4671344465
 30
0.0
 10
10.1546454289
 20
9.4651145106
 30
0.0
 10
10.1507785542
 20
9.4627506779
 30
0.0
 10
10.1459601095
 20
9.4592135544
 30
0.0
 10
10.1405409708
 20
9.4541424563
 30
0.0
 10
10.1368455051
 20
9.4495251194
 30
0.0
 10
10.135170143
 20
9.4471226724
 30
0.0
  0
SPLINE
  5
455
100
AcDbEntity
  8
0
100
AcDbSpline
 62
7
  6
CONTINUOUS
 70
0
 71
3
 72
15
 73
11
 74
0
 42
0.0000001
 43
0.0000001
 44
0.0000000001
 40
0.0
 40
0.0
 40
0.0
 40
0.0
 40
0.1301048251
 40
0.2588995277
 40
0.3862098079
 40
0.5119577286
 40
0.6361189074
 40
0.7587530528
 40
0.8800139612
 40
1.0
 40
1.0
 40
1.0
 40
1.0
 10
10.1904104298
 20
9.1412578527
 30
0.0
 10
10.1918213182
 20
9.1408488908
 30
0.0
 10
10.1945948839
 20
9.1399120639
 30
0.0
 10
10.1985951598
 20
9.1381638654
 30
0.0
 10
10.2023898923
 20
9.1361065744
 30
0.0
 10
10.2059551755
 20
9.1337677813
 30
0.0
 10
10.2092745948
 20
9.1311769454
 30
0.0
 10
10.2123425253
 20
9.1283680034
 30
0.0
 10
10.215164419
 20
9.1253775169
 30
0.0
 10
10.2168956458
 20
9.1232716068
 30
0.0
 10
10.2177215792
 20
9.1221977857
 30
0.0
  0
SPLINE
  5
456
100
AcDbEntity
  8
0
100
AcDbSpline
 62
9
  6
CONTINUOUS
 70
0
 71
3
 72
13
 73
9
 74
0
 42
0.0000001
 43
0.0000001
 44
0.0000000001
 40
0.0
 40
0.0
 40
0.0
 40
0.0
 40
0.2523259298
 40
0.3790391834
 40
0.5054932738
 40
0.6312457441
 40
0.7558668187
 40
1.0
 40
1.0
 40
1.0
 40
1.0
 10
9.4346606674
 20
8.7675466019
 30
0.0
 10
9.4401678541
 20
8.7683454445
 30
0.0
 10
9.4485243559
 20
8.769044005
 30
0.0
 10
9.4596766799
 20
8.7689861599
 30
0.0
 10
9.4680212965
 20
8.7684476508
 30
0.0
 10
9.4762732748
 20
8.7674173713
 30
0.0
 10
9.4869975361
 20
8.7654127101
 30
0.0
 10
9.494848311
 20
8.7631817091
 30
0.0
 10
9.4999175326
 20
8.7613673363
 30
0.0
  0
SPLINE
  5
457
100
AcDbEntity
  8
0
100
AcDbSpline
 62
7
  6
CONTINUOUS
 70
0
 71
3
 72
12
 73
8
 74
0
 42
0.0000001
 43
0.0000001
 44
0.0000000001
 40
0.0
 40
0.0
 40
0.0
 40
0.0
 40
0.1290397914
 40
0.2569806262
 40
0.5090800303
 40
0.7565908776
 40
1.0
 40
1.0
 40
1.0
 40
1.0
 10
10.1630474585
 20
9.4787433721
 30
0.0
 10
10.1615936226
 20
9.478290476
 30
0.0
 10
10.1587412737
 20
9.4772436476
 30
0.0
 10
10.1533146327
 20
9.4746510376
 30
0.0
 10
10.1470783756
 20
9.470585856
 30
0.0
 10
10.140555973
 20
9.464680635
 30
0.0
 10
10.1368490808
 20
9.4602004414
 30
0.0
 10
10.135170143
 20
9.4578698444
 30
0.0
  0
SPLINE
  5
458
100
AcDbEntity
  8
0
100
AcDbSpline
 62
9
  6
CONTINUOUS
 70
0
 71
3
 72
13
 73
9
 74
0
 42
0.0000001
 43
0.0000001
 44
0.0000000001
 40
0.0
 40
0.0
 40
0.0
 40
0.0
 40
0.2608851045
 40
0.3896166187
 40
0.5166080291
 40
0.6414733769
 40
0.7638692254
 40
1.0
 40
1.0
 40
1.0
 40
1.0
 10
8.8405003925
 20
8.6807700232
 30
0.0
 10
8.8349369502
 20
8.6804644812
 30
0.0
 10
8.8266431395
 20
8.6795146776
 30
0.0
 10
8.8158385492
 20
8.677254852
 30
0.0
 10
8.8079968062
 20
8.6750937511
 30
0.0
 10
8.8004384751
 20
8.6724739178
 30
0.0
 10
8.7909283343
 20
8.6684447489
 30
0.0
 10
8.7841929736
 20
8.6647264086
 30
0.0
 10
8.7799848126
 20
8.6619470879
 30
0.0
  0
SPLINE
  5
459
100
AcDbEntity
  8
0
100
AcDbSpline
 62
7
  6
CONTINUOUS
 70
0
 71
3
 72
12
 73
8
 74
0
 42
0.0000001
 43
0.0000001
 44
0.0000000001
 40
0.0
 40
0.0
 40
0.0
 40
0.0
 40
0.1302656721
 40
0.2590982301
 40
0.5118996085
 40
0.7586630974
 40
1.0
 40
1.0
 40
1.0
 40
1.0
 10
10.1630474585
 20
9.4866151071
 30
0.0
 10
10.1615952303
 20
9.4861797633
 30
0.0
 10
10.1587465798
 20
9.4851740471
 30
0.0
 10
10.1533275712
 20
9.4826834559
 30
0.0
 10
10.1470989403
 20
9.4787803817
 30
0.0
 10
10.1405726136
 20
9.4730993402
 30
0.0
 10
10.136853394
 20
9.4687768506
 30
0.0
 10
10.135170143
 20
9.4665283361
 30
0.0
  0
SPLINE
  5
45A
100
AcDbEntity
  8
0
100
AcDbSpline
 62
9
  6
CONTINUOUS
 70
0
 71
3
 72
49
 73
45
 74
0
 42
0.0000001
 43
0.0000001
 44
0.0000000001
 40
0.0
 40
0.0
 40
0.0
 40
0.0
 40
0.0128549059
 40
0.025741809
 40
0.0386890529
 40
0.0517269994
 40
0.0648834095
 40
0.0781841522
 40
0.0916531049
 40
0.1053115769
 40
0.1191782295
 40
0.1332689682
 40
0.1621610384
 40
0.1920699302
 40
0.2230217202
 40
0.2550018514
 40
0.2879594231
 40
0.3218119018
 40
0.3564500225
 40
0.3917425235
 40
0.4275407677
 40
0.4636832625
 40
0.5
 40
0.5363167375
 40
0.5724592323
 40
0.6082574765
 40
0.6435499775
 40
0.6781880982
 40
0.7120405769
 40
0.7449981486
 40
0.7769782798
 40
0.8079300698
 40
0.8378389616
 40
0.8667310318
 40
0.8808217705
 40
0.8946884231
 40
0.9083468951
 40
0.9218158478
 40
0.9351165905
 40
0.9482730006
 40
0.9613109471
 40
0.974258191
 40
0.9871450941
 40
1.0
 40
1.0
 40
1.0
 40
1.0
 10
8.796016602
 20
9.8673436584
 30
0.0
 10
8.796016602
 20
9.8709871355
 30
0.0
 10
8.7962703323
 20
9.8782856804
 30
0.0
 10
8.7974102213
 20
9.8892002927
 30
0.0
 10
8.7993070937
 20
9.9000621811
 30
0.0
 10
8.8019559581
 20
9.9108438921
 30
0.0
 10
8.8053501719
 20
9.9215196434
 30
0.0
 10
8.8094812822
 20
9.9320634477
 30
0.0
 10
8.8143390906
 20
9.9424498048
 30
0.0
 10
8.8199114538
 20
9.9526536425
 30
0.0
 10
8.8261849087
 20
9.9626507194
 30
0.0
 10
8.8355398213
 20
9.9757793202
 30
0.0
 10
8.8489576616
 20
9.9915491937
 30
0.0
 10
8.867431855
 20
10.0090996105
 30
0.0
 10
8.8882366501
 20
10.0252771622
 30
0.0
 10
8.9111699452
 20
10.0399289681
 30
0.0
 10
8.9360121286
 20
10.0529186842
 30
0.0
 10
8.962525396
 20
10.0641244625
 30
0.0
 10
8.990456457
 20
10.073440889
 30
0.0
 10
9.0195384722
 20
10.0807800295
 30
0.0
 10
9.0494935546
 20
10.0860725669
 30
0.0
 10
9.0800354304
 20
10.0892682933
 30
0.0
 10
9.1108721297
 20
10.0903368901
 30
0.0
 10
9.141708829
 20
10.0892682933
 30
0.0
 10
9.1722507048
 20
10.0860725669
 30
0.0
 10
9.2022057871
 20
10.0807800295
 30
0.0
 10
9.2312878024
 20
10.073440889
 30
0.0
 10
9.2592188634
 20
10.0641244625
 30
0.0
 10
9.2857321308
 20
10.0529186842
 30
0.0
 10
9.3105743141
 20
10.0399289681
 30
0.0
 10
9.3335076092
 20
10.0252771622
 30
0.0
 10
9.3543124044
 20
10.0090996105
 30
0.0
 10
9.3727865978
 20
9.9915491937
 30
0.0
 10
9.386204438
 20
9.9757793202
 30
0.0
 10
9.3955593506
 20
9.9626507194
 30
0.0
 10
9.4018328056
 20
9.9526536425
 30
0.0
 10
9.4074051687
 20
9.9424498048
 30
0.0
 10
9.4122629771
 20
9.9320634477
 30
0.0
 10
9.4163940875
 20
9.9215196434
 30
0.0
 10
9.4197883013
 20
9.9108438921
 30
0.0
 10
9.4224371657
 20
9.9000621811
 30
0.0
 10
9.4243340381
 20
9.8892002927
 30
0.0
 10
9.4254739271
 20
9.8782856804
 30
0.0
 10
9.4257276573
 20
9.8709871355
 30
0.0
 10
9.4257276573
 20
9.8673436584
 30
0.0
  0
SPLINE
  5
45B
100
AcDbEntity
  8
0
100
AcDbSpline
 62
7
  6
CONTINUOUS
 70
0
 71
3
 72
15
 73
11
 74
0
 42
0.0000001
 43
0.0000001
 44
0.0000000001
 40
0.0
 40
0.0
 40
0.0
 40
0.0
 40
0.1329674128
 40
0.2639117892
 40
0.3925620656
 40
0.5187745283
 40
0.6424964468
 40
0.7638069453
 40
0.8829184823
 40
1.0
 40
1.0
 40
1.0
 40
1.0
 10
10.1904104298
 20
8.5241194817
 30
0.0
 10
10.1918181471
 20
8.524489936
 30
0.0
 10
10.194584022
 20
8.5253375304
 30
0.0
 10
10.1985830266
 20
8.5269231076
 30
0.0
 10
10.2023770116
 20
8.5287892706
 30
0.0
 10
10.2059422392
 20
8.5309111745
 30
0.0
 10
10.20926238
 20
8.5332623555
 30
0.0
 10
10.2123316201
 20
8.5358121405
 30
0.0
 10
10.2151548651
 20
8.5385270829
 30
0.0
 10
10.2168923669
 20
8.5404450963
 30
0.0
 10
10.2177208876
 20
8.5414230545
 30
0.0
  0
SPLINE
  5
45C
100
AcDbEntity
  8
0
100
AcDbSpline
 62
7
  6
CONTINUOUS
 70
0
 71
3
 72
13
 73
9
 74
0
 42
0.0000001
 43
0.0000001
 44
0.0000000001
 40
0.0
 40
0.0
 40
0.0
 40
0.0
 40
0.131626069
 40
0.2614451313
 40
0.3893117475
 40
0.5152087252
 40
0.7610806029
 40
1.0
 40
1.0
 40
1.0
 40
1.0
 10
10.1630474585
 20
9.492264138
 30
0.0
 10
10.1615969812
 20
9.4918483773
 30
0.0
 10
10.158752564
 20
9.4908885874
 30
0.0
 10
10.1546619085
 20
9.4890913836
 30
0.0
 10
10.1507947803
 20
9.486987502
 30
0.0
 10
10.1459956402
 20
9.4838519706
 30
0.0
 10
10.1405912424
 20
9.479359176
 30
0.0
 10
10.1368585298
 20
9.4752142986
 30
0.0
 10
10.135170143
 20
9.4730577774
 30
0.0
  0
SPLINE
  5
45D
100
AcDbEntity
  8
0
100
AcDbSpline
 62
7
  6
CONTINUOUS
 70
0
 71
3
 72
11
 73
7
 74
0
 42
0.0000001
 43
0.0000001
 44
0.0000000001
 40
0.0
 40
0.0
 40
0.0
 40
0.0
 40
0.2639995802
 40
0.518588236
 40
0.7636390993
 40
1.0
 40
1.0
 40
1.0
 40
1.0
 10
10.1630474585
 20
9.4956641263
 30
0.0
 10
10.160176969
 20
9.49488289
 30
0.0
 10
10.1546622928
 20
9.4928496233
 30
0.0
 10
10.1471498189
 20
9.4885849833
 30
0.0
 10
10.1406141787
 20
9.4834318218
 30
0.0
 10
10.1368645853
 20
9.4794826816
 30
0.0
 10
10.135170143
 20
9.4774277251
 30
0.0
  0
SPLINE
  5
45E
100
AcDbEntity
  8
0
100
AcDbSpline
 62
7
  6
CONTINUOUS
 70
0
 71
3
 72
15
 73
11
 74
0
 42
0.0000001
 43
0.0000001
 44
0.0000000001
 40
0.0
 40
0.0
 40
0.0
 40
0.0
 40
0.1269831053
 40
0.2534546408
 40
0.3793386632
 40
0.5046182348
 40
0.6292856681
 40
0.7533637396
 40
0.8769301439
 40
1.0
 40
1.0
 40
1.0
 40
1.0
 10
10.1904104298
 20
8.5632948194
 30
0.0
 10
10.1918249808
 20
8.5637469968
 30
0.0
 10
10.1946072564
 20
8.5647842024
 30
0.0
 10
10.1986083678
 20
8.5667139917
 30
0.0
 10
10.2024032971
 20
8.5689845093
 30
0.0
 10
10.2059680146
 20
8.5715651023
 30
0.0
 10
10.2092860994
 20
8.5744229487
 30
0.0
 10
10.2123522872
 20
8.5775204263
 30
0.0
 10
10.2151723429
 20
8.5808178627
 30
0.0
 10
10.2168971282
 20
8.5831327148
 30
0.0
 10
10.217720487
 20
8.5843132505
 30
0.0
  0
SPLINE
  5
45F
100
AcDbEntity
  8
0
100
AcDbSpline
 62
9
  6
CONTINUOUS
 70
0
 71
3
 72
49
 73
45
 74
0
 42
0.0000001
 43
0.0000001
 44
0.0000000001
 40
0.0
 40
0.0
 40
0.0
 40
0.0
 40
0.0128549059
 40
0.025741809
 40
0.0386890529
 40
0.0517269994
 40
0.0648834095
 40
0.0781841522
 40
0.0916531049
 40
0.1053115769
 40
0.1191782295
 40
0.1332689682
 40
0.1621610384
 40
0.1920699302
 40
0.2230217202
 40
0.2550018514
 40
0.2879594231
 40
0.3218119018
 40
0.3564500225
 40
0.3917425235
 40
0.4275407677
 40
0.4636832625
 40
0.5
 40
0.5363167375
 40
0.5724592323
 40
0.6082574765
 40
0.6435499775
 40
0.6781880982
 40
0.7120405769
 40
0.7449981486
 40
0.7769782798
 40
0.8079300698
 40
0.8378389616
 40
0.8667310318
 40
0.8808217705
 40
0.8946884231
 40
0.9083468951
 40
0.9218158478
 40
0.9351165905
 40
0.9482730006
 40
0.9613109471
 40
0.974258191
 40
0.9871450941
 40
1.0
 40
1.0
 40
1.0
 40
1.0
 10
8.796016602
 20
9.8673436584
 30
0.0
 10
8.796016602
 20
9.8637001814
 30
0.0
 10
8.7962703323
 20
9.8564016365
 30
0.0
 10
8.7974102213
 20
9.8454870241
 30
0.0
 10
8.7993070937
 20
9.8346251358
 30
0.0
 10
8.8019559581
 20
9.8238434248
 30
0.0
 10
8.8053501719
 20
9.8131676735
 30
0.0
 10
8.8094812822
 20
9.8026238692
 30
0.0
 10
8.8143390906
 20
9.792237512
 30
0.0
 10
8.8199114538
 20
9.7820336744
 30
0.0
 10
8.8261849087
 20
9.7720365975
 30
0.0
 10
8.8355398213
 20
9.7589079967
 30
0.0
 10
8.8489576616
 20
9.7431381231
 30
0.0
 10
8.867431855
 20
9.7255877063
 30
0.0
 10
8.8882366501
 20
9.7094101547
 30
0.0
 10
8.9111699452
 20
9.6947583487
 30
0.0
 10
8.9360121286
 20
9.6817686327
 30
0.0
 10
8.962525396
 20
9.6705628543
 30
0.0
 10
8.990456457
 20
9.6612464279
 30
0.0
 10
9.0195384722
 20
9.6539072874
 30
0.0
 10
9.0494935546
 20
9.64861475
 30
0.0
 10
9.0800354304
 20
9.6454190236
 30
0.0
 10
9.1108721297
 20
9.6443504268
 30
0.0
 10
9.141708829
 20
9.6454190236
 30
0.0
 10
9.1722507048
 20
9.64861475
 30
0.0
 10
9.2022057871
 20
9.6539072874
 30
0.0
 10
9.2312878024
 20
9.6612464279
 30
0.0
 10
9.2592188634
 20
9.6705628543
 30
0.0
 10
9.2857321308
 20
9.6817686327
 30
0.0
 10
9.3105743141
 20
9.6947583487
 30
0.0
 10
9.3335076092
 20
9.7094101547
 30
0.0
 10
9.3543124044
 20
9.7255877063
 30
0.0
 10
9.3727865978
 20
9.7431381231
 30
0.0
 10
9.386204438
 20
9.7589079967
 30
0.0
 10
9.3955593506
 20
9.7720365975
 30
0.0
 10
9.4018328056
 20
9.7820336744
 30
0.0
 10
9.4074051687
 20
9.792237512
 30
0.0
 10
9.4122629771
 20
9.8026238692
 30
0.0
 10
9.4163940875
 20
9.8131676735
 30
0.0
 10
9.4197883013
 20
9.8238434248
 30
0.0
 10
9.4224371657
 20
9.8346251358
 30
0.0
 10
9.4243340381
 20
9.8454870241
 30
0.0
 10
9.4254739271
 20
9.8564016365
 30
0.0
 10
9.4257276573
 20
9.8637001814
 30
0.0
 10
9.4257276573
 20
9.8673436584
 30
0.0
  0
SPLINE
  5
460
100
AcDbEntity
  8
0
100
AcDbSpline
 62
7
  6
CONTINUOUS
 70
0
 71
3
 72
15
 73
11
 74
0
 42
0.0000001
 43
0.0000001
 44
0.0000000001
 40
0.0
 40
0.0
 40
0.0
 40
0.0
 40
0.1314615342
 40
0.2612721714
 40
0.3892131054
 40
0.5151774906
 40
0.6391290911
 40
0.7611367691
 40
0.8813821487
 40
1.0
 40
1.0
 40
1.0
 40
1.0
 10
10.1904104298
 20
8.9108275625
 30
0.0
 10
10.191819743
 20
8.9112181628
 30
0.0
 10
10.1945895216
 20
8.9121124098
 30
0.0
 10
10.1985890965
 20
8.9137831284
 30
0.0
 10
10.2023834068
 20
8.9157493625
 30
0.0
 10
10.2059486255
 20
8.9179848696
 30
0.0
 10
10.2092683613
 20
8.9204616085
 30
0.0
 10
10.2123369431
 20
8.9231470926
 30
0.0
 10
10.2151593572
 20
8.9260064414
 30
0.0
 10
10.216893366
 20
8.9280229773
 30
0.0
 10
10.2177204485
 20
8.9290511682
 30
0.0
  0
SPLINE
  5
461
100
AcDbEntity
  8
0
100
AcDbSpline
 62
7
  6
CONTINUOUS
 70
0
 71
3
 72
13
 73
9
 74
0
 42
0.0000001
 43
0.0000001
 44
0.0000000001
 40
0.0
 40
0.0
 40
0.0
 40
0.0
 40
0.2801976864
 40
0.4134224525
 40
0.5414008234
 40
0.6639035897
 40
0.7809783523
 40
1.0
 40
1.0
 40
1.0
 40
1.0
 10
10.1904104298
 20
8.9108275625
 30
0.0
 10
10.1931662353
 20
8.9103418007
 30
0.0
 10
10.1971993069
 20
8.9094033945
 30
0.0
 10
10.2023378997
 20
8.9077137663
 30
0.0
 10
10.2059008807
 20
8.9062963177
 30
0.0
 10
10.2092211767
 20
8.9047246483
 30
0.0
 10
10.2132269606
 20
8.9025002002
 30
0.0
 10
10.2160046633
 20
8.9005942174
 30
0.0
 10
10.2177204999
 20
8.8992376267
 30
0.0
  0
SPLINE
  5
462
100
AcDbEntity
  8
0
100
AcDbSpline
 62
7
  6
CONTINUOUS
 70
0
 71
3
 72
13
 73
9
 74
0
 42
0.0000001
 43
0.0000001
 44
0.0000000001
 40
0.0
 40
0.0
 40
0.0
 40
0.0
 40
0.2801990409
 40
0.4134240068
 40
0.5414022418
 40
0.6639044952
 40
0.7809784104
 40
1.0
 40
1.0
 40
1.0
 40
1.0
 10
10.1904104298
 20
9.1089560456
 30
0.0
 10
10.1931663736
 20
9.1094418317
 30
0.0
 10
10.197199642
 20
9.1103802948
 30
0.0
 10
10.2023384684
 20
9.112070044
 30
0.0
 10
10.2059015914
 20
9.1134875947
 30
0.0
 10
10.2092220021
 20
9.1150593771
 30
0.0
 10
10.2132279079
 20
9.1172840059
 30
0.0
 10
10.2160056999
 20
9.1191901054
 30
0.0
 10
10.2177216161
 20
9.1205467544
 30
0.0
  0
SPLINE
  5
463
100
AcDbEntity
  8
0
100
AcDbSpline
 62
7
  6
CONTINUOUS
 70
0
 71
3
 72
15
 73
11
 74
0
 42
0.0000001
 43
0.0000001
 44
0.0000000001
 40
0.0
 40
0.0
 40
0.0
 40
0.0
 40
0.1314615059
 40
0.2612721195
 40
0.389213062
 40
0.515177473
 40
0.6391290803
 40
0.7611367761
 40
0.8813821672
 40
1.0
 40
1.0
 40
1.0
 40
1.0
 10
10.1904104298
 20
9.1089560456
 30
0.0
 10
10.1918197359
 20
9.1085654472
 30
0.0
 10
10.1945895006
 20
9.1076712053
 30
0.0
 10
10.1985890567
 20
9.1060004977
 30
0.0
 10
10.2023833507
 20
9.1040342769
 30
0.0
 10
10.2059485559
 20
9.101798786
 30
0.0
 10
10.2092682801
 20
9.0993220641
 30
0.0
 10
10.2123368532
 20
9.0966365996
 30
0.0
 10
10.2151592608
 20
9.0937772717
 30
0.0
 10
10.2168932651
 20
9.0917607487
 30
0.0
 10
10.2177203433
 20
9.0907325628
 30
0.0
  0
SPLINE
  5
464
100
AcDbEntity
  8
0
100
AcDbSpline
 62
7
  6
CONTINUOUS
 70
0
 71
3
 72
15
 73
11
 74
0
 42
0.0000001
 43
0.0000001
 44
0.0000000001
 40
0.0
 40
0.0
 40
0.0
 40
0.0
 40
0.1253068093
 40
0.25054077
 40
0.3756747042
 40
0.5007185125
 40
0.6256673688
 40
0.7505194736
 40
0.8753080904
 40
1.0
 40
1.0
 40
1.0
 40
1.0
 10
10.1904104298
 20
8.7026104039
 30
0.0
 10
10.1918271207
 20
8.7030865389
 30
0.0
 10
10.1946143694
 20
8.7041794961
 30
0.0
 10
10.1986158801
 20
8.706209543
 30
0.0
 10
10.2024108143
 20
8.7085977087
 30
0.0
 10
10.2059751041
 20
8.7113116208
 30
0.0
 10
10.2092923692
 20
8.7143166162
 30
0.0
 10
10.2123575381
 20
8.7175731268
 30
0.0
 10
10.2151766431
 20
8.721039698
 30
0.0
 10
10.2168982709
 20
8.7234695735
 30
0.0
 10
10.2177203919
 20
8.7247089145
 30
0.0
  0
SPLINE
  5
465
100
AcDbEntity
  8
0
100
AcDbSpline
 62
7
  6
CONTINUOUS
 70
0
 71
3
 72
11
 73
7
 74
0
 42
0.0000001
 43
0.0000001
 44
0.0000000001
 40
0.0
 40
0.0
 40
0.0
 40
0.0
 40
0.2988570489
 40
0.5678977243
 40
0.8016992501
 40
1.0
 40
1.0
 40
1.0
 40
1.0
 10
10.1904104298
 20
8.7026104039
 30
0.0
 10
10.1931351799
 20
8.7025473227
 30
0.0
 10
10.1983120771
 20
8.7023900849
 30
0.0
 10
10.2056157125
 20
8.7020482202
 30
0.0
 10
10.2119962907
 20
8.7016246182
 30
0.0
 10
10.2159218681
 20
8.7012749505
 30
0.0
 10
10.217720635
 20
8.7010881637
 30
0.0
  0
SPLINE
  5
466
100
AcDbEntity
  8
0
100
AcDbSpline
 62
7
  6
CONTINUOUS
 70
0
 71
3
 72
13
 73
9
 74
0
 42
0.0000001
 43
0.0000001
 44
0.0000000001
 40
0.0
 40
0.0
 40
0.0
 40
0.0
 40
0.2766376029
 40
0.4088569635
 40
0.5364332646
 40
0.6591858428
 40
0.7771818696
 40
1.0
 40
1.0
 40
1.0
 40
1.0
 10
10.1904104298
 20
9.0761923553
 30
0.0
 10
10.1931731834
 20
9.0767328561
 30
0.0
 10
10.197215328
 20
9.0777783464
 30
0.0
 10
10.2023457247
 20
9.0796514609
 30
0.0
 10
10.2059094717
 20
9.081225654
 30
0.0
 10
10.209230057
 20
9.0829709776
 30
0.0
 10
10.2132475487
 20
9.0854480731
 30
0.0
 10
10.2160155816
 20
9.0875599498
 30
0.0
 10
10.2177198856
 20
9.089055501
 30
0.0
  0
SPLINE
  5
467
100
AcDbEntity
  8
0
100
AcDbSpline
 62
7
  6
CONTINUOUS
 70
0
 71
3
 72
15
 73
11
 74
0
 42
0.0000001
 43
0.0000001
 44
0.0000000001
 40
0.0
 40
0.0
 40
0.0
 40
0.0
 40
0.1329675504
 40
0.2639120055
 40
0.3925622979
 40
0.518774728
 40
0.6424965448
 40
0.7638068764
 40
0.8829183754
 40
1.0
 40
1.0
 40
1.0
 40
1.0
 10
10.1904104298
 20
9.0761923553
 30
0.0
 10
10.1918181784
 20
9.0758218928
 30
0.0
 10
10.1945841138
 20
9.0749742771
 30
0.0
 10
10.1985832018
 20
9.0733886546
 30
0.0
 10
10.2023772599
 20
9.0715224343
 30
0.0
 10
10.2059425492
 20
9.0694004639
 30
0.0
 10
10.2092627403
 20
9.0670492094
 30
0.0
 10
10.212332014
 20
9.0644993373
 30
0.0
 10
10.2151553001
 20
9.0617843201
 30
0.0
 10
10.2168928391
 20
9.0598662655
 30
0.0
 10
10.217721379
 20
9.0588882863
 30
0.0
  0
SPLINE
  5
468
100
AcDbEntity
  8
0
100
AcDbSpline
 62
7
  6
CONTINUOUS
 70
0
 71
3
 72
13
 73
9
 74
0
 42
0.0000001
 43
0.0000001
 44
0.0000000001
 40
0.0
 40
0.0
 40
0.0
 40
0.0
 40
0.2731625875
 40
0.4044122657
 40
0.5316110779
 40
0.6546208514
 40
0.7735198124
 40
1.0
 40
1.0
 40
1.0
 40
1.0
 10
10.1904104298
 20
9.0431195412
 30
0.0
 10
10.1931806271
 20
9.0437126299
 30
0.0
 10
10.1972322091
 20
9.0448612719
 30
0.0
 10
10.2023546158
 20
9.0469088971
 30
0.0
 10
10.2059192414
 20
9.0486328427
 30
0.0
 10
10.2092401334
 20
9.0505439845
 30
0.0
 10
10.2132685435
 20
9.0532635115
 30
0.0
 10
10.2160273809
 20
9.0555706897
 30
0.0
 10
10.2177215459
 20
9.057197592
 30
0.0
  0
SPLINE
  5
469
100
AcDbEntity
  8
0
100
AcDbSpline
 62
7
  6
CONTINUOUS
 70
0
 71
3
 72
12
 73
8
 74
0
 42
0.0000001
 43
0.0000001
 44
0.0000000001
 40
0.0
 40
0.0
 40
0.0
 40
0.0
 40
0.2667474403
 40
0.5226217699
 40
0.6461668784
 40
0.7667801443
 40
1.0
 40
1.0
 40
1.0
 40
1.0
 10
10.1904104298
 20
9.0431195412
 30
0.0
 10
10.1931948922
 20
9.0424291737
 30
0.0
 10
10.1985576334
 20
9.0406638516
 30
0.0
 10
10.204776101
 20
9.0374982101
 30
0.0
 10
10.2092540928
 20
9.0345114882
 30
0.0
 10
10.2133005421
 20
9.0313459514
 30
0.0
 10
10.2160419366
 20
9.0286838841
 30
0.0
 10
10.2177190144
 20
9.0268188263
 30
0.0
  0
SPLINE
  5
46A
100
AcDbEntity
  8
0
100
AcDbSpline
 62
7
  6
CONTINUOUS
 70
0
 71
3
 72
15
 73
11
 74
0
 42
0.0000001
 43
0.0000001
 44
0.0000000001
 40
0.0
 40
0.0
 40
0.0
 40
0.0
 40
0.1257046904
 40
0.2512323616
 40
0.3765439807
 40
0.5016423375
 40
0.6265223655
 40
0.7511902236
 40
0.8756904795
 40
1.0
 40
1.0
 40
1.0
 40
1.0
 10
10.1904104298
 20
8.5938686597
 30
0.0
 10
10.1918266245
 20
8.594339054
 30
0.0
 10
10.1946127269
 20
8.5954186493
 30
0.0
 10
10.1986142264
 20
8.5974247209
 30
0.0
 10
10.2024092316
 20
8.5997847688
 30
0.0
 10
10.2059736823
 20
8.6024667943
 30
0.0
 10
10.2092911925
 20
8.6054365909
 30
0.0
 10
10.212356576
 20
8.6086551466
 30
0.0
 10
10.2151760337
 20
8.6120812318
 30
0.0
 10
10.216898502
 20
8.6144835874
 30
0.0
 10
10.2177209351
 20
8.615708873
 30
0.0
  0
SPLINE
  5
46B
100
AcDbEntity
  8
0
100
AcDbSpline
 62
7
  6
CONTINUOUS
 70
0
 71
3
 72
12
 73
8
 74
0
 42
0.0000001
 43
0.0000001
 44
0.0000000001
 40
0.0
 40
0.0
 40
0.0
 40
0.0
 40
0.2698786313
 40
0.526932004
 40
0.6502214113
 40
0.7700114888
 40
1.0
 40
1.0
 40
1.0
 40
1.0
 10
10.1904104298
 20
9.009891804
 30
0.0
 10
10.1931876561
 20
9.0105348867
 30
0.0
 10
10.1985297802
 20
9.0121748163
 30
0.0
 10
10.2047580586
 20
9.0151312582
 30
0.0
 10
10.209246618
 20
9.0179261087
 30
0.0
 10
10.2132845353
 20
9.0208752126
 30
0.0
 10
10.2160342351
 20
9.0233657784
 30
0.0
 10
10.2177192035
 20
9.0251158168
 30
0.0
  0
SPLINE
  5
46C
100
AcDbEntity
  8
0
100
AcDbSpline
 62
7
  6
CONTINUOUS
 70
0
 71
3
 72
12
 73
8
 74
0
 42
0.0000001
 43
0.0000001
 44
0.0000000001
 40
0.0
 40
0.0
 40
0.0
 40
0.0
 40
0.2698797759
 40
0.5269330559
 40
0.6502219218
 40
0.7700111231
 40
1.0
 40
1.0
 40
1.0
 40
1.0
 10
10.1904104298
 20
9.009891804
 30
0.0
 10
10.1931878708
 20
9.0092486717
 30
0.0
 10
10.1985303908
 20
9.0076085899
 30
0.0
 10
10.2047590805
 20
9.0046518193
 30
0.0
 10
10.209247885
 20
9.0018566588
 30
0.0
 10
10.2132859715
 20
8.998907186
 30
0.0
 10
10.216035834
 20
8.9964164162
 30
0.0
 10
10.2177209337
 20
8.9946662525
 30
0.0
  0
SPLINE
  5
46D
100
AcDbEntity
  8
0
100
AcDbSpline
 62
7
  6
CONTINUOUS
 70
0
 71
3
 72
12
 73
8
 74
0
 42
0.0000001
 43
0.0000001
 44
0.0000000001
 40
0.0
 40
0.0
 40
0.0
 40
0.0
 40
0.2667487396
 40
0.5226230314
 40
0.6461676099
 40
0.7667800446
 40
1.0
 40
1.0
 40
1.0
 40
1.0
 10
10.1904104298
 20
8.9766640669
 30
0.0
 10
10.1931951664
 20
8.9773545023
 30
0.0
 10
10.1985584148
 20
8.9791200344
 30
0.0
 10
10.2047774032
 20
8.9822861217
 30
0.0
 10
10.2092557016
 20
8.985273267
 30
0.0
 10
10.2133023701
 20
8.9884392845
 30
0.0
 10
10.216043933
 20
8.9911016655
 30
0.0
 10
10.2177211745
 20
8.9929668933
 30
0.0
  0
SPLINE
  5
46E
100
AcDbEntity
  8
0
100
AcDbSpline
 62
7
  6
CONTINUOUS
 70
0
 71
3
 72
13
 73
9
 74
0
 42
0.0000001
 43
0.0000001
 44
0.0000000001
 40
0.0
 40
0.0
 40
0.0
 40
0.0
 40
0.2731598345
 40
0.40440962
 40
0.5316083131
 40
0.6546178743
 40
0.7735179611
 40
1.0
 40
1.0
 40
1.0
 40
1.0
 10
10.1904104298
 20
8.9766640669
 30
0.0
 10
10.1931802683
 20
8.976071055
 30
0.0
 10
10.1972313455
 20
8.9749225937
 30
0.0
 10
10.202353158
 20
8.9728753371
 30
0.0
 10
10.2059174137
 20
8.9711517213
 30
0.0
 10
10.209238001
 20
8.9692409519
 30
0.0
 10
10.2132660973
 20
8.9665219503
 30
0.0
 10
10.2160247372
 20
8.9642151396
 30
0.0
 10
10.2177187068
 20
8.9625884111
 30
0.0
  0
SPLINE
  5
46F
100
AcDbEntity
  8
0
100
AcDbSpline
 62
7
  6
CONTINUOUS
 70
0
 71
3
 72
15
 73
11
 74
0
 42
0.0000001
 43
0.0000001
 44
0.0000000001
 40
0.0
 40
0.0
 40
0.0
 40
0.0
 40
0.1262632669
 40
0.2522031058
 40
0.3777643166
 40
0.5029408744
 40
0.6277268879
 40
0.7521368162
 40
0.8762301897
 40
1.0
 40
1.0
 40
1.0
 40
1.0
 10
10.1904104298
 20
8.7569025256
 30
0.0
 10
10.191825915
 20
8.7573649208
 30
0.0
 10
10.1946103682
 20
8.7584259001
 30
0.0
 10
10.1986117558
 20
8.7603985099
 30
0.0
 10
10.2024067793
 20
8.7627192946
 30
0.0
 10
10.2059713898
 20
8.7653568294
 30
0.0
 10
10.2092891868
 20
8.7682775216
 30
0.0
 10
10.2123549206
 20
8.7714430081
 30
0.0
 10
10.2151747022
 20
8.7748126507
 30
0.0
 10
10.2168982237
 20
8.7771766214
 30
0.0
 10
10.217721071
 20
8.7783822812
 30
0.0
  0
SPLINE
  5
470
100
AcDbEntity
  8
0
100
AcDbSpline
 62
7
  6
CONTINUOUS
 70
0
 71
3
 72
13
 73
9
 74
0
 42
0.0000001
 43
0.0000001
 44
0.0000000001
 40
0.0
 40
0.0
 40
0.0
 40
0.0
 40
0.2958394094
 40
0.4336220164
 40
0.5635624761
 40
0.7982284689
 40
0.9030911221
 40
1.0
 40
1.0
 40
1.0
 40
1.0
 10
10.1904104298
 20
8.7569025256
 30
0.0
 10
10.1931393767
 20
8.7567141674
 30
0.0
 10
10.1971344034
 20
8.7563524041
 30
0.0
 10
10.2023033078
 20
8.7556881263
 30
0.0
 10
10.2068937484
 20
8.7549742986
 30
0.0
 10
10.2111550353
 20
8.7541296914
 30
0.0
 10
10.2150695553
 20
8.7531466233
 30
0.0
 10
10.2168626837
 20
8.7526297007
 30
0.0
 10
10.2177186558
 20
8.7523646983
 30
0.0
  0
SPLINE
  5
471
100
AcDbEntity
  8
0
100
AcDbSpline
 62
7
  6
CONTINUOUS
 70
0
 71
3
 72
15
 73
11
 74
0
 42
0.0000001
 43
0.0000001
 44
0.0000000001
 40
0.0
 40
0.0
 40
0.0
 40
0.0
 40
0.1249880857
 40
0.2499880927
 40
0.3749812822
 40
0.4999810823
 40
0.6249828463
 40
0.74998147
 40
0.8750018445
 40
1.0
 40
1.0
 40
1.0
 40
1.0
 10
10.1904104298
 20
8.6540423533
 30
0.0
 10
10.1918273994
 20
8.6545230593
 30
0.0
 10
10.1946153493
 20
8.6556266499
 30
0.0
 10
10.1986165734
 20
8.6576757395
 30
0.0
 10
10.2024111843
 20
8.6600862285
 30
0.0
 10
10.2059751132
 20
8.6628253937
 30
0.0
 10
10.2092919989
 20
8.6658582454
 30
0.0
 10
10.2123567733
 20
8.6691449195
 30
0.0
 10
10.2151756212
 20
8.6726435474
 30
0.0
 10
10.2168965854
 20
8.6750952763
 30
0.0
 10
10.2177184064
 20
8.6763458169
 30
0.0
  0
SPLINE
  5
472
100
AcDbEntity
  8
0
100
AcDbSpline
 62
7
  6
CONTINUOUS
 70
0
 71
3
 72
15
 73
11
 74
0
 42
0.0000001
 43
0.0000001
 44
0.0000000001
 40
0.0
 40
0.0
 40
0.0
 40
0.0
 40
0.1289039271
 40
0.2568024961
 40
0.3835600826
 40
0.5091232195
 40
0.6334757962
 40
0.7566656285
 40
0.8788181723
 40
1.0
 40
1.0
 40
1.0
 40
1.0
 10
10.1904104298
 20
8.541040236
 30
0.0
 10
10.1918224925
 20
8.5414655697
 30
0.0
 10
10.1945989682
 20
8.5424403803
 30
0.0
 10
10.1985990933
 20
8.544257416
 30
0.0
 10
10.2023935047
 20
8.5463955335
 30
0.0
 10
10.205958245
 20
8.5488259875
 30
0.0
 10
10.2092768902
 20
8.5515180541
 30
0.0
 10
10.2123439589
 20
8.5544363898
 30
0.0
 10
10.215164951
 20
8.5575433172
 30
0.0
 10
10.216893436
 20
8.5597285925
 30
0.0
 10
10.2177182289
 20
8.5608429449
 30
0.0
  0
SPLINE
  5
473
100
AcDbEntity
  8
0
100
AcDbSpline
 62
9
  6
CONTINUOUS
 70
0
 71
3
 72
49
 73
45
 74
0
 42
0.0000001
 43
0.0000001
 44
0.0000000001
 40
0.0
 40
0.0
 40
0.0
 40
0.0
 40
0.0128549059
 40
0.025741809
 40
0.0386890529
 40
0.0517269994
 40
0.0648834095
 40
0.0781841522
 40
0.0916531049
 40
0.1053115769
 40
0.1191782295
 40
0.1332689682
 40
0.1621610384
 40
0.1920699302
 40
0.2230217202
 40
0.2550018514
 40
0.2879594231
 40
0.3218119018
 40
0.3564500225
 40
0.3917425235
 40
0.4275407677
 40
0.4636832625
 40
0.5
 40
0.5363167375
 40
0.5724592323
 40
0.6082574765
 40
0.6435499775
 40
0.6781880982
 40
0.7120405769
 40
0.7449981486
 40
0.7769782798
 40
0.8079300698
 40
0.8378389616
 40
0.8667310318
 40
0.8808217705
 40
0.8946884231
 40
0.9083468951
 40
0.9218158478
 40
0.9351165905
 40
0.9482730006
 40
0.9613109471
 40
0.974258191
 40
0.9871450941
 40
1.0
 40
1.0
 40
1.0
 40
1.0
 10
8.796016602
 20
8.1524399497
 30
0.0
 10
8.796016602
 20
8.1560834267
 30
0.0
 10
8.7962703323
 20
8.1633819716
 30
0.0
 10
8.7974102213
 20
8.174296584
 30
0.0
 10
8.7993070937
 20
8.1851584723
 30
0.0
 10
8.8019559581
 20
8.1959401833
 30
0.0
 10
8.8053501719
 20
8.2066159346
 30
0.0
 10
8.8094812822
 20
8.2171597389
 30
0.0
 10
8.8143390906
 20
8.2275460961
 30
0.0
 10
8.8199114538
 20
8.2377499337
 30
0.0
 10
8.8261849087
 20
8.2477470106
 30
0.0
 10
8.8355398213
 20
8.2608756114
 30
0.0
 10
8.8489576616
 20
8.276645485
 30
0.0
 10
8.867431855
 20
8.2941959018
 30
0.0
 10
8.8882366501
 20
8.3103734534
 30
0.0
 10
8.9111699452
 20
8.3250252594
 30
0.0
 10
8.9360121286
 20
8.3380149754
 30
0.0
 10
8.962525396
 20
8.3492207538
 30
0.0
 10
8.990456457
 20
8.3585371802
 30
0.0
 10
9.0195384722
 20
8.3658763207
 30
0.0
 10
9.0494935546
 20
8.3711688581
 30
0.0
 10
9.0800354304
 20
8.3743645845
 30
0.0
 10
9.1108721297
 20
8.3754331813
 30
0.0
 10
9.141708829
 20
8.3743645845
 30
0.0
 10
9.1722507048
 20
8.3711688581
 30
0.0
 10
9.2022057871
 20
8.3658763207
 30
0.0
 10
9.2312878024
 20
8.3585371802
 30
0.0
 10
9.2592188634
 20
8.3492207538
 30
0.0
 10
9.2857321308
 20
8.3380149754
 30
0.0
 10
9.3105743141
 20
8.3250252594
 30
0.0
 10
9.3335076092
 20
8.3103734534
 30
0.0
 10
9.3543124044
 20
8.2941959018
 30
0.0
 10
9.3727865978
 20
8.276645485
 30
0.0
 10
9.386204438
 20
8.2608756114
 30
0.0
 10
9.3955593506
 20
8.2477470106
 30
0.0
 10
9.4018328056
 20
8.2377499337
 30
0.0
 10
9.4074051687
 20
8.2275460961
 30
0.0
 10
9.4122629771
 20
8.2171597389
 30
0.0
 10
9.4163940875
 20
8.2066159346
 30
0.0
 10
9.4197883013
 20
8.1959401833
 30
0.0
 10
9.4224371657
 20
8.1851584723
 30
0.0
 10
9.4243340381
 20
8.174296584
 30
0.0
 10
9.4254739271
 20
8.1633819716
 30
0.0
 10
9.4257276573
 20
8.1560834267
 30
0.0
 10
9.4257276573
 20
8.1524399497
 30
0.0
  0
SPLINE
  5
474
100
AcDbEntity
  8
0
100
AcDbSpline
 62
7
  6
CONTINUOUS
 70
0
 71
3
 72
15
 73
11
 74
0
 42
0.0000001
 43
0.0000001
 44
0.0000000001
 40
0.0
 40
0.0
 40
0.0
 40
0.0
 40
0.1278636352
 40
0.2549879476
 40
0.3812702634
 40
0.5066780922
 40
0.6312004439
 40
0.7548714379
 40
0.877791473
 40
1.0
 40
1.0
 40
1.0
 40
1.0
 10
10.1904104298
 20
8.8159073589
 30
0.0
 10
10.1918239609
 20
8.816347198
 30
0.0
 10
10.1946038119
 20
8.8173557238
 30
0.0
 10
10.1986048394
 20
8.8192337819
 30
0.0
 10
10.2023998596
 20
8.8214435839
 30
0.0
 10
10.2059648731
 20
8.8239553507
 30
0.0
 10
10.2092834499
 20
8.8267372133
 30
0.0
 10
10.2123501887
 20
8.8297526066
 30
0.0
 10
10.2151708586
 20
8.8329626473
 30
0.0
 10
10.2168974944
 20
8.835218011
 30
0.0
 10
10.2177215763
 20
8.836368164
 30
0.0
  0
SPLINE
  5
475
100
AcDbEntity
  8
0
100
AcDbSpline
 62
7
  6
CONTINUOUS
 70
0
 71
3
 72
14
 73
10
 74
0
 42
0.0000001
 43
0.0000001
 44
0.0000000001
 40
0.0
 40
0.0
 40
0.0
 40
0.0
 40
0.2904568696
 40
0.4266423023
 40
0.5558660578
 40
0.6777263619
 40
0.7921699449
 40
0.8994853531
 40
1.0
 40
1.0
 40
1.0
 40
1.0
 10
10.1904104298
 20
8.8159073589
 30
0.0
 10
10.1931476924
 20
8.8155963848
 30
0.0
 10
10.1971550287
 20
8.8149979338
 30
0.0
 10
10.20231401
 20
8.8139060169
 30
0.0
 10
10.2058734833
 20
8.8129945051
 30
0.0
 10
10.2091910717
 20
8.8119838608
 30
0.0
 10
10.2122612987
 20
8.8108866592
 30
0.0
 10
10.21508686
 20
8.8097176615
 30
0.0
 10
10.2168683959
 20
8.808871515
 30
0.0
 10
10.2177178125
 20
8.8084386721
 30
0.0
  0
SPLINE
  5
476
100
AcDbEntity
  8
0
100
AcDbSpline
 62
7
  6
CONTINUOUS
 70
0
 71
3
 72
15
 73
11
 74
0
 42
0.0000001
 43
0.0000001
 44
0.0000000001
 40
0.0
 40
0.0
 40
0.0
 40
0.0
 40
0.1289039201
 40
0.2568024848
 40
0.3835600705
 40
0.5091232091
 40
0.6334757911
 40
0.7566656318
 40
0.8788181774
 40
1.0
 40
1.0
 40
1.0
 40
1.0
 10
10.1904104298
 20
8.8468364375
 30
0.0
 10
10.1918224891
 20
8.8472617702
 30
0.0
 10
10.1945989583
 20
8.8482365782
 30
0.0
 10
10.1985990744
 20
8.8500536083
 30
0.0
 10
10.2023934781
 20
8.8521917188
 30
0.0
 10
10.2059582118
 20
8.8546221646
 30
0.0
 10
10.2092768517
 20
8.8573142222
 30
0.0
 10
10.2123439168
 20
8.8602325474
 30
0.0
 10
10.2151649047
 20
8.8633394657
 30
0.0
 10
10.2168933858
 20
8.8655247358
 30
0.0
 10
10.2177181766
 20
8.8666390856
 30
0.0
  0
SPLINE
  5
477
100
AcDbEntity
  8
0
100
AcDbSpline
 62
7
  6
CONTINUOUS
 70
0
 71
3
 72
14
 73
10
 74
0
 42
0.0000001
 43
0.0000001
 44
0.0000000001
 40
0.0
 40
0.0
 40
0.0
 40
0.0
 40
0.2872036457
 40
0.4224368524
 40
0.5512462391
 40
0.6732894
 40
0.7885522112
 40
0.897343092
 40
1.0
 40
1.0
 40
1.0
 40
1.0
 10
10.1904104298
 20
8.8468364375
 30
0.0
 10
10.1931536109
 20
8.8464656765
 30
0.0
 10
10.1971694023
 20
8.8457512778
 30
0.0
 10
10.2023229048
 20
8.8444530243
 30
0.0
 10
10.2058840073
 20
8.8433675914
 30
0.0
 10
10.209202877
 20
8.8421641049
 30
0.0
 10
10.2122739735
 20
8.8408575841
 30
0.0
 10
10.2151002511
 20
8.8394656413
 30
0.0
 10
10.2168755035
 20
8.838461972
 30
0.0
 10
10.2177215962
 20
8.8379490466
 30
0.0
  0
SPLINE
  5
478
100
AcDbEntity
  8
0
100
AcDbSpline
 62
7
  6
CONTINUOUS
 70
0
 71
3
 72
15
 73
11
 74
0
 42
0.0000001
 43
0.0000001
 44
0.0000000001
 40
0.0
 40
0.0
 40
0.0
 40
0.0
 40
0.126982355
 40
0.253454046
 40
0.3793384068
 40
0.5046172782
 40
0.6292833038
 40
0.7533614083
 40
0.8769292607
 40
1.0
 40
1.0
 40
1.0
 40
1.0
 10
10.1904104298
 20
8.7858827254
 30
0.0
 10
10.1918247851
 20
8.7863348402
 30
0.0
 10
10.1946066917
 20
8.7873718855
 30
0.0
 10
10.1986073048
 20
8.7893013439
 30
0.0
 10
10.2024017928
 20
8.7915714505
 30
0.0
 10
10.2059661312
 20
8.7941515337
 30
0.0
 10
10.2092839183
 20
8.7970088006
 30
0.0
 10
10.2123498427
 20
8.8001057262
 30
0.0
 10
10.2151697778
 20
8.8034025447
 30
0.0
 10
10.2168944414
 20
8.8057170506
 30
0.0
 10
10.2177176944
 20
8.8068974403
 30
0.0
  0
SPLINE
  5
479
100
AcDbEntity
  8
0
100
AcDbSpline
 62
7
  6
CONTINUOUS
 70
0
 71
3
 72
13
 73
9
 74
0
 42
0.0000001
 43
0.0000001
 44
0.0000000001
 40
0.0
 40
0.0
 40
0.0
 40
0.0
 40
0.2933972589
 40
0.4304528065
 40
0.56006514
 40
0.7954429148
 40
0.9014292136
 40
1.0
 40
1.0
 40
1.0
 40
1.0
 10
10.1904104298
 20
8.7858827254
 30
0.0
 10
10.1931433903
 20
8.7856325819
 30
0.0
 10
10.1971443666
 20
8.7851517186
 30
0.0
 10
10.2023094594
 20
8.7842711885
 30
0.0
 10
10.2069092856
 20
8.7833224292
 30
0.0
 10
10.2111749465
 20
8.7821995747
 30
0.0
 10
10.2150799542
 20
8.7808984481
 30
0.0
 10
10.2168678427
 20
8.7802146511
 30
0.0
 10
10.2177207759
 20
8.7798644894
 30
0.0
  0
SPLINE
  5
47A
100
AcDbEntity
  8
0
100
AcDbSpline
 62
7
  6
CONTINUOUS
 70
0
 71
3
 72
15
 73
11
 74
0
 42
0.0000001
 43
0.0000001
 44
0.0000000001
 40
0.0
 40
0.0
 40
0.0
 40
0.0
 40
0.1250676122
 40
0.2501261201
 40
0.3751545462
 40
0.5001652033
 40
0.6251533961
 40
0.7501153077
 40
0.8750780831
 40
1.0
 40
1.0
 40
1.0
 40
1.0
 10
10.1904104298
 20
8.6775516169
 30
0.0
 10
10.191827431
 20
8.678031213
 30
0.0
 10
10.194615404
 20
8.6791322311
 30
0.0
 10
10.1986169713
 20
8.6811767447
 30
0.0
 10
10.2024118986
 20
8.6835818882
 30
0.0
 10
10.2059761162
 20
8.6863150046
 30
0.0
 10
10.2092932586
 20
8.6893411849
 30
0.0
 10
10.2123582182
 20
8.6926206724
 30
0.0
 10
10.2151772818
 20
8.6961115756
 30
0.0
 10
10.2168985494
 20
8.6985580103
 30
0.0
 10
10.21772051
 20
8.6998058382
 30
0.0
  0
SPLINE
  5
47B
100
AcDbEntity
  8
0
100
AcDbSpline
 62
7
  6
CONTINUOUS
 70
0
 71
3
 72
15
 73
11
 74
0
 42
0.0000001
 43
0.0000001
 44
0.0000000001
 40
0.0
 40
0.0
 40
0.0
 40
0.0
 40
0.1262631779
 40
0.2522029595
 40
0.3777641645
 40
0.50294073
 40
0.6277268113
 40
0.7521368565
 40
0.8762302361
 40
1.0
 40
1.0
 40
1.0
 40
1.0
 10
10.1904104298
 20
8.5775739068
 30
0.0
 10
10.191825782
 20
8.5780362586
 30
0.0
 10
10.1946099778
 20
8.5790971251
 30
0.0
 10
10.1986110151
 20
8.5810694978
 30
0.0
 10
10.2024057332
 20
8.5833899834
 30
0.0
 10
10.2059700854
 20
8.5860271724
 30
0.0
 10
10.2092876729
 20
8.5889474797
 30
0.0
 10
10.2123532733
 20
8.5921125264
 30
0.0
 10
10.2151728886
 20
8.5954817788
 30
0.0
 10
10.2168962558
 20
8.5978455254
 30
0.0
 10
10.2177190222
 20
8.599051075
 30
0.0
  0
SPLINE
  5
47C
100
AcDbEntity
  8
0
100
AcDbSpline
 62
7
  6
CONTINUOUS
 70
0
 71
3
 72
15
 73
11
 74
0
 42
0.0000001
 43
0.0000001
 44
0.0000000001
 40
0.0
 40
0.0
 40
0.0
 40
0.0
 40
0.1250676166
 40
0.2501261299
 40
0.3751545549
 40
0.5001652216
 40
0.625153412
 40
0.7501153116
 40
0.875078096
 40
1.0
 40
1.0
 40
1.0
 40
1.0
 10
10.1904104298
 20
8.632192224
 30
0.0
 10
10.1918274978
 20
8.6326718427
 30
0.0
 10
10.1946156002
 20
8.6337729197
 30
0.0
 10
10.1986173432
 20
8.6358175564
 30
0.0
 10
10.2024124235
 20
8.6382228554
 30
0.0
 10
10.2059767706
 20
8.6409561514
 30
0.0
 10
10.209294018
 20
8.6439825318
 30
0.0
 10
10.2123590436
 20
8.647262247
 30
0.0
 10
10.2151781906
 20
8.6507533526
 30
0.0
 10
10.216899536
 20
8.6531999041
 30
0.0
 10
10.2177215372
 20
8.6544477894
 30
0.0
  0
SPLINE
  5
47D
100
AcDbEntity
  8
0
100
AcDbSpline
 62
7
  6
CONTINUOUS
 70
0
 71
3
 72
15
 73
11
 74
0
 42
0.0000001
 43
0.0000001
 44
0.0000000001
 40
0.0
 40
0.0
 40
0.0
 40
0.0
 40
0.1301048214
 40
0.2588995276
 40
0.386209809
 40
0.5119577273
 40
0.6361189047
 40
0.7587530526
 40
0.8800139625
 40
1.0
 40
1.0
 40
1.0
 40
1.0
 10
10.1904104298
 20
8.533168501
 30
0.0
 10
10.1918213166
 20
8.5335774624
 30
0.0
 10
10.1945948792
 20
8.5345142882
 30
0.0
 10
10.1985951509
 20
8.5362624841
 30
0.0
 10
10.2023898798
 20
8.538319772
 30
0.0
 10
10.2059551598
 20
8.5406585612
 30
0.0
 10
10.2092745764
 20
8.543249393
 30
0.0
 10
10.2123425051
 20
8.5460583301
 30
0.0
 10
10.2151643967
 20
8.5490488124
 30
0.0
 10
10.2168956216
 20
8.5511547202
 30
0.0
 10
10.217721554
 20
8.5522285401
 30
0.0
  0
SPLINE
  5
47E
100
AcDbEntity
  8
0
100
AcDbSpline
 62
7
  6
CONTINUOUS
 70
0
 71
3
 72
15
 73
11
 74
0
 42
0.0000001
 43
0.0000001
 44
0.0000000001
 40
0.0
 40
0.0
 40
0.0
 40
0.0
 40
0.1278630427
 40
0.2549875201
 40
0.3812702641
 40
0.5066776406
 40
0.6311988055
 40
0.7548696132
 40
0.8777906312
 40
1.0
 40
1.0
 40
1.0
 40
1.0
 10
10.1904104298
 20
8.5510979734
 30
0.0
 10
10.1918238802
 20
8.5515377873
 30
0.0
 10
10.1946035836
 20
8.5525462493
 30
0.0
 10
10.198604414
 20
8.5544241809
 30
0.0
 10
10.2023992599
 20
8.5566338262
 30
0.0
 10
10.20596412
 20
8.5591453876
 30
0.0
 10
10.2092825703
 20
8.5619270151
 30
0.0
 10
10.2123492029
 20
8.5649421878
 30
0.0
 10
10.2151698128
 20
8.5681520094
 30
0.0
 10
10.2168963706
 20
8.5704072736
 30
0.0
 10
10.2177204128
 20
8.5715573757
 30
0.0
  0
SPLINE
  5
47F
100
AcDbEntity
  8
0
100
AcDbSpline
 62
7
  6
CONTINUOUS
 70
0
 71
3
 72
14
 73
10
 74
0
 42
0.0000001
 43
0.0000001
 44
0.0000000001
 40
0.0
 40
0.0
 40
0.0
 40
0.0
 40
0.1329855063
 40
0.26394792
 40
0.3926161971
 40
0.5188465508
 40
0.6425863076
 40
0.7639145636
 40
1.0
 40
1.0
 40
1.0
 40
1.0
 10
10.1904104298
 20
8.9435912528
 30
0.0
 10
10.1918180131
 20
8.9439616718
 30
0.0
 10
10.1945836308
 20
8.9448091764
 30
0.0
 10
10.1985822751
 20
8.9463945558
 30
0.0
 10
10.2023759639
 20
8.9482604901
 30
0.0
 10
10.2059408733
 20
8.9503820534
 30
0.0
 10
10.2092609998
 20
8.9527331286
 30
0.0
 10
10.2133147394
 20
8.9561002582
 30
0.0
 10
10.2160485496
 20
8.9589211795
 30
0.0
 10
10.2177188015
 20
8.9608927032
 30
0.0
  0
SPLINE
  5
480
100
AcDbEntity
  8
0
100
AcDbSpline
 62
7
  6
CONTINUOUS
 70
0
 71
3
 72
13
 73
9
 74
0
 42
0.0000001
 43
0.0000001
 44
0.0000000001
 40
0.0
 40
0.0
 40
0.0
 40
0.0
 40
0.2766361301
 40
0.4088555978
 40
0.5364317233
 40
0.6591842852
 40
0.7771806982
 40
1.0
 40
1.0
 40
1.0
 40
1.0
 10
10.1904104298
 20
8.9435912528
 30
0.0
 10
10.193173055
 20
8.9430507771
 30
0.0
 10
10.1972150209
 20
8.9420053438
 30
0.0
 10
10.2023452058
 20
8.9401323514
 30
0.0
 10
10.2059088229
 20
8.9385582648
 30
0.0
 10
10.2092292999
 20
8.9368130617
 30
0.0
 10
10.2132466714
 20
8.9343361166
 30
0.0
 10
10.2160146864
 20
8.9322244206
 30
0.0
 10
10.2177189288
 20
8.9307289228
 30
0.0
  0
SPLINE
  5
481
100
AcDbEntity
  8
0
100
AcDbSpline
 62
7
  6
CONTINUOUS
 70
0
 71
3
 72
15
 73
11
 74
0
 42
0.0000001
 43
0.0000001
 44
0.0000000001
 40
0.0
 40
0.0
 40
0.0
 40
0.0
 40
0.130104611
 40
0.258899188
 40
0.3862094443
 40
0.5119574137
 40
0.6361187498
 40
0.7587531479
 40
0.8800141171
 40
1.0
 40
1.0
 40
1.0
 40
1.0
 10
10.1904104298
 20
8.8785257554
 30
0.0
 10
10.1918212405
 20
8.8789346947
 30
0.0
 10
10.1945946562
 20
8.8798714635
 30
0.0
 10
10.1985947263
 20
8.8816195387
 30
0.0
 10
10.202389279
 20
8.8836766739
 30
0.0
 10
10.2059544102
 20
8.8860152866
 30
0.0
 10
10.2092737059
 20
8.8886059221
 30
0.0
 10
10.212341555
 20
8.8914146318
 30
0.0
 10
10.2151633505
 20
8.8944049136
 30
0.0
 10
10.2168944879
 20
8.8965107082
 30
0.0
 10
10.2177203739
 20
8.8975844722
 30
0.0
  0
SPLINE
  5
482
100
AcDbEntity
  8
0
100
AcDbSpline
 62
7
  6
CONTINUOUS
 70
0
 71
3
 72
13
 73
9
 74
0
 42
0.0000001
 43
0.0000001
 44
0.0000000001
 40
0.0
 40
0.0
 40
0.0
 40
0.0
 40
0.2837562601
 40
0.417998308
 40
0.5463959706
 40
0.6686655113
 40
0.7848269321
 40
1.0
 40
1.0
 40
1.0
 40
1.0
 10
10.1904104298
 20
8.8785257554
 30
0.0
 10
10.193159241
 20
8.8780967298
 30
0.0
 10
10.1971828417
 20
8.8772690342
 30
0.0
 10
10.2023284834
 20
8.8757716498
 30
0.0
 10
10.2058901138
 20
8.8745176751
 30
0.0
 10
10.2092095539
 20
8.8731272023
 30
0.0
 10
10.21320245
 20
8.8711650278
 30
0.0
 10
10.2159893757
 20
8.8694751151
 30
0.0
 10
10.217717626
 20
8.8682652223
 30
0.0
  0
SPLINE
  5
483
100
AcDbEntity
  8
0
100
AcDbSpline
 62
7
  6
CONTINUOUS
 70
0
 71
3
 72
15
 73
11
 74
0
 42
0.0000001
 43
0.0000001
 44
0.0000000001
 40
0.0
 40
0.0
 40
0.0
 40
0.0
 40
0.1253063023
 40
0.2505404699
 40
0.3756748301
 40
0.5007181453
 40
0.6256657154
 40
0.750517516
 40
0.8753071515
 40
1.0
 40
1.0
 40
1.0
 40
1.0
 10
10.1904104298
 20
8.6121031046
 30
0.0
 10
10.1918269447
 20
8.6125791805
 30
0.0
 10
10.1946138613
 20
8.6136719857
 30
0.0
 10
10.1986149259
 20
8.615701721
 30
0.0
 10
10.2024094671
 20
8.6180894999
 30
0.0
 10
10.2059734212
 20
8.6208029344
 30
0.0
 10
10.2092904165
 20
8.6238073899
 30
0.0
 10
10.2123553551
 20
8.6270633686
 30
0.0
 10
10.2151743395
 20
8.6305293713
 30
0.0
 10
10.2168958428
 20
8.6329589299
 30
0.0
 10
10.2177178682
 20
8.6341981333
 30
0.0
  0
SPLINE
  5
484
100
AcDbEntity
  8
0
100
AcDbSpline
 62
7
  6
CONTINUOUS
 70
0
 71
3
 72
15
 73
11
 74
0
 42
0.0000001
 43
0.0000001
 44
0.0000000001
 40
0.0
 40
0.0
 40
0.0
 40
0.0
 40
0.1257046359
 40
0.2512322696
 40
0.3765438867
 40
0.5016422384
 40
0.6265223071
 40
0.7511902432
 40
0.8756904932
 40
1.0
 40
1.0
 40
1.0
 40
1.0
 10
10.1904104298
 20
8.7291018786
 30
0.0
 10
10.1918264827
 20
8.7295722258
 30
0.0
 10
10.1946123106
 20
8.7306516987
 30
0.0
 10
10.1986134369
 20
8.7326575135
 30
0.0
 10
10.2024081168
 20
8.7350172374
 30
0.0
 10
10.2059722924
 20
8.7376988883
 30
0.0
 10
10.2092895794
 20
8.740668268
 30
0.0
 10
10.2123548217
 20
8.7438863481
 30
0.0
 10
10.2151741022
 20
8.747312011
 30
0.0
 10
10.2168964058
 20
8.7497141233
 30
0.0
 10
10.2177187526
 20
8.7509392895
 30
0.0
  0
SPLINE
  5
485
100
AcDbEntity
  8
0
100
AcDbSpline
 62
7
  6
CONTINUOUS
 70
0
 71
3
 72
13
 73
9
 74
0
 42
0.0000001
 43
0.0000001
 44
0.0000000001
 40
0.0
 40
0.0
 40
0.0
 40
0.0
 40
0.2976931166
 40
0.4360308532
 40
0.5662250251
 40
0.8003576774
 40
0.9043644029
 40
1.0
 40
1.0
 40
1.0
 40
1.0
 10
10.1904104298
 20
8.7291018786
 30
0.0
 10
10.1931366412
 20
8.7289759428
 30
0.0
 10
10.197127542
 20
8.7287342297
 30
0.0
 10
10.2022995889
 20
8.7282894755
 30
0.0
 10
10.2068831924
 20
8.7278125088
 30
0.0
 10
10.2111409795
 20
8.7272483182
 30
0.0
 10
10.215062953
 20
8.7265893577
 30
0.0
 10
10.2168603005
 20
8.7262427103
 30
0.0
 10
10.2177188102
 20
8.7260648269
 30
0.0
  0
ENDSEC
  0
SECTION
  2
OBJECTS
  0
DICTIONARY
  5
C
100
AcDbDictionary
280
0
281
1
  3
ACAD_GROUP
350
D
  3
ACAD_MLINESTYLE
350
17
  3
ACAD_LAYOUT
350
1A
  3
ACAD_PLOTSETTINGS
350
19
  3
ACAD_PLOTSTYLENAME
350
E
  0
DICTIONARY
  5
D
102
{ACAD_REACTORS
330
C
102
}
100
AcDbDictionary
280
0
281
1
  0
ACDBDICTIONARYWDFLT
  5
E
102
{ACAD_REACTORS
330
C
102
}
100
AcDbDictionary
281
1
  3
Normal
350
F
100
AcDbDictionaryWithDefault
340
F
  0
DICTIONARY
  5
17
102
{ACAD_REACTORS
330
C
102
}
100
AcDbDictionary
280
0
281
1
  3
Standard
350
18
  0
DICTIONARY
  5
19
102
{ACAD_REACTORS
330
C
102
}
100
AcDbDictionary
281
1
  0
DICTIONARY
  5
1A
102
{ACAD_REACTORS
330
C
102
}
100
AcDbDictionary
281
1
  3
Model
350
486
  3
Layout1
350
487
  0
ACDBPLACEHOLDER
  5
F
102
{ACAD_REACTORS
330
E
102
}
  0
MLINESTYLE
  5
18
102
{ACAD_REACTORS
330
17
102
}
100
AcDbMlineStyle
  2
STANDARD
 70
0
  3

 62
256
 51
90.0
 52
90.0
 71
2
 49
0.5
 62
256
  6
BYLAYER
 49
-0.5
 62
256
  6
BYLAYER
  0
LAYOUT
  5
486
102
{ACAD_REACTORS
330
1A
102
}
100
AcDbPlotSettings
  1

  2
none_device
  4
ANSI_C_(22.00_x_17.00_Inches)
  6

 40
0.0
 41
0.0
 42
0.0
 43
0.0
 44
558.8
 45
431.8
 46
0.0
 47
0.0
 48
0.0
 49
0.0
140
0.0
141
0.0
142
1.0
143
1.0
 70
1024
 72
0
 73
0
 74
0
  7

 75
0
147
1.0
148
0.0
149
0.0
100
AcDbLayout
  1
Model
 70
0
 71
0
 10
0.0
 20
0.0
 11
22.0
 21
17.0
 12
0.0
 22
0.0
 32
0.0
 14
0.0
 24
0.0
 34
0.0
 15
0.0
 25
0.0
 35
0.0
146
0.0
 13
0.0
 23
0.0
 33
0.0
 16
1.0
 26
0.0
 36
0.0
 17
0.0
 27
1.0
 37
0.0
 76
0
330
205
345
0
346
0
  0
LAYOUT
  5
487
102
{ACAD_REACTORS
330
1A
102
}
100
AcDbPlotSettings
  1

  2
none_device
  4
ANSI_C_(22.00_x_17.00_Inches)
  6

 40
0.0
 41
0.0
 42
0.0
 43
0.0
 44
558.8
 45
431.8
 46
0.0
 47
0.0
 48
0.0
 49
0.0
140
0.0
141
0.0
142
1.0
143
1.0
 70
0
 72
0
 73
0
 74
0
  7

 75
0
147
1.0
148
0.0
149
0.0
100
AcDbLayout
  1
Layout1
 70
0
 71
1
 10
0.0
 20
0.0
 11
22.0
 21
17.0
 12
0.0
 22
0.0
 32
0.0
 14
0.0
 24
0.0
 34
0.0
 15
0.0
 25
0.0
 35
0.0
146
0.0
 13
0.0
 23
0.0
 33
0.0
 16
1.0
 26
0.0
 36
0.0
 17
0.0
 27
1.0
 37
0.0
 76
0
330
206
345
0
346
0
  0
ENDSEC
  0
EOF
