999
DXF file: E:\BT Custom\CADOUTPUT\_RIGHT.dxf
999
Pro/ENGINEER 2018400 by Parametric Technology Corporation
  0
SECTION
  2
HEADER
  9
$ACADVER
  1
AC1018
  9
$DWGCODEPAGE
  3
ANSI_1252
  9
$EXTMAX
 10
22.0
 20
17.0
 30
0.0
  9
$EXTMIN
 10
0.0
 20
0.0
 30
0.0
  9
$LIMMIN
 10
0.0
 20
0.0
  9
$LIMMAX
 10
22.0
 20
17.0
  9
$VIEWCTR
 10
11.0
 20
8.5
  9
$VIEWSIZE
 40
17.0
  9
$CLAYER
  8
0
  9
$LTSCALE
 40
1.21
  9
$CELTYPE
  6
BYLAYER
  9
$DIMSCALE
 40
1.0
  9
$DIMASZ
 40
0.1
  9
$DIMEXO
 40
0.0625
  9
$DIMDLI
 40
0.836
  9
$DIMEXE
 40
0.125
  9
$DIMCEN
 40
0.198
  9
$DIMLFAC
 40
1.0
  9
$DIMBLK
  1
_FILLED
  9
$DIMALT
 70
1
  9
$DIMALTD
 70
2
  9
$DIMALTTD
 70
2
  9
$DIMALTF
 40
25.4
  9
$DIMTXT
 40
0.08
  9
$DIMTOL
 70
1
  9
$DIMLIM
 70
0
  9
$DIMTFAC
 40
1.0
  9
$DIMTP
 40
0.001
  9
$DIMTM
 40
0.001
  9
$DIMGAP
 40
0.09
  9
$DIMDSEP
 70
46
  9
$AUNITS
 70
0
  9
$PDMODE
 70
3
  9
$PDSIZE
 40
0.06
  9
$HANDSEED
  5
268
  9
$TILEMODE
 70
1
  9
$MEASUREMENT
 70
0
  9
$INSUNITS
 70
1
  0
ENDSEC
  0
SECTION
  2
CLASSES
  0
CLASS
  1
ACDBDICTIONARYWDFLT
  2
AcDbDictionaryWithDefault
  3
AutoCAD 2000
 90
0
 91
1
280
0
281
0
  0
CLASS
  1
ACDBPLACEHOLDER
  2
AcDbPlaceHolder
  3
AutoCAD 2000
 90
0
 91
1
280
0
281
0
  0
CLASS
  1
LAYOUT
  2
AcDbLayout
  3
AutoCAD 2000
 90
0
 91
0
280
0
281
0
  0
ENDSEC
  0
SECTION
  2
TABLES
  0
TABLE
  2
VPORT
  5
8
100
AcDbSymbolTable
 70
2
  0
VPORT
  5
1F4
100
AcDbSymbolTableRecord
100
AcDbViewportTableRecord
  2
*ACTIVE
 70
0
 10
0.0
 20
0.0
 11
1.0
 21
1.0
 12
11.0
 22
8.5
 13
0.0
 23
0.0
 14
1.0
 24
1.0
 15
0.0
 25
0.0
 16
0.0
 26
0.0
 36
1.0
 17
0.0
 27
0.0
 37
0.0
 40
17.0
 41
1.2941176471
 42
50.0
 43
0.0
 44
0.0
 50
0.0
 51
0.0
 71
0
 72
100
 73
1
 74
1
 75
0
 76
0
 77
0
 78
0
  0
ENDTAB
  0
TABLE
  2
LTYPE
  5
5
100
AcDbSymbolTable
 70
6
  0
LTYPE
  5
14
100
AcDbSymbolTableRecord
100
AcDbLinetypeTableRecord
  2
BYBLOCK
 70
0
  3

 72
65
 73
0
 40
0.0
  0
LTYPE
  5
15
100
AcDbSymbolTableRecord
100
AcDbLinetypeTableRecord
  2
BYLAYER
 70
0
  3

 72
65
 73
0
 40
0.0
  0
LTYPE
  5
16
100
AcDbSymbolTableRecord
100
AcDbLinetypeTableRecord
  2
CONTINUOUS
 70
64
  3
Solid line
 72
65
 73
0
 40
0.0
  0
LTYPE
  5
1F5
100
AcDbSymbolTableRecord
100
AcDbLinetypeTableRecord
  2
CENTER
 70
64
  3
____ _ ____ _ ____ _ ____ _ ____ _ ____ _ ____
 72
65
 73
4
 40
0.6
 49
0.375
 74
0
 49
-0.075
 74
0
 49
0.075
 74
0
 49
-0.075
 74
0
  0
LTYPE
  5
1F6
100
AcDbSymbolTableRecord
100
AcDbLinetypeTableRecord
  2
HIDDEN
 70
64
  3
- - - - - - - - - - - - - - - - - - - -
 72
65
 73
2
 40
0.2
 49
0.1
 74
0
 49
-0.1
 74
0
  0
LTYPE
  5
1F7
100
AcDbSymbolTableRecord
100
AcDbLinetypeTableRecord
  2
PHANTOM
 70
64
  3
_____ _ _ _____ _ _ _____ _ _ _____
 72
65
 73
6
 40
0.8
 49
0.45
 74
0
 49
-0.05
 74
0
 49
0.1
 74
0
 49
-0.05
 74
0
 49
0.1
 74
0
 49
-0.05
 74
0
  0
LTYPE
  5
1F8
100
AcDbSymbolTableRecord
100
AcDbLinetypeTableRecord
  2
DOT
 70
64
  3
. . . . . . . . . . . . . . . . . . . .
 72
65
 73
2
 40
0.2
 49
0.1
 74
0
 49
-0.1
 74
0
  0
LTYPE
  5
1F9
100
AcDbSymbolTableRecord
100
AcDbLinetypeTableRecord
  2
DASHED
 70
64
  3
- - - - - - - - - - - - - - - - - - - -
 72
65
 73
2
 40
0.2
 49
0.1
 74
0
 49
-0.1
 74
0
  0
ENDTAB
  0
TABLE
  2
LAYER
  5
2
100
AcDbSymbolTable
 70
36
  0
LAYER
  5
10
100
AcDbSymbolTableRecord
100
AcDbLayerTableRecord
  2
0
 70
0
 62
7
  6
CONTINUOUS
370
-3
390
F
  0
LAYER
  5
1FA
100
AcDbSymbolTableRecord
100
AcDbLayerTableRecord
  2
DEFAULT_1
 70
0
 62
7
  6
CENTER
370
-3
390
F
  0
LAYER
  5
1FB
100
AcDbSymbolTableRecord
100
AcDbLayerTableRecord
  2
DEFAULT_2
 70
0
 62
8
  6
HIDDEN
370
-3
390
F
  0
LAYER
  5
1FC
100
AcDbSymbolTableRecord
100
AcDbLayerTableRecord
  2
DEFAULT_3
 70
0
 62
7
  6
PHANTOM
370
-3
390
F
  0
LAYER
  5
1FD
100
AcDbSymbolTableRecord
100
AcDbLayerTableRecord
  2
ALL_FEATURES
 70
0
 62
7
  6
CONTINUOUS
370
-3
390
F
  0
LAYER
  5
1FE
100
AcDbSymbolTableRecord
100
AcDbLayerTableRecord
  2
AXES_FEATURES
 70
0
 62
7
  6
CONTINUOUS
370
-3
390
F
  0
LAYER
  5
1FF
100
AcDbSymbolTableRecord
100
AcDbLayerTableRecord
  2
DEFAULT_COORDINATE_SYSTEM
 70
0
 62
7
  6
CONTINUOUS
370
-3
390
F
  0
LAYER
  5
200
100
AcDbSymbolTableRecord
100
AcDbLayerTableRecord
  2
DEFAULT_DATUM_AXES
 70
0
 62
7
  6
CONTINUOUS
370
-3
390
F
  0
LAYER
  5
201
100
AcDbSymbolTableRecord
100
AcDbLayerTableRecord
  2
DEFAULT_DATUM_PLANES
 70
0
 62
7
  6
CONTINUOUS
370
-3
390
F
  0
LAYER
  5
202
100
AcDbSymbolTableRecord
100
AcDbLayerTableRecord
  2
DIMENSIONS
 70
0
 62
7
  6
CONTINUOUS
370
-3
390
F
  0
ENDTAB
  0
TABLE
  2
STYLE
  5
3
100
AcDbSymbolTable
 70
1
  0
STYLE
  5
11
100
AcDbSymbolTableRecord
100
AcDbTextStyleTableRecord
  2
STANDARD
 70
0
 40
0.0
 41
0.8
 50
0.0
 71
0
 42
0.2
  3
txt
  4

  0
STYLE
  5
203
100
AcDbSymbolTableRecord
100
AcDbTextStyleTableRecord
  2
TEXTSTYLE_1
 70
0
 40
0.0
 41
0.8
 50
0.0
 71
0
 42
0.2
  3
gdt
  4

  0
ENDTAB
  0
TABLE
  2
VIEW
  5
6
100
AcDbSymbolTable
 70
0
  0
ENDTAB
  0
TABLE
  2
UCS
  5
7
100
AcDbSymbolTable
 70
0
  0
ENDTAB
  0
TABLE
  2
APPID
  5
9
100
AcDbSymbolTable
 70
1
  0
APPID
  5
204
100
AcDbSymbolTableRecord
100
AcDbRegAppTableRecord
  2
ACAD
 70
0
  0
ENDTAB
  0
TABLE
  2
BLOCK_RECORD
  5
1
100
AcDbSymbolTable
 70
0
  0
BLOCK_RECORD
  5
205
100
AcDbSymbolTableRecord
100
AcDbBlockTableRecord
  2
*Model_Space
  0
BLOCK_RECORD
  5
206
100
AcDbSymbolTableRecord
100
AcDbBlockTableRecord
  2
*Paper_Space
  0
BLOCK_RECORD
  5
207
100
AcDbSymbolTableRecord
100
AcDbBlockTableRecord
  2
_FILLED
  0
ENDTAB
  0
TABLE
  2
DIMSTYLE
  5
A
100
AcDbSymbolTable
 70
1
100
AcDbDimStyleTable
 71
0
  0
DIMSTYLE
105
208
100
AcDbSymbolTableRecord
100
AcDbDimStyleTableRecord
  2
STANDARD
 70
0
  3

  4

 40
1.0
 41
0.1
 42
0.0625
 43
0.38
 44
0.125
 45
0.0
 46
0.0
 47
0.001
 48
0.001
140
0.08
141
0.09
142
0.0
143
25.4
144
1.0
145
0.0
146
1.0
147
0.09
 71
1.0
 72
0.0
 73
1
 74
1
 75
0
 76
0
 77
0
 78
4
 79
1
170
1
171
2
172
0
173
0
174
0
175
0
176
0
177
0
178
0
270
2
179
3
271
3
272
3
273
2
274
2
275
0
280
0
281
0
282
0
283
1
284
4
285
0
286
0
287
3
288
0
340
11
278
46
341
207
342
207
343
207
344
207
  0
ENDTAB
  0
ENDSEC
  0
SECTION
  2
BLOCKS
  0
BLOCK
  5
20
100
AcDbEntity
  8
0
100
AcDbBlockBegin
  2
*Model_Space
 70
0
 10
0.0
 20
0.0
 30
0.0
  3
*Model_Space
  1

  0
ENDBLK
  5
21
100
AcDbEntity
  8
0
100
AcDbBlockEnd
  0
BLOCK
  5
1C
100
AcDbEntity
  8
0
100
AcDbBlockBegin
  2
*Paper_Space
 70
0
 10
0.0
 20
0.0
 30
0.0
  3
*Paper_Space
  1

  0
ENDBLK
  5
1D
100
AcDbEntity
  8
0
100
AcDbBlockEnd
  0
BLOCK
  5
209
100
AcDbEntity
  8
0
100
AcDbBlockBegin
  2
_FILLED
 70
64
 10
0.0
 20
0.0
  3
_FILLED
  1

  0
SOLID
  5
20A
100
AcDbEntity
  8
0
  6
BYBLOCK
 62
0
100
AcDbTrace
 10
0.0
 20
0.0
 11
-1.0
 21
0.2
 12
-1.0
 22
-0.2
 13
-1.0
 23
-0.2
  0
ENDBLK
  5
20B
100
AcDbEntity
  8
0
  6
BYBLOCK
 62
0
100
AcDbBlockEnd
  0
ENDSEC
  0
SECTION
  2
ENTITIES
  0
LINE
  5
20C
100
AcDbEntity
  8
0
100
AcDbLine
 62
7
  6
CONTINUOUS
 10
12.4179834891
 20
5.759891804
 11
12.2785202288
 21
5.759891804
  0
LINE
  5
20D
100
AcDbEntity
  8
0
100
AcDbLine
 62
7
  6
CONTINUOUS
 10
11.1099834891
 20
6.389891804
 11
11.0199834891
 21
6.389891804
  0
LINE
  5
20E
100
AcDbEntity
  8
0
100
AcDbLine
 62
7
  6
CONTINUOUS
 10
11.0129885196
 20
6.3906913007
 11
10.8769885196
 21
6.4221913007
  0
LINE
  5
20F
100
AcDbEntity
  8
0
100
AcDbLine
 62
7
  6
CONTINUOUS
 10
12.0099834891
 20
6.603891804
 11
11.9369834891
 21
6.603891804
  0
LINE
  5
210
100
AcDbEntity
  8
0
100
AcDbLine
 62
7
  6
CONTINUOUS
 10
11.3459834891
 20
6.662891804
 11
11.9249834891
 21
6.662891804
  0
LINE
  5
211
100
AcDbEntity
  8
0
100
AcDbLine
 62
7
  6
CONTINUOUS
 10
11.3459834891
 20
7.016891804
 11
11.9249834891
 21
7.016891804
  0
LINE
  5
212
100
AcDbEntity
  8
0
100
AcDbLine
 62
7
  6
CONTINUOUS
 10
12.0099834891
 20
7.075891804
 11
11.9369834891
 21
7.075891804
  0
LINE
  5
213
100
AcDbEntity
  8
0
100
AcDbLine
 62
7
  6
CONTINUOUS
 10
9.0019834891
 20
7.772391804
 11
9.0019834891
 21
10.247391804
  0
LINE
  5
214
100
AcDbEntity
  8
0
100
AcDbLine
 62
7
  6
CONTINUOUS
 10
11.0129885196
 20
7.2890923074
 11
10.8769885196
 21
7.2575923074
  0
LINE
  5
215
100
AcDbEntity
  8
0
100
AcDbLine
 62
7
  6
CONTINUOUS
 10
11.1099834891
 20
7.289891804
 11
11.0199834891
 21
7.289891804
  0
LINE
  5
216
100
AcDbEntity
  8
0
100
AcDbLine
 62
7
  6
CONTINUOUS
 10
9.4019834883
 20
8.470039007
 11
9.4019834891
 21
10.2441678559
  0
LINE
  5
217
100
AcDbEntity
  8
0
100
AcDbLine
 62
7
  6
CONTINUOUS
 10
9.4019834888
 20
8.3154968351
 11
9.4019834891
 21
7.772391804
  0
LINE
  5
218
100
AcDbEntity
  8
0
100
AcDbLine
 62
7
  6
CONTINUOUS
 10
9.4019834891
 20
8.3136176545
 11
9.4020408212
 21
8.3141406138
  0
LINE
  5
219
100
AcDbEntity
  8
0
100
AcDbLine
 62
7
  6
CONTINUOUS
 10
9.4008750939
 20
10.2684186807
 11
9.4008825152
 21
10.2683382237
  0
LINE
  5
21A
100
AcDbEntity
  8
0
100
AcDbLine
 62
7
  6
CONTINUOUS
 10
9.4020265248
 20
8.3140247951
 11
9.4023105964
 21
8.3158557987
  0
LINE
  5
21B
100
AcDbEntity
  8
0
100
AcDbLine
 62
7
  6
CONTINUOUS
 10
9.4020408212
 20
8.3141406138
 11
9.4023589345
 21
8.3161187138
  0
LWPOLYLINE
  5
21C
100
AcDbEntity
  8
0
100
AcDbPolyline
 62
7
  6
CONTINUOUS
 90
7
 70
0
 10
9.4023105964
 20
8.3158557987
 10
9.402947825
 20
8.3187902709
 10
9.4041431451
 20
8.3228577178
 10
9.4061119973
 20
8.3279326469
 10
9.4090180739
 20
8.3337208787
 10
9.4130089498
 20
8.3399437205
 10
9.4182815599
 20
8.3463910838
  0
LWPOLYLINE
  5
21D
100
AcDbEntity
  8
0
100
AcDbPolyline
 62
7
  6
CONTINUOUS
 90
7
 70
0
 10
9.4023589345
 20
8.3161187138
 10
9.4030434768
 20
8.3191654393
 10
9.4042813418
 20
8.3232638803
 10
9.4063001112
 20
8.3283557917
 10
9.4093015809
 20
8.3342167928
 10
9.413416583
 20
8.3405027582
 10
9.4186795937
 20
8.3468183146
  0
LINE
  5
21E
100
AcDbEntity
  8
0
100
AcDbLine
 62
7
  6
CONTINUOUS
 10
11.7299834891
 20
7.822391804
 11
12.1049834891
 21
7.822391804
  0
LINE
  5
21F
100
AcDbEntity
  8
0
100
AcDbLine
 62
7
  6
CONTINUOUS
 10
9.400970224
 20
10.2675584359
 11
9.4008843421
 21
10.2683305786
  0
LINE
  5
220
100
AcDbEntity
  8
0
100
AcDbLine
 62
7
  6
CONTINUOUS
 10
9.4008750939
 20
10.2684186807
 11
9.4009680024
 21
10.2675776955
  0
LINE
  5
221
100
AcDbEntity
  8
0
100
AcDbLine
 62
7
  6
CONTINUOUS
 10
10.0019834891
 20
8.634892362
 11
10.0019834891
 21
9.3848912461
  0
LINE
  5
222
100
AcDbEntity
  8
0
100
AcDbLine
 62
7
  6
CONTINUOUS
 10
11.3459834891
 20
7.064891804
 11
11.1319974482
 21
7.2807180636
  0
LINE
  5
223
100
AcDbEntity
  8
0
100
AcDbLine
 62
7
  6
CONTINUOUS
 10
9.4019834891
 20
9.5509816425
 11
9.4199332158
 21
9.519891804
  0
LINE
  5
224
100
AcDbEntity
  8
0
100
AcDbLine
 62
7
  6
CONTINUOUS
 10
9.4019834891
 20
8.7958501245
 11
9.4949793703
 21
8.8763869201
  0
LINE
  5
225
100
AcDbEntity
  8
0
100
AcDbLine
 62
7
  6
CONTINUOUS
 10
10.6219834891
 20
8.353641804
 11
11.7299834891
 21
8.353641804
  0
LINE
  5
226
100
AcDbEntity
  8
0
100
AcDbLine
 62
7
  6
CONTINUOUS
 10
9.4124340297
 20
10.2328807752
 11
9.8760399284
 21
9.429891804
  0
LINE
  5
227
100
AcDbEntity
  8
0
100
AcDbLine
 62
7
  6
CONTINUOUS
 10
9.4182815599
 20
8.3463910838
 11
9.4238177499
 21
8.3517526702
  0
LINE
  5
228
100
AcDbEntity
  8
0
100
AcDbLine
 62
7
  6
CONTINUOUS
 10
9.4238177722
 20
8.3517526889
 11
9.8397629713
 21
8.7119717979
  0
LINE
  5
229
100
AcDbEntity
  8
0
100
AcDbLine
 62
7
  6
CONTINUOUS
 10
9.7507586609
 20
8.634891804
 11
10.0019834891
 21
8.634891804
  0
LINE
  5
22A
100
AcDbEntity
  8
0
100
AcDbLine
 62
7
  6
CONTINUOUS
 10
10.0019834891
 20
8.694891804
 11
10.6019834891
 21
8.694891804
  0
LINE
  5
22B
100
AcDbEntity
  8
0
100
AcDbLine
 62
7
  6
CONTINUOUS
 10
10.6019834891
 20
9.3248915027
 11
10.6019834891
 21
8.6948921054
  0
LINE
  5
22C
100
AcDbEntity
  8
0
100
AcDbLine
 62
7
  6
CONTINUOUS
 10
10.6219834891
 20
8.3536418042
 11
10.6219834891
 21
9.6661418039
  0
LINE
  5
22D
100
AcDbEntity
  8
0
100
AcDbLine
 62
7
  6
CONTINUOUS
 10
10.6219834891
 20
8.809891804
 11
10.6019834891
 21
8.809891804
  0
LINE
  5
22E
100
AcDbEntity
  8
0
100
AcDbLine
 62
7
  6
CONTINUOUS
 10
10.8529834891
 20
6.452391804
 11
10.8529834891
 21
7.227391804
  0
LINE
  5
22F
100
AcDbEntity
  8
0
100
AcDbLine
 62
9
  6
CONTINUOUS
 10
10.8769885196
 20
6.4221913007
 11
10.8769885196
 21
7.2575923074
  0
LINE
  5
230
100
AcDbEntity
  8
0
100
AcDbLine
 62
7
  6
CONTINUOUS
 10
10.6219834891
 20
9.209891804
 11
10.6019834891
 21
9.209891804
  0
LINE
  5
231
100
AcDbEntity
  8
0
100
AcDbLine
 62
9
  6
CONTINUOUS
 10
11.0129885196
 20
6.3906913007
 11
11.0129885196
 21
7.2890923074
  0
LINE
  5
232
100
AcDbEntity
  8
0
100
AcDbLine
 62
9
  6
CONTINUOUS
 10
11.0199834891
 20
6.389891804
 11
11.0199834891
 21
7.289891804
  0
LINE
  5
233
100
AcDbEntity
  8
0
100
AcDbLine
 62
9
  6
CONTINUOUS
 10
11.1099834891
 20
6.389891804
 11
11.1099834891
 21
7.289891804
  0
LINE
  5
234
100
AcDbEntity
  8
0
100
AcDbLine
 62
9
  6
CONTINUOUS
 10
11.1319974482
 20
6.3990655445
 11
11.1319974482
 21
7.2807180636
  0
LINE
  5
235
100
AcDbEntity
  8
0
100
AcDbLine
 62
7
  6
CONTINUOUS
 10
10.0019834891
 20
9.324891804
 11
10.6019834891
 21
9.324891804
  0
LINE
  5
236
100
AcDbEntity
  8
0
100
AcDbLine
 62
7
  6
CONTINUOUS
 10
9.9539822148
 20
9.384891804
 11
10.0019834891
 21
9.384891804
  0
LINE
  5
237
100
AcDbEntity
  8
0
100
AcDbLine
 62
7
  6
CONTINUOUS
 10
11.3459834891
 20
6.6148924084
 11
11.3459834891
 21
7.0648911997
  0
LINE
  5
238
100
AcDbEntity
  8
0
100
AcDbLine
 62
7
  6
CONTINUOUS
 10
10.6219834891
 20
9.666141804
 11
11.7299834891
 21
9.666141804
  0
LINE
  5
239
100
AcDbEntity
  8
0
100
AcDbLine
 62
7
  6
CONTINUOUS
 10
11.7299834891
 20
7.8223921116
 11
11.7299834891
 21
10.1973914965
  0
LINE
  5
23A
100
AcDbEntity
  8
0
100
AcDbLine
 62
7
  6
CONTINUOUS
 10
11.9249834891
 20
6.6158921448
 11
11.9249834891
 21
7.0638914633
  0
LINE
  5
23B
100
AcDbEntity
  8
0
100
AcDbLine
 62
9
  6
CONTINUOUS
 10
11.9369834891
 20
6.603891804
 11
11.9369834891
 21
7.075891804
  0
LINE
  5
23C
100
AcDbEntity
  8
0
100
AcDbLine
 62
7
  6
CONTINUOUS
 10
11.7299834891
 20
10.197391804
 11
12.1049834891
 21
10.197391804
  0
LINE
  5
23D
100
AcDbEntity
  8
0
100
AcDbLine
 62
7
  6
CONTINUOUS
 10
12.0099834891
 20
7.119891804
 11
12.0099834891
 21
6.559891804
  0
LINE
  5
23E
100
AcDbEntity
  8
0
100
AcDbLine
 62
7
  6
CONTINUOUS
 10
12.1049834891
 20
5.9270483143
 11
12.1049834891
 21
12.0927352938
  0
LINE
  5
23F
100
AcDbEntity
  8
0
100
AcDbLine
 62
9
  6
CONTINUOUS
 10
12.1469204988
 20
5.8676736527
 11
12.1469204988
 21
12.1521099554
  0
LINE
  5
240
100
AcDbEntity
  8
0
100
AcDbLine
 62
9
  6
CONTINUOUS
 10
12.2205011388
 20
5.7983401197
 11
12.2205011388
 21
12.2214434884
  0
LINE
  5
241
100
AcDbEntity
  8
0
100
AcDbLine
 62
9
  6
CONTINUOUS
 10
12.2785202288
 20
5.759891804
 11
12.2785202288
 21
12.259891804
  0
LINE
  5
242
100
AcDbEntity
  8
0
100
AcDbLine
 62
7
  6
CONTINUOUS
 10
12.4179834891
 20
12.259891804
 11
12.4179834891
 21
5.759891804
  0
LINE
  5
243
100
AcDbEntity
  8
0
100
AcDbLine
 62
7
  6
CONTINUOUS
 10
11.3459834891
 20
6.614891804
 11
11.1319974482
 21
6.3990655445
  0
LINE
  5
244
100
AcDbEntity
  8
0
100
AcDbLine
 62
7
  6
CONTINUOUS
 10
12.4179834891
 20
12.259891804
 11
12.2785202288
 21
12.259891804
  0
ARC
  5
245
100
AcDbEntity
  8
0
100
AcDbCircle
 62
9
  6
CONTINUOUS
 10
9.1413727446
 20
10.244419105
 40
0.2606098373
100
AcDbArc
 50
359.9387522248
 51
5.264771593
  0
ARC
  5
246
100
AcDbEntity
  8
0
100
AcDbCircle
 62
7
  6
CONTINUOUS
 10
9.2019834891
 20
7.772391804
 40
0.2
100
AcDbArc
 50
180.0
 51
360.0
  0
ARC
  5
247
100
AcDbEntity
  8
0
100
AcDbCircle
 62
7
  6
CONTINUOUS
 10
9.2019834891
 20
10.247391804
 40
0.2
100
AcDbArc
 50
6.034909015
 51
180.0
  0
ARC
  5
248
100
AcDbEntity
  8
0
100
AcDbCircle
 62
7
  6
CONTINUOUS
 10
12.1049834891
 20
5.7494570214
 40
0.1254347826
100
AcDbArc
 50
22.9364108859
 51
70.4680059554
  0
ARC
  5
249
100
AcDbEntity
  8
0
100
AcDbCircle
 62
7
  6
CONTINUOUS
 10
12.1049834891
 20
12.2703265867
 40
0.1254347826
100
AcDbArc
 50
289.5319940446
 51
337.0635891141
  0
ARC
  5
24A
100
AcDbEntity
  8
0
100
AcDbCircle
 62
7
  6
CONTINUOUS
 10
12.1049834891
 20
6.559891804
 40
0.095
100
AcDbArc
 50
180.0
 51
270.0
  0
ARC
  5
24B
100
AcDbEntity
  8
0
100
AcDbCircle
 62
7
  6
CONTINUOUS
 10
12.1049834891
 20
7.119891804
 40
0.095
100
AcDbArc
 50
90.0
 51
180.0
  0
ARC
  5
24C
100
AcDbEntity
  8
0
100
AcDbCircle
 62
7
  6
CONTINUOUS
 10
9.4903763161
 20
10.2778807752
 40
0.09
100
AcDbArc
 50
186.5858984583
 51
210.0000000005
  0
ARC
  5
24D
100
AcDbEntity
  8
0
100
AcDbCircle
 62
7
  6
CONTINUOUS
 10
9.3419909294
 20
9.4748918041
 40
0.09
100
AcDbArc
 50
311.875836181
 51
29.9999999924
  0
ARC
  5
24E
100
AcDbEntity
  8
0
100
AcDbCircle
 62
7
  6
CONTINUOUS
 10
9.9539822148
 20
9.474891804
 40
0.09
100
AcDbArc
 50
210.0
 51
270.0000000005
  0
ARC
  5
24F
100
AcDbEntity
  8
0
100
AcDbCircle
 62
7
  6
CONTINUOUS
 10
12.2785202288
 20
5.822891804
 40
0.063
100
AcDbArc
 50
202.9364108859
 51
270.0
  0
ARC
  5
250
100
AcDbEntity
  8
0
100
AcDbCircle
 62
7
  6
CONTINUOUS
 10
12.2785202288
 20
12.196891804
 40
0.063
100
AcDbArc
 50
90.0
 51
157.0635891141
  0
ARC
  5
251
100
AcDbEntity
  8
0
100
AcDbCircle
 62
7
  6
CONTINUOUS
 10
12.1679834891
 20
5.9270483143
 40
0.063
100
AcDbArc
 50
180.0
 51
250.4680059544
  0
ARC
  5
252
100
AcDbEntity
  8
0
100
AcDbCircle
 62
7
  6
CONTINUOUS
 10
12.1679834891
 20
12.0927352938
 40
0.063
100
AcDbArc
 50
109.5319940456
 51
180.0
  0
ARC
  5
253
100
AcDbEntity
  8
0
100
AcDbCircle
 62
7
  6
CONTINUOUS
 10
11.1099834891
 20
7.258891804
 40
0.031
100
AcDbArc
 50
44.7546926505
 51
90.0
  0
ARC
  5
254
100
AcDbEntity
  8
0
100
AcDbCircle
 62
7
  6
CONTINUOUS
 10
11.0199834891
 20
7.258891804
 40
0.031
100
AcDbArc
 50
90.0
 51
103.0407610339
  0
ARC
  5
255
100
AcDbEntity
  8
0
100
AcDbCircle
 62
7
  6
CONTINUOUS
 10
11.1099834891
 20
6.420891804
 40
0.031
100
AcDbArc
 50
270.0
 51
315.2453073495
  0
ARC
  5
256
100
AcDbEntity
  8
0
100
AcDbCircle
 62
7
  6
CONTINUOUS
 10
11.0199834891
 20
6.420891804
 40
0.031
100
AcDbArc
 50
256.9592389661
 51
270.0
  0
ARC
  5
257
100
AcDbEntity
  8
0
100
AcDbCircle
 62
7
  6
CONTINUOUS
 10
10.8839834891
 20
7.227391804
 40
0.031
100
AcDbArc
 50
103.0407610339
 51
180.0
  0
ARC
  5
258
100
AcDbEntity
  8
0
100
AcDbCircle
 62
7
  6
CONTINUOUS
 10
10.8839834891
 20
6.452391804
 40
0.031
100
AcDbArc
 50
180.0
 51
256.9592389661
  0
ARC
  5
259
100
AcDbEntity
  8
0
100
AcDbCircle
 62
7
  6
CONTINUOUS
 10
11.9369834891
 20
7.063891804
 40
0.012
100
AcDbArc
 50
90.0
 51
180.0
  0
ARC
  5
25A
100
AcDbEntity
  8
0
100
AcDbCircle
 62
7
  6
CONTINUOUS
 10
11.9369834891
 20
6.615891804
 40
0.012
100
AcDbArc
 50
180.0
 51
270.0
  0
SPLINE
  5
25B
100
AcDbEntity
  8
0
100
AcDbSpline
 62
9
  6
CONTINUOUS
 70
0
 71
3
 72
18
 73
14
 74
0
 42
0.0000001
 43
0.0000001
 44
0.0000000001
 40
0.0
 40
0.0
 40
0.0
 40
0.0
 40
0.0612979125
 40
0.1218939598
 40
0.1820063788
 40
0.2418567202
 40
0.3016540494
 40
0.3615950366
 40
0.4825978696
 40
0.6061992034
 40
0.7333005072
 40
0.864497121
 40
1.0
 40
1.0
 40
1.0
 40
1.0
 10
9.8397859827
 20
8.7119917845
 30
0.0
 10
9.8413018439
 20
8.713305357
 30
0.0
 10
9.8442425619
 20
8.7160040389
 30
0.0
 10
9.848387655
 20
8.7202852344
 30
0.0
 10
9.852237864
 20
8.7247715652
 30
0.0
 10
9.8557941507
 20
8.7294614095
 30
0.0
 10
9.859058124
 20
8.734352618
 30
0.0
 10
9.8630338664
 20
8.7411579527
 30
0.0
 10
9.8672910941
 20
8.75019487
 30
0.0
 10
9.8712266347
 20
8.7617277574
 30
0.0
 10
9.8740197964
 20
8.7739298395
 30
0.0
 10
9.8756856657
 20
8.7867254128
 30
0.0
 10
9.8760398336
 20
8.7954578163
 30
0.0
 10
9.8760399284
 20
8.799891804
 30
0.0
  0
SPLINE
  5
25C
100
AcDbEntity
  8
0
100
AcDbSpline
 62
9
  6
CONTINUOUS
 70
0
 71
3
 72
33
 73
29
 74
0
 42
0.0000001
 43
0.0000001
 44
0.0000000001
 40
0.0
 40
0.0
 40
0.0
 40
0.0
 40
0.0555814821
 40
0.0836005824
 40
0.1118014272
 40
0.1688048489
 40
0.226702764
 40
0.256009288
 40
0.2855556439
 40
0.3453844485
 40
0.4062222724
 40
0.4681064643
 40
0.5310872627
 40
0.5952363796
 40
0.6277780855
 40
0.6606481322
 40
0.6938617249
 40
0.7274357718
 40
0.761377485
 40
0.795682349
 40
0.8303247519
 40
0.8652178371
 40
0.9001660167
 40
0.9175487612
 40
0.9347772797
 40
0.9683680542
 40
0.9844972232
 40
1.0
 40
1.0
 40
1.0
 40
1.0
 10
9.4021199652
 20
8.6461258826
 30
0.0
 10
9.4044645618
 20
8.6420952186
 30
0.0
 10
9.4076002874
 20
8.6357979239
 30
0.0
 10
9.4111034919
 20
8.6270951477
 30
0.0
 10
9.4142231419
 20
8.6181194505
 30
0.0
 10
9.4174132083
 20
8.6065310611
 30
0.0
 10
9.419767246
 20
8.5946547114
 30
0.0
 10
9.4212244462
 20
8.5849678248
 30
0.0
 10
9.4224240246
 20
8.575082396
 30
0.0
 10
9.4234405644
 20
8.5625157152
 30
0.0
 10
9.4239770429
 20
8.5472057054
 30
0.0
 10
9.4239030718
 20
8.5316228267
 30
0.0
 10
9.423282789
 20
8.5157750992
 30
0.0
 10
9.4223671112
 20
8.5024091868
 30
0.0
 10
9.4214299566
 20
8.4915800615
 30
0.0
 10
9.4206285369
 20
8.4833446893
 30
0.0
 10
9.4197434945
 20
8.47503085
 30
0.0
 10
9.4187913242
 20
8.4666339779
 30
0.0
 10
9.4177875852
 20
8.4581509437
 30
0.0
 10
9.416749954
 20
8.4495817206
 30
0.0
 10
9.4157135844
 20
8.4409319367
 30
0.0
 10
9.4147175016
 20
8.4322230485
 30
0.0
 10
9.4139606786
 20
8.4249444189
 30
0.0
 10
9.4134330762
 20
8.4191325446
 30
0.0
 10
9.4129807008
 20
8.413428624
 30
0.0
 10
9.4126464048
 20
8.4078208789
 30
0.0
 10
9.4124667569
 20
8.4023517311
 30
0.0
 10
9.4124339998
 20
8.3996979161
 30
0.0
 10
9.4124340297
 20
8.3983973185
 30
0.0
  0
SPLINE
  5
25D
100
AcDbEntity
  8
0
100
AcDbSpline
 62
9
  6
CONTINUOUS
 70
0
 71
3
 72
41
 73
37
 74
0
 42
0.0000001
 43
0.0000001
 44
0.0000000001
 40
0.0
 40
0.0
 40
0.0
 40
0.0
 40
0.028125564
 40
0.0570872113
 40
0.0867913813
 40
0.1171240487
 40
0.1479622018
 40
0.1791856384
 40
0.2106851436
 40
0.2423685848
 40
0.2741640355
 40
0.3060198827
 40
0.3379015659
 40
0.369785556
 40
0.4016527355
 40
0.4334839915
 40
0.4652608277
 40
0.496967697
 40
0.5285952696
 40
0.5601418185
 40
0.591611583
 40
0.6230148892
 40
0.6543654328
 40
0.6856764902
 40
0.7013240792
 40
0.7169675582
 40
0.7482497109
 40
0.7638943777
 40
0.7795429746
 40
0.8108586719
 40
0.8422136713
 40
0.8736208972
 40
0.9050933645
 40
0.936642096
 40
0.968275749
 40
1.0
 40
1.0
 40
1.0
 40
1.0
 10
9.8760399284
 20
8.799891804
 30
0.0
 10
9.8760398951
 20
8.8046430036
 30
0.0
 10
9.8756191979
 20
8.8142907955
 30
0.0
 10
9.8737934729
 20
8.8288528007
 30
0.0
 10
9.870761327
 20
8.8435937683
 30
0.0
 10
9.8665160714
 20
8.8583622243
 30
0.0
 10
9.8610465891
 20
8.8729977427
 30
0.0
 10
9.8543376081
 20
8.8873278562
 30
0.0
 10
9.8463716531
 20
8.9011670224
 30
0.0
 10
9.837134394
 20
8.9143142893
 30
0.0
 10
9.8266244197
 20
8.9265528203
 30
0.0
 10
9.8148683935
 20
8.9376547154
 30
0.0
 10
9.8019388588
 20
8.9473954987
 30
0.0
 10
9.7879679615
 20
8.9555803221
 30
0.0
 10
9.7731472989
 20
8.9620788321
 30
0.0
 10
9.7577044776
 20
8.9668451256
 30
0.0
 10
9.7418717584
 20
8.9699264577
 30
0.0
 10
9.7258527271
 20
8.9714383764
 30
0.0
 10
9.7098064973
 20
8.9715329963
 30
0.0
 10
9.6938459669
 20
8.9703755398
 30
0.0
 10
9.678044707
 20
8.9681200567
 30
0.0
 10
9.6624468583
 20
8.9649036588
 30
0.0
 10
9.6470779318
 20
8.9608391245
 30
0.0
 10
9.6344675923
 20
8.9568245455
 30
0.0
 10
9.6245057093
 20
8.9532731778
 30
0.0
 10
9.6146279581
 20
8.9495078936
 30
0.0
 10
9.6048718122
 20
8.9454318629
 30
0.0
 10
9.5952429062
 20
8.9410689156
 30
0.0
 10
9.5856940078
 20
8.9365201447
 30
0.0
 10
9.5739120944
 20
8.9304939339
 30
0.0
 10
9.5600325669
 20
8.9227458687
 30
0.0
 10
9.5464145457
 20
8.9144955215
 30
0.0
 10
9.5330720154
 20
8.9057468974
 30
0.0
 10
9.5200212169
 20
8.89650199
 30
0.0
 10
9.5072906758
 20
8.8867506963
 30
0.0
 10
9.4990516872
 20
8.8799135573
 30
0.0
 10
9.4950004297
 20
8.876405357
 30
0.0
  0
SPLINE
  5
25E
100
AcDbEntity
  8
0
100
AcDbSpline
 62
9
  6
CONTINUOUS
 70
0
 71
3
 72
34
 73
30
 74
0
 42
0.0000001
 43
0.0000001
 44
0.0000000001
 40
0.0
 40
0.0
 40
0.0
 40
0.0
 40
0.087186692
 40
0.1686665288
 40
0.2440975213
 40
0.3134451584
 40
0.376896881
 40
0.4348926492
 40
0.536528452
 40
0.6220780246
 40
0.6598025647
 40
0.6946000589
 40
0.756512614
 40
0.8094218284
 40
0.8544756085
 40
0.8925603917
 40
0.9242341878
 40
0.9378001161
 40
0.9499030807
 40
0.9605795244
 40
0.96986813
 40
0.9778018059
 40
0.9844162501
 40
0.9897690837
 40
0.9939661011
 40
0.9956955636
 40
0.997231769
 40
0.9986387214
 40
1.0
 40
1.0
 40
1.0
 40
1.0
 10
9.4124340297
 20
8.3983973185
 30
0.0
 10
9.4124340082
 20
8.3969816422
 30
0.0
 10
9.4124709148
 20
8.3942427705
 30
0.0
 10
9.412638938
 20
8.3902822881
 30
0.0
 10
9.4129074457
 20
8.3866176629
 30
0.0
 10
9.4132644622
 20
8.3832548335
 30
0.0
 10
9.4136975043
 20
8.3801865888
 30
0.0
 10
9.4143262179
 20
8.3766187589
 30
0.0
 10
9.4152018777
 20
8.3727321886
 30
0.0
 10
9.4162276081
 20
8.3692247861
 30
0.0
 10
9.417059721
 20
8.3667964306
 30
0.0
 10
9.4178232847
 20
8.3647512685
 30
0.0
 10
9.4187495237
 20
8.3625044245
 30
0.0
 10
9.4198395582
 20
8.3601476734
 30
0.0
 10
9.4208386399
 20
8.3581771096
 30
0.0
 10
9.421718494
 20
8.3565334635
 30
0.0
 10
9.42237271
 20
8.3553491751
 30
0.0
 10
9.4228219365
 20
8.3545336237
 30
0.0
 10
9.4231035623
 20
8.354014997
 30
0.0
 10
9.4233462378
 20
8.3535542839
 30
0.0
 10
9.4235482904
 20
8.3531487645
 30
0.0
 10
9.4237084197
 20
8.3527962964
 30
0.0
 10
9.4238256609
 20
8.3524948243
 30
0.0
 10
9.4238988856
 20
8.3522424685
 30
0.0
 10
9.4239241481
 20
8.3520595344
 30
0.0
 10
9.4239156817
 20
8.3519381876
 30
0.0
 10
9.4238970606
 20
8.3518641141
 30
0.0
 10
9.4238651671
 20
8.3518011809
 30
0.0
 10
9.4238348342
 20
8.3517671991
 30
0.0
 10
9.4238181278
 20
8.3517527264
 30
0.0
  0
SPLINE
  5
25F
100
AcDbEntity
  8
0
100
AcDbSpline
 62
9
  6
CONTINUOUS
 70
0
 71
3
 72
14
 73
10
 74
0
 42
0.0000001
 43
0.0000001
 44
0.0000000001
 40
0.0
 40
0.0
 40
0.0
 40
0.0
 40
0.2598226855
 40
0.3886318071
 40
0.5161579096
 40
0.6418441155
 40
0.7648842252
 40
0.8845422461
 40
1.0
 40
1.0
 40
1.0
 40
1.0
 10
9.4019834782
 20
8.4700389241
 30
0.0
 10
9.4019838248
 20
8.4622945957
 30
0.0
 10
9.4018806149
 20
8.450710923
 30
0.0
 10
9.4016308345
 20
8.4353282734
 30
0.0
 10
9.40141687
 20
8.4239436601
 30
0.0
 10
9.4012041141
 20
8.4127310242
 30
0.0
 10
9.401026079
 20
8.4017522974
 30
0.0
 10
9.4009063027
 20
8.3910776495
 30
0.0
 10
9.4008747849
 20
8.3840697232
 30
0.0
 10
9.4008750939
 20
8.3806283657
 30
0.0
  0
SPLINE
  5
260
100
AcDbEntity
  8
0
100
AcDbSpline
 62
9
  6
CONTINUOUS
 70
0
 71
3
 72
93
 73
89
 74
0
 42
0.0000001
 43
0.0000001
 44
0.0000000001
 40
0.0
 40
0.0
 40
0.0
 40
0.0
 40
0.0000053581
 40
0.0000212626
 40
0.0000476876
 40
0.0000846072
 40
0.0001319953
 40
0.0001898262
 40
0.0003367123
 40
0.0005250581
 40
0.0007546561
 40
0.0010252991
 40
0.001336753
 40
0.002080686
 40
0.002983498
 40
0.004042203
 40
0.0052537563
 40
0.0066147718
 40
0.0081217409
 40
0.0115591603
 40
0.0155305693
 40
0.0199940727
 40
0.0249108878
 40
0.0302459791
 40
0.0359653145
 40
0.0420367083
 40
0.0484285802
 40
0.0551133224
 40
0.0692617972
 40
0.0843054154
 40
0.1001003695
 40
0.1165327432
 40
0.1335064301
 40
0.1509474103
 40
0.1687909304
 40
0.205492946
 40
0.2432973209
 40
0.2819836717
 40
0.3213937062
 40
0.3614082577
 40
0.401939693
 40
0.4429168901
 40
0.48428022
 40
0.5259713236
 40
0.5469202069
 40
0.5679250781
 40
0.6100414461
 40
0.6521770462
 40
0.6731864352
 40
0.6941041504
 40
0.704513237
 40
0.7148799751
 40
0.7354520172
 40
0.7557515856
 40
0.7756998955
 40
0.7952130444
 40
0.8142056868
 40
0.8325944084
 40
0.8415378472
 40
0.8503009946
 40
0.8672527945
 40
0.8833878923
 40
0.9129884874
 40
0.9263663858
 40
0.9387394471
 40
0.9500704159
 40
0.9603234477
 40
0.9694646733
 40
0.9774621419
 40
0.9810224067
 40
0.9842858507
 40
0.9872491496
 40
0.9899092461
 40
0.9922634447
 40
0.9943090239
 40
0.9960436072
 40
0.9974655324
 40
0.9980587524
 40
0.9985732123
 40
0.9990087531
 40
0.999365294
 40
0.9996427625
 40
0.9997518217
 40
0.9998410855
 40
0.9999105444
 40
0.9999601894
 40
0.999990011
 40
1.0
 40
1.0
 40
1.0
 40
1.0
 10
9.4199332158
 20
9.519891804
 30
0.0
 10
9.4199338269
 20
9.519891163
 30
0.0
 10
9.4199371255
 20
9.519889683
 30
0.0
 10
9.4199434815
 20
9.5198851003
 30
0.0
 10
9.4199547478
 20
9.5198783407
 30
0.0
 10
9.419970167
 20
9.5198685051
 30
0.0
 10
9.4199900953
 20
9.5198560469
 30
0.0
 10
9.4200253808
 20
9.5198338797
 30
0.0
 10
9.4200804454
 20
9.5197993864
 30
0.0
 10
9.4201595857
 20
9.5197498465
 30
0.0
 10
9.4202561091
 20
9.5196895185
 30
0.0
 10
9.4203699294
 20
9.5196184701
 30
0.0
 10
9.4205559427
 20
9.5195025133
 30
0.0
 10
9.4208307712
 20
9.5193314932
 30
0.0
 10
9.4212106667
 20
9.5190955207
 30
0.0
 10
9.4216564252
 20
9.5188190848
 30
0.0
 10
9.4221667693
 20
9.5185030795
 30
0.0
 10
9.4227402373
 20
9.5181482658
 30
0.0
 10
9.4236266728
 20
9.5175999782
 30
0.0
 10
9.4248799006
 20
9.5168244032
 30
0.0
 10
9.4265488473
 20
9.5157918698
 30
0.0
 10
9.4284271145
 20
9.514632866
 30
0.0
 10
9.4304989316
 20
9.513358267
 30
0.0
 10
9.4327490973
 20
9.5119773939
 30
0.0
 10
9.4351635266
 20
9.5104993007
 30
0.0
 10
9.4377288581
 20
9.5089331318
 30
0.0
 10
9.4404326127
 20
9.5072874427
 30
0.0
 10
9.4442802731
 20
9.504953156
 30
0.0
 10
9.4493580244
 20
9.5018892099
 30
0.0
 10
9.4557386075
 20
9.4980695897
 30
0.0
 10
9.462458446
 20
9.4940817628
 30
0.0
 10
9.4694697886
 20
9.4899601146
 30
0.0
 10
9.4767346537
 20
9.4857329829
 30
0.0
 10
9.4842220248
 20
9.4814246143
 30
0.0
 10
9.4945667893
 20
9.4755436138
 30
0.0
 10
9.507901543
 20
9.4681114578
 30
0.0
 10
9.5243616058
 20
9.4592125249
 30
0.0
 10
9.5413478665
 20
9.4503495348
 30
0.0
 10
9.5588091007
 20
9.4416125401
 30
0.0
 10
9.5767137554
 20
9.43308778
 30
0.0
 10
9.5950439096
 20
9.4248648658
 30
0.0
 10
9.6137916183
 20
9.41704343
 30
0.0
 10
9.6329517128
 20
9.4097357255
 30
0.0
 10
9.6492328324
 20
9.4041982656
 30
0.0
 10
9.6624609127
 20
9.4001701004
 30
0.0
 10
9.6758469791
 20
9.3964324964
 30
0.0
 10
9.6927808526
 20
9.3923963113
 30
0.0
 10
9.7099329638
 20
9.3893889982
 30
0.0
 10
9.7237301769
 20
9.3877147458
 30
0.0
 10
9.7323542117
 20
9.3869975922
 30
0.0
 10
9.7392372442
 20
9.3866366459
 30
0.0
 10
9.7460692499
 20
9.386423216
 30
0.0
 10
9.7545419809
 20
9.3864307969
 30
0.0
 10
9.7645887031
 20
9.3868877301
 30
0.0
 10
9.7744292097
 20
9.3877962654
 30
0.0
 10
9.784001156
 20
9.3891440211
 30
0.0
 10
9.7932439097
 20
9.3909008759
 30
0.0
 10
9.8006947908
 20
9.3926810832
 30
0.0
 10
9.8064463308
 20
9.3942704989
 30
0.0
 10
9.8119322579
 20
9.3959234201
 30
0.0
 10
9.8184890555
 20
9.3981369505
 30
0.0
 10
9.8281628503
 20
9.4018574641
 30
0.0
 10
9.8370774858
 20
9.4058842043
 30
0.0
 10
9.84521296
 20
9.4100735056
 30
0.0
 10
9.8505773873
 20
9.4130412603
 30
0.0
 10
9.8554157795
 20
9.4158880247
 30
0.0
 10
9.8597322439
 20
9.4185653729
 30
0.0
 10
9.8635297081
 20
9.4210319204
 30
0.0
 10
9.8663658847
 20
9.4229461876
 30
0.0
 10
9.8683813382
 20
9.4243391735
 30
0.0
 10
9.8697058681
 20
9.4252681475
 30
0.0
 10
9.8709031677
 20
9.4261193288
 30
0.0
 10
9.8719735165
 20
9.4268896424
 30
0.0
 10
9.8729172756
 20
9.4275761201
 30
0.0
 10
9.8737349826
 20
9.4281757912
 30
0.0
 10
9.8744270901
 20
9.428686132
 30
0.0
 10
9.8749249446
 20
9.4290553785
 30
0.0
 10
9.8752602313
 20
9.4293052432
 30
0.0
 10
9.8754645457
 20
9.4294579873
 30
0.0
 10
9.8756373229
 20
9.4295875758
 30
0.0
 10
9.8757785876
 20
9.4296938871
 30
0.0
 10
9.8758766292
 20
9.4297678846
 30
0.0
 10
9.8759393229
 20
9.4298153712
 30
0.0
 10
9.8759746284
 20
9.4298420777
 30
0.0
 10
9.8760019724
 20
9.4298630074
 30
0.0
 10
9.8760217587
 20
9.4298776921
 30
0.0
 10
9.8760331795
 20
9.4298870426
 30
0.0
 10
9.8760387634
 20
9.4298906339
 30
0.0
 10
9.8760399284
 20
9.429891804
 30
0.0
  0
SPLINE
  5
261
100
AcDbEntity
  8
0
100
AcDbSpline
 62
9
  6
CONTINUOUS
 70
0
 71
3
 72
52
 73
48
 74
0
 42
0.0000001
 43
0.0000001
 44
0.0000000001
 40
0.0
 40
0.0
 40
0.0
 40
0.0
 40
0.0000142453
 40
0.0000570128
 40
0.0001281378
 40
0.0002274557
 40
0.0003548018
 40
0.0005100114
 40
0.0009033626
 40
0.0014061923
 40
0.0020171841
 40
0.0027348906
 40
0.0035574613
 40
0.0044829682
 40
0.0055094837
 40
0.007857829
 40
0.0105866797
 40
0.0136780551
 40
0.0171132426
 40
0.0208735005
 40
0.024939169
 40
0.0292895354
 40
0.038761516
 40
0.0491403005
 40
0.0603058565
 40
0.0721500078
 40
0.0845905984
 40
0.097551179
 40
0.1109670341
 40
0.1247817742
 40
0.1534135752
 40
0.1831784478
 40
0.2138769589
 40
0.2453452865
 40
0.2774678102
 40
0.3101632682
 40
0.3433671127
 40
0.4110958255
 40
0.4803622568
 40
0.5509884891
 40
0.6228663164
 40
0.6592567448
 40
0.6959411201
 40
0.7701754693
 40
0.8455805802
 40
0.9221789196
 40
1.0
 40
1.0
 40
1.0
 40
1.0
 10
9.4124340297
 20
10.2328807752
 30
0.0
 10
9.4124334617
 20
10.2328816228
 30
0.0
 10
9.4124363772
 20
10.2328731699
 30
0.0
 10
9.412436633
 20
10.2328685759
 30
0.0
 10
9.4124412804
 20
10.2328512659
 30
0.0
 10
9.4124457857
 20
10.2328316116
 30
0.0
 10
9.4124523434
 20
10.232804595
 30
0.0
 10
9.4124635191
 20
10.2327577112
 30
0.0
 10
9.4124810418
 20
10.232684331
 30
0.0
 10
9.412505958
 20
10.232579359
 30
0.0
 10
9.4125361531
 20
10.2324516788
 30
0.0
 10
9.4125714626
 20
10.2323017054
 30
0.0
 10
9.4126117916
 20
10.2321297612
 30
0.0
 10
9.4126570142
 20
10.2319362499
 30
0.0
 10
9.4127268746
 20
10.2316362697
 30
0.0
 10
9.4128255339
 20
10.2312103789
 30
0.0
 10
9.4129567449
 20
10.2306402205
 30
0.0
 10
9.4131045028
 20
10.2299939926
 30
0.0
 10
9.4132677118
 20
10.229275519
 30
0.0
 10
9.4134452755
 20
10.2284887469
 30
0.0
 10
9.4136359315
 20
10.2276377337
 30
0.0
 10
9.4139136604
 20
10.2263869958
 30
0.0
 10
9.4142837246
 20
10.224693584
 30
0.0
 10
9.4147468954
 20
10.2225208986
 30
0.0
 10
9.4152329143
 20
10.220179396
 30
0.0
 10
9.4157345737
 20
10.21769036
 30
0.0
 10
9.4162464806
 20
10.2150722831
 30
0.0
 10
9.4167638138
 20
10.2123406127
 30
0.0
 10
9.4172817272
 20
10.2095089346
 30
0.0
 10
9.4179751892
 20
10.2055684028
 30
0.0
 10
9.4188156873
 20
10.2004649239
 30
0.0
 10
9.4197624693
 20
10.1941540315
 30
0.0
 10
9.4206438428
 20
10.1876285627
 30
0.0
 10
9.4214419885
 20
10.1809222665
 30
0.0
 10
9.4221451841
 20
10.1740615467
 30
0.0
 10
9.4227452369
 20
10.1670662257
 30
0.0
 10
9.4234003448
 20
10.1575173884
 30
0.0
 10
9.423910073
 20
10.1453348975
 30
0.0
 10
9.4239725998
 20
10.1304607577
 30
0.0
 10
9.4234253753
 20
10.1152986266
 30
0.0
 10
9.4224076428
 20
10.1025212094
 30
0.0
 10
9.421215765
 20
10.0922069005
 30
0.0
 10
9.4197444208
 20
10.0817582725
 30
0.0
 10
9.4173599251
 20
10.0686205077
 30
0.0
 10
9.413531893
 20
10.0528642336
 30
0.0
 10
9.4085774498
 20
10.0371530026
 30
0.0
 10
9.4044349068
 20
10.0268808282
 30
0.0
 10
9.4021168053
 20
10.0218119221
 30
0.0
  0
SPLINE
  5
262
100
AcDbEntity
  8
0
100
AcDbSpline
 62
9
  6
CONTINUOUS
 70
0
 71
3
 72
15
 73
11
 74
0
 42
0.0000001
 43
0.0000001
 44
0.0000000001
 40
0.0
 40
0.0
 40
0.0
 40
0.0
 40
0.1514547115
 40
0.2954541881
 40
0.4314958618
 40
0.5594921765
 40
0.6799341524
 40
0.7931666067
 40
0.8996276928
 40
1.0
 40
1.0
 40
1.0
 40
1.0
 10
9.4008750939
 20
8.3806283657
 30
0.0
 10
9.4008748337
 20
8.3773395678
 30
0.0
 10
9.4009026221
 20
8.3709238263
 30
0.0
 10
9.401019594
 20
8.3615546515
 30
0.0
 10
9.4011957148
 20
8.3526959108
 30
0.0
 10
9.4014084893
 20
8.3443497254
 30
0.0
 10
9.401623205
 20
8.3364990845
 30
0.0
 10
9.4018116631
 20
8.3291155191
 30
0.0
 10
9.4019462241
 20
8.3221666161
 30
0.0
 10
9.4019836043
 20
8.3176752666
 30
0.0
 10
9.401983497
 20
8.3154957092
 30
0.0
  0
SPLINE
  5
263
100
AcDbEntity
  8
0
100
AcDbSpline
 62
9
  6
CONTINUOUS
 70
0
 71
3
 72
44
 73
40
 74
0
 42
0.0000001
 43
0.0000001
 44
0.0000000001
 40
0.0
 40
0.0
 40
0.0
 40
0.0
 40
0.0278609077
 40
0.0566137545
 40
0.0861649568
 40
0.1163801154
 40
0.1471116135
 40
0.1782171863
 40
0.2095734242
 40
0.2410826354
 40
0.2726745031
 40
0.3043037565
 40
0.3359453496
 40
0.3517707863
 40
0.3675958382
 40
0.3992376308
 40
0.4150615224
 40
0.4308852665
 40
0.4625279134
 40
0.4941723932
 40
0.5258186688
 40
0.5574656242
 40
0.5891124039
 40
0.6207588498
 40
0.652404745
 40
0.6840502906
 40
0.7156965812
 40
0.7473436156
 40
0.7631685469
 40
0.7789935821
 40
0.810640923
 40
0.8422847057
 40
0.858104047
 40
0.8739200289
 40
0.9055316438
 40
0.9371038623
 40
0.9528677826
 40
0.9686106964
 40
1.0
 40
1.0
 40
1.0
 40
1.0
 10
9.9539822148
 20
8.822391804
 30
0.0
 10
9.9539821174
 20
8.8288509894
 30
0.0
 10
9.9531682526
 20
8.8419870725
 30
0.0
 10
9.9496751912
 20
8.8616939811
 30
0.0
 10
9.9439490876
 20
8.8814401177
 30
0.0
 10
9.9360847069
 20
8.9009281061
 30
0.0
 10
9.9261940396
 20
8.9198760403
 30
0.0
 10
9.9144071215
 20
8.9380213977
 30
0.0
 10
9.9008642821
 20
8.9551268244
 30
0.0
 10
9.8857156677
 20
8.9709838478
 30
0.0
 10
9.8691198118
 20
8.9854158995
 30
0.0
 10
9.8512455259
 20
8.9982810359
 30
0.0
 10
9.8354285424
 20
9.0076120791
 30
0.0
 10
9.8223177175
 20
9.0142102874
 30
0.0
 10
9.8089307906
 20
9.020228042
 30
0.0
 10
9.795169116
 20
9.0253779305
 30
0.0
 10
9.7811330385
 20
9.0296639405
 30
0.0
 10
9.7669355784
 20
9.0333832326
 30
0.0
 10
9.7489343779
 20
9.0369940021
 30
0.0
 10
9.7270801929
 20
9.0397448717
 30
0.0
 10
9.7050906586
 20
9.041008986
 30
0.0
 10
9.6830670156
 20
9.0408890261
 30
0.0
 10
9.6610894978
 20
9.0394865039
 30
0.0
 10
9.6392222926
 20
9.0368925018
 30
0.0
 10
9.617517022
 20
9.0331886978
 30
0.0
 10
9.5960151188
 20
9.0284487677
 30
0.0
 10
9.5747539083
 20
9.022727267
 30
0.0
 10
9.5572639963
 20
9.0171788148
 30
0.0
 10
9.5434279212
 20
9.0122864788
 30
0.0
 10
9.529700639
 20
9.0070964199
 30
0.0
 10
9.5127585921
 20
9.000052167
 30
0.0
 10
9.4961416191
 20
8.992274317
 30
0.0
 10
9.4830727474
 20
8.9856064904
 30
0.0
 10
9.4701678959
 20
8.978642246
 30
0.0
 10
9.4543639969
 20
8.9693708567
 30
0.0
 10
9.4390609793
 20
8.9593130463
 30
0.0
 10
9.4271871987
 20
8.9507728247
 30
0.0
 10
9.4156051366
 20
8.9419118525
 30
0.0
 10
9.4072413589
 20
8.9348630607
 30
0.0
 10
9.4018501071
 20
8.9299751154
 30
0.0
  0
SPLINE
  5
264
100
AcDbEntity
  8
0
100
AcDbSpline
 62
9
  6
CONTINUOUS
 70
0
 71
3
 72
24
 73
20
 74
0
 42
0.0000001
 43
0.0000001
 44
0.0000000001
 40
0.0
 40
0.0
 40
0.0
 40
0.0
 40
0.0704649324
 40
0.1394772943
 40
0.2068916639
 40
0.2726198497
 40
0.3366253683
 40
0.3989898012
 40
0.4598742465
 40
0.5195302596
 40
0.5782997551
 40
0.6365939141
 40
0.6657137878
 40
0.6948834206
 40
0.7535757218
 40
0.8131202441
 40
0.8738749931
 40
0.9361127059
 40
1.0
 40
1.0
 40
1.0
 40
1.0
 10
9.8016620756
 20
8.6788411361
 30
0.0
 10
9.8069906614
 20
8.6797748642
 30
0.0
 10
9.8175037768
 20
8.6818277618
 30
0.0
 10
9.8329461555
 20
8.6855707478
 30
0.0
 10
9.8478294516
 20
8.6899974118
 30
0.0
 10
9.8620706361
 20
8.6951523562
 30
0.0
 10
9.8755806601
 20
8.7010976349
 30
0.0
 10
9.888280475
 20
8.7078665916
 30
0.0
 10
9.9000893557
 20
8.7154983904
 30
0.0
 10
9.9109256543
 20
8.7240234534
 30
0.0
 10
9.9207107519
 20
8.7334556009
 30
0.0
 10
9.9279318736
 20
8.7420783131
 30
0.0
 10
9.9330931511
 20
8.7493956806
 30
0.0
 10
9.9378543837
 20
8.75701555
 30
0.0
 10
9.9430300192
 20
8.7671085258
 30
0.0
 10
9.947908416
 20
8.7799844773
 30
0.0
 10
9.9514149073
 20
8.7935810421
 30
0.0
 10
9.9535232709
 20
8.8077967678
 30
0.0
 10
9.9539819546
 20
8.8174870106
 30
0.0
 10
9.9539822148
 20
8.822391804
 30
0.0
  0
SPLINE
  5
265
100
AcDbEntity
  8
0
100
AcDbSpline
 62
9
  6
CONTINUOUS
 70
0
 71
3
 72
65
 73
61
 74
0
 42
0.0000001
 43
0.0000001
 44
0.0000000001
 40
0.0
 40
0.0
 40
0.0
 40
0.0
 40
0.0624508767
 40
0.1300762322
 40
0.2011132207
 40
0.2745350921
 40
0.3119285301
 40
0.3496892838
 40
0.3877595896
 40
0.4260840994
 40
0.4646044335
 40
0.5032548372
 40
0.5419572674
 40
0.5806141857
 40
0.599890176
 40
0.619108072
 40
0.6382460987
 40
0.6572820812
 40
0.6761924637
 40
0.6949523553
 40
0.713531446
 40
0.7318961069
 40
0.7500125357
 40
0.7678460549
 40
0.8025114312
 40
0.8192624638
 40
0.8355654218
 40
0.8513766893
 40
0.8666526806
 40
0.8954067447
 40
0.9087877231
 40
0.9214392148
 40
0.9333128515
 40
0.9443605968
 40
0.9545348696
 40
0.9637878007
 40
0.9720730908
 40
0.9793509408
 40
0.9825999963
 40
0.9855826267
 40
0.9882939729
 40
0.9907300896
 40
0.9928879438
 40
0.9947645378
 40
0.9963572736
 40
0.9970465969
 40
0.9976642519
 40
0.9982100093
 40
0.9986836401
 40
0.9990849312
 40
0.9994137009
 40
0.9995508345
 40
0.9996697709
 40
0.9997704878
 40
0.9998529629
 40
0.9999171739
 40
0.9999630987
 40
0.9999791967
 40
0.9999907148
 40
1.0
 40
1.0
 40
1.0
 40
1.0
 10
9.4018455224
 20
9.3671504872
 30
0.0
 10
9.4132400659
 20
9.3639369689
 30
0.0
 10
9.4370281938
 20
9.3574362345
 30
0.0
 10
9.4739986801
 20
9.3481096607
 30
0.0
 10
9.5132170457
 20
9.3392338509
 30
0.0
 10
9.5470639716
 20
9.3326477265
 30
0.0
 10
9.5748526286
 20
9.3280423523
 30
0.0
 10
9.5960983623
 20
9.3249744689
 30
0.0
 10
9.6175846509
 20
9.3223752391
 30
0.0
 10
9.6392737724
 20
9.3203079503
 30
0.0
 10
9.6611225127
 20
9.3188409431
 30
0.0
 10
9.6830781497
 20
9.3180407961
 30
0.0
 10
9.7050746791
 20
9.3179712206
 30
0.0
 10
9.7233888634
 20
9.3185752213
 30
0.0
 10
9.7379876371
 20
9.3194752946
 30
0.0
 10
9.7488779116
 20
9.3203607679
 30
0.0
 10
9.7597028736
 20
9.3214610315
 30
0.0
 10
9.7704446054
 20
9.3227805546
 30
0.0
 10
9.7810854239
 20
9.3243141778
 30
0.0
 10
9.7916065539
 20
9.3260548189
 30
0.0
 10
9.8019872017
 20
9.3279967173
 30
0.0
 10
9.8122043503
 20
9.3301361132
 30
0.0
 10
9.8222357895
 20
9.3324613955
 30
0.0
 10
9.8352115619
 20
9.3357560036
 30
0.0
 10
9.8478357304
 20
9.3393731924
 30
0.0
 10
9.8600669143
 20
9.3432747394
 30
0.0
 10
9.8688372393
 20
9.346258949
 30
0.0
 10
9.8772881225
 20
9.3493089015
 30
0.0
 10
9.8878907786
 20
9.3533445948
 30
0.0
 10
9.8979672132
 20
9.3574634647
 30
0.0
 10
9.907489298
 20
9.3616114012
 30
0.0
 10
9.9140372995
 20
9.3645720367
 30
0.0
 10
9.9201462899
 20
9.3674285154
 30
0.0
 10
9.9257984064
 20
9.3701522878
 30
0.0
 10
9.9309761737
 20
9.3727151567
 30
0.0
 10
9.9356620008
 20
9.3750907769
 30
0.0
 10
9.939839425
 20
9.3772544734
 30
0.0
 10
9.9429939278
 20
9.3789181257
 30
0.0
 10
9.9452534956
 20
9.380123667
 30
0.0
 10
9.9467468921
 20
9.380926176
 30
0.0
 10
9.9481025033
 20
9.3816595043
 30
0.0
 10
9.9493188961
 20
9.3823215621
 30
0.0
 10
9.9503949349
 20
9.3829104624
 30
0.0
 10
9.9513297288
 20
9.3834244139
 30
0.0
 10
9.9520200018
 20
9.3838052683
 30
0.0
 10
9.95250105
 20
9.384071298
 30
0.0
 10
9.9528083239
 20
9.3842414294
 30
0.0
 10
9.9530797704
 20
9.3843918536
 30
0.0
 10
9.9533153222
 20
9.3845224298
 30
0.0
 10
9.9535149097
 20
9.3846330394
 30
0.0
 10
9.9536587102
 20
9.384712712
 30
0.0
 10
9.9537556944
 20
9.3847664359
 30
0.0
 10
9.9538148645
 20
9.3847992023
 30
0.0
 10
9.9538649673
 20
9.3848269573
 30
0.0
 10
9.9539060107
 20
9.3848496463
 30
0.0
 10
9.9539379317
 20
9.3848673957
 30
0.0
 10
9.9539589275
 20
9.3848788364
 30
0.0
 10
9.953971054
 20
9.3848857732
 30
0.0
 10
9.9539773096
 20
9.3848888165
 30
0.0
 10
9.9539805064
 20
9.3848913797
 30
0.0
 10
9.9539822148
 20
9.384891804
 30
0.0
  0
ENDSEC
  0
SECTION
  2
OBJECTS
  0
DICTIONARY
  5
C
100
AcDbDictionary
280
0
281
1
  3
ACAD_GROUP
350
D
  3
ACAD_MLINESTYLE
350
17
  3
ACAD_LAYOUT
350
1A
  3
ACAD_PLOTSETTINGS
350
19
  3
ACAD_PLOTSTYLENAME
350
E
  0
DICTIONARY
  5
D
102
{ACAD_REACTORS
330
C
102
}
100
AcDbDictionary
280
0
281
1
  0
ACDBDICTIONARYWDFLT
  5
E
102
{ACAD_REACTORS
330
C
102
}
100
AcDbDictionary
281
1
  3
Normal
350
F
100
AcDbDictionaryWithDefault
340
F
  0
DICTIONARY
  5
17
102
{ACAD_REACTORS
330
C
102
}
100
AcDbDictionary
280
0
281
1
  3
Standard
350
18
  0
DICTIONARY
  5
19
102
{ACAD_REACTORS
330
C
102
}
100
AcDbDictionary
281
1
  0
DICTIONARY
  5
1A
102
{ACAD_REACTORS
330
C
102
}
100
AcDbDictionary
281
1
  3
Model
350
266
  3
Layout1
350
267
  0
ACDBPLACEHOLDER
  5
F
102
{ACAD_REACTORS
330
E
102
}
  0
MLINESTYLE
  5
18
102
{ACAD_REACTORS
330
17
102
}
100
AcDbMlineStyle
  2
STANDARD
 70
0
  3

 62
256
 51
90.0
 52
90.0
 71
2
 49
0.5
 62
256
  6
BYLAYER
 49
-0.5
 62
256
  6
BYLAYER
  0
LAYOUT
  5
266
102
{ACAD_REACTORS
330
1A
102
}
100
AcDbPlotSettings
  1

  2
none_device
  4
ANSI_C_(22.00_x_17.00_Inches)
  6

 40
0.0
 41
0.0
 42
0.0
 43
0.0
 44
558.8
 45
431.8
 46
0.0
 47
0.0
 48
0.0
 49
0.0
140
0.0
141
0.0
142
1.0
143
1.0
 70
1024
 72
0
 73
0
 74
0
  7

 75
0
147
1.0
148
0.0
149
0.0
100
AcDbLayout
  1
Model
 70
0
 71
0
 10
0.0
 20
0.0
 11
22.0
 21
17.0
 12
0.0
 22
0.0
 32
0.0
 14
0.0
 24
0.0
 34
0.0
 15
0.0
 25
0.0
 35
0.0
146
0.0
 13
0.0
 23
0.0
 33
0.0
 16
1.0
 26
0.0
 36
0.0
 17
0.0
 27
1.0
 37
0.0
 76
0
330
205
345
0
346
0
  0
LAYOUT
  5
267
102
{ACAD_REACTORS
330
1A
102
}
100
AcDbPlotSettings
  1

  2
none_device
  4
ANSI_C_(22.00_x_17.00_Inches)
  6

 40
0.0
 41
0.0
 42
0.0
 43
0.0
 44
558.8
 45
431.8
 46
0.0
 47
0.0
 48
0.0
 49
0.0
140
0.0
141
0.0
142
1.0
143
1.0
 70
0
 72
0
 73
0
 74
0
  7

 75
0
147
1.0
148
0.0
149
0.0
100
AcDbLayout
  1
Layout1
 70
0
 71
1
 10
0.0
 20
0.0
 11
22.0
 21
17.0
 12
0.0
 22
0.0
 32
0.0
 14
0.0
 24
0.0
 34
0.0
 15
0.0
 25
0.0
 35
0.0
146
0.0
 13
0.0
 23
0.0
 33
0.0
 16
1.0
 26
0.0
 36
0.0
 17
0.0
 27
1.0
 37
0.0
 76
0
330
206
345
0
346
0
  0
ENDSEC
  0
EOF
