999
DXF file: E:\BT Custom\CADOUTPUT\_RIGHT.dxf
999
Pro/ENGINEER 2018400 by Parametric Technology Corporation
  0
SECTION
  2
HEADER
  9
$ACADVER
  1
AC1018
  9
$DWGCODEPAGE
  3
ANSI_1252
  9
$EXTMAX
 10
22.0
 20
17.0
 30
0.0
  9
$EXTMIN
 10
0.0
 20
0.0
 30
0.0
  9
$LIMMIN
 10
0.0
 20
0.0
  9
$LIMMAX
 10
22.0
 20
17.0
  9
$VIEWCTR
 10
11.0
 20
8.5
  9
$VIEWSIZE
 40
17.0
  9
$CLAYER
  8
0
  9
$LTSCALE
 40
1.21
  9
$CELTYPE
  6
BYLAYER
  9
$DIMSCALE
 40
1.0
  9
$DIMASZ
 40
0.1
  9
$DIMEXO
 40
0.0625
  9
$DIMDLI
 40
0.836
  9
$DIMEXE
 40
0.125
  9
$DIMCEN
 40
0.198
  9
$DIMLFAC
 40
1.0
  9
$DIMBLK
  1
_FILLED
  9
$DIMALT
 70
1
  9
$DIMALTD
 70
2
  9
$DIMALTTD
 70
2
  9
$DIMALTF
 40
25.4
  9
$DIMTXT
 40
0.08
  9
$DIMTOL
 70
1
  9
$DIMLIM
 70
0
  9
$DIMTFAC
 40
1.0
  9
$DIMTP
 40
0.001
  9
$DIMTM
 40
0.001
  9
$DIMGAP
 40
0.09
  9
$DIMDSEP
 70
46
  9
$AUNITS
 70
0
  9
$PDMODE
 70
3
  9
$PDSIZE
 40
0.06
  9
$HANDSEED
  5
269
  9
$TILEMODE
 70
1
  9
$MEASUREMENT
 70
0
  9
$INSUNITS
 70
1
  0
ENDSEC
  0
SECTION
  2
CLASSES
  0
CLASS
  1
ACDBDICTIONARYWDFLT
  2
AcDbDictionaryWithDefault
  3
AutoCAD 2000
 90
0
 91
1
280
0
281
0
  0
CLASS
  1
ACDBPLACEHOLDER
  2
AcDbPlaceHolder
  3
AutoCAD 2000
 90
0
 91
1
280
0
281
0
  0
CLASS
  1
LAYOUT
  2
AcDbLayout
  3
AutoCAD 2000
 90
0
 91
0
280
0
281
0
  0
ENDSEC
  0
SECTION
  2
TABLES
  0
TABLE
  2
VPORT
  5
8
100
AcDbSymbolTable
 70
2
  0
VPORT
  5
1F4
100
AcDbSymbolTableRecord
100
AcDbViewportTableRecord
  2
*ACTIVE
 70
0
 10
0.0
 20
0.0
 11
1.0
 21
1.0
 12
11.0
 22
8.5
 13
0.0
 23
0.0
 14
1.0
 24
1.0
 15
0.0
 25
0.0
 16
0.0
 26
0.0
 36
1.0
 17
0.0
 27
0.0
 37
0.0
 40
17.0
 41
1.2941176471
 42
50.0
 43
0.0
 44
0.0
 50
0.0
 51
0.0
 71
0
 72
100
 73
1
 74
1
 75
0
 76
0
 77
0
 78
0
  0
ENDTAB
  0
TABLE
  2
LTYPE
  5
5
100
AcDbSymbolTable
 70
6
  0
LTYPE
  5
14
100
AcDbSymbolTableRecord
100
AcDbLinetypeTableRecord
  2
BYBLOCK
 70
0
  3

 72
65
 73
0
 40
0.0
  0
LTYPE
  5
15
100
AcDbSymbolTableRecord
100
AcDbLinetypeTableRecord
  2
BYLAYER
 70
0
  3

 72
65
 73
0
 40
0.0
  0
LTYPE
  5
16
100
AcDbSymbolTableRecord
100
AcDbLinetypeTableRecord
  2
CONTINUOUS
 70
64
  3
Solid line
 72
65
 73
0
 40
0.0
  0
LTYPE
  5
1F5
100
AcDbSymbolTableRecord
100
AcDbLinetypeTableRecord
  2
CENTER
 70
64
  3
____ _ ____ _ ____ _ ____ _ ____ _ ____ _ ____
 72
65
 73
4
 40
0.6
 49
0.375
 74
0
 49
-0.075
 74
0
 49
0.075
 74
0
 49
-0.075
 74
0
  0
LTYPE
  5
1F6
100
AcDbSymbolTableRecord
100
AcDbLinetypeTableRecord
  2
HIDDEN
 70
64
  3
- - - - - - - - - - - - - - - - - - - -
 72
65
 73
2
 40
0.2
 49
0.1
 74
0
 49
-0.1
 74
0
  0
LTYPE
  5
1F7
100
AcDbSymbolTableRecord
100
AcDbLinetypeTableRecord
  2
PHANTOM
 70
64
  3
_____ _ _ _____ _ _ _____ _ _ _____
 72
65
 73
6
 40
0.8
 49
0.45
 74
0
 49
-0.05
 74
0
 49
0.1
 74
0
 49
-0.05
 74
0
 49
0.1
 74
0
 49
-0.05
 74
0
  0
LTYPE
  5
1F8
100
AcDbSymbolTableRecord
100
AcDbLinetypeTableRecord
  2
DOT
 70
64
  3
. . . . . . . . . . . . . . . . . . . .
 72
65
 73
2
 40
0.2
 49
0.1
 74
0
 49
-0.1
 74
0
  0
LTYPE
  5
1F9
100
AcDbSymbolTableRecord
100
AcDbLinetypeTableRecord
  2
DASHED
 70
64
  3
- - - - - - - - - - - - - - - - - - - -
 72
65
 73
2
 40
0.2
 49
0.1
 74
0
 49
-0.1
 74
0
  0
ENDTAB
  0
TABLE
  2
LAYER
  5
2
100
AcDbSymbolTable
 70
36
  0
LAYER
  5
10
100
AcDbSymbolTableRecord
100
AcDbLayerTableRecord
  2
0
 70
0
 62
7
  6
CONTINUOUS
370
-3
390
F
  0
LAYER
  5
1FA
100
AcDbSymbolTableRecord
100
AcDbLayerTableRecord
  2
DEFAULT_1
 70
0
 62
7
  6
CENTER
370
-3
390
F
  0
LAYER
  5
1FB
100
AcDbSymbolTableRecord
100
AcDbLayerTableRecord
  2
DEFAULT_2
 70
0
 62
8
  6
HIDDEN
370
-3
390
F
  0
LAYER
  5
1FC
100
AcDbSymbolTableRecord
100
AcDbLayerTableRecord
  2
DEFAULT_3
 70
0
 62
7
  6
PHANTOM
370
-3
390
F
  0
LAYER
  5
1FD
100
AcDbSymbolTableRecord
100
AcDbLayerTableRecord
  2
ALL_FEATURES
 70
0
 62
7
  6
CONTINUOUS
370
-3
390
F
  0
LAYER
  5
1FE
100
AcDbSymbolTableRecord
100
AcDbLayerTableRecord
  2
AXES_FEATURES
 70
0
 62
7
  6
CONTINUOUS
370
-3
390
F
  0
LAYER
  5
1FF
100
AcDbSymbolTableRecord
100
AcDbLayerTableRecord
  2
DEFAULT_COORDINATE_SYSTEM
 70
0
 62
7
  6
CONTINUOUS
370
-3
390
F
  0
LAYER
  5
200
100
AcDbSymbolTableRecord
100
AcDbLayerTableRecord
  2
DEFAULT_DATUM_AXES
 70
0
 62
7
  6
CONTINUOUS
370
-3
390
F
  0
LAYER
  5
201
100
AcDbSymbolTableRecord
100
AcDbLayerTableRecord
  2
DEFAULT_DATUM_PLANES
 70
0
 62
7
  6
CONTINUOUS
370
-3
390
F
  0
LAYER
  5
202
100
AcDbSymbolTableRecord
100
AcDbLayerTableRecord
  2
DIMENSIONS
 70
0
 62
7
  6
CONTINUOUS
370
-3
390
F
  0
ENDTAB
  0
TABLE
  2
STYLE
  5
3
100
AcDbSymbolTable
 70
1
  0
STYLE
  5
11
100
AcDbSymbolTableRecord
100
AcDbTextStyleTableRecord
  2
STANDARD
 70
0
 40
0.0
 41
0.8
 50
0.0
 71
0
 42
0.2
  3
txt
  4

  0
STYLE
  5
203
100
AcDbSymbolTableRecord
100
AcDbTextStyleTableRecord
  2
TEXTSTYLE_1
 70
0
 40
0.0
 41
0.8
 50
0.0
 71
0
 42
0.2
  3
gdt
  4

  0
ENDTAB
  0
TABLE
  2
VIEW
  5
6
100
AcDbSymbolTable
 70
0
  0
ENDTAB
  0
TABLE
  2
UCS
  5
7
100
AcDbSymbolTable
 70
0
  0
ENDTAB
  0
TABLE
  2
APPID
  5
9
100
AcDbSymbolTable
 70
1
  0
APPID
  5
204
100
AcDbSymbolTableRecord
100
AcDbRegAppTableRecord
  2
ACAD
 70
0
  0
ENDTAB
  0
TABLE
  2
BLOCK_RECORD
  5
1
100
AcDbSymbolTable
 70
0
  0
BLOCK_RECORD
  5
205
100
AcDbSymbolTableRecord
100
AcDbBlockTableRecord
  2
*Model_Space
  0
BLOCK_RECORD
  5
206
100
AcDbSymbolTableRecord
100
AcDbBlockTableRecord
  2
*Paper_Space
  0
BLOCK_RECORD
  5
207
100
AcDbSymbolTableRecord
100
AcDbBlockTableRecord
  2
_FILLED
  0
ENDTAB
  0
TABLE
  2
DIMSTYLE
  5
A
100
AcDbSymbolTable
 70
1
100
AcDbDimStyleTable
 71
0
  0
DIMSTYLE
105
208
100
AcDbSymbolTableRecord
100
AcDbDimStyleTableRecord
  2
STANDARD
 70
0
  3

  4

 40
1.0
 41
0.1
 42
0.0625
 43
0.38
 44
0.125
 45
0.0
 46
0.0
 47
0.001
 48
0.001
140
0.08
141
0.09
142
0.0
143
25.4
144
1.0
145
0.0
146
1.0
147
0.09
 71
1.0
 72
0.0
 73
1
 74
1
 75
0
 76
0
 77
0
 78
4
 79
1
170
1
171
2
172
0
173
0
174
0
175
0
176
0
177
0
178
0
270
2
179
3
271
3
272
3
273
2
274
2
275
0
280
0
281
0
282
0
283
1
284
4
285
0
286
0
287
3
288
0
340
11
278
46
341
207
342
207
343
207
344
207
  0
ENDTAB
  0
ENDSEC
  0
SECTION
  2
BLOCKS
  0
BLOCK
  5
20
100
AcDbEntity
  8
0
100
AcDbBlockBegin
  2
*Model_Space
 70
0
 10
0.0
 20
0.0
 30
0.0
  3
*Model_Space
  1

  0
ENDBLK
  5
21
100
AcDbEntity
  8
0
100
AcDbBlockEnd
  0
BLOCK
  5
1C
100
AcDbEntity
  8
0
100
AcDbBlockBegin
  2
*Paper_Space
 70
0
 10
0.0
 20
0.0
 30
0.0
  3
*Paper_Space
  1

  0
ENDBLK
  5
1D
100
AcDbEntity
  8
0
100
AcDbBlockEnd
  0
BLOCK
  5
209
100
AcDbEntity
  8
0
100
AcDbBlockBegin
  2
_FILLED
 70
64
 10
0.0
 20
0.0
  3
_FILLED
  1

  0
SOLID
  5
20A
100
AcDbEntity
  8
0
  6
BYBLOCK
 62
0
100
AcDbTrace
 10
0.0
 20
0.0
 11
-1.0
 21
0.2
 12
-1.0
 22
-0.2
 13
-1.0
 23
-0.2
  0
ENDBLK
  5
20B
100
AcDbEntity
  8
0
  6
BYBLOCK
 62
0
100
AcDbBlockEnd
  0
ENDSEC
  0
SECTION
  2
ENTITIES
  0
LINE
  5
20C
100
AcDbEntity
  8
0
100
AcDbLine
 62
7
  6
CONTINUOUS
 10
12.3014834891
 20
5.759891804
 11
12.1620202288
 21
5.759891804
  0
LINE
  5
20D
100
AcDbEntity
  8
0
100
AcDbLine
 62
7
  6
CONTINUOUS
 10
9.1484834891
 20
6.159891804
 11
9.4634834891
 21
6.159891804
  0
LINE
  5
20E
100
AcDbEntity
  8
0
100
AcDbLine
 62
9
  6
CONTINUOUS
 10
9.1484834891
 20
6.1883188802
 11
9.4634834891
 21
6.1883188802
  0
LINE
  5
20F
100
AcDbEntity
  8
0
100
AcDbLine
 62
7
  6
CONTINUOUS
 10
10.9934834891
 20
6.389891804
 11
10.9034834891
 21
6.389891804
  0
LINE
  5
210
100
AcDbEntity
  8
0
100
AcDbLine
 62
7
  6
CONTINUOUS
 10
11.8934834891
 20
6.603891804
 11
11.8204834891
 21
6.603891804
  0
LINE
  5
211
100
AcDbEntity
  8
0
100
AcDbLine
 62
7
  6
CONTINUOUS
 10
10.8964885196
 20
6.3906913007
 11
10.7604885196
 21
6.4221913007
  0
LINE
  5
212
100
AcDbEntity
  8
0
100
AcDbLine
 62
7
  6
CONTINUOUS
 10
11.2294834891
 20
6.662891804
 11
11.8084834891
 21
6.662891804
  0
LINE
  5
213
100
AcDbEntity
  8
0
100
AcDbLine
 62
7
  6
CONTINUOUS
 10
11.2294834891
 20
7.016891804
 11
11.8084834891
 21
7.016891804
  0
LINE
  5
214
100
AcDbEntity
  8
0
100
AcDbLine
 62
7
  6
CONTINUOUS
 10
11.8934834891
 20
7.075891804
 11
11.8204834891
 21
7.075891804
  0
LINE
  5
215
100
AcDbEntity
  8
0
100
AcDbLine
 62
7
  6
CONTINUOUS
 10
10.8964885196
 20
7.2890923074
 11
10.7604885196
 21
7.2575923074
  0
LINE
  5
216
100
AcDbEntity
  8
0
100
AcDbLine
 62
7
  6
CONTINUOUS
 10
10.9934834891
 20
7.289891804
 11
10.9034834891
 21
7.289891804
  0
LINE
  5
217
100
AcDbEntity
  8
0
100
AcDbLine
 62
7
  6
CONTINUOUS
 10
9.1184834891
 20
6.189891804
 11
9.1184834891
 21
9.439891804
  0
LINE
  5
218
100
AcDbEntity
  8
0
100
AcDbLine
 62
9
  6
CONTINUOUS
 10
9.1484834891
 20
6.159891804
 11
9.1484834891
 21
9.469891804
  0
LINE
  5
219
100
AcDbEntity
  8
0
100
AcDbLine
 62
9
  6
CONTINUOUS
 10
9.4634834891
 20
9.469891804
 11
9.4634834891
 21
6.159891804
  0
LINE
  5
21A
100
AcDbEntity
  8
0
100
AcDbLine
 62
7
  6
CONTINUOUS
 10
9.4934834891
 20
9.439891804
 11
9.4934834891
 21
6.189891804
  0
LINE
  5
21B
100
AcDbEntity
  8
0
100
AcDbLine
 62
9
  6
CONTINUOUS
 10
9.5334834891
 20
8.697391804
 11
9.5334834891
 21
9.322391804
  0
LINE
  5
21C
100
AcDbEntity
  8
0
100
AcDbLine
 62
7
  6
CONTINUOUS
 10
11.9884834891
 20
7.909891804
 11
11.8314834891
 21
7.909891804
  0
LINE
  5
21D
100
AcDbEntity
  8
0
100
AcDbLine
 62
7
  6
CONTINUOUS
 10
11.2294834891
 20
7.064891804
 11
11.0154974482
 21
7.2807180636
  0
LINE
  5
21E
100
AcDbEntity
  8
0
100
AcDbLine
 62
7
  6
CONTINUOUS
 10
9.9104834891
 20
8.697391804
 11
9.9104834891
 21
9.322391804
  0
LINE
  5
21F
100
AcDbEntity
  8
0
100
AcDbLine
 62
7
  6
CONTINUOUS
 10
9.9414834891
 20
8.4313629572
 11
9.9414834891
 21
9.5884206509
  0
LINE
  5
220
100
AcDbEntity
  8
0
100
AcDbLine
 62
9
  6
CONTINUOUS
 10
9.9733318057
 20
8.3983830599
 11
9.9733318057
 21
9.6214005482
  0
LINE
  5
221
100
AcDbEntity
  8
0
100
AcDbLine
 62
7
  6
CONTINUOUS
 10
11.7914834891
 20
8.259891804
 11
11.744809544
 21
8.259891804
  0
LINE
  5
222
100
AcDbEntity
  8
0
100
AcDbLine
 62
7
  6
CONTINUOUS
 10
11.8014834891
 20
8.372391804
 11
11.7914834891
 21
8.372391804
  0
LINE
  5
223
100
AcDbEntity
  8
0
100
AcDbLine
 62
7
  6
CONTINUOUS
 10
11.6342754489
 20
8.3403816298
 11
9.9733318057
 21
8.3983830599
  0
LINE
  5
224
100
AcDbEntity
  8
0
100
AcDbLine
 62
7
  6
CONTINUOUS
 10
9.9104834891
 20
8.697391804
 11
9.5334834891
 21
8.697391804
  0
LINE
  5
225
100
AcDbEntity
  8
0
100
AcDbLine
 62
7
  6
CONTINUOUS
 10
9.9414834891
 20
8.747391804
 11
9.9104834891
 21
8.747391804
  0
LINE
  5
226
100
AcDbEntity
  8
0
100
AcDbLine
 62
7
  6
CONTINUOUS
 10
10.7364834891
 20
6.452391804
 11
10.7364834891
 21
7.227391804
  0
LINE
  5
227
100
AcDbEntity
  8
0
100
AcDbLine
 62
9
  6
CONTINUOUS
 10
9.1484834891
 20
8.985773639
 11
9.4634834891
 21
8.985773639
  0
LINE
  5
228
100
AcDbEntity
  8
0
100
AcDbLine
 62
9
  6
CONTINUOUS
 10
10.7604885196
 20
6.4221913007
 11
10.7604885196
 21
7.2575923074
  0
LINE
  5
229
100
AcDbEntity
  8
0
100
AcDbLine
 62
9
  6
CONTINUOUS
 10
10.8964885196
 20
6.3906913007
 11
10.8964885196
 21
7.2890923074
  0
LINE
  5
22A
100
AcDbEntity
  8
0
100
AcDbLine
 62
9
  6
CONTINUOUS
 10
10.9034834891
 20
6.389891804
 11
10.9034834891
 21
7.289891804
  0
LINE
  5
22B
100
AcDbEntity
  8
0
100
AcDbLine
 62
7
  6
CONTINUOUS
 10
9.9414834891
 20
9.272391804
 11
9.9104834891
 21
9.272391804
  0
LINE
  5
22C
100
AcDbEntity
  8
0
100
AcDbLine
 62
9
  6
CONTINUOUS
 10
10.9934834891
 20
6.389891804
 11
10.9934834891
 21
7.289891804
  0
LINE
  5
22D
100
AcDbEntity
  8
0
100
AcDbLine
 62
9
  6
CONTINUOUS
 10
11.0154974482
 20
6.3990655445
 11
11.0154974482
 21
7.2807180636
  0
LINE
  5
22E
100
AcDbEntity
  8
0
100
AcDbLine
 62
7
  6
CONTINUOUS
 10
9.9104834891
 20
9.322391804
 11
9.5334834891
 21
9.322391804
  0
LINE
  5
22F
100
AcDbEntity
  8
0
100
AcDbLine
 62
7
  6
CONTINUOUS
 10
9.4634834891
 20
9.469891804
 11
9.1484834891
 21
9.469891804
  0
LINE
  5
230
100
AcDbEntity
  8
0
100
AcDbLine
 62
7
  6
CONTINUOUS
 10
11.2294834891
 20
6.6148924084
 11
11.2294834891
 21
7.0648911997
  0
LINE
  5
231
100
AcDbEntity
  8
0
100
AcDbLine
 62
7
  6
CONTINUOUS
 10
11.6342754489
 20
9.6794019783
 11
9.9733318057
 21
9.6214005482
  0
LINE
  5
232
100
AcDbEntity
  8
0
100
AcDbLine
 62
7
  6
CONTINUOUS
 10
11.8014834891
 20
9.647391804
 11
11.7914834891
 21
9.647391804
  0
LINE
  5
233
100
AcDbEntity
  8
0
100
AcDbLine
 62
7
  6
CONTINUOUS
 10
11.7914834891
 20
9.759891804
 11
11.744809544
 21
9.759891804
  0
LINE
  5
234
100
AcDbEntity
  8
0
100
AcDbLine
 62
9
  6
CONTINUOUS
 10
11.6342754489
 20
8.3403816298
 11
11.6342754489
 21
9.6794019783
  0
LINE
  5
235
100
AcDbEntity
  8
0
100
AcDbLine
 62
9
  6
CONTINUOUS
 10
11.7070341924
 20
8.2867379906
 11
11.7070341924
 21
9.7330456175
  0
LINE
  5
236
100
AcDbEntity
  8
0
100
AcDbLine
 62
9
  6
CONTINUOUS
 10
11.744809544
 20
8.259891804
 11
11.744809544
 21
9.759891804
  0
LINE
  5
237
100
AcDbEntity
  8
0
100
AcDbLine
 62
7
  6
CONTINUOUS
 10
11.7914834891
 20
9.759891804
 11
11.7914834891
 21
8.259891804
  0
LINE
  5
238
100
AcDbEntity
  8
0
100
AcDbLine
 62
7
  6
CONTINUOUS
 10
11.8014834891
 20
7.939891804
 11
11.8014834891
 21
10.079891804
  0
LINE
  5
239
100
AcDbEntity
  8
0
100
AcDbLine
 62
7
  6
CONTINUOUS
 10
11.8084834891
 20
6.6158921448
 11
11.8084834891
 21
7.0638914633
  0
LINE
  5
23A
100
AcDbEntity
  8
0
100
AcDbLine
 62
9
  6
CONTINUOUS
 10
11.8204834891
 20
6.603891804
 11
11.8204834891
 21
7.075891804
  0
LINE
  5
23B
100
AcDbEntity
  8
0
100
AcDbLine
 62
9
  6
CONTINUOUS
 10
11.8314834891
 20
7.909891804
 11
11.8314834891
 21
10.109891804
  0
LINE
  5
23C
100
AcDbEntity
  8
0
100
AcDbLine
 62
7
  6
CONTINUOUS
 10
11.8934834891
 20
7.119891804
 11
11.8934834891
 21
6.559891804
  0
LINE
  5
23D
100
AcDbEntity
  8
0
100
AcDbLine
 62
7
  6
CONTINUOUS
 10
11.9884834891
 20
10.109891804
 11
11.8314834891
 21
10.109891804
  0
LINE
  5
23E
100
AcDbEntity
  8
0
100
AcDbLine
 62
7
  6
CONTINUOUS
 10
11.9884834891
 20
5.9270483143
 11
11.9884834891
 21
12.0927352938
  0
LINE
  5
23F
100
AcDbEntity
  8
0
100
AcDbLine
 62
9
  6
CONTINUOUS
 10
12.0304204988
 20
5.8676736527
 11
12.0304204988
 21
12.1521099554
  0
LINE
  5
240
100
AcDbEntity
  8
0
100
AcDbLine
 62
9
  6
CONTINUOUS
 10
12.1040011388
 20
5.7983401197
 11
12.1040011388
 21
12.2214434884
  0
LINE
  5
241
100
AcDbEntity
  8
0
100
AcDbLine
 62
9
  6
CONTINUOUS
 10
12.1620202288
 20
5.759891804
 11
12.1620202288
 21
12.259891804
  0
LINE
  5
242
100
AcDbEntity
  8
0
100
AcDbLine
 62
7
  6
CONTINUOUS
 10
12.3014834891
 20
12.259891804
 11
12.3014834891
 21
5.759891804
  0
LINE
  5
243
100
AcDbEntity
  8
0
100
AcDbLine
 62
7
  6
CONTINUOUS
 10
11.2294834891
 20
6.614891804
 11
11.0154974482
 21
6.3990655445
  0
LINE
  5
244
100
AcDbEntity
  8
0
100
AcDbLine
 62
7
  6
CONTINUOUS
 10
12.3014834891
 20
12.259891804
 11
12.1620202288
 21
12.259891804
  0
ARC
  5
245
100
AcDbEntity
  8
0
100
AcDbCircle
 62
7
  6
CONTINUOUS
 10
11.9884834891
 20
5.7494570214
 40
0.1254347826
100
AcDbArc
 50
22.9364108859
 51
70.4680059554
  0
ARC
  5
246
100
AcDbEntity
  8
0
100
AcDbCircle
 62
7
  6
CONTINUOUS
 10
11.9884834891
 20
12.2703265867
 40
0.1254347826
100
AcDbArc
 50
289.5319940446
 51
337.0635891141
  0
ARC
  5
247
100
AcDbEntity
  8
0
100
AcDbCircle
 62
7
  6
CONTINUOUS
 10
11.9884834891
 20
6.559891804
 40
0.095
100
AcDbArc
 50
180.0
 51
270.0
  0
ARC
  5
248
100
AcDbEntity
  8
0
100
AcDbCircle
 62
7
  6
CONTINUOUS
 10
11.9884834891
 20
7.119891804
 40
0.095
100
AcDbArc
 50
90.0
 51
180.0
  0
ARC
  5
249
100
AcDbEntity
  8
0
100
AcDbCircle
 62
7
  6
CONTINUOUS
 10
11.6314834891
 20
9.7593532445
 40
0.08
100
AcDbArc
 50
272.0
 51
340.8012928747
  0
ARC
  5
24A
100
AcDbEntity
  8
0
100
AcDbCircle
 62
7
  6
CONTINUOUS
 10
11.6314834891
 20
8.2604303636
 40
0.08
100
AcDbArc
 50
19.1987071253
 51
88.0
  0
ARC
  5
24B
100
AcDbEntity
  8
0
100
AcDbCircle
 62
7
  6
CONTINUOUS
 10
12.1620202288
 20
5.822891804
 40
0.063
100
AcDbArc
 50
202.9364108859
 51
270.0
  0
ARC
  5
24C
100
AcDbEntity
  8
0
100
AcDbCircle
 62
7
  6
CONTINUOUS
 10
12.1620202288
 20
12.196891804
 40
0.063
100
AcDbArc
 50
90.0
 51
157.0635891141
  0
ARC
  5
24D
100
AcDbEntity
  8
0
100
AcDbCircle
 62
7
  6
CONTINUOUS
 10
12.0514834891
 20
5.9270483143
 40
0.063
100
AcDbArc
 50
180.0
 51
250.4680059544
  0
ARC
  5
24E
100
AcDbEntity
  8
0
100
AcDbCircle
 62
7
  6
CONTINUOUS
 10
12.0514834891
 20
12.0927352938
 40
0.063
100
AcDbArc
 50
109.5319940456
 51
180.0
  0
ARC
  5
24F
100
AcDbEntity
  8
0
100
AcDbCircle
 62
7
  6
CONTINUOUS
 10
9.5334834891
 20
8.657391804
 40
0.04
100
AcDbArc
 50
90.0
 51
179.999999999
  0
ARC
  5
250
100
AcDbEntity
  8
0
100
AcDbCircle
 62
7
  6
CONTINUOUS
 10
9.5334834891
 20
9.362391804
 40
0.04
100
AcDbArc
 50
180.000000001
 51
270.0
  0
ARC
  5
251
100
AcDbEntity
  8
0
100
AcDbCircle
 62
7
  6
CONTINUOUS
 10
11.744809544
 20
9.719891804
 40
0.04
100
AcDbArc
 50
90.0
 51
160.8012928749
  0
ARC
  5
252
100
AcDbEntity
  8
0
100
AcDbCircle
 62
7
  6
CONTINUOUS
 10
11.744809544
 20
8.299891804
 40
0.04
100
AcDbArc
 50
199.1987071251
 51
270.0
  0
ARC
  5
253
100
AcDbEntity
  8
0
100
AcDbCircle
 62
7
  6
CONTINUOUS
 10
9.9744834891
 20
8.4313629572
 40
0.033
100
AcDbArc
 50
180.0
 51
268.0
  0
ARC
  5
254
100
AcDbEntity
  8
0
100
AcDbCircle
 62
7
  6
CONTINUOUS
 10
9.9744834891
 20
9.5884206509
 40
0.033
100
AcDbArc
 50
92.0
 51
180.0
  0
ARC
  5
255
100
AcDbEntity
  8
0
100
AcDbCircle
 62
7
  6
CONTINUOUS
 10
10.9934834891
 20
7.258891804
 40
0.031
100
AcDbArc
 50
44.7546926505
 51
90.0
  0
ARC
  5
256
100
AcDbEntity
  8
0
100
AcDbCircle
 62
7
  6
CONTINUOUS
 10
10.9034834891
 20
7.258891804
 40
0.031
100
AcDbArc
 50
90.0
 51
103.0407610339
  0
ARC
  5
257
100
AcDbEntity
  8
0
100
AcDbCircle
 62
7
  6
CONTINUOUS
 10
10.9934834891
 20
6.420891804
 40
0.031
100
AcDbArc
 50
270.0
 51
315.2453073495
  0
ARC
  5
258
100
AcDbEntity
  8
0
100
AcDbCircle
 62
7
  6
CONTINUOUS
 10
10.9034834891
 20
6.420891804
 40
0.031
100
AcDbArc
 50
256.9592389661
 51
270.0
  0
ARC
  5
259
100
AcDbEntity
  8
0
100
AcDbCircle
 62
7
  6
CONTINUOUS
 10
10.7674834891
 20
7.227391804
 40
0.031
100
AcDbArc
 50
103.0407610339
 51
180.0
  0
ARC
  5
25A
100
AcDbEntity
  8
0
100
AcDbCircle
 62
7
  6
CONTINUOUS
 10
10.7674834891
 20
6.452391804
 40
0.031
100
AcDbArc
 50
180.0
 51
256.9592389661
  0
ARC
  5
25B
100
AcDbEntity
  8
0
100
AcDbCircle
 62
7
  6
CONTINUOUS
 10
9.4634834891
 20
9.439891804
 40
0.03
100
AcDbArc
 50
0.0
 51
90.0
  0
ARC
  5
25C
100
AcDbEntity
  8
0
100
AcDbCircle
 62
7
  6
CONTINUOUS
 10
9.1484834891
 20
9.439891804
 40
0.03
100
AcDbArc
 50
90.0
 51
180.0
  0
ARC
  5
25D
100
AcDbEntity
  8
0
100
AcDbCircle
 62
7
  6
CONTINUOUS
 10
9.4634834891
 20
6.189891804
 40
0.03
100
AcDbArc
 50
270.0
 51
360.0
  0
ARC
  5
25E
100
AcDbEntity
  8
0
100
AcDbCircle
 62
7
  6
CONTINUOUS
 10
9.1484834891
 20
6.189891804
 40
0.03
100
AcDbArc
 50
180.0
 51
270.0
  0
ARC
  5
25F
100
AcDbEntity
  8
0
100
AcDbCircle
 62
7
  6
CONTINUOUS
 10
11.8314834891
 20
10.079891804
 40
0.03
100
AcDbArc
 50
90.0
 51
180.0
  0
ARC
  5
260
100
AcDbEntity
  8
0
100
AcDbCircle
 62
7
  6
CONTINUOUS
 10
11.8314834891
 20
7.939891804
 40
0.03
100
AcDbArc
 50
180.0
 51
270.0
  0
ARC
  5
261
100
AcDbEntity
  8
0
100
AcDbCircle
 62
7
  6
CONTINUOUS
 10
11.8204834891
 20
7.063891804
 40
0.012
100
AcDbArc
 50
90.0
 51
180.0
  0
ARC
  5
262
100
AcDbEntity
  8
0
100
AcDbCircle
 62
7
  6
CONTINUOUS
 10
11.8204834891
 20
6.615891804
 40
0.012
100
AcDbArc
 50
180.0
 51
270.0
  0
SPLINE
  5
263
100
AcDbEntity
  8
0
100
AcDbSpline
 62
9
  6
CONTINUOUS
 70
0
 71
3
 72
29
 73
25
 74
0
 42
0.0000001
 43
0.0000001
 44
0.0000000001
 40
0.0
 40
0.0
 40
0.0
 40
0.0
 40
0.0013139192
 40
0.0028773376
 40
0.0048457987
 40
0.007298206
 40
0.0102745976
 40
0.0137966566
 40
0.0225179228
 40
0.0335034887
 40
0.0467572548
 40
0.0622659911
 40
0.0799998727
 40
0.0999240252
 40
0.1219968109
 40
0.1723767436
 40
0.2306769375
 40
0.2963473544
 40
0.3687633355
 40
0.4472354011
 40
0.5310121193
 40
0.6192912233
 40
0.8059225376
 40
1.0
 40
1.0
 40
1.0
 40
1.0
 10
9.4934834891
 20
6.189891804
 30
0.0
 10
9.4934834891
 20
6.189878596
 30
0.0
 10
9.4934759164
 20
6.1898495091
 30
0.0
 10
9.4934459601
 20
6.1898101748
 30
0.0
 10
9.4933991241
 20
6.1897719231
 30
0.0
 10
9.493334965
 20
6.1897339708
 30
0.0
 10
9.4932532564
 20
6.1896960581
 30
0.0
 10
9.4931101681
 20
6.1896416409
 30
0.0
 10
9.492885659
 20
6.1895763675
 30
0.0
 10
9.4925625729
 20
6.1895025524
 30
0.0
 10
9.4921696862
 20
6.1894293139
 30
0.0
 10
9.4917078917
 20
6.1893568742
 30
0.0
 10
9.4911781884
 20
6.1892855164
 30
0.0
 10
9.4905818272
 20
6.1892154673
 30
0.0
 10
9.4896581289
 20
6.1891198569
 30
0.0
 10
9.4883484754
 20
6.1890073692
 30
0.0
 10
9.4866000359
 20
6.1888853534
 30
0.0
 10
9.4846290605
 20
6.1887725352
 30
0.0
 10
9.4824545087
 20
6.1886700819
 30
0.0
 10
9.4800972934
 20
6.1885790972
 30
0.0
 10
9.477580091
 20
6.1885004994
 30
0.0
 10
9.4739754943
 20
6.1884116658
 30
0.0
 10
9.4692615018
 20
6.1883382885
 30
0.0
 10
9.4654344351
 20
6.1883188801
 30
0.0
 10
9.4634834891
 20
6.1883188801
 30
0.0
  0
SPLINE
  5
264
100
AcDbEntity
  8
0
100
AcDbSpline
 62
9
  6
CONTINUOUS
 70
0
 71
3
 72
29
 73
25
 74
0
 42
0.0000001
 43
0.0000001
 44
0.0000000001
 40
0.0
 40
0.0
 40
0.0
 40
0.0
 40
0.0013139178
 40
0.0028773287
 40
0.0048457763
 40
0.0072981657
 40
0.010274537
 40
0.0137965749
 40
0.0225177533
 40
0.0335031948
 40
0.0467568585
 40
0.062265425
 40
0.079999093
 40
0.0999230945
 40
0.1219956504
 40
0.1723751662
 40
0.2306748753
 40
0.2963449519
 40
0.3687605001
 40
0.4472318119
 40
0.5310077175
 40
0.619286437
 40
0.805918939
 40
1.0
 40
1.0
 40
1.0
 40
1.0
 10
9.4934834891
 20
8.9873465628
 30
0.0
 10
9.4934834891
 20
8.9873333547
 30
0.0
 10
9.4934759165
 20
8.9873042679
 30
0.0
 10
9.4934459606
 20
8.9872649336
 30
0.0
 10
9.493399125
 20
8.987226682
 30
0.0
 10
9.4933349665
 20
8.9871887298
 30
0.0
 10
9.4932532584
 20
8.9871508174
 30
0.0
 10
9.4931101713
 20
8.9870964008
 30
0.0
 10
9.4928856645
 20
8.9870311277
 30
0.0
 10
9.4925625815
 20
8.9869573128
 30
0.0
 10
9.4921696988
 20
8.986884075
 30
0.0
 10
9.4917079092
 20
8.9868116355
 30
0.0
 10
9.4911782113
 20
8.9867402777
 30
0.0
 10
9.4905818561
 20
8.9866702295
 30
0.0
 10
9.4896581659
 20
8.986574619
 30
0.0
 10
9.4883485237
 20
8.986462132
 30
0.0
 10
9.4866000967
 20
8.9863401157
 30
0.0
 10
9.484629134
 20
8.9862272978
 30
0.0
 10
9.4824545975
 20
8.9861248447
 30
0.0
 10
9.4800974023
 20
8.9860338596
 30
0.0
 10
9.4775802195
 20
8.9859552616
 30
0.0
 10
9.4739756228
 20
8.9858664275
 30
0.0
 10
9.4692615862
 20
8.9857930476
 30
0.0
 10
9.4654344713
 20
8.985773639
 30
0.0
 10
9.4634834891
 20
8.985773639
 30
0.0
  0
SPLINE
  5
265
100
AcDbEntity
  8
0
100
AcDbSpline
 62
9
  6
CONTINUOUS
 70
0
 71
3
 72
29
 73
25
 74
0
 42
0.0000001
 43
0.0000001
 44
0.0000000001
 40
0.0
 40
0.0
 40
0.0
 40
0.0
 40
0.0013139178
 40
0.0028773287
 40
0.0048457763
 40
0.0072981657
 40
0.010274537
 40
0.0137965749
 40
0.0225177533
 40
0.0335031948
 40
0.0467568585
 40
0.062265425
 40
0.079999093
 40
0.0999230945
 40
0.1219956504
 40
0.1723751662
 40
0.2306748753
 40
0.2963449519
 40
0.3687605001
 40
0.4472318119
 40
0.5310077175
 40
0.619286437
 40
0.805918939
 40
1.0
 40
1.0
 40
1.0
 40
1.0
 10
9.1184834891
 20
8.9873465628
 30
0.0
 10
9.1184834891
 20
8.9873333547
 30
0.0
 10
9.1184910617
 20
8.9873042679
 30
0.0
 10
9.1185210177
 20
8.9872649336
 30
0.0
 10
9.1185678532
 20
8.987226682
 30
0.0
 10
9.1186320118
 20
8.9871887298
 30
0.0
 10
9.1187137199
 20
8.9871508174
 30
0.0
 10
9.118856807
 20
8.9870964008
 30
0.0
 10
9.1190813138
 20
8.9870311277
 30
0.0
 10
9.1194043967
 20
8.9869573128
 30
0.0
 10
9.1197972794
 20
8.986884075
 30
0.0
 10
9.120259069
 20
8.9868116355
 30
0.0
 10
9.1207887669
 20
8.9867402777
 30
0.0
 10
9.1213851222
 20
8.9866702295
 30
0.0
 10
9.1223088124
 20
8.986574619
 30
0.0
 10
9.1236184546
 20
8.986462132
 30
0.0
 10
9.1253668816
 20
8.9863401157
 30
0.0
 10
9.1273378443
 20
8.9862272978
 30
0.0
 10
9.1295123808
 20
8.9861248447
 30
0.0
 10
9.131869576
 20
8.9860338596
 30
0.0
 10
9.1343867588
 20
8.9859552616
 30
0.0
 10
9.1379913554
 20
8.9858664275
 30
0.0
 10
9.1427053921
 20
8.9857930476
 30
0.0
 10
9.146532507
 20
8.985773639
 30
0.0
 10
9.1484834891
 20
8.985773639
 30
0.0
  0
SPLINE
  5
266
100
AcDbEntity
  8
0
100
AcDbSpline
 62
9
  6
CONTINUOUS
 70
0
 71
3
 72
29
 73
25
 74
0
 42
0.0000001
 43
0.0000001
 44
0.0000000001
 40
0.0
 40
0.0
 40
0.0
 40
0.0
 40
0.0013139192
 40
0.0028773376
 40
0.0048457987
 40
0.007298206
 40
0.0102745976
 40
0.0137966566
 40
0.0225179228
 40
0.0335034887
 40
0.0467572548
 40
0.0622659911
 40
0.0799998727
 40
0.0999240252
 40
0.1219968109
 40
0.1723767436
 40
0.2306769375
 40
0.2963473544
 40
0.3687633355
 40
0.4472354011
 40
0.5310121194
 40
0.6192912233
 40
0.8059225377
 40
1.0
 40
1.0
 40
1.0
 40
1.0
 10
9.1184834891
 20
6.189891804
 30
0.0
 10
9.1184834891
 20
6.189878596
 30
0.0
 10
9.1184910619
 20
6.1898495091
 30
0.0
 10
9.1185210181
 20
6.1898101748
 30
0.0
 10
9.1185678542
 20
6.1897719231
 30
0.0
 10
9.1186320132
 20
6.1897339708
 30
0.0
 10
9.1187137219
 20
6.1896960581
 30
0.0
 10
9.1188568101
 20
6.1896416409
 30
0.0
 10
9.1190813193
 20
6.1895763675
 30
0.0
 10
9.1194044054
 20
6.1895025524
 30
0.0
 10
9.1197972921
 20
6.1894293139
 30
0.0
 10
9.1202590866
 20
6.1893568742
 30
0.0
 10
9.1207887899
 20
6.1892855164
 30
0.0
 10
9.1213851511
 20
6.1892154673
 30
0.0
 10
9.1223088493
 20
6.1891198569
 30
0.0
 10
9.1236185028
 20
6.1890073692
 30
0.0
 10
9.1253669424
 20
6.1888853534
 30
0.0
 10
9.1273379177
 20
6.1887725352
 30
0.0
 10
9.1295124696
 20
6.1886700819
 30
0.0
 10
9.1318696849
 20
6.1885790973
 30
0.0
 10
9.1343868873
 20
6.1885004994
 30
0.0
 10
9.137991484
 20
6.1884116659
 30
0.0
 10
9.1427054764
 20
6.1883382885
 30
0.0
 10
9.1465325432
 20
6.1883188802
 30
0.0
 10
9.1484834891
 20
6.1883188802
 30
0.0
  0
ENDSEC
  0
SECTION
  2
OBJECTS
  0
DICTIONARY
  5
C
100
AcDbDictionary
280
0
281
1
  3
ACAD_GROUP
350
D
  3
ACAD_MLINESTYLE
350
17
  3
ACAD_LAYOUT
350
1A
  3
ACAD_PLOTSETTINGS
350
19
  3
ACAD_PLOTSTYLENAME
350
E
  0
DICTIONARY
  5
D
102
{ACAD_REACTORS
330
C
102
}
100
AcDbDictionary
280
0
281
1
  0
ACDBDICTIONARYWDFLT
  5
E
102
{ACAD_REACTORS
330
C
102
}
100
AcDbDictionary
281
1
  3
Normal
350
F
100
AcDbDictionaryWithDefault
340
F
  0
DICTIONARY
  5
17
102
{ACAD_REACTORS
330
C
102
}
100
AcDbDictionary
280
0
281
1
  3
Standard
350
18
  0
DICTIONARY
  5
19
102
{ACAD_REACTORS
330
C
102
}
100
AcDbDictionary
281
1
  0
DICTIONARY
  5
1A
102
{ACAD_REACTORS
330
C
102
}
100
AcDbDictionary
281
1
  3
Model
350
267
  3
Layout1
350
268
  0
ACDBPLACEHOLDER
  5
F
102
{ACAD_REACTORS
330
E
102
}
  0
MLINESTYLE
  5
18
102
{ACAD_REACTORS
330
17
102
}
100
AcDbMlineStyle
  2
STANDARD
 70
0
  3

 62
256
 51
90.0
 52
90.0
 71
2
 49
0.5
 62
256
  6
BYLAYER
 49
-0.5
 62
256
  6
BYLAYER
  0
LAYOUT
  5
267
102
{ACAD_REACTORS
330
1A
102
}
100
AcDbPlotSettings
  1

  2
none_device
  4
ANSI_C_(22.00_x_17.00_Inches)
  6

 40
0.0
 41
0.0
 42
0.0
 43
0.0
 44
558.8
 45
431.8
 46
0.0
 47
0.0
 48
0.0
 49
0.0
140
0.0
141
0.0
142
1.0
143
1.0
 70
1024
 72
0
 73
0
 74
0
  7

 75
0
147
1.0
148
0.0
149
0.0
100
AcDbLayout
  1
Model
 70
0
 71
0
 10
0.0
 20
0.0
 11
22.0
 21
17.0
 12
0.0
 22
0.0
 32
0.0
 14
0.0
 24
0.0
 34
0.0
 15
0.0
 25
0.0
 35
0.0
146
0.0
 13
0.0
 23
0.0
 33
0.0
 16
1.0
 26
0.0
 36
0.0
 17
0.0
 27
1.0
 37
0.0
 76
0
330
205
345
0
346
0
  0
LAYOUT
  5
268
102
{ACAD_REACTORS
330
1A
102
}
100
AcDbPlotSettings
  1

  2
none_device
  4
ANSI_C_(22.00_x_17.00_Inches)
  6

 40
0.0
 41
0.0
 42
0.0
 43
0.0
 44
558.8
 45
431.8
 46
0.0
 47
0.0
 48
0.0
 49
0.0
140
0.0
141
0.0
142
1.0
143
1.0
 70
0
 72
0
 73
0
 74
0
  7

 75
0
147
1.0
148
0.0
149
0.0
100
AcDbLayout
  1
Layout1
 70
0
 71
1
 10
0.0
 20
0.0
 11
22.0
 21
17.0
 12
0.0
 22
0.0
 32
0.0
 14
0.0
 24
0.0
 34
0.0
 15
0.0
 25
0.0
 35
0.0
146
0.0
 13
0.0
 23
0.0
 33
0.0
 16
1.0
 26
0.0
 36
0.0
 17
0.0
 27
1.0
 37
0.0
 76
0
330
206
345
0
346
0
  0
ENDSEC
  0
EOF
