999
DXF file: E:\BT Custom\CADOUTPUT\_RIGHT.dxf
999
Pro/ENGINEER 2018400 by Parametric Technology Corporation
  0
SECTION
  2
HEADER
  9
$ACADVER
  1
AC1018
  9
$DWGCODEPAGE
  3
ANSI_1252
  9
$EXTMAX
 10
22.0
 20
17.0
 30
0.0
  9
$EXTMIN
 10
0.0
 20
0.0
 30
0.0
  9
$LIMMIN
 10
0.0
 20
0.0
  9
$LIMMAX
 10
22.0
 20
17.0
  9
$VIEWCTR
 10
11.0
 20
8.5
  9
$VIEWSIZE
 40
17.0
  9
$CLAYER
  8
0
  9
$LTSCALE
 40
1.21
  9
$CELTYPE
  6
BYLAYER
  9
$DIMSCALE
 40
1.0
  9
$DIMASZ
 40
0.1
  9
$DIMEXO
 40
0.0625
  9
$DIMDLI
 40
0.836
  9
$DIMEXE
 40
0.125
  9
$DIMCEN
 40
0.198
  9
$DIMLFAC
 40
1.0
  9
$DIMBLK
  1
_FILLED
  9
$DIMALT
 70
1
  9
$DIMALTD
 70
2
  9
$DIMALTTD
 70
2
  9
$DIMALTF
 40
25.4
  9
$DIMTXT
 40
0.08
  9
$DIMTOL
 70
1
  9
$DIMLIM
 70
0
  9
$DIMTFAC
 40
1.0
  9
$DIMTP
 40
0.001
  9
$DIMTM
 40
0.001
  9
$DIMGAP
 40
0.09
  9
$DIMDSEP
 70
46
  9
$AUNITS
 70
0
  9
$PDMODE
 70
3
  9
$PDSIZE
 40
0.06
  9
$HANDSEED
  5
27D
  9
$TILEMODE
 70
1
  9
$MEASUREMENT
 70
0
  9
$INSUNITS
 70
1
  0
ENDSEC
  0
SECTION
  2
CLASSES
  0
CLASS
  1
ACDBDICTIONARYWDFLT
  2
AcDbDictionaryWithDefault
  3
AutoCAD 2000
 90
0
 91
1
280
0
281
0
  0
CLASS
  1
ACDBPLACEHOLDER
  2
AcDbPlaceHolder
  3
AutoCAD 2000
 90
0
 91
1
280
0
281
0
  0
CLASS
  1
LAYOUT
  2
AcDbLayout
  3
AutoCAD 2000
 90
0
 91
0
280
0
281
0
  0
ENDSEC
  0
SECTION
  2
TABLES
  0
TABLE
  2
VPORT
  5
8
100
AcDbSymbolTable
 70
2
  0
VPORT
  5
1F4
100
AcDbSymbolTableRecord
100
AcDbViewportTableRecord
  2
*ACTIVE
 70
0
 10
0.0
 20
0.0
 11
1.0
 21
1.0
 12
11.0
 22
8.5
 13
0.0
 23
0.0
 14
1.0
 24
1.0
 15
0.0
 25
0.0
 16
0.0
 26
0.0
 36
1.0
 17
0.0
 27
0.0
 37
0.0
 40
17.0
 41
1.2941176471
 42
50.0
 43
0.0
 44
0.0
 50
0.0
 51
0.0
 71
0
 72
100
 73
1
 74
1
 75
0
 76
0
 77
0
 78
0
  0
ENDTAB
  0
TABLE
  2
LTYPE
  5
5
100
AcDbSymbolTable
 70
6
  0
LTYPE
  5
14
100
AcDbSymbolTableRecord
100
AcDbLinetypeTableRecord
  2
BYBLOCK
 70
0
  3

 72
65
 73
0
 40
0.0
  0
LTYPE
  5
15
100
AcDbSymbolTableRecord
100
AcDbLinetypeTableRecord
  2
BYLAYER
 70
0
  3

 72
65
 73
0
 40
0.0
  0
LTYPE
  5
16
100
AcDbSymbolTableRecord
100
AcDbLinetypeTableRecord
  2
CONTINUOUS
 70
64
  3
Solid line
 72
65
 73
0
 40
0.0
  0
LTYPE
  5
1F5
100
AcDbSymbolTableRecord
100
AcDbLinetypeTableRecord
  2
CENTER
 70
64
  3
____ _ ____ _ ____ _ ____ _ ____ _ ____ _ ____
 72
65
 73
4
 40
0.6
 49
0.375
 74
0
 49
-0.075
 74
0
 49
0.075
 74
0
 49
-0.075
 74
0
  0
LTYPE
  5
1F6
100
AcDbSymbolTableRecord
100
AcDbLinetypeTableRecord
  2
HIDDEN
 70
64
  3
- - - - - - - - - - - - - - - - - - - -
 72
65
 73
2
 40
0.2
 49
0.1
 74
0
 49
-0.1
 74
0
  0
LTYPE
  5
1F7
100
AcDbSymbolTableRecord
100
AcDbLinetypeTableRecord
  2
PHANTOM
 70
64
  3
_____ _ _ _____ _ _ _____ _ _ _____
 72
65
 73
6
 40
0.8
 49
0.45
 74
0
 49
-0.05
 74
0
 49
0.1
 74
0
 49
-0.05
 74
0
 49
0.1
 74
0
 49
-0.05
 74
0
  0
LTYPE
  5
1F8
100
AcDbSymbolTableRecord
100
AcDbLinetypeTableRecord
  2
DOT
 70
64
  3
. . . . . . . . . . . . . . . . . . . .
 72
65
 73
2
 40
0.2
 49
0.1
 74
0
 49
-0.1
 74
0
  0
LTYPE
  5
1F9
100
AcDbSymbolTableRecord
100
AcDbLinetypeTableRecord
  2
DASHED
 70
64
  3
- - - - - - - - - - - - - - - - - - - -
 72
65
 73
2
 40
0.2
 49
0.1
 74
0
 49
-0.1
 74
0
  0
ENDTAB
  0
TABLE
  2
LAYER
  5
2
100
AcDbSymbolTable
 70
36
  0
LAYER
  5
10
100
AcDbSymbolTableRecord
100
AcDbLayerTableRecord
  2
0
 70
0
 62
7
  6
CONTINUOUS
370
-3
390
F
  0
LAYER
  5
1FA
100
AcDbSymbolTableRecord
100
AcDbLayerTableRecord
  2
DEFAULT_1
 70
0
 62
7
  6
CENTER
370
-3
390
F
  0
LAYER
  5
1FB
100
AcDbSymbolTableRecord
100
AcDbLayerTableRecord
  2
DEFAULT_2
 70
0
 62
8
  6
HIDDEN
370
-3
390
F
  0
LAYER
  5
1FC
100
AcDbSymbolTableRecord
100
AcDbLayerTableRecord
  2
DEFAULT_3
 70
0
 62
7
  6
PHANTOM
370
-3
390
F
  0
LAYER
  5
1FD
100
AcDbSymbolTableRecord
100
AcDbLayerTableRecord
  2
ALL_FEATURES
 70
0
 62
7
  6
CONTINUOUS
370
-3
390
F
  0
LAYER
  5
1FE
100
AcDbSymbolTableRecord
100
AcDbLayerTableRecord
  2
AXES_FEATURES
 70
0
 62
7
  6
CONTINUOUS
370
-3
390
F
  0
LAYER
  5
1FF
100
AcDbSymbolTableRecord
100
AcDbLayerTableRecord
  2
DEFAULT_COORDINATE_SYSTEM
 70
0
 62
7
  6
CONTINUOUS
370
-3
390
F
  0
LAYER
  5
200
100
AcDbSymbolTableRecord
100
AcDbLayerTableRecord
  2
DEFAULT_DATUM_AXES
 70
0
 62
7
  6
CONTINUOUS
370
-3
390
F
  0
LAYER
  5
201
100
AcDbSymbolTableRecord
100
AcDbLayerTableRecord
  2
DEFAULT_DATUM_PLANES
 70
0
 62
7
  6
CONTINUOUS
370
-3
390
F
  0
LAYER
  5
202
100
AcDbSymbolTableRecord
100
AcDbLayerTableRecord
  2
DIMENSIONS
 70
0
 62
7
  6
CONTINUOUS
370
-3
390
F
  0
ENDTAB
  0
TABLE
  2
STYLE
  5
3
100
AcDbSymbolTable
 70
1
  0
STYLE
  5
11
100
AcDbSymbolTableRecord
100
AcDbTextStyleTableRecord
  2
STANDARD
 70
0
 40
0.0
 41
0.8
 50
0.0
 71
0
 42
0.2
  3
txt
  4

  0
STYLE
  5
203
100
AcDbSymbolTableRecord
100
AcDbTextStyleTableRecord
  2
TEXTSTYLE_1
 70
0
 40
0.0
 41
0.8
 50
0.0
 71
0
 42
0.2
  3
gdt
  4

  0
ENDTAB
  0
TABLE
  2
VIEW
  5
6
100
AcDbSymbolTable
 70
0
  0
ENDTAB
  0
TABLE
  2
UCS
  5
7
100
AcDbSymbolTable
 70
0
  0
ENDTAB
  0
TABLE
  2
APPID
  5
9
100
AcDbSymbolTable
 70
1
  0
APPID
  5
204
100
AcDbSymbolTableRecord
100
AcDbRegAppTableRecord
  2
ACAD
 70
0
  0
ENDTAB
  0
TABLE
  2
BLOCK_RECORD
  5
1
100
AcDbSymbolTable
 70
0
  0
BLOCK_RECORD
  5
205
100
AcDbSymbolTableRecord
100
AcDbBlockTableRecord
  2
*Model_Space
  0
BLOCK_RECORD
  5
206
100
AcDbSymbolTableRecord
100
AcDbBlockTableRecord
  2
*Paper_Space
  0
BLOCK_RECORD
  5
207
100
AcDbSymbolTableRecord
100
AcDbBlockTableRecord
  2
_FILLED
  0
ENDTAB
  0
TABLE
  2
DIMSTYLE
  5
A
100
AcDbSymbolTable
 70
1
100
AcDbDimStyleTable
 71
0
  0
DIMSTYLE
105
208
100
AcDbSymbolTableRecord
100
AcDbDimStyleTableRecord
  2
STANDARD
 70
0
  3

  4

 40
1.0
 41
0.1
 42
0.0625
 43
0.38
 44
0.125
 45
0.0
 46
0.0
 47
0.001
 48
0.001
140
0.08
141
0.09
142
0.0
143
25.4
144
1.0
145
0.0
146
1.0
147
0.09
 71
1.0
 72
0.0
 73
1
 74
1
 75
0
 76
0
 77
0
 78
4
 79
1
170
1
171
2
172
0
173
0
174
0
175
0
176
0
177
0
178
0
270
2
179
3
271
3
272
3
273
2
274
2
275
0
280
0
281
0
282
0
283
1
284
4
285
0
286
0
287
3
288
0
340
11
278
46
341
207
342
207
343
207
344
207
  0
ENDTAB
  0
ENDSEC
  0
SECTION
  2
BLOCKS
  0
BLOCK
  5
20
100
AcDbEntity
  8
0
100
AcDbBlockBegin
  2
*Model_Space
 70
0
 10
0.0
 20
0.0
 30
0.0
  3
*Model_Space
  1

  0
ENDBLK
  5
21
100
AcDbEntity
  8
0
100
AcDbBlockEnd
  0
BLOCK
  5
1C
100
AcDbEntity
  8
0
100
AcDbBlockBegin
  2
*Paper_Space
 70
0
 10
0.0
 20
0.0
 30
0.0
  3
*Paper_Space
  1

  0
ENDBLK
  5
1D
100
AcDbEntity
  8
0
100
AcDbBlockEnd
  0
BLOCK
  5
209
100
AcDbEntity
  8
0
100
AcDbBlockBegin
  2
_FILLED
 70
64
 10
0.0
 20
0.0
  3
_FILLED
  1

  0
SOLID
  5
20A
100
AcDbEntity
  8
0
  6
BYBLOCK
 62
0
100
AcDbTrace
 10
0.0
 20
0.0
 11
-1.0
 21
0.2
 12
-1.0
 22
-0.2
 13
-1.0
 23
-0.2
  0
ENDBLK
  5
20B
100
AcDbEntity
  8
0
  6
BYBLOCK
 62
0
100
AcDbBlockEnd
  0
ENDSEC
  0
SECTION
  2
ENTITIES
  0
LINE
  5
20C
100
AcDbEntity
  8
0
100
AcDbLine
 62
7
  6
CONTINUOUS
 10
12.3014834891
 20
5.759891804
 11
12.1620202288
 21
5.759891804
  0
LINE
  5
20D
100
AcDbEntity
  8
0
100
AcDbLine
 62
7
  6
CONTINUOUS
 10
10.9934834891
 20
6.389891804
 11
10.9034834891
 21
6.389891804
  0
LINE
  5
20E
100
AcDbEntity
  8
0
100
AcDbLine
 62
7
  6
CONTINUOUS
 10
11.8934834891
 20
6.603891804
 11
11.8204834891
 21
6.603891804
  0
LINE
  5
20F
100
AcDbEntity
  8
0
100
AcDbLine
 62
7
  6
CONTINUOUS
 10
10.8964885196
 20
6.3906913007
 11
10.7604885196
 21
6.4221913007
  0
LINE
  5
210
100
AcDbEntity
  8
0
100
AcDbLine
 62
7
  6
CONTINUOUS
 10
11.2294834891
 20
6.662891804
 11
11.8084834891
 21
6.662891804
  0
LINE
  5
211
100
AcDbEntity
  8
0
100
AcDbLine
 62
7
  6
CONTINUOUS
 10
11.2294834891
 20
7.016891804
 11
11.8084834891
 21
7.016891804
  0
LINE
  5
212
100
AcDbEntity
  8
0
100
AcDbLine
 62
7
  6
CONTINUOUS
 10
11.8934834891
 20
7.075891804
 11
11.8204834891
 21
7.075891804
  0
LINE
  5
213
100
AcDbEntity
  8
0
100
AcDbLine
 62
7
  6
CONTINUOUS
 10
10.8964885196
 20
7.2890923074
 11
10.7604885196
 21
7.2575923074
  0
LINE
  5
214
100
AcDbEntity
  8
0
100
AcDbLine
 62
7
  6
CONTINUOUS
 10
10.9934834891
 20
7.289891804
 11
10.9034834891
 21
7.289891804
  0
LINE
  5
215
100
AcDbEntity
  8
0
100
AcDbLine
 62
7
  6
CONTINUOUS
 10
9.1184834891
 20
7.596891804
 11
9.1184834891
 21
10.422891804
  0
LINE
  5
216
100
AcDbEntity
  8
0
100
AcDbLine
 62
9
  6
CONTINUOUS
 10
9.1484834891
 20
7.566891804
 11
9.1484834891
 21
10.452891804
  0
LINE
  5
217
100
AcDbEntity
  8
0
100
AcDbLine
 62
7
  6
CONTINUOUS
 10
9.1484834891
 20
7.566891804
 11
9.4634834891
 21
7.566891804
  0
LINE
  5
218
100
AcDbEntity
  8
0
100
AcDbLine
 62
9
  6
CONTINUOUS
 10
9.4634834891
 20
10.452891804
 11
9.4634834891
 21
7.566891804
  0
LINE
  5
219
100
AcDbEntity
  8
0
100
AcDbLine
 62
7
  6
CONTINUOUS
 10
9.4934834891
 20
10.422891804
 11
9.4934834891
 21
7.596891804
  0
LINE
  5
21A
100
AcDbEntity
  8
0
100
AcDbLine
 62
9
  6
CONTINUOUS
 10
9.5334834891
 20
9.322391804
 11
9.5334834891
 21
8.697391804
  0
LINE
  5
21B
100
AcDbEntity
  8
0
100
AcDbLine
 62
9
  6
CONTINUOUS
 10
9.1484834891
 20
7.5953217254
 11
9.4634834891
 21
7.5953217254
  0
LINE
  5
21C
100
AcDbEntity
  8
0
100
AcDbLine
 62
7
  6
CONTINUOUS
 10
11.9884834891
 20
7.909891804
 11
11.8314834891
 21
7.909891804
  0
LINE
  5
21D
100
AcDbEntity
  8
0
100
AcDbLine
 62
7
  6
CONTINUOUS
 10
11.2294834891
 20
7.064891804
 11
11.0154974482
 21
7.2807180636
  0
LINE
  5
21E
100
AcDbEntity
  8
0
100
AcDbLine
 62
7
  6
CONTINUOUS
 10
9.9104834891
 20
8.697391804
 11
9.9104834891
 21
9.322391804
  0
LINE
  5
21F
100
AcDbEntity
  8
0
100
AcDbLine
 62
7
  6
CONTINUOUS
 10
9.9414834891
 20
8.4313629572
 11
9.9414834891
 21
9.5884206509
  0
LINE
  5
220
100
AcDbEntity
  8
0
100
AcDbLine
 62
9
  6
CONTINUOUS
 10
9.9733318057
 20
8.3983830599
 11
9.9733318057
 21
9.6214005482
  0
LINE
  5
221
100
AcDbEntity
  8
0
100
AcDbLine
 62
7
  6
CONTINUOUS
 10
11.7914834891
 20
8.259891804
 11
11.744809544
 21
8.259891804
  0
LINE
  5
222
100
AcDbEntity
  8
0
100
AcDbLine
 62
7
  6
CONTINUOUS
 10
11.8014834891
 20
8.372391804
 11
11.7914834891
 21
8.372391804
  0
LINE
  5
223
100
AcDbEntity
  8
0
100
AcDbLine
 62
7
  6
CONTINUOUS
 10
11.6342754489
 20
8.3403816298
 11
9.9733318057
 21
8.3983830599
  0
LINE
  5
224
100
AcDbEntity
  8
0
100
AcDbLine
 62
9
  6
CONTINUOUS
 10
9.4634834891
 20
8.6023395878
 11
9.1484834891
 21
8.6023395878
  0
LINE
  5
225
100
AcDbEntity
  8
0
100
AcDbLine
 62
7
  6
CONTINUOUS
 10
9.5334834891
 20
8.697391804
 11
9.9104834891
 21
8.697391804
  0
LINE
  5
226
100
AcDbEntity
  8
0
100
AcDbLine
 62
9
  6
CONTINUOUS
 10
9.4634834891
 20
8.7206262851
 11
9.1484834891
 21
8.7206262851
  0
LINE
  5
227
100
AcDbEntity
  8
0
100
AcDbLine
 62
7
  6
CONTINUOUS
 10
9.9104834891
 20
8.747391804
 11
9.9414834891
 21
8.747391804
  0
LINE
  5
228
100
AcDbEntity
  8
0
100
AcDbLine
 62
9
  6
CONTINUOUS
 10
9.1484834891
 20
8.773401855
 11
9.4634834891
 21
8.773401855
  0
LINE
  5
229
100
AcDbEntity
  8
0
100
AcDbLine
 62
7
  6
CONTINUOUS
 10
10.7364834891
 20
6.452391804
 11
10.7364834891
 21
7.227391804
  0
LINE
  5
22A
100
AcDbEntity
  8
0
100
AcDbLine
 62
9
  6
CONTINUOUS
 10
9.4934834891
 20
8.803360741
 11
9.1184834891
 21
8.803360741
  0
LINE
  5
22B
100
AcDbEntity
  8
0
100
AcDbLine
 62
9
  6
CONTINUOUS
 10
10.7604885196
 20
6.4221913007
 11
10.7604885196
 21
7.2575923074
  0
LINE
  5
22C
100
AcDbEntity
  8
0
100
AcDbLine
 62
9
  6
CONTINUOUS
 10
10.8964885196
 20
6.3906913007
 11
10.8964885196
 21
7.2890923074
  0
LINE
  5
22D
100
AcDbEntity
  8
0
100
AcDbLine
 62
9
  6
CONTINUOUS
 10
10.9034834891
 20
6.389891804
 11
10.9034834891
 21
7.289891804
  0
LINE
  5
22E
100
AcDbEntity
  8
0
100
AcDbLine
 62
9
  6
CONTINUOUS
 10
9.1184834891
 20
9.216422867
 11
9.4934834891
 21
9.216422867
  0
LINE
  5
22F
100
AcDbEntity
  8
0
100
AcDbLine
 62
9
  6
CONTINUOUS
 10
9.1484834891
 20
9.2463817531
 11
9.4634834891
 21
9.2463817531
  0
LINE
  5
230
100
AcDbEntity
  8
0
100
AcDbLine
 62
7
  6
CONTINUOUS
 10
9.9104834891
 20
9.272391804
 11
9.9414834891
 21
9.272391804
  0
LINE
  5
231
100
AcDbEntity
  8
0
100
AcDbLine
 62
9
  6
CONTINUOUS
 10
10.9934834891
 20
6.389891804
 11
10.9934834891
 21
7.289891804
  0
LINE
  5
232
100
AcDbEntity
  8
0
100
AcDbLine
 62
9
  6
CONTINUOUS
 10
11.0154974482
 20
6.3990655445
 11
11.0154974482
 21
7.2807180636
  0
LINE
  5
233
100
AcDbEntity
  8
0
100
AcDbLine
 62
9
  6
CONTINUOUS
 10
9.1484834891
 20
9.299157323
 11
9.4634834891
 21
9.299157323
  0
LINE
  5
234
100
AcDbEntity
  8
0
100
AcDbLine
 62
7
  6
CONTINUOUS
 10
9.5334834891
 20
9.322391804
 11
9.9104834891
 21
9.322391804
  0
LINE
  5
235
100
AcDbEntity
  8
0
100
AcDbLine
 62
9
  6
CONTINUOUS
 10
9.1484834891
 20
9.4174440203
 11
9.4634834891
 21
9.4174440203
  0
LINE
  5
236
100
AcDbEntity
  8
0
100
AcDbLine
 62
7
  6
CONTINUOUS
 10
11.2294834891
 20
6.6148924084
 11
11.2294834891
 21
7.0648911997
  0
LINE
  5
237
100
AcDbEntity
  8
0
100
AcDbLine
 62
7
  6
CONTINUOUS
 10
11.6342754489
 20
9.6794019783
 11
9.9733318057
 21
9.6214005482
  0
LINE
  5
238
100
AcDbEntity
  8
0
100
AcDbLine
 62
7
  6
CONTINUOUS
 10
11.8014834891
 20
9.647391804
 11
11.7914834891
 21
9.647391804
  0
LINE
  5
239
100
AcDbEntity
  8
0
100
AcDbLine
 62
7
  6
CONTINUOUS
 10
11.7914834891
 20
9.759891804
 11
11.744809544
 21
9.759891804
  0
LINE
  5
23A
100
AcDbEntity
  8
0
100
AcDbLine
 62
9
  6
CONTINUOUS
 10
11.6342754489
 20
8.3403816298
 11
11.6342754489
 21
9.6794019783
  0
LINE
  5
23B
100
AcDbEntity
  8
0
100
AcDbLine
 62
9
  6
CONTINUOUS
 10
11.7070341924
 20
8.2867379906
 11
11.7070341924
 21
9.7330456175
  0
LINE
  5
23C
100
AcDbEntity
  8
0
100
AcDbLine
 62
9
  6
CONTINUOUS
 10
11.744809544
 20
8.259891804
 11
11.744809544
 21
9.759891804
  0
LINE
  5
23D
100
AcDbEntity
  8
0
100
AcDbLine
 62
7
  6
CONTINUOUS
 10
11.7914834891
 20
9.759891804
 11
11.7914834891
 21
8.259891804
  0
LINE
  5
23E
100
AcDbEntity
  8
0
100
AcDbLine
 62
7
  6
CONTINUOUS
 10
11.8014834891
 20
7.939891804
 11
11.8014834891
 21
10.079891804
  0
LINE
  5
23F
100
AcDbEntity
  8
0
100
AcDbLine
 62
7
  6
CONTINUOUS
 10
11.8084834891
 20
6.6158921448
 11
11.8084834891
 21
7.0638914633
  0
LINE
  5
240
100
AcDbEntity
  8
0
100
AcDbLine
 62
9
  6
CONTINUOUS
 10
11.8204834891
 20
6.603891804
 11
11.8204834891
 21
7.075891804
  0
LINE
  5
241
100
AcDbEntity
  8
0
100
AcDbLine
 62
9
  6
CONTINUOUS
 10
11.8314834891
 20
7.909891804
 11
11.8314834891
 21
10.109891804
  0
LINE
  5
242
100
AcDbEntity
  8
0
100
AcDbLine
 62
7
  6
CONTINUOUS
 10
11.8934834891
 20
7.119891804
 11
11.8934834891
 21
6.559891804
  0
LINE
  5
243
100
AcDbEntity
  8
0
100
AcDbLine
 62
7
  6
CONTINUOUS
 10
11.9884834891
 20
10.109891804
 11
11.8314834891
 21
10.109891804
  0
LINE
  5
244
100
AcDbEntity
  8
0
100
AcDbLine
 62
7
  6
CONTINUOUS
 10
11.9884834891
 20
5.9270483143
 11
11.9884834891
 21
12.0927352938
  0
LINE
  5
245
100
AcDbEntity
  8
0
100
AcDbLine
 62
9
  6
CONTINUOUS
 10
12.0304204988
 20
5.8676736527
 11
12.0304204988
 21
12.1521099554
  0
LINE
  5
246
100
AcDbEntity
  8
0
100
AcDbLine
 62
9
  6
CONTINUOUS
 10
12.1040011388
 20
5.7983401197
 11
12.1040011388
 21
12.2214434884
  0
LINE
  5
247
100
AcDbEntity
  8
0
100
AcDbLine
 62
9
  6
CONTINUOUS
 10
12.1620202288
 20
5.759891804
 11
12.1620202288
 21
12.259891804
  0
LINE
  5
248
100
AcDbEntity
  8
0
100
AcDbLine
 62
9
  6
CONTINUOUS
 10
9.1484834891
 20
10.4244618827
 11
9.4634834891
 21
10.4244618827
  0
LINE
  5
249
100
AcDbEntity
  8
0
100
AcDbLine
 62
7
  6
CONTINUOUS
 10
9.1484834891
 20
10.452891804
 11
9.4634834891
 21
10.452891804
  0
LINE
  5
24A
100
AcDbEntity
  8
0
100
AcDbLine
 62
7
  6
CONTINUOUS
 10
12.3014834891
 20
12.259891804
 11
12.3014834891
 21
5.759891804
  0
LINE
  5
24B
100
AcDbEntity
  8
0
100
AcDbLine
 62
7
  6
CONTINUOUS
 10
11.2294834891
 20
6.614891804
 11
11.0154974482
 21
6.3990655445
  0
LINE
  5
24C
100
AcDbEntity
  8
0
100
AcDbLine
 62
7
  6
CONTINUOUS
 10
12.3014834891
 20
12.259891804
 11
12.1620202288
 21
12.259891804
  0
ARC
  5
24D
100
AcDbEntity
  8
0
100
AcDbCircle
 62
7
  6
CONTINUOUS
 10
9.5334834891
 20
8.657391804
 40
0.04
100
AcDbArc
 50
90.0
 51
180.0
  0
ARC
  5
24E
100
AcDbEntity
  8
0
100
AcDbCircle
 62
7
  6
CONTINUOUS
 10
9.9744834891
 20
8.4313629572
 40
0.033
100
AcDbArc
 50
180.0
 51
268.0
  0
ARC
  5
24F
100
AcDbEntity
  8
0
100
AcDbCircle
 62
7
  6
CONTINUOUS
 10
9.4634834891
 20
7.596891804
 40
0.03
100
AcDbArc
 50
270.0
 51
360.0
  0
ARC
  5
250
100
AcDbEntity
  8
0
100
AcDbCircle
 62
7
  6
CONTINUOUS
 10
9.1484834891
 20
7.596891804
 40
0.03
100
AcDbArc
 50
180.0
 51
270.0
  0
ARC
  5
251
100
AcDbEntity
  8
0
100
AcDbCircle
 62
9
  6
CONTINUOUS
 10
9.4635063212
 20
8.803383738
 40
0.0299795403
100
AcDbArc
 50
269.9563676909
 51
359.9560456553
  0
ARC
  5
252
100
AcDbEntity
  8
0
100
AcDbCircle
 62
9
  6
CONTINUOUS
 10
9.1484606571
 20
8.803383738
 40
0.0299795403
100
AcDbArc
 50
180.0439543656
 51
270.0436323237
  0
ARC
  5
253
100
AcDbEntity
  8
0
100
AcDbCircle
 62
9
  6
CONTINUOUS
 10
9.4635063215
 20
8.7506081685
 40
0.0299795402
100
AcDbArc
 50
269.9563670362
 51
359.9560448999
  0
ARC
  5
254
100
AcDbEntity
  8
0
100
AcDbCircle
 62
9
  6
CONTINUOUS
 10
9.1484606568
 20
8.7506081685
 40
0.0299795402
100
AcDbArc
 50
180.0439551211
 51
270.0436329333
  0
ARC
  5
255
100
AcDbEntity
  8
0
100
AcDbCircle
 62
7
  6
CONTINUOUS
 10
9.5334834891
 20
9.362391804
 40
0.04
100
AcDbArc
 50
180.0
 51
270.0
  0
ARC
  5
256
100
AcDbEntity
  8
0
100
AcDbCircle
 62
7
  6
CONTINUOUS
 10
9.9744834891
 20
9.5884206509
 40
0.033
100
AcDbArc
 50
92.0
 51
180.0
  0
ARC
  5
257
100
AcDbEntity
  8
0
100
AcDbCircle
 62
7
  6
CONTINUOUS
 10
9.4634834891
 20
10.422891804
 40
0.03
100
AcDbArc
 50
0.0
 51
90.0
  0
ARC
  5
258
100
AcDbEntity
  8
0
100
AcDbCircle
 62
7
  6
CONTINUOUS
 10
9.1484834891
 20
10.422891804
 40
0.03
100
AcDbArc
 50
90.0
 51
180.0
  0
ARC
  5
259
100
AcDbEntity
  8
0
100
AcDbCircle
 62
9
  6
CONTINUOUS
 10
9.1484606571
 20
9.2163998701
 40
0.0299795403
100
AcDbArc
 50
89.9563676903
 51
179.956045656
  0
ARC
  5
25A
100
AcDbEntity
  8
0
100
AcDbCircle
 62
9
  6
CONTINUOUS
 10
9.4635063215
 20
9.2691754396
 40
0.0299795402
100
AcDbArc
 50
0.0439551224
 51
90.0436329321
  0
ARC
  5
25B
100
AcDbEntity
  8
0
100
AcDbCircle
 62
9
  6
CONTINUOUS
 10
9.4635063212
 20
9.2163998701
 40
0.0299795403
100
AcDbArc
 50
0.0439543384
 51
90.0436323629
  0
ARC
  5
25C
100
AcDbEntity
  8
0
100
AcDbCircle
 62
9
  6
CONTINUOUS
 10
9.1484606568
 20
9.2691754396
 40
0.0299795402
100
AcDbArc
 50
89.9563670366
 51
179.9560448996
  0
ARC
  5
25D
100
AcDbEntity
  8
0
100
AcDbCircle
 62
7
  6
CONTINUOUS
 10
11.9884834891
 20
5.7494570214
 40
0.1254347826
100
AcDbArc
 50
22.9364108859
 51
70.4680059554
  0
ARC
  5
25E
100
AcDbEntity
  8
0
100
AcDbCircle
 62
7
  6
CONTINUOUS
 10
11.9884834891
 20
6.559891804
 40
0.095
100
AcDbArc
 50
180.0
 51
270.0
  0
ARC
  5
25F
100
AcDbEntity
  8
0
100
AcDbCircle
 62
7
  6
CONTINUOUS
 10
11.9884834891
 20
7.119891804
 40
0.095
100
AcDbArc
 50
90.0
 51
180.0
  0
ARC
  5
260
100
AcDbEntity
  8
0
100
AcDbCircle
 62
7
  6
CONTINUOUS
 10
11.6314834891
 20
8.2604303636
 40
0.08
100
AcDbArc
 50
19.1987071253
 51
88.0
  0
ARC
  5
261
100
AcDbEntity
  8
0
100
AcDbCircle
 62
7
  6
CONTINUOUS
 10
12.1620202288
 20
5.822891804
 40
0.063
100
AcDbArc
 50
202.9364108859
 51
270.0
  0
ARC
  5
262
100
AcDbEntity
  8
0
100
AcDbCircle
 62
7
  6
CONTINUOUS
 10
12.0514834891
 20
5.9270483143
 40
0.063
100
AcDbArc
 50
180.0
 51
250.4680059544
  0
ARC
  5
263
100
AcDbEntity
  8
0
100
AcDbCircle
 62
7
  6
CONTINUOUS
 10
11.744809544
 20
8.299891804
 40
0.04
100
AcDbArc
 50
199.1987071251
 51
270.0
  0
ARC
  5
264
100
AcDbEntity
  8
0
100
AcDbCircle
 62
7
  6
CONTINUOUS
 10
10.9934834891
 20
7.258891804
 40
0.031
100
AcDbArc
 50
44.7546926505
 51
90.0
  0
ARC
  5
265
100
AcDbEntity
  8
0
100
AcDbCircle
 62
7
  6
CONTINUOUS
 10
10.9034834891
 20
7.258891804
 40
0.031
100
AcDbArc
 50
90.0
 51
103.0407610339
  0
ARC
  5
266
100
AcDbEntity
  8
0
100
AcDbCircle
 62
7
  6
CONTINUOUS
 10
10.9934834891
 20
6.420891804
 40
0.031
100
AcDbArc
 50
270.0
 51
315.2453073495
  0
ARC
  5
267
100
AcDbEntity
  8
0
100
AcDbCircle
 62
7
  6
CONTINUOUS
 10
10.9034834891
 20
6.420891804
 40
0.031
100
AcDbArc
 50
256.9592389661
 51
270.0
  0
ARC
  5
268
100
AcDbEntity
  8
0
100
AcDbCircle
 62
7
  6
CONTINUOUS
 10
10.7674834891
 20
7.227391804
 40
0.031
100
AcDbArc
 50
103.0407610339
 51
180.0
  0
ARC
  5
269
100
AcDbEntity
  8
0
100
AcDbCircle
 62
7
  6
CONTINUOUS
 10
10.7674834891
 20
6.452391804
 40
0.031
100
AcDbArc
 50
180.0
 51
256.9592389661
  0
ARC
  5
26A
100
AcDbEntity
  8
0
100
AcDbCircle
 62
7
  6
CONTINUOUS
 10
11.8314834891
 20
7.939891804
 40
0.03
100
AcDbArc
 50
180.0
 51
270.0
  0
ARC
  5
26B
100
AcDbEntity
  8
0
100
AcDbCircle
 62
7
  6
CONTINUOUS
 10
11.8204834891
 20
7.063891804
 40
0.012
100
AcDbArc
 50
90.0
 51
180.0
  0
ARC
  5
26C
100
AcDbEntity
  8
0
100
AcDbCircle
 62
7
  6
CONTINUOUS
 10
11.8204834891
 20
6.615891804
 40
0.012
100
AcDbArc
 50
180.0
 51
270.0
  0
ARC
  5
26D
100
AcDbEntity
  8
0
100
AcDbCircle
 62
7
  6
CONTINUOUS
 10
11.9884834891
 20
12.2703265867
 40
0.1254347826
100
AcDbArc
 50
289.5319940446
 51
337.0635891141
  0
ARC
  5
26E
100
AcDbEntity
  8
0
100
AcDbCircle
 62
7
  6
CONTINUOUS
 10
11.6314834891
 20
9.7593532445
 40
0.08
100
AcDbArc
 50
272.0
 51
340.8012928747
  0
ARC
  5
26F
100
AcDbEntity
  8
0
100
AcDbCircle
 62
7
  6
CONTINUOUS
 10
12.1620202288
 20
12.196891804
 40
0.063
100
AcDbArc
 50
90.0
 51
157.0635891141
  0
ARC
  5
270
100
AcDbEntity
  8
0
100
AcDbCircle
 62
7
  6
CONTINUOUS
 10
12.0514834891
 20
12.0927352938
 40
0.063
100
AcDbArc
 50
109.5319940456
 51
180.0
  0
ARC
  5
271
100
AcDbEntity
  8
0
100
AcDbCircle
 62
7
  6
CONTINUOUS
 10
11.744809544
 20
9.719891804
 40
0.04
100
AcDbArc
 50
90.0
 51
160.8012928749
  0
ARC
  5
272
100
AcDbEntity
  8
0
100
AcDbCircle
 62
7
  6
CONTINUOUS
 10
11.8314834891
 20
10.079891804
 40
0.03
100
AcDbArc
 50
90.0
 51
180.0
  0
SPLINE
  5
273
100
AcDbEntity
  8
0
100
AcDbSpline
 62
9
  6
CONTINUOUS
 70
0
 71
3
 72
29
 73
25
 74
0
 42
0.0000001
 43
0.0000001
 44
0.0000000001
 40
0.0
 40
0.0
 40
0.0
 40
0.0
 40
0.0013116882
 40
0.0028732404
 40
0.0048402345
 40
0.0072914826
 40
0.0102669396
 40
0.0137882305
 40
0.0225083218
 40
0.0334930426
 40
0.0467461972
 40
0.0622545007
 40
0.0799880933
 40
0.0999120774
 40
0.121984799
 40
0.1723648709
 40
0.2306655021
 40
0.2963366058
 40
0.3687534859
 40
0.4472266313
 40
0.5310045814
 40
0.6192850428
 40
0.8059193483
 40
1.0
 40
1.0
 40
1.0
 40
1.0
 10
9.4934834891
 20
10.422891804
 30
0.0
 10
9.4934834891
 20
10.4229049895
 30
0.0
 10
9.4934759113
 20
10.4229340339
 30
0.0
 10
9.4934459513
 20
10.4229732937
 30
0.0
 10
9.4933991169
 20
10.423011473
 30
0.0
 10
9.4933349594
 20
10.4230493546
 30
0.0
 10
9.4932532521
 20
10.4230871977
 30
0.0
 10
9.4931101607
 20
10.4231415172
 30
0.0
 10
9.4928856513
 20
10.4232066719
 30
0.0
 10
9.4925625675
 20
10.4232803527
 30
0.0
 10
9.4921696824
 20
10.4233534582
 30
0.0
 10
9.4917078889
 20
10.4234257667
 30
0.0
 10
9.4911781862
 20
10.4234969953
 30
0.0
 10
9.4905818255
 20
10.4235669176
 30
0.0
 10
9.4896581258
 20
10.4236623552
 30
0.0
 10
9.4883484717
 20
10.4237746393
 30
0.0
 10
9.4866000332
 20
10.4238964344
 30
0.0
 10
9.4846290585
 20
10.4240090484
 30
0.0
 10
9.4824545072
 20
10.4241113163
 30
0.0
 10
9.4800972922
 20
10.4242021364
 30
0.0
 10
9.4775800901
 20
10.4242805921
 30
0.0
 10
9.4739754928
 20
10.424369265
 30
0.0
 10
9.4692615007
 20
10.4244425096
 30
0.0
 10
9.465434435
 20
10.4244618827
 30
0.0
 10
9.4634834891
 20
10.4244618827
 30
0.0
  0
SPLINE
  5
274
100
AcDbEntity
  8
0
100
AcDbSpline
 62
9
  6
CONTINUOUS
 70
0
 71
3
 72
29
 73
25
 74
0
 42
0.0000001
 43
0.0000001
 44
0.0000000001
 40
0.0
 40
0.0
 40
0.0
 40
0.0
 40
0.0013116868
 40
0.0028732315
 40
0.004840212
 40
0.0072914423
 40
0.010266879
 40
0.0137881488
 40
0.0225081523
 40
0.0334927485
 40
0.0467458008
 40
0.0622539344
 40
0.0799873134
 40
0.0999111465
 40
0.1219836382
 40
0.1723632931
 40
0.2306634393
 40
0.2963342028
 40
0.3687506499
 40
0.4472230413
 40
0.5310001786
 40
0.6192802553
 40
0.8059157488
 40
1.0
 40
1.0
 40
1.0
 40
1.0
 10
9.4934834891
 20
9.4158739416
 30
0.0
 10
9.4934834891
 20
9.415887127
 30
0.0
 10
9.4934759114
 20
9.4159161713
 30
0.0
 10
9.4934459517
 20
9.4159554311
 30
0.0
 10
9.4933991178
 20
9.4159936104
 30
0.0
 10
9.4933349608
 20
9.4160314918
 30
0.0
 10
9.4932532541
 20
9.4160693347
 30
0.0
 10
9.4931101639
 20
9.4161236537
 30
0.0
 10
9.4928856568
 20
9.416188808
 30
0.0
 10
9.4925625762
 20
9.4162624886
 30
0.0
 10
9.4921696951
 20
9.4163355934
 30
0.0
 10
9.4917079064
 20
9.4164079017
 30
0.0
 10
9.4911782092
 20
9.4164791302
 30
0.0
 10
9.4905818543
 20
9.4165490517
 30
0.0
 10
9.4896581627
 20
9.4166444894
 30
0.0
 10
9.48834852
 20
9.4167567729
 30
0.0
 10
9.486600094
 20
9.4168785684
 30
0.0
 10
9.484629132
 20
9.4169911821
 30
0.0
 10
9.482454596
 20
9.4170934499
 30
0.0
 10
9.4800974011
 20
9.4171842703
 30
0.0
 10
9.4775802186
 20
9.4172627262
 30
0.0
 10
9.4739756214
 20
9.4173513997
 30
0.0
 10
9.469261585
 20
9.4174246466
 30
0.0
 10
9.4654344712
 20
9.4174440205
 30
0.0
 10
9.4634834891
 20
9.4174440205
 30
0.0
  0
SPLINE
  5
275
100
AcDbEntity
  8
0
100
AcDbSpline
 62
9
  6
CONTINUOUS
 70
0
 71
3
 72
29
 73
25
 74
0
 42
0.0000001
 43
0.0000001
 44
0.0000000001
 40
0.0
 40
0.0
 40
0.0
 40
0.0
 40
0.0013116868
 40
0.0028732315
 40
0.004840212
 40
0.0072914423
 40
0.010266879
 40
0.0137881488
 40
0.0225081523
 40
0.0334927486
 40
0.0467458008
 40
0.0622539344
 40
0.0799873134
 40
0.0999111465
 40
0.1219836382
 40
0.1723632931
 40
0.2306634393
 40
0.2963342028
 40
0.3687506499
 40
0.4472230413
 40
0.5310001786
 40
0.6192802554
 40
0.8059157488
 40
1.0
 40
1.0
 40
1.0
 40
1.0
 10
9.4934834891
 20
8.6039096665
 30
0.0
 10
9.4934834891
 20
8.6038964811
 30
0.0
 10
9.4934759114
 20
8.6038674368
 30
0.0
 10
9.4934459517
 20
8.603828177
 30
0.0
 10
9.4933991178
 20
8.6037899977
 30
0.0
 10
9.4933349608
 20
8.6037521162
 30
0.0
 10
9.4932532541
 20
8.6037142734
 30
0.0
 10
9.4931101639
 20
8.6036599544
 30
0.0
 10
9.4928856568
 20
8.6035948001
 30
0.0
 10
9.4925625762
 20
8.6035211195
 30
0.0
 10
9.4921696951
 20
8.6034480147
 30
0.0
 10
9.4917079064
 20
8.6033757064
 30
0.0
 10
9.4911782092
 20
8.6033044779
 30
0.0
 10
9.4905818543
 20
8.6032345563
 30
0.0
 10
9.4896581627
 20
8.6031391187
 30
0.0
 10
9.48834852
 20
8.6030268352
 30
0.0
 10
9.486600094
 20
8.6029050397
 30
0.0
 10
9.484629132
 20
8.602792426
 30
0.0
 10
9.482454596
 20
8.6026901582
 30
0.0
 10
9.4800974011
 20
8.6025993378
 30
0.0
 10
9.4775802186
 20
8.6025208819
 30
0.0
 10
9.4739756214
 20
8.6024322084
 30
0.0
 10
9.469261585
 20
8.6023589613
 30
0.0
 10
9.4654344712
 20
8.6023395878
 30
0.0
 10
9.4634834891
 20
8.6023395878
 30
0.0
  0
SPLINE
  5
276
100
AcDbEntity
  8
0
100
AcDbSpline
 62
9
  6
CONTINUOUS
 70
0
 71
3
 72
29
 73
25
 74
0
 42
0.0000001
 43
0.0000001
 44
0.0000000001
 40
0.0
 40
0.0
 40
0.0
 40
0.0
 40
0.0013116882
 40
0.0028732403
 40
0.0048402341
 40
0.0072914819
 40
0.0102669386
 40
0.013788229
 40
0.0225083185
 40
0.0334930367
 40
0.0467461891
 40
0.0622544891
 40
0.0799880771
 40
0.0999120582
 40
0.1219847751
 40
0.1723648395
 40
0.2306654637
 40
0.2963365638
 40
0.3687534339
 40
0.4472265598
 40
0.5310045002
 40
0.6192849655
 40
0.8059193005
 40
1.0
 40
1.0
 40
1.0
 40
1.0
 10
9.4934834891
 20
7.596891804
 30
0.0
 10
9.4934834891
 20
7.5968786186
 30
0.0
 10
9.4934759113
 20
7.5968495742
 30
0.0
 10
9.4934459513
 20
7.5968103144
 30
0.0
 10
9.4933991169
 20
7.5967721351
 30
0.0
 10
9.4933349594
 20
7.5967342535
 30
0.0
 10
9.4932532522
 20
7.5966964104
 30
0.0
 10
9.4931101608
 20
7.5966420909
 30
0.0
 10
9.4928856514
 20
7.5965769362
 30
0.0
 10
9.4925625677
 20
7.5965032554
 30
0.0
 10
9.4921696827
 20
7.5964301499
 30
0.0
 10
9.4917078892
 20
7.5963578414
 30
0.0
 10
9.4911781867
 20
7.5962866129
 30
0.0
 10
9.4905818261
 20
7.5962166906
 30
0.0
 10
9.4896581265
 20
7.5961212529
 30
0.0
 10
9.4883484726
 20
7.5960089688
 30
0.0
 10
9.4866000343
 20
7.5958871737
 30
0.0
 10
9.4846290598
 20
7.5957745597
 30
0.0
 10
9.4824545088
 20
7.5956722918
 30
0.0
 10
9.4800972942
 20
7.5955814717
 30
0.0
 10
9.4775800924
 20
7.5955030161
 30
0.0
 10
9.4739754949
 20
7.5954143431
 30
0.0
 10
9.4692615019
 20
7.5953410988
 30
0.0
 10
9.4654344355
 20
7.5953217249
 30
0.0
 10
9.4634834891
 20
7.5953217249
 30
0.0
  0
SPLINE
  5
277
100
AcDbEntity
  8
0
100
AcDbSpline
 62
9
  6
CONTINUOUS
 70
0
 71
3
 72
29
 73
25
 74
0
 42
0.0000001
 43
0.0000001
 44
0.0000000001
 40
0.0
 40
0.0
 40
0.0
 40
0.0
 40
0.0013116882
 40
0.0028732404
 40
0.0048402345
 40
0.0072914826
 40
0.0102669396
 40
0.0137882305
 40
0.0225083218
 40
0.0334930426
 40
0.0467461972
 40
0.0622545007
 40
0.0799880933
 40
0.0999120774
 40
0.121984799
 40
0.1723648709
 40
0.2306655021
 40
0.2963366058
 40
0.3687534859
 40
0.4472266313
 40
0.5310045814
 40
0.6192850428
 40
0.8059193483
 40
1.0
 40
1.0
 40
1.0
 40
1.0
 10
9.1184834891
 20
7.596891804
 30
0.0
 10
9.1184834891
 20
7.5968786186
 30
0.0
 10
9.118491067
 20
7.5968495742
 30
0.0
 10
9.118521027
 20
7.5968103144
 30
0.0
 10
9.1185678614
 20
7.5967721351
 30
0.0
 10
9.1186320189
 20
7.5967342534
 30
0.0
 10
9.1187137261
 20
7.5966964104
 30
0.0
 10
9.1188568175
 20
7.5966420909
 30
0.0
 10
9.119081327
 20
7.5965769362
 30
0.0
 10
9.1194044107
 20
7.5965032554
 30
0.0
 10
9.1197972958
 20
7.5964301499
 30
0.0
 10
9.1202590894
 20
7.5963578414
 30
0.0
 10
9.120788792
 20
7.5962866128
 30
0.0
 10
9.1213851528
 20
7.5962166905
 30
0.0
 10
9.1223088525
 20
7.5961212529
 30
0.0
 10
9.1236185066
 20
7.5960089687
 30
0.0
 10
9.1253669451
 20
7.5958871737
 30
0.0
 10
9.1273379198
 20
7.5957745597
 30
0.0
 10
9.1295124711
 20
7.5956722917
 30
0.0
 10
9.1318696861
 20
7.5955814716
 30
0.0
 10
9.1343868882
 20
7.595503016
 30
0.0
 10
9.1379914854
 20
7.5954143431
 30
0.0
 10
9.1427054776
 20
7.5953410985
 30
0.0
 10
9.1465325433
 20
7.5953217254
 30
0.0
 10
9.1484834891
 20
7.5953217254
 30
0.0
  0
SPLINE
  5
278
100
AcDbEntity
  8
0
100
AcDbSpline
 62
9
  6
CONTINUOUS
 70
0
 71
3
 72
29
 73
25
 74
0
 42
0.0000001
 43
0.0000001
 44
0.0000000001
 40
0.0
 40
0.0
 40
0.0
 40
0.0
 40
0.0013116868
 40
0.0028732315
 40
0.004840212
 40
0.0072914423
 40
0.010266879
 40
0.0137881488
 40
0.0225081523
 40
0.0334927485
 40
0.0467458008
 40
0.0622539344
 40
0.0799873134
 40
0.0999111465
 40
0.1219836382
 40
0.1723632931
 40
0.2306634393
 40
0.2963342028
 40
0.3687506499
 40
0.4472230413
 40
0.5310001786
 40
0.6192802553
 40
0.8059157488
 40
1.0
 40
1.0
 40
1.0
 40
1.0
 10
9.1184834891
 20
8.6039096665
 30
0.0
 10
9.1184834891
 20
8.6038964811
 30
0.0
 10
9.1184910669
 20
8.6038674368
 30
0.0
 10
9.1185210265
 20
8.603828177
 30
0.0
 10
9.1185678605
 20
8.6037899977
 30
0.0
 10
9.1186320174
 20
8.6037521162
 30
0.0
 10
9.1187137241
 20
8.6037142734
 30
0.0
 10
9.1188568144
 20
8.6036599544
 30
0.0
 10
9.1190813215
 20
8.6035948001
 30
0.0
 10
9.1194044021
 20
8.6035211195
 30
0.0
 10
9.1197972832
 20
8.6034480147
 30
0.0
 10
9.1202590719
 20
8.6033757064
 30
0.0
 10
9.1207887691
 20
8.6033044779
 30
0.0
 10
9.1213851239
 20
8.6032345563
 30
0.0
 10
9.1223088156
 20
8.6031391187
 30
0.0
 10
9.1236184583
 20
8.6030268352
 30
0.0
 10
9.1253668843
 20
8.6029050397
 30
0.0
 10
9.1273378463
 20
8.602792426
 30
0.0
 10
9.1295123823
 20
8.6026901582
 30
0.0
 10
9.1318695772
 20
8.6025993378
 30
0.0
 10
9.1343867596
 20
8.6025208819
 30
0.0
 10
9.1379913568
 20
8.6024322084
 30
0.0
 10
9.1427053932
 20
8.6023589615
 30
0.0
 10
9.1465325071
 20
8.6023395876
 30
0.0
 10
9.1484834891
 20
8.6023395876
 30
0.0
  0
SPLINE
  5
279
100
AcDbEntity
  8
0
100
AcDbSpline
 62
9
  6
CONTINUOUS
 70
0
 71
3
 72
29
 73
25
 74
0
 42
0.0000001
 43
0.0000001
 44
0.0000000001
 40
0.0
 40
0.0
 40
0.0
 40
0.0
 40
0.0013116868
 40
0.0028732315
 40
0.004840212
 40
0.0072914423
 40
0.010266879
 40
0.0137881488
 40
0.0225081523
 40
0.0334927486
 40
0.0467458008
 40
0.0622539344
 40
0.0799873134
 40
0.0999111465
 40
0.1219836382
 40
0.1723632931
 40
0.2306634393
 40
0.2963342028
 40
0.3687506499
 40
0.4472230413
 40
0.5310001786
 40
0.6192802554
 40
0.8059157488
 40
1.0
 40
1.0
 40
1.0
 40
1.0
 10
9.1184834891
 20
9.4158739416
 30
0.0
 10
9.1184834891
 20
9.415887127
 30
0.0
 10
9.1184910669
 20
9.4159161713
 30
0.0
 10
9.1185210265
 20
9.4159554311
 30
0.0
 10
9.1185678605
 20
9.4159936104
 30
0.0
 10
9.1186320174
 20
9.4160314918
 30
0.0
 10
9.1187137241
 20
9.4160693347
 30
0.0
 10
9.1188568144
 20
9.4161236537
 30
0.0
 10
9.1190813215
 20
9.416188808
 30
0.0
 10
9.1194044021
 20
9.4162624886
 30
0.0
 10
9.1197972832
 20
9.4163355934
 30
0.0
 10
9.1202590719
 20
9.4164079017
 30
0.0
 10
9.1207887691
 20
9.4164791302
 30
0.0
 10
9.1213851239
 20
9.4165490517
 30
0.0
 10
9.1223088156
 20
9.4166444894
 30
0.0
 10
9.1236184583
 20
9.4167567729
 30
0.0
 10
9.1253668843
 20
9.4168785684
 30
0.0
 10
9.1273378463
 20
9.4169911821
 30
0.0
 10
9.1295123823
 20
9.4170934499
 30
0.0
 10
9.1318695772
 20
9.4171842703
 30
0.0
 10
9.1343867596
 20
9.4172627262
 30
0.0
 10
9.1379913568
 20
9.4173513997
 30
0.0
 10
9.1427053932
 20
9.4174246468
 30
0.0
 10
9.1465325071
 20
9.4174440203
 30
0.0
 10
9.1484834891
 20
9.4174440203
 30
0.0
  0
SPLINE
  5
27A
100
AcDbEntity
  8
0
100
AcDbSpline
 62
9
  6
CONTINUOUS
 70
0
 71
3
 72
29
 73
25
 74
0
 42
0.0000001
 43
0.0000001
 44
0.0000000001
 40
0.0
 40
0.0
 40
0.0
 40
0.0
 40
0.0013116882
 40
0.0028732403
 40
0.0048402341
 40
0.0072914819
 40
0.0102669386
 40
0.013788229
 40
0.0225083185
 40
0.0334930367
 40
0.0467461892
 40
0.0622544891
 40
0.0799880771
 40
0.0999120582
 40
0.1219847751
 40
0.1723648395
 40
0.2306654637
 40
0.2963365638
 40
0.368753434
 40
0.4472265599
 40
0.5310045002
 40
0.6192849656
 40
0.8059193006
 40
1.0
 40
1.0
 40
1.0
 40
1.0
 10
9.1184834891
 20
10.422891804
 30
0.0
 10
9.1184834891
 20
10.4229049895
 30
0.0
 10
9.118491067
 20
10.4229340339
 30
0.0
 10
9.118521027
 20
10.4229732937
 30
0.0
 10
9.1185678614
 20
10.423011473
 30
0.0
 10
9.1186320189
 20
10.4230493546
 30
0.0
 10
9.1187137261
 20
10.4230871977
 30
0.0
 10
9.1188568175
 20
10.4231415172
 30
0.0
 10
9.1190813269
 20
10.4232066718
 30
0.0
 10
9.1194044106
 20
10.4232803527
 30
0.0
 10
9.1197972956
 20
10.4233534582
 30
0.0
 10
9.1202590891
 20
10.4234257666
 30
0.0
 10
9.1207887916
 20
10.4234969952
 30
0.0
 10
9.1213851522
 20
10.4235669175
 30
0.0
 10
9.1223088518
 20
10.4236623552
 30
0.0
 10
9.1236185056
 20
10.4237746393
 30
0.0
 10
9.125366944
 20
10.4238964344
 30
0.0
 10
9.1273379184
 20
10.4240090483
 30
0.0
 10
9.1295124694
 20
10.4241113163
 30
0.0
 10
9.131869684
 20
10.4242021364
 30
0.0
 10
9.1343868859
 20
10.424280592
 30
0.0
 10
9.1379914834
 20
10.424369265
 30
0.0
 10
9.1427054763
 20
10.4244425095
 30
0.0
 10
9.1465325428
 20
10.424461883
 30
0.0
 10
9.1484834891
 20
10.424461883
 30
0.0
  0
ENDSEC
  0
SECTION
  2
OBJECTS
  0
DICTIONARY
  5
C
100
AcDbDictionary
280
0
281
1
  3
ACAD_GROUP
350
D
  3
ACAD_MLINESTYLE
350
17
  3
ACAD_LAYOUT
350
1A
  3
ACAD_PLOTSETTINGS
350
19
  3
ACAD_PLOTSTYLENAME
350
E
  0
DICTIONARY
  5
D
102
{ACAD_REACTORS
330
C
102
}
100
AcDbDictionary
280
0
281
1
  0
ACDBDICTIONARYWDFLT
  5
E
102
{ACAD_REACTORS
330
C
102
}
100
AcDbDictionary
281
1
  3
Normal
350
F
100
AcDbDictionaryWithDefault
340
F
  0
DICTIONARY
  5
17
102
{ACAD_REACTORS
330
C
102
}
100
AcDbDictionary
280
0
281
1
  3
Standard
350
18
  0
DICTIONARY
  5
19
102
{ACAD_REACTORS
330
C
102
}
100
AcDbDictionary
281
1
  0
DICTIONARY
  5
1A
102
{ACAD_REACTORS
330
C
102
}
100
AcDbDictionary
281
1
  3
Model
350
27B
  3
Layout1
350
27C
  0
ACDBPLACEHOLDER
  5
F
102
{ACAD_REACTORS
330
E
102
}
  0
MLINESTYLE
  5
18
102
{ACAD_REACTORS
330
17
102
}
100
AcDbMlineStyle
  2
STANDARD
 70
0
  3

 62
256
 51
90.0
 52
90.0
 71
2
 49
0.5
 62
256
  6
BYLAYER
 49
-0.5
 62
256
  6
BYLAYER
  0
LAYOUT
  5
27B
102
{ACAD_REACTORS
330
1A
102
}
100
AcDbPlotSettings
  1

  2
none_device
  4
ANSI_C_(22.00_x_17.00_Inches)
  6

 40
0.0
 41
0.0
 42
0.0
 43
0.0
 44
558.8
 45
431.8
 46
0.0
 47
0.0
 48
0.0
 49
0.0
140
0.0
141
0.0
142
1.0
143
1.0
 70
1024
 72
0
 73
0
 74
0
  7

 75
0
147
1.0
148
0.0
149
0.0
100
AcDbLayout
  1
Model
 70
0
 71
0
 10
0.0
 20
0.0
 11
22.0
 21
17.0
 12
0.0
 22
0.0
 32
0.0
 14
0.0
 24
0.0
 34
0.0
 15
0.0
 25
0.0
 35
0.0
146
0.0
 13
0.0
 23
0.0
 33
0.0
 16
1.0
 26
0.0
 36
0.0
 17
0.0
 27
1.0
 37
0.0
 76
0
330
205
345
0
346
0
  0
LAYOUT
  5
27C
102
{ACAD_REACTORS
330
1A
102
}
100
AcDbPlotSettings
  1

  2
none_device
  4
ANSI_C_(22.00_x_17.00_Inches)
  6

 40
0.0
 41
0.0
 42
0.0
 43
0.0
 44
558.8
 45
431.8
 46
0.0
 47
0.0
 48
0.0
 49
0.0
140
0.0
141
0.0
142
1.0
143
1.0
 70
0
 72
0
 73
0
 74
0
  7

 75
0
147
1.0
148
0.0
149
0.0
100
AcDbLayout
  1
Layout1
 70
0
 71
1
 10
0.0
 20
0.0
 11
22.0
 21
17.0
 12
0.0
 22
0.0
 32
0.0
 14
0.0
 24
0.0
 34
0.0
 15
0.0
 25
0.0
 35
0.0
146
0.0
 13
0.0
 23
0.0
 33
0.0
 16
1.0
 26
0.0
 36
0.0
 17
0.0
 27
1.0
 37
0.0
 76
0
330
206
345
0
346
0
  0
ENDSEC
  0
EOF
