999
DXF file: 5-3282bp_right.dxf
999
Pro/ENGINEER 2023134 by Parametric Technology Corporation
  0
SECTION
  2
HEADER
  9
$ACADVER
  1
AC1032
  9
$DWGCODEPAGE
  3
ANSI_1252
  9
$EXTMAX
 10
11.0
 20
8.5
 30
0.0
  9
$EXTMIN
 10
0.0
 20
0.0
 30
0.0
  9
$LIMMIN
 10
0.0
 20
0.0
  9
$LIMMAX
 10
11.0
 20
8.5
  9
$VIEWCTR
 10
5.5
 20
4.25
  9
$VIEWSIZE
 40
8.5
  9
$CLAYER
  8
0
  9
$LTSCALE
 40
0.605
  9
$CELTYPE
  6
BYLAYER
  9
$DIMSCALE
 40
1.0
  9
$DIMASZ
 40
0.1
  9
$DIMEXO
 40
0.0625
  9
$DIMDLI
 40
0.418
  9
$DIMEXE
 40
0.125
  9
$DIMCEN
 40
0.099
  9
$DIMLFAC
 40
1.0
  9
$DIMBLK
  1
_FILLED
  9
$DIMALT
 70
1
  9
$DIMALTD
 70
2
  9
$DIMALTTD
 70
2
  9
$DIMALTF
 40
25.4
  9
$DIMTXT
 40
0.08
  9
$DIMTOL
 70
1
  9
$DIMLIM
 70
0
  9
$DIMTFAC
 40
1.0
  9
$DIMTP
 40
0.001
  9
$DIMTM
 40
0.001
  9
$DIMGAP
 40
0.09
  9
$DIMDSEP
 70
46
  9
$AUNITS
 70
0
  9
$PDMODE
 70
3
  9
$PDSIZE
 40
0.3125
  9
$HANDSEED
  5
2A8
  9
$TILEMODE
 70
1
  9
$MEASUREMENT
 70
0
  9
$INSUNITS
 70
1
  0
ENDSEC
  0
SECTION
  2
CLASSES
  0
CLASS
  1
ACDBDICTIONARYWDFLT
  2
AcDbDictionaryWithDefault
  3
AutoCAD 2000
 90
0
 91
1
280
0
281
0
  0
CLASS
  1
ACDBPLACEHOLDER
  2
AcDbPlaceHolder
  3
AutoCAD 2000
 90
0
 91
1
280
0
281
0
  0
CLASS
  1
LAYOUT
  2
AcDbLayout
  3
AutoCAD 2000
 90
0
 91
0
280
0
281
0
  0
ENDSEC
  0
SECTION
  2
TABLES
  0
TABLE
  2
VPORT
  5
8
100
AcDbSymbolTable
 70
2
  0
VPORT
  5
1F4
100
AcDbSymbolTableRecord
100
AcDbViewportTableRecord
  2
*ACTIVE
 70
0
 10
0.0
 20
0.0
 11
1.0
 21
1.0
 12
5.5
 22
4.25
 13
0.0
 23
0.0
 14
1.0
 24
1.0
 15
0.0
 25
0.0
 16
0.0
 26
0.0
 36
1.0
 17
0.0
 27
0.0
 37
0.0
 40
8.5
 41
1.2941176471
 42
50.0
 43
0.0
 44
0.0
 50
0.0
 51
0.0
 71
0
 72
100
 73
1
 74
1
 75
0
 76
0
 77
0
 78
0
  0
ENDTAB
  0
TABLE
  2
LTYPE
  5
5
100
AcDbSymbolTable
 70
6
  0
LTYPE
  5
14
100
AcDbSymbolTableRecord
100
AcDbLinetypeTableRecord
  2
BYBLOCK
 70
0
  3

 72
65
 73
0
 40
0.0
  0
LTYPE
  5
15
100
AcDbSymbolTableRecord
100
AcDbLinetypeTableRecord
  2
BYLAYER
 70
0
  3

 72
65
 73
0
 40
0.0
  0
LTYPE
  5
16
100
AcDbSymbolTableRecord
100
AcDbLinetypeTableRecord
  2
CONTINUOUS
 70
64
  3
Solid line
 72
65
 73
0
 40
0.0
  0
LTYPE
  5
1F5
100
AcDbSymbolTableRecord
100
AcDbLinetypeTableRecord
  2
CENTER
 70
64
  3
____ _ ____ _ ____ _ ____ _ ____ _ ____ _ ____
 72
65
 73
4
 40
0.6
 49
0.375
 74
0
 49
-0.075
 74
0
 49
0.075
 74
0
 49
-0.075
 74
0
  0
LTYPE
  5
1F6
100
AcDbSymbolTableRecord
100
AcDbLinetypeTableRecord
  2
HIDDEN
 70
64
  3
- - - - - - - - - - - - - - - - - - - -
 72
65
 73
2
 40
0.2
 49
0.1
 74
0
 49
-0.1
 74
0
  0
LTYPE
  5
1F7
100
AcDbSymbolTableRecord
100
AcDbLinetypeTableRecord
  2
PHANTOM
 70
64
  3
_____ _ _ _____ _ _ _____ _ _ _____
 72
65
 73
6
 40
0.8
 49
0.45
 74
0
 49
-0.05
 74
0
 49
0.1
 74
0
 49
-0.05
 74
0
 49
0.1
 74
0
 49
-0.05
 74
0
  0
LTYPE
  5
1F8
100
AcDbSymbolTableRecord
100
AcDbLinetypeTableRecord
  2
DOT
 70
64
  3
. . . . . . . . . . . . . . . . . . . .
 72
65
 73
2
 40
0.2
 49
0.1
 74
0
 49
-0.1
 74
0
  0
LTYPE
  5
1F9
100
AcDbSymbolTableRecord
100
AcDbLinetypeTableRecord
  2
DASHED
 70
64
  3
- - - - - - - - - - - - - - - - - - - -
 72
65
 73
2
 40
0.2
 49
0.1
 74
0
 49
-0.1
 74
0
  0
ENDTAB
  0
TABLE
  2
LAYER
  5
2
100
AcDbSymbolTable
 70
36
  0
LAYER
  5
10
100
AcDbSymbolTableRecord
100
AcDbLayerTableRecord
  2
0
 70
0
 62
7
  6
CONTINUOUS
370
-3
390
F
  0
LAYER
  5
1FA
100
AcDbSymbolTableRecord
100
AcDbLayerTableRecord
  2
DEFAULT_1
 70
0
 62
7
  6
CENTER
370
-3
390
F
  0
LAYER
  5
1FB
100
AcDbSymbolTableRecord
100
AcDbLayerTableRecord
  2
DEFAULT_2
 70
0
 62
8
  6
HIDDEN
370
-3
390
F
  0
LAYER
  5
1FC
100
AcDbSymbolTableRecord
100
AcDbLayerTableRecord
  2
DEFAULT_3
 70
0
 62
7
  6
PHANTOM
370
-3
390
F
  0
LAYER
  5
1FD
100
AcDbSymbolTableRecord
100
AcDbLayerTableRecord
  2
DEFAULT_COORDINATE_SYSTEM
 70
0
 62
7
  6
CONTINUOUS
370
-3
390
F
  0
LAYER
  5
1FE
100
AcDbSymbolTableRecord
100
AcDbLayerTableRecord
  2
DEFAULT_DATUM_AXES
 70
0
 62
7
  6
CONTINUOUS
370
-3
390
F
  0
LAYER
  5
1FF
100
AcDbSymbolTableRecord
100
AcDbLayerTableRecord
  2
DEFAULT_DATUM_CURVES
 70
0
 62
7
  6
CONTINUOUS
370
-3
390
F
  0
LAYER
  5
200
100
AcDbSymbolTableRecord
100
AcDbLayerTableRecord
  2
DEFAULT_DATUM_PLANES
 70
0
 62
7
  6
CONTINUOUS
370
-3
390
F
  0
ENDTAB
  0
TABLE
  2
STYLE
  5
3
100
AcDbSymbolTable
 70
1
  0
STYLE
  5
11
100
AcDbSymbolTableRecord
100
AcDbTextStyleTableRecord
  2
STANDARD
 70
0
 40
0.0
 41
0.8
 50
0.0
 71
0
 42
0.2
  3
txt
  4

  0
STYLE
  5
201
100
AcDbSymbolTableRecord
100
AcDbTextStyleTableRecord
  2
TEXTSTYLE_1
 70
0
 40
0.0
 41
0.8
 50
0.0
 71
0
 42
0.2
  3
gdt
  4

  0
ENDTAB
  0
TABLE
  2
VIEW
  5
6
100
AcDbSymbolTable
 70
0
  0
ENDTAB
  0
TABLE
  2
UCS
  5
7
100
AcDbSymbolTable
 70
0
  0
ENDTAB
  0
TABLE
  2
APPID
  5
9
100
AcDbSymbolTable
 70
1
  0
APPID
  5
202
100
AcDbSymbolTableRecord
100
AcDbRegAppTableRecord
  2
ACAD
 70
0
  0
ENDTAB
  0
TABLE
  2
BLOCK_RECORD
  5
1
100
AcDbSymbolTable
 70
0
  0
BLOCK_RECORD
  5
203
100
AcDbSymbolTableRecord
100
AcDbBlockTableRecord
  2
*Model_Space
  0
BLOCK_RECORD
  5
204
100
AcDbSymbolTableRecord
100
AcDbBlockTableRecord
  2
*Paper_Space
  0
BLOCK_RECORD
  5
205
100
AcDbSymbolTableRecord
100
AcDbBlockTableRecord
  2
_FILLED
  0
ENDTAB
  0
TABLE
  2
DIMSTYLE
  5
A
100
AcDbSymbolTable
 70
1
100
AcDbDimStyleTable
 71
0
  0
DIMSTYLE
105
206
100
AcDbSymbolTableRecord
100
AcDbDimStyleTableRecord
  2
STANDARD
 70
0
  3

  4

 40
1.0
 41
0.1
 42
0.0625
 43
0.38
 44
0.125
 45
0.0
 46
0.0
 47
0.001
 48
0.001
140
0.08
141
0.09
142
0.0
143
25.4
144
1.0
145
0.0
146
1.0
147
0.09
 71
1
 72
0
 73
1
 74
1
 75
0
 76
0
 77
0
 78
4
 79
1
170
1
171
2
172
0
173
0
174
0
175
0
176
0
177
0
178
0
270
2
179
3
271
3
272
3
273
2
274
2
275
0
280
0
281
0
282
0
283
1
284
4
285
0
286
0
287
3
288
0
340
11
278
46
341
205
342
205
343
205
344
205
  0
ENDTAB
  0
ENDSEC
  0
SECTION
  2
BLOCKS
  0
BLOCK
  5
20
100
AcDbEntity
  8
0
100
AcDbBlockBegin
  2
*Model_Space
 70
0
 10
0.0
 20
0.0
 30
0.0
  3
*Model_Space
  1

  0
ENDBLK
  5
21
100
AcDbEntity
  8
0
100
AcDbBlockEnd
  0
BLOCK
  5
1C
100
AcDbEntity
  8
0
100
AcDbBlockBegin
  2
*Paper_Space
 70
0
 10
0.0
 20
0.0
 30
0.0
  3
*Paper_Space
  1

  0
ENDBLK
  5
1D
100
AcDbEntity
  8
0
100
AcDbBlockEnd
  0
BLOCK
  5
207
100
AcDbEntity
  8
0
100
AcDbBlockBegin
  2
_FILLED
 70
64
 10
0.0
 20
0.0
  3
_FILLED
  1

  0
SOLID
  5
208
100
AcDbEntity
  8
0
  6
BYBLOCK
 62
0
100
AcDbTrace
 10
0.0
 20
0.0
 11
-1.0
 21
0.2
 12
-1.0
 22
-0.2
 13
-1.0
 23
-0.2
  0
ENDBLK
  5
209
100
AcDbEntity
  8
0
  6
BYBLOCK
 62
0
100
AcDbBlockEnd
  0
ENDSEC
  0
SECTION
  2
ENTITIES
  0
MTEXT
  5
20A
100
AcDbEntity
  8
0
100
AcDbMText
 62
2
  6
CONTINUOUS
  7
STANDARD
 71
3
 72
1
 10
5.29350529
 20
0.5871489726
 30
0.0
 11
1.0
 21
0.0
 31
0.0
 73
2
 44
0.9
  1
SCALE 1.000
 40
0.08
 41
0.704
  0
LINE
  5
20B
100
AcDbEntity
  8
0
100
AcDbLine
 62
7
  6
CONTINUOUS
 10
0.0
 20
0.0
 11
0.0
 21
8.5
  0
LINE
  5
20C
100
AcDbEntity
  8
0
100
AcDbLine
 62
7
  6
CONTINUOUS
 10
0.0
 20
0.0
 11
11.0
 21
0.0
  0
LINE
  5
20D
100
AcDbEntity
  8
0
100
AcDbLine
 62
7
  6
CONTINUOUS
 10
0.0
 20
8.5
 11
11.0
 21
8.5
  0
LINE
  5
20E
100
AcDbEntity
  8
0
100
AcDbLine
 62
7
  6
CONTINUOUS
 10
11.0
 20
0.0
 11
11.0
 21
8.5
  0
LINE
  5
20F
100
AcDbEntity
  8
0
100
AcDbLine
 62
7
  6
CONTINUOUS
 10
6.8631832192
 20
1.1213613014
 11
6.7237199588
 21
1.1213613014
  0
LINE
  5
210
100
AcDbEntity
  8
0
100
AcDbLine
 62
7
  6
CONTINUOUS
 10
5.5551832192
 20
1.7513613014
 11
5.4651832192
 21
1.7513613014
  0
LINE
  5
211
100
AcDbEntity
  8
0
100
AcDbLine
 62
7
  6
CONTINUOUS
 10
5.4581882497
 20
1.752160798
 11
5.3221882497
 21
1.783660798
  0
LINE
  5
212
100
AcDbEntity
  8
0
100
AcDbLine
 62
7
  6
CONTINUOUS
 10
6.4551832192
 20
1.9653613014
 11
6.3821832192
 21
1.9653613014
  0
LINE
  5
213
100
AcDbEntity
  8
0
100
AcDbLine
 62
7
  6
CONTINUOUS
 10
6.8631832192
 20
2.0138613014
 11
6.8801832192
 21
2.0138613014
  0
LINE
  5
214
100
AcDbEntity
  8
0
100
AcDbLine
 62
7
  6
CONTINUOUS
 10
5.7911832192
 20
2.0243613014
 11
6.3701832192
 21
2.0243613014
  0
LINE
  5
215
100
AcDbEntity
  8
0
100
AcDbLine
 62
7
  6
CONTINUOUS
 10
5.7911832192
 20
2.3783613014
 11
6.3701832192
 21
2.3783613014
  0
LINE
  5
216
100
AcDbEntity
  8
0
100
AcDbLine
 62
7
  6
CONTINUOUS
 10
6.8631832192
 20
2.3888613014
 11
6.8801832192
 21
2.3888613014
  0
LINE
  5
217
100
AcDbEntity
  8
0
100
AcDbLine
 62
7
  6
CONTINUOUS
 10
3.2991832192
 20
3.1013613014
 11
3.2991832192
 21
5.6413613014
  0
LINE
  5
218
100
AcDbEntity
  8
0
100
AcDbLine
 62
7
  6
CONTINUOUS
 10
3.3291832192
 20
5.6221610455
 11
3.3291832192
 21
4.6213613014
  0
LINE
  5
219
100
AcDbEntity
  8
0
100
AcDbLine
 62
7
  6
CONTINUOUS
 10
3.3291832192
 20
3.1205615572
 11
3.3291832192
 21
4.1213613014
  0
LINE
  5
21A
100
AcDbEntity
  8
0
100
AcDbLine
 62
7
  6
CONTINUOUS
 10
3.3691832192
 20
3.144870195
 11
3.3691832192
 21
4.1213613014
  0
LINE
  5
21B
100
AcDbEntity
  8
0
100
AcDbLine
 62
7
  6
CONTINUOUS
 10
3.3691832192
 20
4.6213613014
 11
3.3691832192
 21
5.5978524078
  0
LINE
  5
21C
100
AcDbEntity
  8
0
100
AcDbLine
 62
7
  6
CONTINUOUS
 10
5.4581882497
 20
2.6505618047
 11
5.3221882497
 21
2.6190618047
  0
LINE
  5
21D
100
AcDbEntity
  8
0
100
AcDbLine
 62
7
  6
CONTINUOUS
 10
6.4551832192
 20
2.4373613014
 11
6.3821832192
 21
2.4373613014
  0
LINE
  5
21E
100
AcDbEntity
  8
0
100
AcDbLine
 62
7
  6
CONTINUOUS
 10
5.5551832192
 20
2.6513613014
 11
5.4651832192
 21
2.6513613014
  0
LINE
  5
21F
100
AcDbEntity
  8
0
100
AcDbLine
 62
7
  6
CONTINUOUS
 10
3.3991832192
 20
3.1448701771
 11
3.3991832192
 21
4.1213613014
  0
LINE
  5
220
100
AcDbEntity
  8
0
100
AcDbLine
 62
7
  6
CONTINUOUS
 10
3.3991832192
 20
4.6213613014
 11
3.3991832192
 21
5.5978524075
  0
LINE
  5
221
100
AcDbEntity
  8
0
100
AcDbLine
 62
7
  6
CONTINUOUS
 10
3.4291832192
 20
2.9713613014
 11
3.4291832192
 21
3.0191409051
  0
LINE
  5
222
100
AcDbEntity
  8
0
100
AcDbLine
 62
7
  6
CONTINUOUS
 10
3.4291832192
 20
3.0568851955
 11
3.4291832192
 21
5.6858374073
  0
LINE
  5
223
100
AcDbEntity
  8
0
100
AcDbLine
 62
7
  6
CONTINUOUS
 10
3.4291832192
 20
5.7235816976
 11
3.4291832192
 21
5.7713613014
  0
LINE
  5
224
100
AcDbEntity
  8
0
100
AcDbLine
 62
7
  6
CONTINUOUS
 10
3.8691832192
 20
2.9713613014
 11
3.8691832192
 21
3.0191409051
  0
LINE
  5
225
100
AcDbEntity
  8
0
100
AcDbLine
 62
7
  6
CONTINUOUS
 10
3.8691832192
 20
3.0568851955
 11
3.8691832192
 21
5.6858374073
  0
LINE
  5
226
100
AcDbEntity
  8
0
100
AcDbLine
 62
7
  6
CONTINUOUS
 10
3.8691832192
 20
5.7235816976
 11
3.8691832192
 21
5.7713613014
  0
LINE
  5
227
100
AcDbEntity
  8
0
100
AcDbLine
 62
7
  6
CONTINUOUS
 10
3.8691832192
 20
2.9713613014
 11
3.4291832192
 21
2.9713613014
  0
LINE
  5
228
100
AcDbEntity
  8
0
100
AcDbLine
 62
7
  6
CONTINUOUS
 10
3.8691832192
 20
2.9895302395
 11
3.4291832192
 21
2.9895302395
  0
LINE
  5
229
100
AcDbEntity
  8
0
100
AcDbLine
 62
7
  6
CONTINUOUS
 10
3.8691832192
 20
3.0191409051
 11
3.4291832192
 21
3.0191409051
  0
LINE
  5
22A
100
AcDbEntity
  8
0
100
AcDbLine
 62
7
  6
CONTINUOUS
 10
3.8691832192
 20
3.0568851955
 11
3.4291832192
 21
3.0568851955
  0
LINE
  5
22B
100
AcDbEntity
  8
0
100
AcDbLine
 62
7
  6
CONTINUOUS
 10
3.8691832192
 20
3.0798647782
 11
3.4291832192
 21
3.0798647782
  0
LINE
  5
22C
100
AcDbEntity
  8
0
100
AcDbLine
 62
7
  6
CONTINUOUS
 10
3.9991832192
 20
3.1205615572
 11
3.9691832192
 21
3.1205615572
  0
LINE
  5
22D
100
AcDbEntity
  8
0
100
AcDbLine
 62
7
  6
CONTINUOUS
 10
3.2991832192
 20
3.1205615572
 11
3.3291832192
 21
3.1205615572
  0
LINE
  5
22E
100
AcDbEntity
  8
0
100
AcDbLine
 62
7
  6
CONTINUOUS
 10
3.9291832192
 20
3.144870195
 11
3.8991832192
 21
3.144870195
  0
LINE
  5
22F
100
AcDbEntity
  8
0
100
AcDbLine
 62
7
  6
CONTINUOUS
 10
3.3691832192
 20
3.144870195
 11
3.3991832192
 21
3.144870195
  0
LINE
  5
230
100
AcDbEntity
  8
0
100
AcDbLine
 62
7
  6
CONTINUOUS
 10
3.8991832192
 20
5.5978524078
 11
3.8991832192
 21
4.6213613014
  0
LINE
  5
231
100
AcDbEntity
  8
0
100
AcDbLine
 62
7
  6
CONTINUOUS
 10
3.8991832192
 20
4.1213613014
 11
3.8991832192
 21
3.1448701945
  0
LINE
  5
232
100
AcDbEntity
  8
0
100
AcDbLine
 62
7
  6
CONTINUOUS
 10
3.9291832192
 20
5.5978524078
 11
3.9291832192
 21
4.6213613014
  0
LINE
  5
233
100
AcDbEntity
  8
0
100
AcDbLine
 62
7
  6
CONTINUOUS
 10
3.9291832192
 20
4.1213613014
 11
3.9291832192
 21
3.144870195
  0
LINE
  5
234
100
AcDbEntity
  8
0
100
AcDbLine
 62
7
  6
CONTINUOUS
 10
3.9691832192
 20
4.1213613014
 11
3.9691832192
 21
3.1205615572
  0
LINE
  5
235
100
AcDbEntity
  8
0
100
AcDbLine
 62
7
  6
CONTINUOUS
 10
3.9691832192
 20
4.6213613014
 11
3.9691832192
 21
5.6221610455
  0
LINE
  5
236
100
AcDbEntity
  8
0
100
AcDbLine
 62
7
  6
CONTINUOUS
 10
3.9991832192
 20
3.1013613014
 11
3.9991832192
 21
5.6413613014
  0
LINE
  5
237
100
AcDbEntity
  8
0
100
AcDbLine
 62
7
  6
CONTINUOUS
 10
4.0301832192
 20
3.9138613014
 11
4.0301832192
 21
4.8288613014
  0
LINE
  5
238
100
AcDbEntity
  8
0
100
AcDbLine
 62
7
  6
CONTINUOUS
 10
4.0601832192
 20
3.8838613014
 11
4.0601832192
 21
4.8588613014
  0
LINE
  5
239
100
AcDbEntity
  8
0
100
AcDbLine
 62
7
  6
CONTINUOUS
 10
6.5501832192
 20
3.2463613014
 11
6.4801832192
 21
3.2463613014
  0
LINE
  5
23A
100
AcDbEntity
  8
0
100
AcDbLine
 62
7
  6
CONTINUOUS
 10
3.3991832192
 20
3.2713613014
 11
3.8991832192
 21
3.2713613014
  0
LINE
  5
23B
100
AcDbEntity
  8
0
100
AcDbLine
 62
7
  6
CONTINUOUS
 10
6.4001832192
 20
3.3263613014
 11
6.2301832192
 21
3.3263613014
  0
LINE
  5
23C
100
AcDbEntity
  8
0
100
AcDbLine
 62
7
  6
CONTINUOUS
 10
5.7911832192
 20
2.4263613014
 11
5.5771971783
 21
2.6421875609
  0
LINE
  5
23D
100
AcDbEntity
  8
0
100
AcDbLine
 62
7
  6
CONTINUOUS
 10
3.2991832192
 20
3.7963613014
 11
3.9991832192
 21
3.7963613014
  0
LINE
  5
23E
100
AcDbEntity
  8
0
100
AcDbLine
 62
7
  6
CONTINUOUS
 10
6.1601832192
 20
3.8838613014
 11
4.0601832192
 21
3.8838613014
  0
LINE
  5
23F
100
AcDbEntity
  8
0
100
AcDbLine
 62
7
  6
CONTINUOUS
 10
6.1901832192
 20
3.9463613014
 11
6.2001832192
 21
3.9463613014
  0
LINE
  5
240
100
AcDbEntity
  8
0
100
AcDbLine
 62
7
  6
CONTINUOUS
 10
3.3291832192
 20
4.1213613014
 11
3.9691832192
 21
4.1213613014
  0
LINE
  5
241
100
AcDbEntity
  8
0
100
AcDbLine
 62
7
  6
CONTINUOUS
 10
3.4291832192
 20
4.1465437831
 11
3.8691832192
 21
4.1465437831
  0
LINE
  5
242
100
AcDbEntity
  8
0
100
AcDbLine
 62
7
  6
CONTINUOUS
 10
5.2981832192
 20
1.8138613014
 11
5.2981832192
 21
2.5888613014
  0
LINE
  5
243
100
AcDbEntity
  8
0
100
AcDbLine
 62
7
  6
CONTINUOUS
 10
5.3221882497
 20
1.783660798
 11
5.3221882497
 21
2.6190618047
  0
LINE
  5
244
100
AcDbEntity
  8
0
100
AcDbLine
 62
7
  6
CONTINUOUS
 10
3.4291832192
 20
4.5961788196
 11
3.8691832192
 21
4.5961788196
  0
LINE
  5
245
100
AcDbEntity
  8
0
100
AcDbLine
 62
7
  6
CONTINUOUS
 10
3.3291832192
 20
4.6213613014
 11
3.9691832192
 21
4.6213613014
  0
LINE
  5
246
100
AcDbEntity
  8
0
100
AcDbLine
 62
7
  6
CONTINUOUS
 10
5.4581882497
 20
1.752160798
 11
5.4581882497
 21
2.6505618047
  0
LINE
  5
247
100
AcDbEntity
  8
0
100
AcDbLine
 62
7
  6
CONTINUOUS
 10
5.4651832192
 20
1.7513613014
 11
5.4651832192
 21
2.6513613014
  0
LINE
  5
248
100
AcDbEntity
  8
0
100
AcDbLine
 62
7
  6
CONTINUOUS
 10
5.5551832192
 20
1.7513613014
 11
5.5551832192
 21
2.6513613014
  0
LINE
  5
249
100
AcDbEntity
  8
0
100
AcDbLine
 62
7
  6
CONTINUOUS
 10
5.5771971783
 20
1.7605350418
 11
5.5771971783
 21
2.6421875609
  0
LINE
  5
24A
100
AcDbEntity
  8
0
100
AcDbLine
 62
7
  6
CONTINUOUS
 10
6.1901832192
 20
4.7963613014
 11
6.2001832192
 21
4.7963613014
  0
LINE
  5
24B
100
AcDbEntity
  8
0
100
AcDbLine
 62
7
  6
CONTINUOUS
 10
6.1601832192
 20
4.8588613014
 11
4.0601832192
 21
4.8588613014
  0
LINE
  5
24C
100
AcDbEntity
  8
0
100
AcDbLine
 62
7
  6
CONTINUOUS
 10
5.7911832192
 20
1.9763613014
 11
5.7911832192
 21
2.4263613014
  0
LINE
  5
24D
100
AcDbEntity
  8
0
100
AcDbLine
 62
7
  6
CONTINUOUS
 10
3.2991832192
 20
4.9463613014
 11
3.9991832192
 21
4.9463613014
  0
LINE
  5
24E
100
AcDbEntity
  8
0
100
AcDbLine
 62
7
  6
CONTINUOUS
 10
6.1601832192
 20
3.8838613014
 11
6.1601832192
 21
4.8588613014
  0
LINE
  5
24F
100
AcDbEntity
  8
0
100
AcDbLine
 62
7
  6
CONTINUOUS
 10
6.1901832192
 20
3.9138613014
 11
6.1901832192
 21
4.8288613014
  0
LINE
  5
250
100
AcDbEntity
  8
0
100
AcDbLine
 62
7
  6
CONTINUOUS
 10
6.2001832192
 20
3.3563613014
 11
6.2001832192
 21
5.3863613014
  0
LINE
  5
251
100
AcDbEntity
  8
0
100
AcDbLine
 62
7
  6
CONTINUOUS
 10
6.2301832192
 20
3.3263613014
 11
6.2301832192
 21
5.4163613014
  0
LINE
  5
252
100
AcDbEntity
  8
0
100
AcDbLine
 62
7
  6
CONTINUOUS
 10
6.4001832192
 20
5.4163613014
 11
6.2301832192
 21
5.4163613014
  0
LINE
  5
253
100
AcDbEntity
  8
0
100
AcDbLine
 62
7
  6
CONTINUOUS
 10
3.3991832192
 20
5.4713613014
 11
3.8991832192
 21
5.4713613014
  0
LINE
  5
254
100
AcDbEntity
  8
0
100
AcDbLine
 62
7
  6
CONTINUOUS
 10
6.5501832192
 20
5.4963613014
 11
6.4801832192
 21
5.4963613014
  0
LINE
  5
255
100
AcDbEntity
  8
0
100
AcDbLine
 62
7
  6
CONTINUOUS
 10
3.9291832192
 20
5.5978524078
 11
3.8991832192
 21
5.5978524078
  0
LINE
  5
256
100
AcDbEntity
  8
0
100
AcDbLine
 62
7
  6
CONTINUOUS
 10
3.3691832192
 20
5.5978524078
 11
3.3991832192
 21
5.5978524078
  0
LINE
  5
257
100
AcDbEntity
  8
0
100
AcDbLine
 62
7
  6
CONTINUOUS
 10
3.3291832192
 20
5.6221610455
 11
3.2991832192
 21
5.6221610455
  0
LINE
  5
258
100
AcDbEntity
  8
0
100
AcDbLine
 62
7
  6
CONTINUOUS
 10
3.9691832192
 20
5.6221610455
 11
3.9991832192
 21
5.6221610453
  0
LINE
  5
259
100
AcDbEntity
  8
0
100
AcDbLine
 62
7
  6
CONTINUOUS
 10
6.3701832192
 20
1.9773613014
 11
6.3701832192
 21
2.4253613014
  0
LINE
  5
25A
100
AcDbEntity
  8
0
100
AcDbLine
 62
7
  6
CONTINUOUS
 10
6.3821832192
 20
1.9653613014
 11
6.3821832192
 21
2.4373613014
  0
LINE
  5
25B
100
AcDbEntity
  8
0
100
AcDbLine
 62
7
  6
CONTINUOUS
 10
6.4001832192
 20
5.4163613014
 11
6.4001832192
 21
3.3263613014
  0
LINE
  5
25C
100
AcDbEntity
  8
0
100
AcDbLine
 62
7
  6
CONTINUOUS
 10
6.4501832192
 20
5.4663613014
 11
6.4501832192
 21
3.2763613014
  0
LINE
  5
25D
100
AcDbEntity
  8
0
100
AcDbLine
 62
7
  6
CONTINUOUS
 10
6.4551832192
 20
2.4813613014
 11
6.4551832192
 21
1.9213613014
  0
LINE
  5
25E
100
AcDbEntity
  8
0
100
AcDbLine
 62
7
  6
CONTINUOUS
 10
6.4801832192
 20
3.2463613014
 11
6.4801832192
 21
5.4963613014
  0
LINE
  5
25F
100
AcDbEntity
  8
0
100
AcDbLine
 62
7
  6
CONTINUOUS
 10
6.5501832192
 20
1.2885178116
 11
6.5501832192
 21
7.4542047911
  0
LINE
  5
260
100
AcDbEntity
  8
0
100
AcDbLine
 62
7
  6
CONTINUOUS
 10
6.5921202289
 20
1.22914315
 11
6.5921202289
 21
7.5135794527
  0
LINE
  5
261
100
AcDbEntity
  8
0
100
AcDbLine
 62
7
  6
CONTINUOUS
 10
3.4291832192
 20
5.6628578245
 11
3.8691832192
 21
5.6628578245
  0
LINE
  5
262
100
AcDbEntity
  8
0
100
AcDbLine
 62
7
  6
CONTINUOUS
 10
3.4291832192
 20
5.6858374073
 11
3.8691832192
 21
5.6858374073
  0
LINE
  5
263
100
AcDbEntity
  8
0
100
AcDbLine
 62
7
  6
CONTINUOUS
 10
3.8691832192
 20
5.7235816976
 11
3.4291832192
 21
5.7235816976
  0
LINE
  5
264
100
AcDbEntity
  8
0
100
AcDbLine
 62
7
  6
CONTINUOUS
 10
3.8691832192
 20
5.7531923632
 11
3.4291832192
 21
5.7531923632
  0
LINE
  5
265
100
AcDbEntity
  8
0
100
AcDbLine
 62
7
  6
CONTINUOUS
 10
3.8691832192
 20
5.7713613014
 11
3.4291832192
 21
5.7713613014
  0
LINE
  5
266
100
AcDbEntity
  8
0
100
AcDbLine
 62
7
  6
CONTINUOUS
 10
6.6657008689
 20
1.159809617
 11
6.6657008689
 21
7.5829129857
  0
LINE
  5
267
100
AcDbEntity
  8
0
100
AcDbLine
 62
7
  6
CONTINUOUS
 10
6.7237199588
 20
1.1213613014
 11
6.7237199588
 21
7.6213613014
  0
LINE
  5
268
100
AcDbEntity
  8
0
100
AcDbLine
 62
7
  6
CONTINUOUS
 10
6.8631832192
 20
7.6213613014
 11
6.8631832192
 21
1.1213613014
  0
LINE
  5
269
100
AcDbEntity
  8
0
100
AcDbLine
 62
7
  6
CONTINUOUS
 10
6.8801832192
 20
2.3888613014
 11
6.8801832192
 21
2.0138613014
  0
LINE
  5
26A
100
AcDbEntity
  8
0
100
AcDbLine
 62
7
  6
CONTINUOUS
 10
5.7911832192
 20
1.9763613014
 11
5.5771971783
 21
1.7605350418
  0
LINE
  5
26B
100
AcDbEntity
  8
0
100
AcDbLine
 62
7
  6
CONTINUOUS
 10
6.8631832192
 20
7.6213613014
 11
6.7237199588
 21
7.6213613014
  0
ARC
  5
26C
100
AcDbEntity
  8
0
100
AcDbCircle
 62
7
  6
CONTINUOUS
 10
3.8669945026
 20
3.1205639804
 40
0.1321887166
100
AcDbArc
 50
352.526278662
 51
359.9989497047
  0
ARC
  5
26D
100
AcDbEntity
  8
0
100
AcDbCircle
 62
7
  6
CONTINUOUS
 10
3.4313682397
 20
3.1205637594
 40
0.1321850206
100
AcDbArc
 50
180.0009545317
 51
187.4715687723
  0
ARC
  5
26E
100
AcDbEntity
  8
0
100
AcDbCircle
 62
7
  6
CONTINUOUS
 10
3.8691832192
 20
3.1013613014
 40
0.13
100
AcDbArc
 50
270.0
 51
360.0
  0
ARC
  5
26F
100
AcDbEntity
  8
0
100
AcDbCircle
 62
7
  6
CONTINUOUS
 10
3.4291832192
 20
3.1013613014
 40
0.13
100
AcDbArc
 50
180.0
 51
270.0
  0
ARC
  5
270
100
AcDbEntity
  8
0
100
AcDbCircle
 62
7
  6
CONTINUOUS
 10
3.3291832192
 20
4.1513613014
 40
0.03
100
AcDbArc
 50
180.0
 51
270.0
  0
ARC
  5
271
100
AcDbEntity
  8
0
100
AcDbCircle
 62
7
  6
CONTINUOUS
 10
3.9691832192
 20
4.1513613014
 40
0.03
100
AcDbArc
 50
270.0
 51
360.0
  0
ARC
  5
272
100
AcDbEntity
  8
0
100
AcDbCircle
 62
7
  6
CONTINUOUS
 10
4.0601832192
 20
3.9138613014
 40
0.03
100
AcDbArc
 50
180.0
 51
270.0
  0
ARC
  5
273
100
AcDbEntity
  8
0
100
AcDbCircle
 62
7
  6
CONTINUOUS
 10
3.8669931004
 20
5.6221585373
 40
0.1321901188
100
AcDbArc
 50
0.0010871378
 51
7.4727933474
  0
ARC
  5
274
100
AcDbEntity
  8
0
100
AcDbCircle
 62
7
  6
CONTINUOUS
 10
3.4313654495
 20
5.6221590111
 40
0.1321822304
100
AcDbArc
 50
172.5276704809
 51
179.999118173
  0
ARC
  5
275
100
AcDbEntity
  8
0
100
AcDbCircle
 62
7
  6
CONTINUOUS
 10
3.8691832192
 20
5.6413613014
 40
0.13
100
AcDbArc
 50
0.0
 51
90.0
  0
ARC
  5
276
100
AcDbEntity
  8
0
100
AcDbCircle
 62
7
  6
CONTINUOUS
 10
3.4291832192
 20
5.6413613014
 40
0.13
100
AcDbArc
 50
90.0
 51
180.0
  0
ARC
  5
277
100
AcDbEntity
  8
0
100
AcDbCircle
 62
7
  6
CONTINUOUS
 10
3.3291832192
 20
4.5913613014
 40
0.03
100
AcDbArc
 50
90.0000000004
 51
180.0
  0
ARC
  5
278
100
AcDbEntity
  8
0
100
AcDbCircle
 62
7
  6
CONTINUOUS
 10
3.9691832192
 20
4.5913613014
 40
0.03
100
AcDbArc
 50
0.0000000002
 51
90.0
  0
ARC
  5
279
100
AcDbEntity
  8
0
100
AcDbCircle
 62
7
  6
CONTINUOUS
 10
4.0601832192
 20
4.8288613014
 40
0.03
100
AcDbArc
 50
90.0
 51
180.0
  0
ARC
  5
27A
100
AcDbEntity
  8
0
100
AcDbCircle
 62
7
  6
CONTINUOUS
 10
6.5501832192
 20
1.1109265188
 40
0.1254347826
100
AcDbArc
 50
22.9364108859
 51
70.4680059554
  0
ARC
  5
27B
100
AcDbEntity
  8
0
100
AcDbCircle
 62
7
  6
CONTINUOUS
 10
6.5501832192
 20
1.9213613014
 40
0.095
100
AcDbArc
 50
180.0
 51
270.0
  0
ARC
  5
27C
100
AcDbEntity
  8
0
100
AcDbCircle
 62
7
  6
CONTINUOUS
 10
6.5501832192
 20
2.4813613014
 40
0.095
100
AcDbArc
 50
90.0
 51
180.0
  0
ARC
  5
27D
100
AcDbEntity
  8
0
100
AcDbCircle
 62
7
  6
CONTINUOUS
 10
6.6131832192
 20
1.2885178116
 40
0.063
100
AcDbArc
 50
180.0
 51
250.4680059544
  0
ARC
  5
27E
100
AcDbEntity
  8
0
100
AcDbCircle
 62
7
  6
CONTINUOUS
 10
6.7237199588
 20
1.1843613014
 40
0.063
100
AcDbArc
 50
202.9364108859
 51
270.0
  0
ARC
  5
27F
100
AcDbEntity
  8
0
100
AcDbCircle
 62
7
  6
CONTINUOUS
 10
6.4001832192
 20
3.2763613014
 40
0.05
100
AcDbArc
 50
0.0
 51
90.0
  0
ARC
  5
280
100
AcDbEntity
  8
0
100
AcDbCircle
 62
7
  6
CONTINUOUS
 10
5.5551832192
 20
2.6203613014
 40
0.031
100
AcDbArc
 50
44.7546926505
 51
90.0
  0
ARC
  5
281
100
AcDbEntity
  8
0
100
AcDbCircle
 62
7
  6
CONTINUOUS
 10
5.4651832192
 20
2.6203613014
 40
0.031
100
AcDbArc
 50
90.0
 51
103.0407610339
  0
ARC
  5
282
100
AcDbEntity
  8
0
100
AcDbCircle
 62
7
  6
CONTINUOUS
 10
5.5551832192
 20
1.7823613014
 40
0.031
100
AcDbArc
 50
270.0
 51
315.2453073495
  0
ARC
  5
283
100
AcDbEntity
  8
0
100
AcDbCircle
 62
7
  6
CONTINUOUS
 10
5.4651832192
 20
1.7823613014
 40
0.031
100
AcDbArc
 50
256.9592389661
 51
270.0
  0
ARC
  5
284
100
AcDbEntity
  8
0
100
AcDbCircle
 62
7
  6
CONTINUOUS
 10
5.3291832192
 20
2.5888613014
 40
0.031
100
AcDbArc
 50
103.0407610339
 51
180.0
  0
ARC
  5
285
100
AcDbEntity
  8
0
100
AcDbCircle
 62
7
  6
CONTINUOUS
 10
5.3291832192
 20
1.8138613014
 40
0.031
100
AcDbArc
 50
180.0
 51
256.9592389661
  0
ARC
  5
286
100
AcDbEntity
  8
0
100
AcDbCircle
 62
7
  6
CONTINUOUS
 10
6.4801832192
 20
3.2763613014
 40
0.03
100
AcDbArc
 50
180.0
 51
270.0
  0
ARC
  5
287
100
AcDbEntity
  8
0
100
AcDbCircle
 62
7
  6
CONTINUOUS
 10
6.2301832192
 20
3.3563613014
 40
0.03
100
AcDbArc
 50
180.0
 51
270.0
  0
ARC
  5
288
100
AcDbEntity
  8
0
100
AcDbCircle
 62
7
  6
CONTINUOUS
 10
6.1601832192
 20
3.9138613014
 40
0.03
100
AcDbArc
 50
270.0
 51
360.0
  0
ARC
  5
289
100
AcDbEntity
  8
0
100
AcDbCircle
 62
7
  6
CONTINUOUS
 10
6.3821832192
 20
2.4253613014
 40
0.012
100
AcDbArc
 50
90.0
 51
180.0
  0
ARC
  5
28A
100
AcDbEntity
  8
0
100
AcDbCircle
 62
7
  6
CONTINUOUS
 10
6.3821832192
 20
1.9773613014
 40
0.012
100
AcDbArc
 50
180.0
 51
270.0
  0
ARC
  5
28B
100
AcDbEntity
  8
0
100
AcDbCircle
 62
7
  6
CONTINUOUS
 10
6.5501832192
 20
7.631796084
 40
0.1254347826
100
AcDbArc
 50
289.5319940446
 51
337.0635891141
  0
ARC
  5
28C
100
AcDbEntity
  8
0
100
AcDbCircle
 62
7
  6
CONTINUOUS
 10
6.6131832192
 20
7.4542047911
 40
0.063
100
AcDbArc
 50
109.5319940456
 51
180.0
  0
ARC
  5
28D
100
AcDbEntity
  8
0
100
AcDbCircle
 62
7
  6
CONTINUOUS
 10
6.7237199588
 20
7.5583613014
 40
0.063
100
AcDbArc
 50
90.0
 51
157.0635891141
  0
ARC
  5
28E
100
AcDbEntity
  8
0
100
AcDbCircle
 62
7
  6
CONTINUOUS
 10
6.4001832192
 20
5.4663613014
 40
0.05
100
AcDbArc
 50
270.0
 51
360.0
  0
ARC
  5
28F
100
AcDbEntity
  8
0
100
AcDbCircle
 62
7
  6
CONTINUOUS
 10
6.4801832192
 20
5.4663613014
 40
0.03
100
AcDbArc
 50
90.0
 51
180.0
  0
ARC
  5
290
100
AcDbEntity
  8
0
100
AcDbCircle
 62
7
  6
CONTINUOUS
 10
6.2301832192
 20
5.3863613014
 40
0.03
100
AcDbArc
 50
90.0
 51
180.0
  0
ARC
  5
291
100
AcDbEntity
  8
0
100
AcDbCircle
 62
7
  6
CONTINUOUS
 10
6.1601832192
 20
4.8288613014
 40
0.03
100
AcDbArc
 50
0.0
 51
90.0
  0
SPLINE
  5
292
100
AcDbEntity
  8
0
100
AcDbSpline
 62
7
  6
CONTINUOUS
 70
0
 71
3
 72
25
 73
21
 74
0
 42
0.0000001
 43
0.0000001
 44
0.0000000001
 40
0.0
 40
0.0
 40
0.0
 40
0.0
 40
0.1240606357
 40
0.247885348
 40
0.3097602182
 40
0.3716324306
 40
0.4335303159
 40
0.495485816
 40
0.5575342389
 40
0.6197237546
 40
0.6821187514
 40
0.7447919061
 40
0.8078378849
 40
0.8395615363
 40
0.8714177992
 40
0.8874016026
 40
0.9034212666
 40
0.9355328727
 40
0.9677404124
 40
1.0
 40
1.0
 40
1.0
 40
1.0
 10
3.3991832192
 20
5.5978524078
 30
0.0
 10
3.3991832183
 20
5.6010851539
 30
0.0
 10
3.3993062612
 20
5.6075454669
 30
0.0
 10
3.3998702843
 20
5.6156026561
 30
0.0
 10
3.4006472926
 20
5.6220082223
 30
0.0
 10
3.4014194661
 20
5.6267851817
 30
0.0
 10
3.4024102325
 20
5.6315242889
 30
0.0
 10
3.4036558913
 20
5.6362084146
 30
0.0
 10
3.4051992792
 20
5.640812244
 30
0.0
 10
3.4070920392
 20
5.6452980511
 30
0.0
 10
3.4093981232
 20
5.6496078911
 30
0.0
 10
3.4121889383
 20
5.6536523094
 30
0.0
 10
3.4149862923
 20
5.6566803186
 30
0.0
 10
3.4175318577
 20
5.6587865425
 30
0.0
 10
3.4192580337
 20
5.6599429107
 30
0.0
 10
3.4207148411
 20
5.6607489288
 30
0.0
 10
3.4222233984
 20
5.6614688484
 30
0.0
 10
3.4241949195
 20
5.6621917602
 30
0.0
 10
3.4266601997
 20
5.6627342221
 30
0.0
 10
3.4283426056
 20
5.6628577613
 30
0.0
 10
3.4291832192
 20
5.6628578245
 30
0.0
  0
SPLINE
  5
293
100
AcDbEntity
  8
0
100
AcDbSpline
 62
7
  6
CONTINUOUS
 70
0
 71
3
 72
29
 73
25
 74
0
 42
0.0000001
 43
0.0000001
 44
0.0000000001
 40
0.0
 40
0.0
 40
0.0
 40
0.0
 40
0.0322572469
 40
0.0644619343
 40
0.0965728444
 40
0.1125909527
 40
0.1285718153
 40
0.1445209133
 40
0.1604370139
 40
0.1921613601
 40
0.2237607501
 40
0.255250901
 40
0.3179175605
 40
0.3803101659
 40
0.4114304625
 40
0.4425064585
 40
0.4735475999
 40
0.5045585997
 40
0.5665088336
 40
0.628399478
 40
0.6902672419
 40
0.752138195
 40
0.8759498776
 40
1.0
 40
1.0
 40
1.0
 40
1.0
 10
3.4291832192
 20
3.0798647782
 30
0.0
 10
3.428342597
 20
3.0798649192
 30
0.0
 10
3.4266601604
 20
3.079988341
 30
0.0
 10
3.4241949894
 20
3.0805314569
 30
0.0
 10
3.4222232205
 20
3.0812537552
 30
0.0
 10
3.4207145794
 20
3.0819734729
 30
0.0
 10
3.4196208167
 20
3.0825792024
 30
0.0
 10
3.4185655719
 20
3.0832445649
 30
0.0
 10
3.4172121655
 20
3.0842019143
 30
0.0
 10
3.4156176135
 20
3.0855193972
 30
0.0
 10
3.4138600644
 20
3.0872602525
 30
0.0
 10
3.411722336
 20
3.0897480165
 30
0.0
 10
3.4093980469
 20
3.0931155522
 30
0.0
 10
3.4074741409
 20
3.0967099868
 30
0.0
 10
3.4061432611
 20
3.0996723371
 30
0.0
 10
3.405241264
 20
3.1019292195
 30
0.0
 10
3.4044266984
 20
3.10421591
 30
0.0
 10
3.4034478676
 20
3.1072961497
 30
0.0
 10
3.4024100844
 20
3.1111985448
 30
0.0
 10
3.4014195471
 20
3.1159375555
 30
0.0
 10
3.4006473675
 20
3.1207145296
 30
0.0
 10
3.3998700722
 20
3.1271200311
 30
0.0
 10
3.3993063679
 20
3.135177206
 30
0.0
 10
3.3991832293
 20
3.1416374309
 30
0.0
 10
3.3991832192
 20
3.1448701707
 30
0.0
  0
SPLINE
  5
294
100
AcDbEntity
  8
0
100
AcDbSpline
 62
7
  6
CONTINUOUS
 70
0
 71
3
 72
27
 73
23
 74
0
 42
0.0000001
 43
0.0000001
 44
0.0000000001
 40
0.0
 40
0.0
 40
0.0
 40
0.0
 40
0.0322576567
 40
0.0644618922
 40
0.0965732992
 40
0.1125913325
 40
0.1285727816
 40
0.144522301
 40
0.160437279
 40
0.1921600262
 40
0.2237611401
 40
0.2552542768
 40
0.3179217043
 40
0.3803141223
 40
0.4424997186
 40
0.5045433943
 40
0.5664944966
 40
0.6283890937
 40
0.6902581145
 40
0.7521297466
 40
0.8759466653
 40
1.0
 40
1.0
 40
1.0
 40
1.0
 10
3.8691832192
 20
5.6628578245
 30
0.0
 10
3.8700238321
 20
5.6628576628
 30
0.0
 10
3.8717062486
 20
5.6627342985
 30
0.0
 10
3.8741712527
 20
5.6621907026
 30
0.0
 10
3.8761430908
 20
5.6614688131
 30
0.0
 10
3.877651817
 20
5.6607492901
 30
0.0
 10
3.8787456056
 20
5.6601436173
 30
0.0
 10
3.8798008391
 20
5.6594782963
 30
0.0
 10
3.8811540768
 20
5.6585208659
 30
0.0
 10
3.8827480523
 20
5.6572028096
 30
0.0
 10
3.8845057906
 20
5.6554621758
 30
0.0
 10
3.8866446665
 20
5.6529753048
 30
0.0
 10
3.8889683949
 20
5.6496071558
 30
0.0
 10
3.8912745176
 20
5.6452982144
 30
0.0
 10
3.8931672681
 20
5.6408121795
 30
0.0
 10
3.8947104839
 20
5.6362084097
 30
0.0
 10
3.8959561328
 20
5.6315243067
 30
0.0
 10
3.8969468974
 20
5.6267852011
 30
0.0
 10
3.8977191618
 20
5.6220082227
 30
0.0
 10
3.8984961922
 20
5.6156026473
 30
0.0
 10
3.8990601609
 20
5.607545455
 30
0.0
 10
3.8991832191
 20
5.6010851547
 30
0.0
 10
3.8991832192
 20
5.5978524078
 30
0.0
  0
SPLINE
  5
295
100
AcDbEntity
  8
0
100
AcDbSpline
 62
7
  6
CONTINUOUS
 70
0
 71
3
 72
27
 73
23
 74
0
 42
0.0000001
 43
0.0000001
 44
0.0000000001
 40
0.0
 40
0.0
 40
0.0
 40
0.0
 40
0.1240535182
 40
0.2478705354
 40
0.3097419148
 40
0.3716112802
 40
0.4335066268
 40
0.4644754747
 40
0.4954638736
 40
0.5575077517
 40
0.619695322
 40
0.6820846
 40
0.7447569881
 40
0.7762477728
 40
0.8078460981
 40
0.8395712522
 40
0.8714262798
 40
0.8874076974
 40
0.9034258737
 40
0.9355368881
 40
0.9677422148
 40
1.0
 40
1.0
 40
1.0
 40
1.0
 10
3.8991832192
 20
3.1448701942
 30
0.0
 10
3.8991832189
 20
3.1416374525
 30
0.0
 10
3.899060177
 20
3.1351771604
 30
0.0
 10
3.8984961707
 20
3.1271200082
 30
0.0
 10
3.8977192446
 20
3.1207144138
 30
0.0
 10
3.8969469636
 20
3.1159374956
 30
0.0
 10
3.8961213659
 20
3.1119888
 30
0.0
 10
3.8953336989
 20
3.1088584628
 30
0.0
 10
3.89445418
 20
3.1057486973
 30
0.0
 10
3.8931673286
 20
3.101910345
 30
0.0
 10
3.8912739708
 20
3.0974247751
 30
0.0
 10
3.888969462
 20
3.0931147417
 30
0.0
 10
3.8866435593
 20
3.089748143
 30
0.0
 10
3.8845060699
 20
3.0872602476
 30
0.0
 10
3.8827487543
 20
3.0855190041
 30
0.0
 10
3.8808339571
 20
3.0839369105
 30
0.0
 10
3.8791081728
 20
3.082780094
 30
0.0
 10
3.8776516876
 20
3.0819735323
 30
0.0
 10
3.876143126
 20
3.0812536482
 30
0.0
 10
3.8741714492
 20
3.0805311921
 30
0.0
 10
3.8717062438
 20
3.0799883496
 30
0.0
 10
3.8700238329
 20
3.0798649112
 30
0.0
 10
3.8691832192
 20
3.0798647782
 30
0.0
  0
SPLINE
  5
296
100
AcDbEntity
  8
0
100
AcDbSpline
 62
7
  6
CONTINUOUS
 70
0
 71
3
 72
27
 73
23
 74
0
 42
0.0000001
 43
0.0000001
 44
0.0000000001
 40
0.0
 40
0.0
 40
0.0
 40
0.0
 40
0.0624999901
 40
0.1250091454
 40
0.1875164835
 40
0.2500190366
 40
0.3125231093
 40
0.3750262776
 40
0.4375274476
 40
0.5000254582
 40
0.5625214149
 40
0.6250139212
 40
0.6875011632
 40
0.7499831146
 40
0.812459297
 40
0.8437158234
 40
0.8749731401
 40
0.9062283451
 40
0.9374817831
 40
0.9531145079
 40
0.9687492693
 40
1.0
 40
1.0
 40
1.0
 40
1.0
 10
3.9291832192
 20
3.144870195
 30
0.0
 10
3.9291832182
 20
3.1424062142
 30
0.0
 10
3.9290829898
 20
3.1374771345
 30
0.0
 10
3.9285953966
 20
3.130097881
 30
0.0
 10
3.9277336762
 20
3.1227520015
 30
0.0
 10
3.9264589675
 20
3.115465856
 30
0.0
 10
3.9247323335
 20
3.1082725333
 30
0.0
 10
3.9225119709
 20
3.1012147853
 30
0.0
 10
3.9197605611
 20
3.0943454383
 30
0.0
 10
3.9164409161
 20
3.08773016
 30
0.0
 10
3.9125173314
 20
3.0814523195
 30
0.0
 10
3.9079732724
 20
3.0756050694
 30
0.0
 10
3.902792881
 20
3.0703099474
 30
0.0
 10
3.8970013288
 20
3.0656878847
 30
0.0
 10
3.8916920716
 20
3.062523314
 30
0.0
 10
3.8872095696
 20
3.0604679464
 30
0.0
 10
3.8837400202
 20
3.0591812756
 30
0.0
 10
3.8801817486
 20
3.0581659498
 30
0.0
 10
3.8771582796
 20
3.057557482
 30
0.0
 10
3.874717119
 20
3.0572129381
 30
0.0
 10
3.8722647049
 20
3.0569630184
 30
0.0
 10
3.8704152385
 20
3.0568852176
 30
0.0
 10
3.8691832192
 20
3.0568851955
 30
0.0
  0
SPLINE
  5
297
100
AcDbEntity
  8
0
100
AcDbSpline
 62
7
  6
CONTINUOUS
 70
0
 71
3
 72
31
 73
27
 74
0
 42
0.0000001
 43
0.0000001
 44
0.0000000001
 40
0.0
 40
0.0
 40
0.0
 40
0.0
 40
0.0312483519
 40
0.0468818993
 40
0.062513302
 40
0.0937643331
 40
0.1250175073
 40
0.1562719009
 40
0.1875260587
 40
0.2187812906
 40
0.2500356932
 40
0.2812896672
 40
0.3125457259
 40
0.3750285998
 40
0.4375159964
 40
0.5000070463
 40
0.5312621986
 40
0.5625168023
 40
0.5937711056
 40
0.6250242833
 40
0.6562795692
 40
0.687534385
 40
0.7500336075
 40
0.8125308463
 40
0.8750335748
 40
1.0
 40
1.0
 40
1.0
 40
1.0
 10
3.4291832192
 20
3.0568851955
 30
0.0
 10
3.4279511987
 20
3.0568852364
 30
0.0
 10
3.4261017329
 20
3.056963244
 30
0.0
 10
3.4236493577
 20
3.0572134849
 30
0.0
 10
3.4212082357
 20
3.0575582818
 30
0.0
 10
3.418184807
 20
3.0581668444
 30
0.0
 10
3.4146262661
 20
3.059181323
 30
0.0
 10
3.4111568677
 20
3.0604681383
 30
0.0
 10
3.4077942621
 20
3.0620120321
 30
0.0
 10
3.404550239
 20
3.0637910512
 30
0.0
 10
3.4014373326
 20
3.0657904759
 30
0.0
 10
3.3984684569
 20
3.0679980513
 30
0.0
 10
3.3947109678
 20
3.07119103
 30
0.0
 10
3.3903951468
 20
3.0756077109
 30
0.0
 10
3.3858446852
 20
3.0814491573
 30
0.0
 10
3.3825794696
 20
3.0866850387
 30
0.0
 10
3.3802661872
 20
3.0910381394
 30
0.0
 10
3.3786761627
 20
3.0943769069
 30
0.0
 10
3.3772287086
 20
3.0977796031
 30
0.0
 10
3.3759198826
 20
3.1012379346
 30
0.0
 10
3.3747443299
 20
3.1047437499
 30
0.0
 10
3.3733471476
 20
3.1094711985
 30
0.0
 10
3.3719067455
 20
3.1154659192
 30
0.0
 10
3.370631827
 20
3.1227520892
 30
0.0
 10
3.3694842235
 20
3.1325442858
 30
0.0
 10
3.3691832706
 20
3.1399431769
 30
0.0
 10
3.3691832192
 20
3.144870195
 30
0.0
  0
SPLINE
  5
298
100
AcDbEntity
  8
0
100
AcDbSpline
 62
7
  6
CONTINUOUS
 70
0
 71
3
 72
28
 73
24
 74
0
 42
0.0000001
 43
0.0000001
 44
0.0000000001
 40
0.0
 40
0.0
 40
0.0
 40
0.0
 40
0.0624923538
 40
0.1249860922
 40
0.1874793096
 40
0.2499733502
 40
0.3124671436
 40
0.3749612278
 40
0.437455419
 40
0.4687120046
 40
0.4999685691
 40
0.562463314
 40
0.5937198695
 40
0.6249763206
 40
0.6874713814
 40
0.7187279563
 40
0.7499843698
 40
0.7812410062
 40
0.8124979882
 40
0.8437548224
 40
0.8750104507
 40
0.9375062707
 40
1.0
 40
1.0
 40
1.0
 40
1.0
 10
3.4291832192
 20
3.0191409051
 30
0.0
 10
3.4258886118
 20
3.0191411603
 30
0.0
 10
3.4192947449
 20
3.0194742713
 30
0.0
 10
3.4095063166
 20
3.0209534502
 30
0.0
 10
3.3999139701
 20
3.0234055678
 30
0.0
 10
3.3906142771
 20
3.0268015826
 30
0.0
 10
3.3816989486
 20
3.031107095
 30
0.0
 10
3.3732546449
 20
3.0362744586
 30
0.0
 10
3.3666760023
 20
3.041255802
 30
0.0
 10
3.3617287804
 20
3.0456134861
 30
0.0
 10
3.3570023639
 20
3.0502094539
 30
0.0
 10
3.3526198617
 20
3.0551483617
 30
0.0
 10
3.3486175159
 20
3.0603869809
 30
0.0
 10
3.3448762583
 20
3.065815162
 30
0.0
 10
3.3415360388
 20
3.0715107788
 30
0.0
 10
3.3386227767
 20
3.0774245216
 30
0.0
 10
3.3366549375
 20
3.0819617829
 30
0.0
 10
3.3349091248
 20
3.0865888565
 30
0.0
 10
3.3333887938
 20
3.0912948745
 30
0.0
 10
3.3320972107
 20
3.0960687682
 30
0.0
 10
3.3306842366
 20
3.1025082217
 30
0.0
 10
3.3295022019
 20
3.110673474
 30
0.0
 10
3.3291834332
 20
3.1172668774
 30
0.0
 10
3.3291832192
 20
3.1205615572
 30
0.0
  0
SPLINE
  5
299
100
AcDbEntity
  8
0
100
AcDbSpline
 62
7
  6
CONTINUOUS
 70
0
 71
3
 72
25
 73
21
 74
0
 42
0.0000001
 43
0.0000001
 44
0.0000000001
 40
0.0
 40
0.0
 40
0.0
 40
0.0
 40
0.0624970651
 40
0.1249962043
 40
0.1874938309
 40
0.2499925522
 40
0.3124905703
 40
0.374988826
 40
0.4374867338
 40
0.499984507
 40
0.5624823862
 40
0.5937406901
 40
0.6249988516
 40
0.687496476
 40
0.7499935952
 40
0.7812518781
 40
0.8125104858
 40
0.8750070988
 40
0.9375042475
 40
1.0
 40
1.0
 40
1.0
 40
1.0
 10
3.9691832192
 20
3.1205615572
 30
0.0
 10
3.969182969
 20
3.1172668791
 30
0.0
 10
3.9688642561
 20
3.1106731931
 30
0.0
 10
3.9674463194
 20
3.1008767074
 30
0.0
 10
3.9650918863
 20
3.0912609393
 30
0.0
 10
3.9618225131
 20
3.0819168489
 30
0.0
 10
3.957664618
 20
3.0729325745
 30
0.0
 10
3.9526560415
 20
3.0643933408
 30
0.0
 10
3.946840896
 20
3.0563812144
 30
0.0
 10
3.9402703756
 20
3.0489763735
 30
0.0
 10
3.9342145178
 20
3.0433712031
 30
0.0
 10
3.9290587164
 20
3.0392624523
 30
0.0
 10
3.923705885
 20
3.0354138262
 30
0.0
 10
3.9166673756
 20
3.0311071839
 30
0.0
 10
3.9092368902
 20
3.0275185478
 30
0.0
 10
3.9031023489
 20
3.0251034317
 30
0.0
 10
3.8968551952
 20
3.0229970988
 30
0.0
 10
3.8888598046
 20
3.0209535625
 30
0.0
 10
3.879071782
 20
3.0194744664
 30
0.0
 10
3.8724778281
 20
3.0191411243
 30
0.0
 10
3.8691832192
 20
3.0191409051
 30
0.0
  0
SPLINE
  5
29A
100
AcDbEntity
  8
0
100
AcDbSpline
 62
7
  6
CONTINUOUS
 70
0
 71
3
 72
38
 73
34
 74
0
 42
0.0000001
 43
0.0000001
 44
0.0000000001
 40
0.0
 40
0.0
 40
0.0
 40
0.0
 40
0.000492438
 40
0.0010269597
 40
0.0016377092
 40
0.002347885
 40
0.0031723045
 40
0.004120418
 40
0.006409558
 40
0.0092459246
 40
0.0126430999
 40
0.0166078775
 40
0.0211437253
 40
0.0262520838
 40
0.0319324022
 40
0.0381831623
 40
0.045002393
 40
0.0603353124
 40
0.0779026412
 40
0.097669999
 40
0.119594672
 40
0.1436297369
 40
0.1697211676
 40
0.2278351949
 40
0.2934071599
 40
0.3658287554
 40
0.4444201219
 40
0.5284338467
 40
0.6170636726
 40
0.7094513649
 40
0.8046963714
 40
0.9018644468
 40
1.0
 40
1.0
 40
1.0
 40
1.0
 10
3.2991832192
 20
4.1513613014
 30
0.0
 10
3.2991832334
 20
4.1513398963
 30
0.0
 10
3.2991904254
 20
4.1512950254
 30
0.0
 10
3.2992214841
 20
4.1512301564
 30
0.0
 10
3.2992718097
 20
4.1511665027
 30
0.0
 10
3.2993410505
 20
4.1511035959
 30
0.0
 10
3.2994292354
 20
4.151041055
 30
0.0
 10
3.2995820892
 20
4.1509523449
 30
0.0
 10
3.2998239153
 20
4.1508448575
 30
0.0
 10
3.3001739488
 20
4.1507229315
 30
0.0
 10
3.3006004748
 20
4.1506014234
 30
0.0
 10
3.3011033894
 20
4.1504804183
 30
0.0
 10
3.3016826482
 20
4.1503600769
 30
0.0
 10
3.3023380006
 20
4.1502405026
 30
0.0
 10
3.3030691342
 20
4.1501218268
 30
0.0
 10
3.3038756574
 20
4.1500041639
 30
0.0
 10
3.3050996535
 20
4.1498424122
 30
0.0
 10
3.3068151257
 20
4.1496463468
 30
0.0
 10
3.3090937217
 20
4.1494241262
 30
0.0
 10
3.3116605015
 20
4.1492072674
 30
0.0
 10
3.3145097498
 20
4.1489963704
 30
0.0
 10
3.3176350094
 20
4.1487921155
 30
0.0
 10
3.3223320805
 20
4.1485192038
 30
0.0
 10
3.3288349978
 20
4.1482027686
 30
0.0
 10
3.337352751
 20
4.1478657529
 30
0.0
 10
3.3467624011
 20
4.147563363
 30
0.0
 10
3.3569750072
 20
4.1472959601
 30
0.0
 10
3.3678932473
 20
4.1470673843
 30
0.0
 10
3.3794120063
 20
4.146877911
 30
0.0
 10
3.3914195997
 20
4.1467294997
 30
0.0
 10
3.4037987791
 20
4.1466222348
 30
0.0
 10
3.4164281019
 20
4.1465573958
 30
0.0
 10
3.4249174982
 20
4.1465437771
 30
0.0
 10
3.4291832192
 20
4.1465437831
 30
0.0
  0
SPLINE
  5
29B
100
AcDbEntity
  8
0
100
AcDbSpline
 62
7
  6
CONTINUOUS
 70
0
 71
3
 72
26
 73
22
 74
0
 42
0.0000001
 43
0.0000001
 44
0.0000000001
 40
0.0
 40
0.0
 40
0.0
 40
0.0
 40
0.1249818597
 40
0.249947143
 40
0.3124537768
 40
0.3749601751
 40
0.4374632904
 40
0.4999646179
 40
0.5624630668
 40
0.6249579186
 40
0.6874483195
 40
0.7499330599
 40
0.7811921721
 40
0.812449661
 40
0.8437077682
 40
0.8749671485
 40
0.9062234632
 40
0.937478505
 40
0.9531121658
 40
0.9687477715
 40
1.0
 40
1.0
 40
1.0
 40
1.0
 10
3.3691832192
 20
5.5978524078
 30
0.0
 10
3.3691832163
 20
5.6027794491
 30
0.0
 10
3.3695837224
 20
5.6126393169
 30
0.0
 10
3.3713326503
 20
5.6248612085
 30
0.0
 10
3.3736342893
 20
5.6344499645
 30
0.0
 10
3.3758535531
 20
5.6415081732
 30
0.0
 10
3.3786056635
 20
5.6483773416
 30
0.0
 10
3.381927036
 20
5.6549915991
 30
0.0
 10
3.3858478091
 20
5.6612713147
 30
0.0
 10
3.3903953266
 20
5.6671159492
 30
0.0
 10
3.3955712447
 20
5.6724146197
 30
0.0
 10
3.4004037734
 20
5.6762637464
 30
0.0
 10
3.4045496318
 20
5.6789334669
 30
0.0
 10
3.4077927758
 20
5.6807145776
 30
0.0
 10
3.411156662
 20
5.68225571
 30
0.0
 10
3.4146262347
 20
5.6835419224
 30
0.0
 10
3.418184506
 20
5.6845575103
 30
0.0
 10
3.4212080205
 20
5.6851658306
 30
0.0
 10
3.4236492364
 20
5.6855102075
 30
0.0
 10
3.4261017056
 20
5.6857598637
 30
0.0
 10
3.4279511922
 20
5.6858374428
 30
0.0
 10
3.4291832192
 20
5.6858374073
 30
0.0
  0
SPLINE
  5
29C
100
AcDbEntity
  8
0
100
AcDbSpline
 62
7
  6
CONTINUOUS
 70
0
 71
3
 72
28
 73
24
 74
0
 42
0.0000001
 43
0.0000001
 44
0.0000000001
 40
0.0
 40
0.0
 40
0.0
 40
0.0
 40
0.0312509129
 40
0.0468856406
 40
0.0625180068
 40
0.0937714646
 40
0.1250275409
 40
0.1406590694
 40
0.1562895494
 40
0.1875464227
 40
0.2188042879
 40
0.2500609558
 40
0.2813176532
 40
0.3125760559
 40
0.3750640292
 40
0.4375566334
 40
0.5000530553
 40
0.5625521605
 40
0.625052957
 40
0.6875571222
 40
0.7500615787
 40
0.8750224243
 40
1.0
 40
1.0
 40
1.0
 40
1.0
 10
3.8691832192
 20
5.6858374073
 30
0.0
 10
3.8704152318
 20
5.6858373839
 30
0.0
 10
3.872264685
 20
5.6857590632
 30
0.0
 10
3.8747169629
 20
5.6855082307
 30
0.0
 10
3.8771579774
 20
5.6851628551
 30
0.0
 10
3.8801812108
 20
5.6845540285
 30
0.0
 10
3.8831473603
 20
5.6837099488
 30
0.0
 10
3.8854752133
 20
5.6828985929
 30
0.0
 10
3.8877699768
 20
5.6819977759
 30
0.0
 10
3.8905719782
 20
5.6807100184
 30
0.0
 10
3.8938155347
 20
5.6789304307
 30
0.0
 10
3.8969286485
 20
5.6769313893
 30
0.0
 10
3.8998984004
 20
5.6747250891
 30
0.0
 10
3.9036569527
 20
5.6715333464
 30
0.0
 10
3.907971333
 20
5.6671151424
 30
0.0
 10
3.9125191086
 20
5.6612715823
 30
0.0
 10
3.9164395141
 20
5.6549914229
 30
0.0
 10
3.9197603626
 20
5.6483770081
 30
0.0
 10
3.9225122618
 20
5.6415077968
 30
0.0
 10
3.9247317518
 20
5.6344497167
 30
0.0
 10
3.9270339649
 20
5.6248611377
 30
0.0
 10
3.928782579
 20
5.6126392349
 30
0.0
 10
3.9291832187
 20
5.6027794304
 30
0.0
 10
3.9291832192
 20
5.5978524078
 30
0.0
  0
SPLINE
  5
29D
100
AcDbEntity
  8
0
100
AcDbSpline
 62
7
  6
CONTINUOUS
 70
0
 71
3
 72
25
 73
21
 74
0
 42
0.0000001
 43
0.0000001
 44
0.0000000001
 40
0.0
 40
0.0
 40
0.0
 40
0.0
 40
0.0624970625
 40
0.124996176
 40
0.1874938392
 40
0.2499925273
 40
0.3124906614
 40
0.3749888043
 40
0.4374869165
 40
0.46874516
 40
0.5000033689
 40
0.5625014612
 40
0.5937597483
 40
0.6250178598
 40
0.6875156112
 40
0.7500127322
 40
0.8125102315
 40
0.8750068981
 40
0.9375041554
 40
1.0
 40
1.0
 40
1.0
 40
1.0
 10
3.9691832192
 20
5.6221610455
 30
0.0
 10
3.9691829541
 20
5.6254557216
 30
0.0
 10
3.9688641457
 20
5.6320494006
 30
0.0
 10
3.9674461567
 20
5.6418458601
 30
0.0
 10
3.9650919408
 20
5.6514616861
 30
0.0
 10
3.9618224417
 20
5.6608057058
 30
0.0
 10
3.9576647307
 20
5.6697901553
 30
0.0
 10
3.9526560357
 20
5.67832896
 30
0.0
 10
3.9478091222
 20
5.6850069
 30
0.0
 10
3.9435557628
 20
5.6900441123
 30
0.0
 10
3.9390602206
 20
5.694866108
 30
0.0
 10
3.9342143018
 20
5.6993513687
 30
0.0
 10
3.9290588202
 20
5.70346026
 30
0.0
 10
3.9237059967
 20
5.7073089093
 30
0.0
 10
3.9166670483
 20
5.711615413
 30
0.0
 10
3.9077523446
 20
5.7159211246
 30
0.0
 10
3.8984525587
 20
5.7193173256
 30
0.0
 10
3.8888601392
 20
5.7217690741
 30
0.0
 10
3.8790717082
 20
5.7232482616
 30
0.0
 10
3.872477831
 20
5.7235815061
 30
0.0
 10
3.8691832192
 20
5.7235816976
 30
0.0
  0
SPLINE
  5
29E
100
AcDbEntity
  8
0
100
AcDbSpline
 62
7
  6
CONTINUOUS
 70
0
 71
3
 72
38
 73
34
 74
0
 42
0.0000001
 43
0.0000001
 44
0.0000000001
 40
0.0
 40
0.0
 40
0.0
 40
0.0
 40
0.0004924205
 40
0.0010269275
 40
0.0016376664
 40
0.0023478357
 40
0.0031722523
 40
0.0041203656
 40
0.0064095111
 40
0.0092458864
 40
0.0126430704
 40
0.0166078551
 40
0.0211437074
 40
0.0262520683
 40
0.0319323876
 40
0.0381831475
 40
0.045002377
 40
0.0603352932
 40
0.0779026218
 40
0.0976699847
 40
0.1195946606
 40
0.1436297198
 40
0.1697211474
 40
0.2278351926
 40
0.2934071475
 40
0.3658287536
 40
0.444420125
 40
0.528433841
 40
0.6170636774
 40
0.7094513644
 40
0.8046963645
 40
0.9018644403
 40
1.0
 40
1.0
 40
1.0
 40
1.0
 10
3.2991832192
 20
4.5913613014
 30
0.0
 10
3.2991832331
 20
4.5913827057
 30
0.0
 10
3.2991904247
 20
4.5914275753
 30
0.0
 10
3.2992214832
 20
4.5914924424
 30
0.0
 10
3.2992718087
 20
4.5915560944
 30
0.0
 10
3.2993410496
 20
4.5916189998
 30
0.0
 10
3.2994292347
 20
4.5916815396
 30
0.0
 10
3.299582089
 20
4.591770249
 30
0.0
 10
3.2998239155
 20
4.5918777368
 30
0.0
 10
3.3001739491
 20
4.5919996654
 30
0.0
 10
3.3006004751
 20
4.5921211773
 30
0.0
 10
3.3011033897
 20
4.5922421863
 30
0.0
 10
3.3016826485
 20
4.5923625309
 30
0.0
 10
3.3023380009
 20
4.5924821066
 30
0.0
 10
3.3030691347
 20
4.5926007824
 30
0.0
 10
3.3038756579
 20
4.5927184443
 30
0.0
 10
3.3050996542
 20
4.5928801936
 30
0.0
 10
3.3068151265
 20
4.5930762551
 30
0.0
 10
3.3090937227
 20
4.5932984739
 30
0.0
 10
3.3116605023
 20
4.5935153378
 30
0.0
 10
3.3145097505
 20
4.5937262378
 30
0.0
 10
3.3176350104
 20
4.593930483
 30
0.0
 10
3.3223320822
 20
4.5942033849
 30
0.0
 10
3.3288349977
 20
4.594519859
 30
0.0
 10
3.3373527534
 20
4.59485683
 30
0.0
 10
3.3467624025
 20
4.5951592438
 30
0.0
 10
3.3569750087
 20
4.5954266503
 30
0.0
 10
3.3678932495
 20
4.5956551913
 30
0.0
 10
3.3794120072
 20
4.5958447184
 30
0.0
 10
3.3914196005
 20
4.5959931112
 30
0.0
 10
3.4037987792
 20
4.5961003631
 30
0.0
 10
3.4164281016
 20
4.5961652038
 30
0.0
 10
3.424917498
 20
4.5961788268
 30
0.0
 10
3.4291832192
 20
4.5961788196
 30
0.0
  0
SPLINE
  5
29F
100
AcDbEntity
  8
0
100
AcDbSpline
 62
7
  6
CONTINUOUS
 70
0
 71
3
 72
29
 73
25
 74
0
 42
0.0000001
 43
0.0000001
 44
0.0000000001
 40
0.0
 40
0.0
 40
0.0
 40
0.0
 40
0.0624911588
 40
0.1249836852
 40
0.1874757431
 40
0.2499685734
 40
0.3124612753
 40
0.3749540825
 40
0.437447254
 40
0.4687031581
 40
0.4999590994
 40
0.5624528455
 40
0.5937087648
 40
0.624964606
 40
0.6562208052
 40
0.6874770043
 40
0.7187329855
 40
0.7499888094
 40
0.7812448801
 40
0.8125013033
 40
0.8437575726
 40
0.875012633
 40
0.937507372
 40
1.0
 40
1.0
 40
1.0
 40
1.0
 10
3.4291832192
 20
5.7235816976
 30
0.0
 10
3.4258886141
 20
5.7235814274
 30
0.0
 10
3.4192947544
 20
5.7232482209
 30
0.0
 10
3.4095063524
 20
5.7217689951
 30
0.0
 10
3.3999139433
 20
5.719317111
 30
0.0
 10
3.3906143337
 20
5.715920891
 30
0.0
 10
3.3816988412
 20
5.7116157147
 30
0.0
 10
3.3732548085
 20
5.7064478891
 30
0.0
 10
3.3666760238
 20
5.7014667831
 30
0.0
 10
3.3617286672
 20
5.6971092372
 30
0.0
 10
3.3570024619
 20
5.6925130637
 30
0.0
 10
3.3526199178
 20
5.6875741233
 30
0.0
 10
3.3486174349
 20
5.6823358062
 30
0.0
 10
3.3458108784
 20
5.6782636115
 30
0.0
 10
3.3432061065
 20
5.6740596931
 30
0.0
 10
3.3408082929
 20
5.6697343426
 30
0.0
 10
3.3386227526
 20
5.665297982
 30
0.0
 10
3.3366549616
 20
5.660760842
 30
0.0
 10
3.3349091009
 20
5.6561337491
 30
0.0
 10
3.333388742
 20
5.6514277475
 30
0.0
 10
3.3320971239
 20
5.6466538587
 30
0.0
 10
3.3306841271
 20
5.6402144058
 30
0.0
 10
3.329502104
 20
5.6320491418
 30
0.0
 10
3.3291834053
 20
5.6254557281
 30
0.0
 10
3.3291832192
 20
5.6221610455
 30
0.0
  0
SPLINE
  5
2A0
100
AcDbEntity
  8
0
100
AcDbSpline
 62
7
  6
CONTINUOUS
 70
0
 71
3
 72
38
 73
34
 74
0
 42
0.0000001
 43
0.0000001
 44
0.0000000001
 40
0.0
 40
0.0
 40
0.0
 40
0.0
 40
0.0981355757
 40
0.1953036516
 40
0.2905486079
 40
0.3829362655
 40
0.4715660855
 40
0.5555797192
 40
0.6341710871
 40
0.7065927306
 40
0.7721645985
 40
0.830278765
 40
0.8563701911
 40
0.8804052148
 40
0.9023298693
 40
0.9220972344
 40
0.9396645848
 40
0.9549975263
 40
0.9618167616
 40
0.9680675194
 40
0.9737478283
 40
0.9788561695
 40
0.9833919925
 40
0.9873567443
 40
0.9907539011
 40
0.9935902653
 40
0.9958794217
 40
0.9968275468
 40
0.9976519793
 40
0.9983621705
 40
0.9989729419
 40
0.9995075
 40
1.0
 40
1.0
 40
1.0
 40
1.0
 10
3.8691832192
 20
4.1465437831
 30
0.0
 10
3.8734489416
 20
4.146543774
 30
0.0
 10
3.88193834
 20
4.1465574395
 30
0.0
 10
3.8945676628
 20
4.1466223021
 30
0.0
 10
3.9069468411
 20
4.1467294433
 30
0.0
 10
3.9189544325
 20
4.1468778364
 30
0.0
 10
3.9304731844
 20
4.1470674697
 30
0.0
 10
3.9413914251
 20
4.1472958667
 30
0.0
 10
3.9516040308
 20
4.1475632992
 30
0.0
 10
3.9610136723
 20
4.1478658884
 30
0.0
 10
3.9695314442
 20
4.148202576
 30
0.0
 10
3.9760343502
 20
4.1485193017
 30
0.0
 10
3.9807314272
 20
4.148792184
 30
0.0
 10
3.9838566884
 20
4.148996377
 30
0.0
 10
3.9867059367
 20
4.1492072496
 30
0.0
 10
3.9892727171
 20
4.1494241111
 30
0.0
 10
3.9915513136
 20
4.1496463539
 30
0.0
 10
3.9932667859
 20
4.1498424377
 30
0.0
 10
3.9944907828
 20
4.1500041926
 30
0.0
 10
3.995297306
 20
4.1501218535
 30
0.0
 10
3.9960284393
 20
4.1502405241
 30
0.0
 10
3.9966837907
 20
4.1503600911
 30
0.0
 10
3.9972630483
 20
4.1504804242
 30
0.0
 10
3.997765962
 20
4.1506014208
 30
0.0
 10
3.9981924882
 20
4.1507229209
 30
0.0
 10
3.9985425238
 20
4.1508448402
 30
0.0
 10
3.9987843532
 20
4.1509523231
 30
0.0
 10
3.9989372099
 20
4.1510410319
 30
0.0
 10
3.9990253965
 20
4.1511035734
 30
0.0
 10
3.9990946382
 20
4.1511664827
 30
0.0
 10
3.9991449633
 20
4.1512301411
 30
0.0
 10
3.9991760194
 20
4.1512950176
 30
0.0
 10
3.9991832072
 20
4.1513398936
 30
0.0
 10
3.9991832192
 20
4.1513613014
 30
0.0
  0
SPLINE
  5
2A1
100
AcDbEntity
  8
0
100
AcDbSpline
 62
7
  6
CONTINUOUS
 70
0
 71
3
 72
38
 73
34
 74
0
 42
0.0000001
 43
0.0000001
 44
0.0000000001
 40
0.0
 40
0.0
 40
0.0
 40
0.0
 40
0.0981355865
 40
0.1953036718
 40
0.2905486249
 40
0.3829362893
 40
0.4715661094
 40
0.55557975
 40
0.6341711235
 40
0.7065927604
 40
0.7721646434
 40
0.8302787909
 40
0.8563702212
 40
0.8804052534
 40
0.9023299086
 40
0.9220972681
 40
0.9396646108
 40
0.9549975462
 40
0.9618167807
 40
0.9680675397
 40
0.9737478518
 40
0.9788561985
 40
0.9833920283
 40
0.987356786
 40
0.9907539452
 40
0.9935903061
 40
0.9958794539
 40
0.9968275747
 40
0.9976520036
 40
0.998362192
 40
0.9989729605
 40
0.9995075128
 40
1.0
 40
1.0
 40
1.0
 40
1.0
 10
3.8691832192
 20
4.5961788196
 30
0.0
 10
3.873448942
 20
4.5961788287
 30
0.0
 10
3.8819383409
 20
4.5961651474
 30
0.0
 10
3.8945676639
 20
4.5961002721
 30
0.0
 10
3.9069468428
 20
4.5959931792
 30
0.0
 10
3.9189544337
 20
4.5958447602
 30
0.0
 10
3.9304731861
 20
4.595655145
 30
0.0
 10
3.9413914269
 20
4.5954267356
 30
0.0
 10
3.9516040319
 20
4.595159286
 30
0.0
 10
3.961013675
 20
4.5948567322
 30
0.0
 10
3.9695314442
 20
4.594519997
 30
0.0
 10
3.9760343522
 20
4.5942033177
 30
0.0
 10
3.9807314282
 20
4.5939304251
 30
0.0
 10
3.9838566891
 20
4.5937262195
 30
0.0
 10
3.9867059373
 20
4.593515345
 30
0.0
 10
3.9892727175
 20
4.5932984881
 30
0.0
 10
3.9915513138
 20
4.593076253
 30
0.0
 10
3.9932667859
 20
4.5928801739
 30
0.0
 10
3.9944907825
 20
4.5927184188
 30
0.0
 10
3.9952973057
 20
4.5926007564
 30
0.0
 10
3.996028439
 20
4.5924820836
 30
0.0
 10
3.9966837907
 20
4.5923625143
 30
0.0
 10
3.9972630487
 20
4.5922421795
 30
0.0
 10
3.9977659627
 20
4.5921211816
 30
0.0
 10
3.9981924888
 20
4.5919996803
 30
0.0
 10
3.9985425236
 20
4.5918777599
 30
0.0
 10
3.9987843517
 20
4.5917702759
 30
0.0
 10
3.9989372072
 20
4.5916815665
 30
0.0
 10
3.9990253932
 20
4.5916190248
 30
0.0
 10
3.9990946345
 20
4.5915561159
 30
0.0
 10
3.9991449599
 20
4.5914924583
 30
0.0
 10
3.9991760169
 20
4.5914275835
 30
0.0
 10
3.9991832063
 20
4.5913827086
 30
0.0
 10
3.9991832192
 20
4.5913613014
 30
0.0
  0
SPLINE
  5
2A2
100
AcDbEntity
  8
0
100
AcDbSpline
 62
7
  6
CONTINUOUS
 70
0
 71
3
 72
29
 73
25
 74
0
 42
0.0000001
 43
0.0000001
 44
0.0000000001
 40
0.0
 40
0.0
 40
0.0
 40
0.0
 40
0.0312411425
 40
0.0624828067
 40
0.0937260656
 40
0.1249702626
 40
0.1874452298
 40
0.2499238759
 40
0.2811724653
 40
0.3124220448
 40
0.3749085825
 40
0.4373990528
 40
0.4998934617
 40
0.5623915747
 40
0.6248931735
 40
0.6561531763
 40
0.6874139369
 40
0.7186753645
 40
0.7499373481
 40
0.8124471551
 40
0.8749579966
 40
0.9062213412
 40
0.9374875763
 40
1.0
 40
1.0
 40
1.0
 40
1.0
 10
3.9980602262
 20
3.1033700019
 30
0.0
 10
3.9978058622
 20
3.1014316113
 30
0.0
 10
3.9972109624
 20
3.0975655374
 30
0.0
 10
3.9960619167
 20
3.0918121523
 30
0.0
 10
3.9946582813
 20
3.0861150923
 30
0.0
 10
3.9924512985
 20
3.0786108553
 30
0.0
 10
3.9890691568
 20
3.0694253831
 30
0.0
 10
3.9848821372
 20
3.0605774623
 30
0.0
 10
3.9810699406
 20
3.0537460681
 30
0.0
 10
3.9769562465
 20
3.047091359
 30
0.0
 10
3.9712611084
 20
3.0391276313
 30
0.0
 10
3.9635993541
 20
3.0302231951
 30
0.0
 10
3.9551682592
 20
3.0220414798
 30
0.0
 10
3.9460351905
 20
3.0146513018
 30
0.0
 10
3.9378978909
 20
3.0092027894
 30
0.0
 10
3.9311150489
 20
3.0052993424
 30
0.0
 10
3.9258993855
 20
3.002604357
 30
0.0
 10
3.9205669564
 20
3.0001482078
 30
0.0
 10
3.9133171335
 20
2.9971994271
 30
0.0
 10
3.9040147906
 20
2.9941346501
 30
0.0
 10
3.8944726904
 20
2.9919267974
 30
0.0
 10
3.8867444083
 20
2.9906860182
 30
0.0
 10
3.8789681821
 20
2.9897977386
 30
0.0
 10
3.8730951227
 20
2.9895303238
 30
0.0
 10
3.8691832192
 20
2.9895302395
 30
0.0
  0
SPLINE
  5
2A3
100
AcDbEntity
  8
0
100
AcDbSpline
 62
7
  6
CONTINUOUS
 70
0
 71
3
 72
29
 73
25
 74
0
 42
0.0000001
 43
0.0000001
 44
0.0000000001
 40
0.0
 40
0.0
 40
0.0
 40
0.0
 40
0.062512442
 40
0.0937786846
 40
0.1250420313
 40
0.1875528666
 40
0.2500626595
 40
0.2813246319
 40
0.3125860444
 40
0.3438467895
 40
0.3751067828
 40
0.4376083695
 40
0.5001064631
 40
0.5626008664
 40
0.625091354
 40
0.687577876
 40
0.718827468
 40
0.7500760778
 40
0.8125547476
 40
0.8750297215
 40
0.9062739233
 40
0.9375171876
 40
0.9687588555
 40
1.0
 40
1.0
 40
1.0
 40
1.0
 10
3.4291832192
 20
2.9895302395
 30
0.0
 10
3.4252712057
 20
2.9895303428
 30
0.0
 10
3.4193979814
 20
2.989797751
 30
0.0
 10
3.4116215382
 20
2.9906860714
 30
0.0
 10
3.403893047
 20
2.9919269244
 30
0.0
 10
3.394350698
 20
2.9941349102
 30
0.0
 10
3.3850481273
 20
2.9971998613
 30
0.0
 10
3.3777981346
 20
3.0001487958
 30
0.0
 10
3.372465585
 20
3.0026050677
 30
0.0
 10
3.3672498124
 20
3.0053001929
 30
0.0
 10
3.3604668446
 20
3.0092038539
 30
0.0
 10
3.3523294162
 20
3.0146526594
 30
0.0
 10
3.3431962207
 20
3.0220431971
 30
0.0
 10
3.3347650626
 20
3.0302253191
 30
0.0
 10
3.3271033236
 20
3.0391301992
 30
0.0
 10
3.3214082107
 20
3.0470942815
 30
0.0
 10
3.317294592
 20
3.053749295
 30
0.0
 10
3.3134824932
 20
3.0605809971
 30
0.0
 10
3.3092956295
 20
3.0694292972
 30
0.0
 10
3.3059136983
 20
3.0786151403
 30
0.0
 10
3.3037069178
 20
3.0861196648
 30
0.0
 10
3.3023034511
 20
3.0918169355
 30
0.0
 10
3.3011545931
 20
3.0975705255
 30
0.0
 10
3.3005598294
 20
3.1014367309
 30
0.0
 10
3.3003055349
 20
3.1033751856
 30
0.0
  0
SPLINE
  5
2A4
100
AcDbEntity
  8
0
100
AcDbSpline
 62
7
  6
CONTINUOUS
 70
0
 71
3
 72
29
 73
25
 74
0
 42
0.0000001
 43
0.0000001
 44
0.0000000001
 40
0.0
 40
0.0
 40
0.0
 40
0.0
 40
0.0312411416
 40
0.0624828043
 40
0.0937260593
 40
0.1249702508
 40
0.1874452095
 40
0.2499238482
 40
0.2811724267
 40
0.3124219983
 40
0.3749085444
 40
0.4373990062
 40
0.4998934056
 40
0.5623915218
 40
0.6248931173
 40
0.6561531214
 40
0.6874138896
 40
0.7186753254
 40
0.7499373145
 40
0.8124471343
 40
0.8749579845
 40
0.9062213329
 40
0.9374875745
 40
1.0
 40
1.0
 40
1.0
 40
1.0
 10
3.9980604928
 20
5.6393505754
 30
0.0
 10
3.9978061561
 20
5.6412889909
 30
0.0
 10
3.9972113082
 20
5.6451551158
 30
0.0
 10
3.9960623345
 20
5.65090858
 30
0.0
 10
3.9946587656
 20
5.6566057214
 30
0.0
 10
3.9924518625
 20
5.6641100695
 30
0.0
 10
3.9890698041
 20
5.6732956845
 30
0.0
 10
3.9848828508
 20
5.682143753
 30
0.0
 10
3.9810706874
 20
5.6889752616
 30
0.0
 10
3.976957018
 20
5.695630085
 30
0.0
 10
3.9712619122
 20
5.7035939664
 30
0.0
 10
3.9636001524
 20
5.7124985671
 30
0.0
 10
3.9551690292
 20
5.720680435
 30
0.0
 10
3.946035925
 20
5.7280707715
 30
0.0
 10
3.9378985695
 20
5.7335193939
 30
0.0
 10
3.9311156712
 20
5.7374229145
 30
0.0
 10
3.9258999654
 20
5.7401179589
 30
0.0
 10
3.9205674915
 20
5.742574167
 30
0.0
 10
3.9133176009
 20
5.7455230121
 30
0.0
 10
3.9040151645
 20
5.7485878513
 30
0.0
 10
3.8944729657
 20
5.7507957594
 30
0.0
 10
3.8867445996
 20
5.752036561
 30
0.0
 10
3.8789682896
 20
5.752924861
 30
0.0
 10
3.8730951653
 20
5.7531922919
 30
0.0
 10
3.8691832192
 20
5.7531923632
 30
0.0
  0
SPLINE
  5
2A5
100
AcDbEntity
  8
0
100
AcDbSpline
 62
7
  6
CONTINUOUS
 70
0
 71
3
 72
29
 73
25
 74
0
 42
0.0000001
 43
0.0000001
 44
0.0000000001
 40
0.0
 40
0.0
 40
0.0
 40
0.0
 40
0.0625124382
 40
0.0937786758
 40
0.1250420201
 40
0.1875528507
 40
0.2500626366
 40
0.2813246062
 40
0.3125860137
 40
0.3438467532
 40
0.375106744
 40
0.4376083319
 40
0.5001064223
 40
0.5626008157
 40
0.6250913095
 40
0.6875778179
 40
0.7188274134
 40
0.750076032
 40
0.8125547171
 40
0.8750297007
 40
0.9062739092
 40
0.9375171806
 40
0.9687588525
 40
1.0
 40
1.0
 40
1.0
 40
1.0
 10
3.4291832192
 20
5.7531923632
 30
0.0
 10
3.4252712384
 20
5.7531922533
 30
0.0
 10
3.4193980638
 20
5.7529248535
 30
0.0
 10
3.4116216849
 20
5.7520365469
 30
0.0
 10
3.4038932575
 20
5.7507957118
 30
0.0
 10
3.3943509827
 20
5.7485877716
 30
0.0
 10
3.385048483
 20
5.7455228675
 30
0.0
 10
3.3777985424
 20
5.7425739802
 30
0.0
 10
3.3724660273
 20
5.740117752
 30
0.0
 10
3.367250287
 20
5.7374226724
 30
0.0
 10
3.3604673593
 20
5.7335190726
 30
0.0
 10
3.3523299787
 20
5.728070343
 30
0.0
 10
3.3431968149
 20
5.7206799237
 30
0.0
 10
3.3347656675
 20
5.7124979308
 30
0.0
 10
3.3271039416
 20
5.7035931703
 30
0.0
 10
3.3214088015
 20
5.6956292082
 30
0.0
 10
3.3172951628
 20
5.6889742833
 30
0.0
 10
3.3134830379
 20
5.6821426683
 30
0.0
 10
3.3092961262
 20
5.6732944789
 30
0.0
 10
3.3059141293
 20
5.6641087447
 30
0.0
 10
3.3037072869
 20
5.6566043045
 30
0.0
 10
3.3023037693
 20
5.6509070954
 30
0.0
 10
3.3011548575
 20
5.645153565
 30
0.0
 10
3.3005600549
 20
5.641287398
 30
0.0
 10
3.3003057395
 20
5.6393489623
 30
0.0
  0
ENDSEC
  0
SECTION
  2
OBJECTS
  0
DICTIONARY
  5
C
100
AcDbDictionary
280
0
281
1
  3
ACAD_GROUP
350
D
  3
ACAD_MLINESTYLE
350
17
  3
ACAD_LAYOUT
350
1A
  3
ACAD_PLOTSETTINGS
350
19
  3
ACAD_PLOTSTYLENAME
350
E
  0
DICTIONARY
  5
D
102
{ACAD_REACTORS
330
C
102
}
100
AcDbDictionary
280
0
281
1
  0
ACDBDICTIONARYWDFLT
  5
E
102
{ACAD_REACTORS
330
C
102
}
100
AcDbDictionary
281
1
  3
Normal
350
F
100
AcDbDictionaryWithDefault
340
F
  0
DICTIONARY
  5
17
102
{ACAD_REACTORS
330
C
102
}
100
AcDbDictionary
280
0
281
1
  3
Standard
350
18
  0
DICTIONARY
  5
19
102
{ACAD_REACTORS
330
C
102
}
100
AcDbDictionary
281
1
  0
DICTIONARY
  5
1A
102
{ACAD_REACTORS
330
C
102
}
100
AcDbDictionary
281
1
  3
Model
350
2A6
  3
Layout1
350
2A7
  0
ACDBPLACEHOLDER
  5
F
102
{ACAD_REACTORS
330
E
102
}
  0
MLINESTYLE
  5
18
102
{ACAD_REACTORS
330
17
102
}
100
AcDbMlineStyle
  2
STANDARD
 70
0
  3

 62
256
 51
90.0
 52
90.0
 71
2
 49
0.5
 62
256
  6
BYLAYER
 49
-0.5
 62
256
  6
BYLAYER
  0
LAYOUT
  5
2A6
102
{ACAD_REACTORS
330
1A
102
}
100
AcDbPlotSettings
  1

  2
none_device
  4
ANSI_A_(11.00_x_8.50_Inches)
  6

 40
0.0
 41
0.0
 42
0.0
 43
0.0
 44
279.4
 45
215.9
 46
0.0
 47
0.0
 48
0.0
 49
0.0
140
0.0
141
0.0
142
1.0
143
1.0
 70
1024
 72
0
 73
0
 74
0
  7

 75
0
147
1.0
148
0.0
149
0.0
100
AcDbLayout
  1
Model
 70
0
 71
0
 10
0.0
 20
0.0
 11
11.0
 21
8.5
 12
0.0
 22
0.0
 32
0.0
 14
0.0
 24
0.0
 34
0.0
 15
0.0
 25
0.0
 35
0.0
146
0.0
 13
0.0
 23
0.0
 33
0.0
 16
1.0
 26
0.0
 36
0.0
 17
0.0
 27
1.0
 37
0.0
 76
0
330
203
345
0
346
0
  0
LAYOUT
  5
2A7
102
{ACAD_REACTORS
330
1A
102
}
100
AcDbPlotSettings
  1

  2
none_device
  4
ANSI_A_(11.00_x_8.50_Inches)
  6

 40
0.0
 41
0.0
 42
0.0
 43
0.0
 44
279.4
 45
215.9
 46
0.0
 47
0.0
 48
0.0
 49
0.0
140
0.0
141
0.0
142
1.0
143
1.0
 70
0
 72
0
 73
0
 74
0
  7

 75
0
147
1.0
148
0.0
149
0.0
100
AcDbLayout
  1
Layout1
 70
0
 71
1
 10
0.0
 20
0.0
 11
11.0
 21
8.5
 12
0.0
 22
0.0
 32
0.0
 14
0.0
 24
0.0
 34
0.0
 15
0.0
 25
0.0
 35
0.0
146
0.0
 13
0.0
 23
0.0
 33
0.0
 16
1.0
 26
0.0
 36
0.0
 17
0.0
 27
1.0
 37
0.0
 76
0
330
204
345
0
346
0
  0
ENDSEC
  0
EOF
