999
DXF file: E:\BRASSTECH\JOE\EN-3XXX\EN-3934\Webdata\1\CAD\5-3322bp_RIGHT.dxf
999
Pro/ENGINEER 2018400 by Parametric Technology Corporation
  0
SECTION
  2
HEADER
  9
$ACADVER
  1
AC1018
  9
$DWGCODEPAGE
  3
ANSI_1252
  9
$EXTMAX
 10
22.0
 20
17.0
 30
0.0
  9
$EXTMIN
 10
0.0
 20
0.0
 30
0.0
  9
$LIMMIN
 10
0.0
 20
0.0
  9
$LIMMAX
 10
22.0
 20
17.0
  9
$VIEWCTR
 10
11.0
 20
8.5
  9
$VIEWSIZE
 40
17.0
  9
$CLAYER
  8
0
  9
$LTSCALE
 40
1.21
  9
$CELTYPE
  6
BYLAYER
  9
$DIMSCALE
 40
1.0
  9
$DIMASZ
 40
0.1
  9
$DIMEXO
 40
0.0625
  9
$DIMDLI
 40
0.836
  9
$DIMEXE
 40
0.125
  9
$DIMCEN
 40
0.198
  9
$DIMLFAC
 40
1.0
  9
$DIMBLK
  1
_FILLED
  9
$DIMALT
 70
1
  9
$DIMALTD
 70
2
  9
$DIMALTTD
 70
2
  9
$DIMALTF
 40
25.4
  9
$DIMTXT
 40
0.08
  9
$DIMTOL
 70
1
  9
$DIMLIM
 70
0
  9
$DIMTFAC
 40
1.0
  9
$DIMTP
 40
0.001
  9
$DIMTM
 40
0.001
  9
$DIMGAP
 40
0.09
  9
$DIMDSEP
 70
46
  9
$AUNITS
 70
0
  9
$PDMODE
 70
3
  9
$PDSIZE
 40
0.06
  9
$HANDSEED
  5
260
  9
$TILEMODE
 70
1
  9
$MEASUREMENT
 70
0
  9
$INSUNITS
 70
1
  0
ENDSEC
  0
SECTION
  2
CLASSES
  0
CLASS
  1
ACDBDICTIONARYWDFLT
  2
AcDbDictionaryWithDefault
  3
AutoCAD 2000
 90
0
 91
1
280
0
281
0
  0
CLASS
  1
ACDBPLACEHOLDER
  2
AcDbPlaceHolder
  3
AutoCAD 2000
 90
0
 91
1
280
0
281
0
  0
CLASS
  1
LAYOUT
  2
AcDbLayout
  3
AutoCAD 2000
 90
0
 91
0
280
0
281
0
  0
ENDSEC
  0
SECTION
  2
TABLES
  0
TABLE
  2
VPORT
  5
8
100
AcDbSymbolTable
 70
2
  0
VPORT
  5
1F4
100
AcDbSymbolTableRecord
100
AcDbViewportTableRecord
  2
*ACTIVE
 70
0
 10
0.0
 20
0.0
 11
1.0
 21
1.0
 12
11.0
 22
8.5
 13
0.0
 23
0.0
 14
1.0
 24
1.0
 15
0.0
 25
0.0
 16
0.0
 26
0.0
 36
1.0
 17
0.0
 27
0.0
 37
0.0
 40
17.0
 41
1.2941176471
 42
50.0
 43
0.0
 44
0.0
 50
0.0
 51
0.0
 71
0
 72
100
 73
1
 74
1
 75
0
 76
0
 77
0
 78
0
  0
ENDTAB
  0
TABLE
  2
LTYPE
  5
5
100
AcDbSymbolTable
 70
6
  0
LTYPE
  5
14
100
AcDbSymbolTableRecord
100
AcDbLinetypeTableRecord
  2
BYBLOCK
 70
0
  3

 72
65
 73
0
 40
0.0
  0
LTYPE
  5
15
100
AcDbSymbolTableRecord
100
AcDbLinetypeTableRecord
  2
BYLAYER
 70
0
  3

 72
65
 73
0
 40
0.0
  0
LTYPE
  5
16
100
AcDbSymbolTableRecord
100
AcDbLinetypeTableRecord
  2
CONTINUOUS
 70
64
  3
Solid line
 72
65
 73
0
 40
0.0
  0
LTYPE
  5
1F5
100
AcDbSymbolTableRecord
100
AcDbLinetypeTableRecord
  2
CENTER
 70
64
  3
____ _ ____ _ ____ _ ____ _ ____ _ ____ _ ____
 72
65
 73
4
 40
0.6
 49
0.375
 74
0
 49
-0.075
 74
0
 49
0.075
 74
0
 49
-0.075
 74
0
  0
LTYPE
  5
1F6
100
AcDbSymbolTableRecord
100
AcDbLinetypeTableRecord
  2
HIDDEN
 70
64
  3
- - - - - - - - - - - - - - - - - - - -
 72
65
 73
2
 40
0.2
 49
0.1
 74
0
 49
-0.1
 74
0
  0
LTYPE
  5
1F7
100
AcDbSymbolTableRecord
100
AcDbLinetypeTableRecord
  2
PHANTOM
 70
64
  3
_____ _ _ _____ _ _ _____ _ _ _____
 72
65
 73
6
 40
0.8
 49
0.45
 74
0
 49
-0.05
 74
0
 49
0.1
 74
0
 49
-0.05
 74
0
 49
0.1
 74
0
 49
-0.05
 74
0
  0
LTYPE
  5
1F8
100
AcDbSymbolTableRecord
100
AcDbLinetypeTableRecord
  2
DOT
 70
64
  3
. . . . . . . . . . . . . . . . . . . .
 72
65
 73
2
 40
0.2
 49
0.1
 74
0
 49
-0.1
 74
0
  0
LTYPE
  5
1F9
100
AcDbSymbolTableRecord
100
AcDbLinetypeTableRecord
  2
DASHED
 70
64
  3
- - - - - - - - - - - - - - - - - - - -
 72
65
 73
2
 40
0.2
 49
0.1
 74
0
 49
-0.1
 74
0
  0
ENDTAB
  0
TABLE
  2
LAYER
  5
2
100
AcDbSymbolTable
 70
36
  0
LAYER
  5
10
100
AcDbSymbolTableRecord
100
AcDbLayerTableRecord
  2
0
 70
0
 62
7
  6
CONTINUOUS
370
-3
390
F
  0
LAYER
  5
1FA
100
AcDbSymbolTableRecord
100
AcDbLayerTableRecord
  2
DEFAULT_1
 70
0
 62
7
  6
CENTER
370
-3
390
F
  0
LAYER
  5
1FB
100
AcDbSymbolTableRecord
100
AcDbLayerTableRecord
  2
DEFAULT_2
 70
0
 62
8
  6
HIDDEN
370
-3
390
F
  0
LAYER
  5
1FC
100
AcDbSymbolTableRecord
100
AcDbLayerTableRecord
  2
DEFAULT_3
 70
0
 62
7
  6
PHANTOM
370
-3
390
F
  0
LAYER
  5
1FD
100
AcDbSymbolTableRecord
100
AcDbLayerTableRecord
  2
ALL_FEATURES
 70
0
 62
7
  6
CONTINUOUS
370
-3
390
F
  0
LAYER
  5
1FE
100
AcDbSymbolTableRecord
100
AcDbLayerTableRecord
  2
AXES_FEATURES
 70
0
 62
7
  6
CONTINUOUS
370
-3
390
F
  0
LAYER
  5
1FF
100
AcDbSymbolTableRecord
100
AcDbLayerTableRecord
  2
DIMENSIONS
 70
0
 62
7
  6
CONTINUOUS
370
-3
390
F
  0
ENDTAB
  0
TABLE
  2
STYLE
  5
3
100
AcDbSymbolTable
 70
1
  0
STYLE
  5
11
100
AcDbSymbolTableRecord
100
AcDbTextStyleTableRecord
  2
STANDARD
 70
0
 40
0.0
 41
0.8
 50
0.0
 71
0
 42
0.2
  3
txt
  4

  0
STYLE
  5
200
100
AcDbSymbolTableRecord
100
AcDbTextStyleTableRecord
  2
TEXTSTYLE_1
 70
0
 40
0.0
 41
0.8
 50
0.0
 71
0
 42
0.2
  3
gdt
  4

  0
ENDTAB
  0
TABLE
  2
VIEW
  5
6
100
AcDbSymbolTable
 70
0
  0
ENDTAB
  0
TABLE
  2
UCS
  5
7
100
AcDbSymbolTable
 70
0
  0
ENDTAB
  0
TABLE
  2
APPID
  5
9
100
AcDbSymbolTable
 70
1
  0
APPID
  5
201
100
AcDbSymbolTableRecord
100
AcDbRegAppTableRecord
  2
ACAD
 70
0
  0
ENDTAB
  0
TABLE
  2
BLOCK_RECORD
  5
1
100
AcDbSymbolTable
 70
0
  0
BLOCK_RECORD
  5
202
100
AcDbSymbolTableRecord
100
AcDbBlockTableRecord
  2
*Model_Space
  0
BLOCK_RECORD
  5
203
100
AcDbSymbolTableRecord
100
AcDbBlockTableRecord
  2
*Paper_Space
  0
BLOCK_RECORD
  5
204
100
AcDbSymbolTableRecord
100
AcDbBlockTableRecord
  2
_FILLED
  0
ENDTAB
  0
TABLE
  2
DIMSTYLE
  5
A
100
AcDbSymbolTable
 70
1
100
AcDbDimStyleTable
 71
0
  0
DIMSTYLE
105
205
100
AcDbSymbolTableRecord
100
AcDbDimStyleTableRecord
  2
STANDARD
 70
0
  3

  4

 40
1.0
 41
0.1
 42
0.0625
 43
0.38
 44
0.125
 45
0.0
 46
0.0
 47
0.001
 48
0.001
140
0.08
141
0.09
142
0.0
143
25.4
144
1.0
145
0.0
146
1.0
147
0.09
 71
1.0
 72
0.0
 73
1
 74
1
 75
0
 76
0
 77
0
 78
4
 79
1
170
1
171
2
172
0
173
0
174
0
175
0
176
0
177
0
178
0
270
2
179
3
271
3
272
3
273
2
274
2
275
0
280
0
281
0
282
0
283
1
284
4
285
0
286
0
287
3
288
0
340
11
278
46
341
204
342
204
343
204
344
204
  0
ENDTAB
  0
ENDSEC
  0
SECTION
  2
BLOCKS
  0
BLOCK
  5
20
100
AcDbEntity
  8
0
100
AcDbBlockBegin
  2
*Model_Space
 70
0
 10
0.0
 20
0.0
 30
0.0
  3
*Model_Space
  1

  0
ENDBLK
  5
21
100
AcDbEntity
  8
0
100
AcDbBlockEnd
  0
BLOCK
  5
1C
100
AcDbEntity
  8
0
100
AcDbBlockBegin
  2
*Paper_Space
 70
0
 10
0.0
 20
0.0
 30
0.0
  3
*Paper_Space
  1

  0
ENDBLK
  5
1D
100
AcDbEntity
  8
0
100
AcDbBlockEnd
  0
BLOCK
  5
206
100
AcDbEntity
  8
0
100
AcDbBlockBegin
  2
_FILLED
 70
64
 10
0.0
 20
0.0
  3
_FILLED
  1

  0
SOLID
  5
207
100
AcDbEntity
  8
0
  6
BYBLOCK
 62
0
100
AcDbTrace
 10
0.0
 20
0.0
 11
-1.0
 21
0.2
 12
-1.0
 22
-0.2
 13
-1.0
 23
-0.2
  0
ENDBLK
  5
208
100
AcDbEntity
  8
0
  6
BYBLOCK
 62
0
100
AcDbBlockEnd
  0
ENDSEC
  0
SECTION
  2
ENTITIES
  0
LINE
  5
209
100
AcDbEntity
  8
0
100
AcDbLine
 62
7
  6
CONTINUOUS
 10
11.8687403743
 20
6.039370578
 11
12.1004834891
 21
6.0190956826
  0
LINE
  5
20A
100
AcDbEntity
  8
0
100
AcDbLine
 62
7
  6
CONTINUOUS
 10
12.1004834891
 20
6.0251360457
 11
12.2004834891
 21
6.0163695285
  0
LINE
  5
20B
100
AcDbEntity
  8
0
100
AcDbLine
 62
7
  6
CONTINUOUS
 10
10.8554834891
 20
6.3903468163
 11
10.7654834891
 21
6.3903468163
  0
LINE
  5
20C
100
AcDbEntity
  8
0
100
AcDbLine
 62
7
  6
CONTINUOUS
 10
9.2494834891
 20
6.5103468163
 11
9.6274834891
 21
6.5103468163
  0
LINE
  5
20D
100
AcDbEntity
  8
0
100
AcDbLine
 62
9
  6
CONTINUOUS
 10
9.2194834891
 20
6.5853468163
 11
9.6574834891
 21
6.5853468163
  0
LINE
  5
20E
100
AcDbEntity
  8
0
100
AcDbLine
 62
7
  6
CONTINUOUS
 10
10.7654834891
 20
6.3903468163
 11
10.7584885196
 21
6.391146313
  0
LINE
  5
20F
100
AcDbEntity
  8
0
100
AcDbLine
 62
7
  6
CONTINUOUS
 10
10.6224885196
 20
6.422646313
 11
10.7584885196
 21
6.391146313
  0
LINE
  5
210
100
AcDbEntity
  8
0
100
AcDbLine
 62
7
  6
CONTINUOUS
 10
11.8504834891
 20
6.6043468163
 11
11.6824834891
 21
6.6043468163
  0
LINE
  5
211
100
AcDbEntity
  8
0
100
AcDbLine
 62
7
  6
CONTINUOUS
 10
11.6704834891
 20
6.6633468163
 11
11.0914834891
 21
6.6633468163
  0
LINE
  5
212
100
AcDbEntity
  8
0
100
AcDbLine
 62
7
  6
CONTINUOUS
 10
11.6704834891
 20
7.0173468163
 11
11.0914834891
 21
7.0173468163
  0
LINE
  5
213
100
AcDbEntity
  8
0
100
AcDbLine
 62
7
  6
CONTINUOUS
 10
11.8504834891
 20
7.0763468163
 11
11.6824834891
 21
7.0763468163
  0
LINE
  5
214
100
AcDbEntity
  8
0
100
AcDbLine
 62
7
  6
CONTINUOUS
 10
10.6224885196
 20
7.2580473196
 11
10.7584885196
 21
7.2895473196
  0
LINE
  5
215
100
AcDbEntity
  8
0
100
AcDbLine
 62
7
  6
CONTINUOUS
 10
10.7654834891
 20
7.2903468163
 11
10.7584885196
 21
7.2895473196
  0
LINE
  5
216
100
AcDbEntity
  8
0
100
AcDbLine
 62
7
  6
CONTINUOUS
 10
10.8554834891
 20
7.2903468163
 11
10.7654834891
 21
7.2903468163
  0
LINE
  5
217
100
AcDbEntity
  8
0
100
AcDbLine
 62
7
  6
CONTINUOUS
 10
9.2194834891
 20
6.5403526711
 11
9.2194834891
 21
8.9503468162
  0
LINE
  5
218
100
AcDbEntity
  8
0
100
AcDbLine
 62
9
  6
CONTINUOUS
 10
9.2494834891
 20
8.9503468163
 11
9.2494834891
 21
6.5103468163
  0
LINE
  5
219
100
AcDbEntity
  8
0
100
AcDbLine
 62
9
  6
CONTINUOUS
 10
9.2794834891
 20
9.0103468163
 11
9.2794834891
 21
8.9803468163
  0
LINE
  5
21A
100
AcDbEntity
  8
0
100
AcDbLine
 62
9
  6
CONTINUOUS
 10
9.3394834891
 20
8.7820891494
 11
9.3394834891
 21
9.0103468163
  0
LINE
  5
21B
100
AcDbEntity
  8
0
100
AcDbLine
 62
7
  6
CONTINUOUS
 10
9.3694834891
 20
9.2615910441
 11
9.3694834891
 21
8.782090152
  0
LINE
  5
21C
100
AcDbEntity
  8
0
100
AcDbLine
 62
9
  6
CONTINUOUS
 10
9.3994834891
 20
9.2915968163
 11
9.3994834891
 21
8.7173424434
  0
LINE
  5
21D
100
AcDbEntity
  8
0
100
AcDbLine
 62
7
  6
CONTINUOUS
 10
11.0914834891
 20
7.0653468163
 11
10.8774974482
 21
7.2811730758
  0
LINE
  5
21E
100
AcDbEntity
  8
0
100
AcDbLine
 62
9
  6
CONTINUOUS
 10
9.6274834891
 20
6.5103468163
 11
9.6274834891
 21
8.7455838288
  0
LINE
  5
21F
100
AcDbEntity
  8
0
100
AcDbLine
 62
7
  6
CONTINUOUS
 10
9.6574834891
 20
6.5403468163
 11
9.6574834891
 21
8.7023670078
  0
LINE
  5
220
100
AcDbEntity
  8
0
100
AcDbLine
 62
9
  6
CONTINUOUS
 10
9.6874834891
 20
8.7320518085
 11
9.6874834891
 21
8.7290968163
  0
LINE
  5
221
100
AcDbEntity
  8
0
100
AcDbLine
 62
7
  6
CONTINUOUS
 10
11.6804834891
 20
8.0103468163
 11
11.8504834891
 21
8.0103468163
  0
LINE
  5
222
100
AcDbEntity
  8
0
100
AcDbLine
 62
7
  6
CONTINUOUS
 10
10.0794834891
 20
8.7290968163
 11
10.0794834891
 21
9.2915968163
  0
LINE
  5
223
100
AcDbEntity
  8
0
100
AcDbLine
 62
7
  6
CONTINUOUS
 10
10.1004834891
 20
9.3553468163
 11
10.1004834891
 21
8.6653468163
  0
LINE
  5
224
100
AcDbEntity
  8
0
100
AcDbLine
 62
9
  6
CONTINUOUS
 10
10.1304834891
 20
9.3853468163
 11
10.1304834891
 21
8.6353468163
  0
LINE
  5
225
100
AcDbEntity
  8
0
100
AcDbLine
 62
7
  6
CONTINUOUS
 10
10.1304834891
 20
8.6353468163
 11
11.6404834891
 21
8.6353468163
  0
LINE
  5
226
100
AcDbEntity
  8
0
100
AcDbLine
 62
7
  6
CONTINUOUS
 10
11.6404834891
 20
8.6453468163
 11
11.6504834891
 21
8.6453468163
  0
LINE
  5
227
100
AcDbEntity
  8
0
100
AcDbLine
 62
9
  6
CONTINUOUS
 10
9.6274834891
 20
8.7173424434
 11
9.3994834892
 21
8.7173424435
  0
LINE
  5
228
100
AcDbEntity
  8
0
100
AcDbLine
 62
7
  6
CONTINUOUS
 10
9.6874834891
 20
8.7290968163
 11
10.0794834891
 21
8.7290968163
  0
LINE
  5
229
100
AcDbEntity
  8
0
100
AcDbLine
 62
9
  6
CONTINUOUS
 10
9.3994834891
 20
8.7455838288
 11
9.6274834891
 21
8.7455838288
  0
LINE
  5
22A
100
AcDbEntity
  8
0
100
AcDbLine
 62
7
  6
CONTINUOUS
 10
10.0794834891
 20
8.7553468163
 11
10.1004834891
 21
8.7553468163
  0
LINE
  5
22B
100
AcDbEntity
  8
0
100
AcDbLine
 62
9
  6
CONTINUOUS
 10
9.3394834891
 20
8.7820891494
 11
9.3694834891
 21
8.7820891494
  0
LINE
  5
22C
100
AcDbEntity
  8
0
100
AcDbLine
 62
7
  6
CONTINUOUS
 10
10.5984834891
 20
7.2278466023
 11
10.5984834891
 21
6.4528470302
  0
LINE
  5
22D
100
AcDbEntity
  8
0
100
AcDbLine
 62
9
  6
CONTINUOUS
 10
10.6224885196
 20
7.2580473196
 11
10.6224885196
 21
6.422646313
  0
LINE
  5
22E
100
AcDbEntity
  8
0
100
AcDbLine
 62
9
  6
CONTINUOUS
 10
9.2494834891
 20
8.9503468163
 11
9.2194834891
 21
8.9503468163
  0
LINE
  5
22F
100
AcDbEntity
  8
0
100
AcDbLine
 62
9
  6
CONTINUOUS
 10
9.3694834891
 20
8.9803468163
 11
9.2794834891
 21
8.9803468163
  0
LINE
  5
230
100
AcDbEntity
  8
0
100
AcDbLine
 62
7
  6
CONTINUOUS
 10
9.2794834892
 20
9.0103468163
 11
9.3394834891
 21
9.0103468163
  0
LINE
  5
231
100
AcDbEntity
  8
0
100
AcDbLine
 62
9
  6
CONTINUOUS
 10
10.7584885196
 20
6.391146313
 11
10.7584885196
 21
7.2895473196
  0
LINE
  5
232
100
AcDbEntity
  8
0
100
AcDbLine
 62
9
  6
CONTINUOUS
 10
10.7654834891
 20
7.2903468163
 11
10.7654834891
 21
6.3903468163
  0
LINE
  5
233
100
AcDbEntity
  8
0
100
AcDbLine
 62
9
  6
CONTINUOUS
 10
10.8554834891
 20
6.3903468163
 11
10.8554834891
 21
7.2903468163
  0
LINE
  5
234
100
AcDbEntity
  8
0
100
AcDbLine
 62
9
  6
CONTINUOUS
 10
10.8774974482
 20
7.2811730758
 11
10.8774974482
 21
6.3995205568
  0
LINE
  5
235
100
AcDbEntity
  8
0
100
AcDbLine
 62
7
  6
CONTINUOUS
 10
11.0914834891
 20
6.6153505768
 11
11.0914834891
 21
7.0653430558
  0
LINE
  5
236
100
AcDbEntity
  8
0
100
AcDbLine
 62
7
  6
CONTINUOUS
 10
10.0794834891
 20
9.2653468163
 11
10.1004834891
 21
9.2653468163
  0
LINE
  5
237
100
AcDbEntity
  8
0
100
AcDbLine
 62
7
  6
CONTINUOUS
 10
9.3994834891
 20
9.2915968163
 11
10.0794834891
 21
9.2915968163
  0
LINE
  5
238
100
AcDbEntity
  8
0
100
AcDbLine
 62
7
  6
CONTINUOUS
 10
11.6404834891
 20
9.3753468163
 11
11.6504834891
 21
9.3753468163
  0
LINE
  5
239
100
AcDbEntity
  8
0
100
AcDbLine
 62
7
  6
CONTINUOUS
 10
10.1304834891
 20
9.3853468163
 11
11.6404834891
 21
9.3853468163
  0
LINE
  5
23A
100
AcDbEntity
  8
0
100
AcDbLine
 62
7
  6
CONTINUOUS
 10
11.6404834891
 20
8.6353468163
 11
11.6404834891
 21
9.3853468163
  0
LINE
  5
23B
100
AcDbEntity
  8
0
100
AcDbLine
 62
7
  6
CONTINUOUS
 10
11.6504834891
 20
9.9803468163
 11
11.6504834891
 21
8.0403468163
  0
LINE
  5
23C
100
AcDbEntity
  8
0
100
AcDbLine
 62
7
  6
CONTINUOUS
 10
11.6704834891
 20
7.0643462118
 11
11.6704834891
 21
6.6163473229
  0
LINE
  5
23D
100
AcDbEntity
  8
0
100
AcDbLine
 62
9
  6
CONTINUOUS
 10
11.6804834891
 20
10.0103468163
 11
11.6804834891
 21
8.0103468163
  0
LINE
  5
23E
100
AcDbEntity
  8
0
100
AcDbLine
 62
9
  6
CONTINUOUS
 10
11.6824834891
 20
6.6043468163
 11
11.6824834891
 21
7.0763468163
  0
LINE
  5
23F
100
AcDbEntity
  8
0
100
AcDbLine
 62
7
  6
CONTINUOUS
 10
11.8504834891
 20
11.9613745755
 11
11.8504834891
 21
6.059319057
  0
LINE
  5
240
100
AcDbEntity
  8
0
100
AcDbLine
 62
7
  6
CONTINUOUS
 10
11.6804834891
 20
10.0103468163
 11
11.8504834891
 21
10.0103468163
  0
LINE
  5
241
100
AcDbEntity
  8
0
100
AcDbLine
 62
9
  6
CONTINUOUS
 10
11.8687403743
 20
11.9813230545
 11
11.8687403743
 21
6.039370578
  0
LINE
  5
242
100
AcDbEntity
  8
0
100
AcDbLine
 62
7
  6
CONTINUOUS
 10
12.1004834891
 20
6.0190959207
 11
12.1004834891
 21
6.0251360457
  0
LINE
  5
243
100
AcDbEntity
  8
0
100
AcDbLine
 62
7
  6
CONTINUOUS
 10
12.2004834891
 20
6.0163695285
 11
12.2004834891
 21
12.0103220389
  0
LINE
  5
244
100
AcDbEntity
  8
0
100
AcDbLine
 62
7
  6
CONTINUOUS
 10
11.0914834891
 20
6.6153468163
 11
10.8774974482
 21
6.3995205568
  0
LINE
  5
245
100
AcDbEntity
  8
0
100
AcDbLine
 62
7
  6
CONTINUOUS
 10
11.8687403743
 20
11.9813230545
 11
12.2004834891
 21
12.0103468163
  0
ARC
  5
246
100
AcDbEntity
  8
0
100
AcDbCircle
 62
7
  6
CONTINUOUS
 10
9.2794834891
 20
8.9503468163
 40
0.06
100
AcDbArc
 50
90.0
 51
180.0000000297
  0
ARC
  5
247
100
AcDbEntity
  8
0
100
AcDbCircle
 62
7
  6
CONTINUOUS
 10
10.6294834891
 20
6.4528468163
 40
0.031
100
AcDbArc
 50
180.0
 51
256.9592389661
  0
ARC
  5
248
100
AcDbEntity
  8
0
100
AcDbCircle
 62
7
  6
CONTINUOUS
 10
10.6294834891
 20
7.2278468163
 40
0.031
100
AcDbArc
 50
103.0407610339
 51
180.0
  0
ARC
  5
249
100
AcDbEntity
  8
0
100
AcDbCircle
 62
7
  6
CONTINUOUS
 10
10.8554834891
 20
6.4213468163
 40
0.031
100
AcDbArc
 50
270.0
 51
315.2453073495
  0
ARC
  5
24A
100
AcDbEntity
  8
0
100
AcDbCircle
 62
7
  6
CONTINUOUS
 10
10.8554834891
 20
7.2593468163
 40
0.031
100
AcDbArc
 50
44.7546926505
 51
90.0
  0
ARC
  5
24B
100
AcDbEntity
  8
0
100
AcDbCircle
 62
7
  6
CONTINUOUS
 10
11.6804834891
 20
8.0403468163
 40
0.03
100
AcDbArc
 50
180.0
 51
270.0
  0
ARC
  5
24C
100
AcDbEntity
  8
0
100
AcDbCircle
 62
7
  6
CONTINUOUS
 10
11.6804834891
 20
9.9803468163
 40
0.03
100
AcDbArc
 50
90.0
 51
180.0
  0
ARC
  5
24D
100
AcDbEntity
  8
0
100
AcDbCircle
 62
7
  6
CONTINUOUS
 10
10.1304834891
 20
9.3553468163
 40
0.03
100
AcDbArc
 50
90.0
 51
180.0
  0
ARC
  5
24E
100
AcDbEntity
  8
0
100
AcDbCircle
 62
7
  6
CONTINUOUS
 10
10.1304834891
 20
8.6653468163
 40
0.03
100
AcDbArc
 50
180.0
 51
270.0
  0
ARC
  5
24F
100
AcDbEntity
  8
0
100
AcDbCircle
 62
7
  6
CONTINUOUS
 10
9.3394834891
 20
9.0403468155
 40
0.03
100
AcDbArc
 50
270.0
 51
0.0000014277
  0
ARC
  5
250
100
AcDbEntity
  8
0
100
AcDbCircle
 62
7
  6
CONTINUOUS
 10
9.6274834891
 20
6.5403468163
 40
0.03
100
AcDbArc
 50
270.0
 51
360.0
  0
ARC
  5
251
100
AcDbEntity
  8
0
100
AcDbCircle
 62
7
  6
CONTINUOUS
 10
9.2494834891
 20
6.5403468163
 40
0.03
100
AcDbArc
 50
180.0
 51
270.0
  0
ARC
  5
252
100
AcDbEntity
  8
0
100
AcDbCircle
 62
7
  6
CONTINUOUS
 10
9.3994834891
 20
9.2615968163
 40
0.03
100
AcDbArc
 50
90.0
 51
180.0
  0
ARC
  5
253
100
AcDbEntity
  8
0
100
AcDbCircle
 62
7
  6
CONTINUOUS
 10
9.6874834891
 20
8.6990968163
 40
0.03
100
AcDbArc
 50
90.0
 51
173.8058472118
  0
ARC
  5
254
100
AcDbEntity
  8
0
100
AcDbCircle
 62
9
  6
CONTINUOUS
 10
9.2794834891
 20
8.9503468163
 40
0.03
100
AcDbArc
 50
90.0
 51
180.0
  0
ARC
  5
255
100
AcDbEntity
  8
0
100
AcDbCircle
 62
7
  6
CONTINUOUS
 10
11.8704834891
 20
11.9613991606
 40
0.02
100
AcDbArc
 50
95.0000000003
 51
180.0
  0
ARC
  5
256
100
AcDbEntity
  8
0
100
AcDbCircle
 62
7
  6
CONTINUOUS
 10
11.8704834891
 20
6.059294472
 40
0.02
100
AcDbArc
 50
180.0
 51
264.9999999997
  0
ARC
  5
257
100
AcDbEntity
  8
0
100
AcDbCircle
 62
7
  6
CONTINUOUS
 10
11.6824834891
 20
7.0643468163
 40
0.012
100
AcDbArc
 50
90.0
 51
180.0
  0
ARC
  5
258
100
AcDbEntity
  8
0
100
AcDbCircle
 62
7
  6
CONTINUOUS
 10
11.6824834891
 20
6.6163468163
 40
0.012
100
AcDbArc
 50
180.0
 51
270.0
  0
SPLINE
  5
259
100
AcDbEntity
  8
0
100
AcDbSpline
 62
9
  6
CONTINUOUS
 70
0
 71
3
 72
19
 73
15
 74
0
 42
0.0000001
 43
0.0000001
 44
0.0000000001
 40
0.0
 40
0.0
 40
0.0
 40
0.0
 40
0.1653670464
 40
0.3273456603
 40
0.4817232069
 40
0.6245717772
 40
0.6903292827
 40
0.751545469
 40
0.8076705622
 40
0.8581675066
 40
0.90259727
 40
0.9408291159
 40
0.9730489667
 40
1.0
 40
1.0
 40
1.0
 40
1.0
 10
9.6274834891
 20
8.7173426554
 30
0.0
 10
9.629432438
 20
8.7173425113
 30
0.0
 10
9.633294756
 20
8.7170616659
 30
0.0
 10
9.6388688073
 20
8.7159016006
 30
0.0
 10
9.6439875571
 20
8.7140991215
 30
0.0
 10
9.6478290219
 20
8.712190246
 30
0.0
 10
9.6505314268
 20
8.7105106078
 30
0.0
 10
9.652288218
 20
8.7092546527
 30
0.0
 10
9.6538151722
 20
8.7079944709
 30
0.0
 10
9.6550969694
 20
8.7067559679
 30
0.0
 10
9.6561205234
 20
8.7055627218
 30
0.0
 10
9.6568746833
 20
8.7044327142
 30
0.0
 10
9.6573515419
 20
8.7033820772
 30
0.0
 10
9.6574833865
 20
8.7026848431
 30
0.0
 10
9.6574834891
 20
8.7023672091
 30
0.0
  0
SPLINE
  5
25A
100
AcDbEntity
  8
0
100
AcDbSpline
 62
9
  6
CONTINUOUS
 70
0
 71
3
 72
20
 73
16
 74
0
 42
0.0000001
 43
0.0000001
 44
0.0000000001
 40
0.0
 40
0.0
 40
0.0
 40
0.0
 40
0.1248841859
 40
0.1874576049
 40
0.2499970457
 40
0.3125004438
 40
0.3750045866
 40
0.4999279127
 40
0.5624640256
 40
0.6249926884
 40
0.6875058822
 40
0.7500290012
 40
0.812573868
 40
0.8751557752
 40
1.0
 40
1.0
 40
1.0
 40
1.0
 10
9.3394834891
 20
8.7820891494
 30
0.0
 10
9.3394839152
 20
8.7780075216
 30
0.0
 10
9.3400077711
 20
8.7718635014
 30
0.0
 10
9.3417510179
 20
8.7638734333
 30
0.0
 10
9.3435874568
 20
8.7580138289
 30
0.0
 10
9.3459465991
 20
8.7523464508
 30
0.0
 10
9.3497785588
 20
8.7451224283
 30
0.0
 10
9.3546319361
 20
8.7384745832
 30
0.0
 10
9.3603780499
 20
8.7326512519
 30
0.0
 10
9.3651094059
 20
8.7287351739
 30
0.0
 10
9.3702168427
 20
8.725324932
 30
0.0
 10
9.3756559262
 20
8.7224718392
 30
0.0
 10
9.3813687312
 20
8.7202063915
 30
0.0
 10
9.3892514481
 20
8.7180202182
 30
0.0
 10
9.3954031674
 20
8.7173428555
 30
0.0
 10
9.3994834892
 20
8.7173424435
 30
0.0
  0
SPLINE
  5
25B
100
AcDbEntity
  8
0
100
AcDbSpline
 62
9
  6
CONTINUOUS
 70
0
 71
3
 72
25
 73
21
 74
0
 42
0.0000001
 43
0.0000001
 44
0.0000000001
 40
0.0
 40
0.0
 40
0.0
 40
0.0
 40
0.1799560269
 40
0.2683836645
 40
0.3547742499
 40
0.5189396716
 40
0.5954543043
 40
0.6673346931
 40
0.7338817209
 40
0.7944002772
 40
0.848202749
 40
0.8946296351
 40
0.9148945847
 40
0.9331052724
 40
0.9492106829
 40
0.9631851066
 40
0.9750664671
 40
0.9849670565
 40
0.9931223177
 40
1.0
 40
1.0
 40
1.0
 40
1.0
 10
9.6274834891
 20
8.7455838288
 30
0.0
 10
9.6312507088
 20
8.7455837427
 30
0.0
 10
9.6368710483
 20
8.745412045
 30
0.0
 10
9.6442772436
 20
8.7448463026
 30
0.0
 10
9.6513335714
 20
8.7440859133
 30
0.0
 10
9.6581066586
 20
8.7430478167
 30
0.0
 10
9.6645199051
 20
8.7417458576
 30
0.0
 10
9.6688991032
 20
8.7407080006
 30
0.0
 10
9.6729166306
 20
8.7396070749
 30
0.0
 10
9.6765287089
 20
8.7384681197
 30
0.0
 10
9.6796920156
 20
8.737317101
 30
0.0
 10
9.682015355
 20
8.73633001
 30
0.0
 10
9.6836100183
 20
8.7355440989
 30
0.0
 10
9.684612009
 20
8.73499401
 30
0.0
 10
9.6854707208
 20
8.7344593403
 30
0.0
 10
9.6861821283
 20
8.7339423933
 30
0.0
 10
9.6867439824
 20
8.7334455033
 30
0.0
 10
9.6871551143
 20
8.7329689092
 30
0.0
 10
9.6874150149
 20
8.7325110515
 30
0.0
 10
9.6874833811
 20
8.7321957867
 30
0.0
 10
9.6874834891
 20
8.7320518085
 30
0.0
  0
SPLINE
  5
25C
100
AcDbEntity
  8
0
100
AcDbSpline
 62
9
  6
CONTINUOUS
 70
0
 71
3
 72
17
 73
13
 74
0
 42
0.0000001
 43
0.0000001
 44
0.0000000001
 40
0.0
 40
0.0
 40
0.0
 40
0.0
 40
0.1172089082
 40
0.2411044032
 40
0.3052138369
 40
0.3703144626
 40
0.5016890008
 40
0.632775984
 40
0.6975404462
 40
0.7612089743
 40
0.8840010684
 40
1.0
 40
1.0
 40
1.0
 40
1.0
 10
9.6874834891
 20
8.7320518085
 30
0.0
 10
9.6856545696
 20
8.7320518085
 30
0.0
 10
9.6818852629
 20
8.731705585
 30
0.0
 10
9.6772722756
 20
8.7304014585
 30
0.0
 10
9.6736700808
 20
8.7287669401
 30
0.0
 10
9.6701462962
 20
8.7267276331
 30
0.0
 10
9.6661184533
 20
8.7235173947
 30
0.0
 10
9.6628680556
 20
8.7195281591
 30
0.0
 10
9.6608044846
 20
8.7160376494
 30
0.0
 10
9.6591531459
 20
8.7124753454
 30
0.0
 10
9.6578339485
 20
8.7079104994
 30
0.0
 10
9.6574834891
 20
8.7041770469
 30
0.0
 10
9.6574834891
 20
8.7023670078
 30
0.0
  0
SPLINE
  5
25D
100
AcDbEntity
  8
0
100
AcDbSpline
 62
9
  6
CONTINUOUS
 70
0
 71
3
 72
17
 73
13
 74
0
 42
0.0000001
 43
0.0000001
 44
0.0000000001
 40
0.0
 40
0.0
 40
0.0
 40
0.0
 40
0.1179988743
 40
0.2370630078
 40
0.3577409767
 40
0.4190231125
 40
0.4809172049
 40
0.6065095325
 40
0.7350167574
 40
0.8003692361
 40
0.8663772488
 40
1.0
 40
1.0
 40
1.0
 40
1.0
 10
9.3994834891
 20
8.7455837002
 30
0.0
 10
9.3974191563
 20
8.7455839851
 30
0.0
 10
9.3932567953
 20
8.7460967032
 30
0.0
 10
9.3873406301
 20
8.7482960646
 30
0.0
 10
9.3829184737
 20
8.7512432632
 30
0.0
 10
9.379782502
 20
8.7541442532
 30
0.0
 10
9.3769024279
 20
8.757416629
 30
0.0
 10
9.3738988009
 20
8.7621010118
 30
0.0
 10
9.3717678377
 20
8.7672988644
 30
0.0
 10
9.3705803962
 20
8.7716918306
 30
0.0
 10
9.3697298902
 20
8.7762526186
 30
0.0
 10
9.3694836463
 20
8.7797529038
 30
0.0
 10
9.369483489
 20
8.7820905687
 30
0.0
  0
ENDSEC
  0
SECTION
  2
OBJECTS
  0
DICTIONARY
  5
C
100
AcDbDictionary
280
0
281
1
  3
ACAD_GROUP
350
D
  3
ACAD_MLINESTYLE
350
17
  3
ACAD_LAYOUT
350
1A
  3
ACAD_PLOTSETTINGS
350
19
  3
ACAD_PLOTSTYLENAME
350
E
  0
DICTIONARY
  5
D
102
{ACAD_REACTORS
330
C
102
}
100
AcDbDictionary
280
0
281
1
  0
ACDBDICTIONARYWDFLT
  5
E
102
{ACAD_REACTORS
330
C
102
}
100
AcDbDictionary
281
1
  3
Normal
350
F
100
AcDbDictionaryWithDefault
340
F
  0
DICTIONARY
  5
17
102
{ACAD_REACTORS
330
C
102
}
100
AcDbDictionary
280
0
281
1
  3
Standard
350
18
  0
DICTIONARY
  5
19
102
{ACAD_REACTORS
330
C
102
}
100
AcDbDictionary
281
1
  0
DICTIONARY
  5
1A
102
{ACAD_REACTORS
330
C
102
}
100
AcDbDictionary
281
1
  3
Model
350
25E
  3
Layout1
350
25F
  0
ACDBPLACEHOLDER
  5
F
102
{ACAD_REACTORS
330
E
102
}
  0
MLINESTYLE
  5
18
102
{ACAD_REACTORS
330
17
102
}
100
AcDbMlineStyle
  2
STANDARD
 70
0
  3

 62
256
 51
90.0
 52
90.0
 71
2
 49
0.5
 62
256
  6
BYLAYER
 49
-0.5
 62
256
  6
BYLAYER
  0
LAYOUT
  5
25E
102
{ACAD_REACTORS
330
1A
102
}
100
AcDbPlotSettings
  1

  2
none_device
  4
ANSI_C_(22.00_x_17.00_Inches)
  6

 40
0.0
 41
0.0
 42
0.0
 43
0.0
 44
558.8
 45
431.8
 46
0.0
 47
0.0
 48
0.0
 49
0.0
140
0.0
141
0.0
142
1.0
143
1.0
 70
1024
 72
0
 73
0
 74
0
  7

 75
0
147
1.0
148
0.0
149
0.0
100
AcDbLayout
  1
Model
 70
0
 71
0
 10
0.0
 20
0.0
 11
22.0
 21
17.0
 12
0.0
 22
0.0
 32
0.0
 14
0.0
 24
0.0
 34
0.0
 15
0.0
 25
0.0
 35
0.0
146
0.0
 13
0.0
 23
0.0
 33
0.0
 16
1.0
 26
0.0
 36
0.0
 17
0.0
 27
1.0
 37
0.0
 76
0
330
202
345
0
346
0
  0
LAYOUT
  5
25F
102
{ACAD_REACTORS
330
1A
102
}
100
AcDbPlotSettings
  1

  2
none_device
  4
ANSI_C_(22.00_x_17.00_Inches)
  6

 40
0.0
 41
0.0
 42
0.0
 43
0.0
 44
558.8
 45
431.8
 46
0.0
 47
0.0
 48
0.0
 49
0.0
140
0.0
141
0.0
142
1.0
143
1.0
 70
0
 72
0
 73
0
 74
0
  7

 75
0
147
1.0
148
0.0
149
0.0
100
AcDbLayout
  1
Layout1
 70
0
 71
1
 10
0.0
 20
0.0
 11
22.0
 21
17.0
 12
0.0
 22
0.0
 32
0.0
 14
0.0
 24
0.0
 34
0.0
 15
0.0
 25
0.0
 35
0.0
146
0.0
 13
0.0
 23
0.0
 33
0.0
 16
1.0
 26
0.0
 36
0.0
 17
0.0
 27
1.0
 37
0.0
 76
0
330
203
345
0
346
0
  0
ENDSEC
  0
EOF
