999
DXF file: E:\BRASSTECH\JOE\EN-3XXX\EN-3934\Webdata\1\CAD\5-3332bp_TOP.dxf
999
Pro/ENGINEER 2018400 by Parametric Technology Corporation
  0
SECTION
  2
HEADER
  9
$ACADVER
  1
AC1018
  9
$DWGCODEPAGE
  3
ANSI_1252
  9
$EXTMAX
 10
22.0
 20
17.0
 30
0.0
  9
$EXTMIN
 10
0.0
 20
0.0
 30
0.0
  9
$LIMMIN
 10
0.0
 20
0.0
  9
$LIMMAX
 10
22.0
 20
17.0
  9
$VIEWCTR
 10
11.0
 20
8.5
  9
$VIEWSIZE
 40
17.0
  9
$CLAYER
  8
0
  9
$LTSCALE
 40
1.21
  9
$CELTYPE
  6
BYLAYER
  9
$DIMSCALE
 40
1.0
  9
$DIMASZ
 40
0.1
  9
$DIMEXO
 40
0.0625
  9
$DIMDLI
 40
0.836
  9
$DIMEXE
 40
0.125
  9
$DIMCEN
 40
0.198
  9
$DIMLFAC
 40
1.0
  9
$DIMBLK
  1
_FILLED
  9
$DIMALT
 70
1
  9
$DIMALTD
 70
2
  9
$DIMALTTD
 70
2
  9
$DIMALTF
 40
25.4
  9
$DIMTXT
 40
0.08
  9
$DIMTOL
 70
1
  9
$DIMLIM
 70
0
  9
$DIMTFAC
 40
1.0
  9
$DIMTP
 40
0.001
  9
$DIMTM
 40
0.001
  9
$DIMGAP
 40
0.09
  9
$DIMDSEP
 70
46
  9
$AUNITS
 70
0
  9
$PDMODE
 70
3
  9
$PDSIZE
 40
0.06
  9
$HANDSEED
  5
26E
  9
$TILEMODE
 70
1
  9
$MEASUREMENT
 70
0
  9
$INSUNITS
 70
1
  0
ENDSEC
  0
SECTION
  2
CLASSES
  0
CLASS
  1
ACDBDICTIONARYWDFLT
  2
AcDbDictionaryWithDefault
  3
AutoCAD 2000
 90
0
 91
1
280
0
281
0
  0
CLASS
  1
ACDBPLACEHOLDER
  2
AcDbPlaceHolder
  3
AutoCAD 2000
 90
0
 91
1
280
0
281
0
  0
CLASS
  1
LAYOUT
  2
AcDbLayout
  3
AutoCAD 2000
 90
0
 91
0
280
0
281
0
  0
ENDSEC
  0
SECTION
  2
TABLES
  0
TABLE
  2
VPORT
  5
8
100
AcDbSymbolTable
 70
2
  0
VPORT
  5
1F4
100
AcDbSymbolTableRecord
100
AcDbViewportTableRecord
  2
*ACTIVE
 70
0
 10
0.0
 20
0.0
 11
1.0
 21
1.0
 12
11.0
 22
8.5
 13
0.0
 23
0.0
 14
1.0
 24
1.0
 15
0.0
 25
0.0
 16
0.0
 26
0.0
 36
1.0
 17
0.0
 27
0.0
 37
0.0
 40
17.0
 41
1.2941176471
 42
50.0
 43
0.0
 44
0.0
 50
0.0
 51
0.0
 71
0
 72
100
 73
1
 74
1
 75
0
 76
0
 77
0
 78
0
  0
ENDTAB
  0
TABLE
  2
LTYPE
  5
5
100
AcDbSymbolTable
 70
6
  0
LTYPE
  5
14
100
AcDbSymbolTableRecord
100
AcDbLinetypeTableRecord
  2
BYBLOCK
 70
0
  3

 72
65
 73
0
 40
0.0
  0
LTYPE
  5
15
100
AcDbSymbolTableRecord
100
AcDbLinetypeTableRecord
  2
BYLAYER
 70
0
  3

 72
65
 73
0
 40
0.0
  0
LTYPE
  5
16
100
AcDbSymbolTableRecord
100
AcDbLinetypeTableRecord
  2
CONTINUOUS
 70
64
  3
Solid line
 72
65
 73
0
 40
0.0
  0
LTYPE
  5
1F5
100
AcDbSymbolTableRecord
100
AcDbLinetypeTableRecord
  2
CENTER
 70
64
  3
____ _ ____ _ ____ _ ____ _ ____ _ ____ _ ____
 72
65
 73
4
 40
0.6
 49
0.375
 74
0
 49
-0.075
 74
0
 49
0.075
 74
0
 49
-0.075
 74
0
  0
LTYPE
  5
1F6
100
AcDbSymbolTableRecord
100
AcDbLinetypeTableRecord
  2
HIDDEN
 70
64
  3
- - - - - - - - - - - - - - - - - - - -
 72
65
 73
2
 40
0.2
 49
0.1
 74
0
 49
-0.1
 74
0
  0
LTYPE
  5
1F7
100
AcDbSymbolTableRecord
100
AcDbLinetypeTableRecord
  2
PHANTOM
 70
64
  3
_____ _ _ _____ _ _ _____ _ _ _____
 72
65
 73
6
 40
0.8
 49
0.45
 74
0
 49
-0.05
 74
0
 49
0.1
 74
0
 49
-0.05
 74
0
 49
0.1
 74
0
 49
-0.05
 74
0
  0
LTYPE
  5
1F8
100
AcDbSymbolTableRecord
100
AcDbLinetypeTableRecord
  2
DOT
 70
64
  3
. . . . . . . . . . . . . . . . . . . .
 72
65
 73
2
 40
0.2
 49
0.1
 74
0
 49
-0.1
 74
0
  0
LTYPE
  5
1F9
100
AcDbSymbolTableRecord
100
AcDbLinetypeTableRecord
  2
DASHED
 70
64
  3
- - - - - - - - - - - - - - - - - - - -
 72
65
 73
2
 40
0.2
 49
0.1
 74
0
 49
-0.1
 74
0
  0
ENDTAB
  0
TABLE
  2
LAYER
  5
2
100
AcDbSymbolTable
 70
36
  0
LAYER
  5
10
100
AcDbSymbolTableRecord
100
AcDbLayerTableRecord
  2
0
 70
0
 62
7
  6
CONTINUOUS
370
-3
390
F
  0
LAYER
  5
1FA
100
AcDbSymbolTableRecord
100
AcDbLayerTableRecord
  2
DEFAULT_1
 70
0
 62
7
  6
CENTER
370
-3
390
F
  0
LAYER
  5
1FB
100
AcDbSymbolTableRecord
100
AcDbLayerTableRecord
  2
DEFAULT_2
 70
0
 62
8
  6
HIDDEN
370
-3
390
F
  0
LAYER
  5
1FC
100
AcDbSymbolTableRecord
100
AcDbLayerTableRecord
  2
DEFAULT_3
 70
0
 62
7
  6
PHANTOM
370
-3
390
F
  0
LAYER
  5
1FD
100
AcDbSymbolTableRecord
100
AcDbLayerTableRecord
  2
ALL_FEATURES
 70
0
 62
7
  6
CONTINUOUS
370
-3
390
F
  0
LAYER
  5
1FE
100
AcDbSymbolTableRecord
100
AcDbLayerTableRecord
  2
AXES_FEATURES
 70
0
 62
7
  6
CONTINUOUS
370
-3
390
F
  0
LAYER
  5
1FF
100
AcDbSymbolTableRecord
100
AcDbLayerTableRecord
  2
DIMENSIONS
 70
0
 62
7
  6
CONTINUOUS
370
-3
390
F
  0
ENDTAB
  0
TABLE
  2
STYLE
  5
3
100
AcDbSymbolTable
 70
1
  0
STYLE
  5
11
100
AcDbSymbolTableRecord
100
AcDbTextStyleTableRecord
  2
STANDARD
 70
0
 40
0.0
 41
0.8
 50
0.0
 71
0
 42
0.2
  3
txt
  4

  0
STYLE
  5
200
100
AcDbSymbolTableRecord
100
AcDbTextStyleTableRecord
  2
TEXTSTYLE_1
 70
0
 40
0.0
 41
0.8
 50
0.0
 71
0
 42
0.2
  3
gdt
  4

  0
ENDTAB
  0
TABLE
  2
VIEW
  5
6
100
AcDbSymbolTable
 70
0
  0
ENDTAB
  0
TABLE
  2
UCS
  5
7
100
AcDbSymbolTable
 70
0
  0
ENDTAB
  0
TABLE
  2
APPID
  5
9
100
AcDbSymbolTable
 70
1
  0
APPID
  5
201
100
AcDbSymbolTableRecord
100
AcDbRegAppTableRecord
  2
ACAD
 70
0
  0
ENDTAB
  0
TABLE
  2
BLOCK_RECORD
  5
1
100
AcDbSymbolTable
 70
0
  0
BLOCK_RECORD
  5
202
100
AcDbSymbolTableRecord
100
AcDbBlockTableRecord
  2
*Model_Space
  0
BLOCK_RECORD
  5
203
100
AcDbSymbolTableRecord
100
AcDbBlockTableRecord
  2
*Paper_Space
  0
BLOCK_RECORD
  5
204
100
AcDbSymbolTableRecord
100
AcDbBlockTableRecord
  2
_FILLED
  0
ENDTAB
  0
TABLE
  2
DIMSTYLE
  5
A
100
AcDbSymbolTable
 70
1
100
AcDbDimStyleTable
 71
0
  0
DIMSTYLE
105
205
100
AcDbSymbolTableRecord
100
AcDbDimStyleTableRecord
  2
STANDARD
 70
0
  3

  4

 40
1.0
 41
0.1
 42
0.0625
 43
0.38
 44
0.125
 45
0.0
 46
0.0
 47
0.001
 48
0.001
140
0.08
141
0.09
142
0.0
143
25.4
144
1.0
145
0.0
146
1.0
147
0.09
 71
1.0
 72
0.0
 73
1
 74
1
 75
0
 76
0
 77
0
 78
4
 79
1
170
1
171
2
172
0
173
0
174
0
175
0
176
0
177
0
178
0
270
2
179
3
271
3
272
3
273
2
274
2
275
0
280
0
281
0
282
0
283
1
284
4
285
0
286
0
287
3
288
0
340
11
278
46
341
204
342
204
343
204
344
204
  0
ENDTAB
  0
ENDSEC
  0
SECTION
  2
BLOCKS
  0
BLOCK
  5
20
100
AcDbEntity
  8
0
100
AcDbBlockBegin
  2
*Model_Space
 70
0
 10
0.0
 20
0.0
 30
0.0
  3
*Model_Space
  1

  0
ENDBLK
  5
21
100
AcDbEntity
  8
0
100
AcDbBlockEnd
  0
BLOCK
  5
1C
100
AcDbEntity
  8
0
100
AcDbBlockBegin
  2
*Paper_Space
 70
0
 10
0.0
 20
0.0
 30
0.0
  3
*Paper_Space
  1

  0
ENDBLK
  5
1D
100
AcDbEntity
  8
0
100
AcDbBlockEnd
  0
BLOCK
  5
206
100
AcDbEntity
  8
0
100
AcDbBlockBegin
  2
_FILLED
 70
64
 10
0.0
 20
0.0
  3
_FILLED
  1

  0
SOLID
  5
207
100
AcDbEntity
  8
0
  6
BYBLOCK
 62
0
100
AcDbTrace
 10
0.0
 20
0.0
 11
-1.0
 21
0.2
 12
-1.0
 22
-0.2
 13
-1.0
 23
-0.2
  0
ENDBLK
  5
208
100
AcDbEntity
  8
0
  6
BYBLOCK
 62
0
100
AcDbBlockEnd
  0
ENDSEC
  0
SECTION
  2
ENTITIES
  0
LINE
  5
209
100
AcDbEntity
  8
0
100
AcDbLine
 62
7
  6
CONTINUOUS
 10
8.0763421
 20
8.5660887455
 11
8.0473183383
 21
8.8978318604
  0
LINE
  5
20A
100
AcDbEntity
  8
0
100
AcDbLine
 62
7
  6
CONTINUOUS
 10
9.5473183383
 20
6.4748318604
 11
9.5473183383
 21
6.0968318604
  0
LINE
  5
20B
100
AcDbEntity
  8
0
100
AcDbLine
 62
9
  6
CONTINUOUS
 10
9.6223183383
 20
6.5048318604
 11
9.6223183383
 21
6.0668318604
  0
LINE
  5
20C
100
AcDbEntity
  8
0
100
AcDbLine
 62
7
  6
CONTINUOUS
 10
9.5773183383
 20
6.0668318604
 11
12.5173143905
 21
6.0668318604
  0
LINE
  5
20D
100
AcDbEntity
  8
0
100
AcDbLine
 62
9
  6
CONTINUOUS
 10
9.5473183383
 20
6.0968318604
 11
12.5473183383
 21
6.0968318604
  0
LINE
  5
20E
100
AcDbEntity
  8
0
100
AcDbLine
 62
7
  6
CONTINUOUS
 10
10.0473183383
 20
8.3778318604
 11
10.0473183383
 21
8.5478318604
  0
LINE
  5
20F
100
AcDbEntity
  8
0
100
AcDbLine
 62
9
  6
CONTINUOUS
 10
12.5473183383
 20
6.4748318604
 11
11.3120813258
 21
6.4748318604
  0
LINE
  5
210
100
AcDbEntity
  8
0
100
AcDbLine
 62
9
  6
CONTINUOUS
 10
11.1421978564
 20
6.4748318604
 11
10.9524388202
 21
6.4748318604
  0
LINE
  5
211
100
AcDbEntity
  8
0
100
AcDbLine
 62
9
  6
CONTINUOUS
 10
10.7825553508
 20
6.4748318604
 11
9.5473183383
 21
6.4748318604
  0
LINE
  5
212
100
AcDbEntity
  8
0
100
AcDbLine
 62
7
  6
CONTINUOUS
 10
12.5173157789
 20
6.5048318604
 11
11.3552980992
 21
6.5048318604
  0
LINE
  5
213
100
AcDbEntity
  8
0
100
AcDbLine
 62
7
  6
CONTINUOUS
 10
11.0923183383
 20
6.5048318604
 11
11.0023183383
 21
6.5048318604
  0
LINE
  5
214
100
AcDbEntity
  8
0
100
AcDbLine
 62
7
  6
CONTINUOUS
 10
10.7393385367
 20
6.5048318604
 11
9.5773222861
 21
6.5048318604
  0
LINE
  5
215
100
AcDbEntity
  8
0
100
AcDbLine
 62
9
  6
CONTINUOUS
 10
10.7660684608
 20
6.5348318604
 11
10.7690233305
 21
6.5348318604
  0
LINE
  5
216
100
AcDbEntity
  8
0
100
AcDbLine
 62
9
  6
CONTINUOUS
 10
11.0066556877
 20
6.5348318604
 11
11.087980989
 21
6.5348318604
  0
LINE
  5
217
100
AcDbEntity
  8
0
100
AcDbLine
 62
9
  6
CONTINUOUS
 10
11.325613346
 20
6.5348318604
 11
11.3285683383
 21
6.5348318604
  0
LINE
  5
218
100
AcDbEntity
  8
0
100
AcDbLine
 62
7
  6
CONTINUOUS
 10
11.3285574123
 20
6.7768318604
 11
10.7660792642
 21
6.7768318604
  0
LINE
  5
219
100
AcDbEntity
  8
0
100
AcDbLine
 62
7
  6
CONTINUOUS
 10
10.7023183383
 20
6.7978318604
 11
11.3923183383
 21
6.7978318604
  0
LINE
  5
21A
100
AcDbEntity
  8
0
100
AcDbLine
 62
9
  6
CONTINUOUS
 10
10.6723183383
 20
6.8278318604
 11
11.4223183383
 21
6.8278318604
  0
LINE
  5
21B
100
AcDbEntity
  8
0
100
AcDbLine
 62
7
  6
CONTINUOUS
 10
10.5973183383
 20
7.5528318604
 11
10.5973183383
 21
7.4628318604
  0
LINE
  5
21C
100
AcDbEntity
  8
0
100
AcDbLine
 62
7
  6
CONTINUOUS
 10
10.598117835
 20
7.4558368909
 11
10.629617835
 21
7.3198368909
  0
LINE
  5
21D
100
AcDbEntity
  8
0
100
AcDbLine
 62
7
  6
CONTINUOUS
 10
10.6723183383
 20
8.3378318604
 11
10.6723183383
 21
6.8278318604
  0
LINE
  5
21E
100
AcDbEntity
  8
0
100
AcDbLine
 62
7
  6
CONTINUOUS
 10
10.6823183383
 20
8.3378318604
 11
10.6823183383
 21
8.3478318604
  0
LINE
  5
21F
100
AcDbEntity
  8
0
100
AcDbLine
 62
9
  6
CONTINUOUS
 10
10.7543139654
 20
6.0668318604
 11
10.7543139654
 21
6.4748318604
  0
LINE
  5
220
100
AcDbEntity
  8
0
100
AcDbLine
 62
7
  6
CONTINUOUS
 10
10.7660683383
 20
6.7768318604
 11
10.7660683383
 21
6.5348318604
  0
LINE
  5
221
100
AcDbEntity
  8
0
100
AcDbLine
 62
9
  6
CONTINUOUS
 10
10.7825553508
 20
6.0968318604
 11
10.7825553508
 21
6.4748318607
  0
LINE
  5
222
100
AcDbEntity
  8
0
100
AcDbLine
 62
7
  6
CONTINUOUS
 10
10.7923183383
 20
6.7768318604
 11
10.7923183383
 21
6.7978318604
  0
LINE
  5
223
100
AcDbEntity
  8
0
100
AcDbLine
 62
7
  6
CONTINUOUS
 10
10.6723183383
 20
7.6401108187
 11
10.6064920788
 21
7.5748458195
  0
LINE
  5
224
100
AcDbEntity
  8
0
100
AcDbLine
 62
9
  6
CONTINUOUS
 10
10.9524388203
 20
6.4748318607
 11
10.9524388203
 21
6.0968318604
  0
LINE
  5
225
100
AcDbEntity
  8
0
100
AcDbLine
 62
7
  6
CONTINUOUS
 10
10.9723183383
 20
6.0968318604
 11
10.9723183383
 21
6.4748318604
  0
LINE
  5
226
100
AcDbEntity
  8
0
100
AcDbLine
 62
7
  6
CONTINUOUS
 10
10.6598183383
 20
7.2958318604
 11
10.6723183383
 21
7.2958318604
  0
LINE
  5
227
100
AcDbEntity
  8
0
100
AcDbLine
 62
7
  6
CONTINUOUS
 10
11.4223183383
 20
7.2958318604
 11
11.4348183383
 21
7.2958318604
  0
LINE
  5
228
100
AcDbEntity
  8
0
100
AcDbLine
 62
9
  6
CONTINUOUS
 10
10.629617835
 20
7.3198368909
 11
10.6723183383
 21
7.3198368909
  0
LINE
  5
229
100
AcDbEntity
  8
0
100
AcDbLine
 62
9
  6
CONTINUOUS
 10
11.4223183383
 20
7.3198368909
 11
11.4650188416
 21
7.3198368909
  0
LINE
  5
22A
100
AcDbEntity
  8
0
100
AcDbLine
 62
9
  6
CONTINUOUS
 10
11.4965188416
 20
7.4558368909
 11
11.4223183383
 21
7.4558368909
  0
LINE
  5
22B
100
AcDbEntity
  8
0
100
AcDbLine
 62
9
  6
CONTINUOUS
 10
10.6723183383
 20
7.4558368909
 11
10.598117835
 21
7.4558368909
  0
LINE
  5
22C
100
AcDbEntity
  8
0
100
AcDbLine
 62
9
  6
CONTINUOUS
 10
10.5973183383
 20
7.4628318604
 11
10.6723183383
 21
7.4628318604
  0
LINE
  5
22D
100
AcDbEntity
  8
0
100
AcDbLine
 62
9
  6
CONTINUOUS
 10
11.4223183383
 20
7.4628318604
 11
11.4973183383
 21
7.4628318604
  0
LINE
  5
22E
100
AcDbEntity
  8
0
100
AcDbLine
 62
7
  6
CONTINUOUS
 10
11.1223183383
 20
6.4748318604
 11
11.1223183383
 21
6.0968318604
  0
LINE
  5
22F
100
AcDbEntity
  8
0
100
AcDbLine
 62
9
  6
CONTINUOUS
 10
11.1421978563
 20
6.0968318604
 11
11.1421978563
 21
6.4748318607
  0
LINE
  5
230
100
AcDbEntity
  8
0
100
AcDbLine
 62
9
  6
CONTINUOUS
 10
11.4973183383
 20
7.5528318604
 11
11.4223183383
 21
7.5528318604
  0
LINE
  5
231
100
AcDbEntity
  8
0
100
AcDbLine
 62
9
  6
CONTINUOUS
 10
10.6723183383
 20
7.5528318604
 11
10.5973183383
 21
7.5528318604
  0
LINE
  5
232
100
AcDbEntity
  8
0
100
AcDbLine
 62
9
  6
CONTINUOUS
 10
10.6064920788
 20
7.5748458195
 11
10.6723183383
 21
7.5748458195
  0
LINE
  5
233
100
AcDbEntity
  8
0
100
AcDbLine
 62
9
  6
CONTINUOUS
 10
11.4223183383
 20
7.5748458195
 11
11.4881445978
 21
7.5748458195
  0
LINE
  5
234
100
AcDbEntity
  8
0
100
AcDbLine
 62
7
  6
CONTINUOUS
 10
11.3023183383
 20
6.7768318604
 11
11.3023183383
 21
6.7978318604
  0
LINE
  5
235
100
AcDbEntity
  8
0
100
AcDbLine
 62
9
  6
CONTINUOUS
 10
11.3120813258
 20
6.4748318607
 11
11.3120813258
 21
6.0968318604
  0
LINE
  5
236
100
AcDbEntity
  8
0
100
AcDbLine
 62
7
  6
CONTINUOUS
 10
11.3285683383
 20
6.7768318604
 11
11.3285683383
 21
6.5348318604
  0
LINE
  5
237
100
AcDbEntity
  8
0
100
AcDbLine
 62
9
  6
CONTINUOUS
 10
11.3403227111
 20
6.4748318604
 11
11.3403227111
 21
6.0668318604
  0
LINE
  5
238
100
AcDbEntity
  8
0
100
AcDbLine
 62
7
  6
CONTINUOUS
 10
11.4123183383
 20
8.3378318604
 11
11.4123183383
 21
8.3478318604
  0
LINE
  5
239
100
AcDbEntity
  8
0
100
AcDbLine
 62
7
  6
CONTINUOUS
 10
11.4223183383
 20
8.3378318604
 11
11.4223183383
 21
6.8278318604
  0
LINE
  5
23A
100
AcDbEntity
  8
0
100
AcDbLine
 62
7
  6
CONTINUOUS
 10
11.4973183383
 20
7.5528318604
 11
11.4973183383
 21
7.4628318604
  0
LINE
  5
23B
100
AcDbEntity
  8
0
100
AcDbLine
 62
7
  6
CONTINUOUS
 10
11.4965188416
 20
7.4558368909
 11
11.4650188416
 21
7.3198368909
  0
LINE
  5
23C
100
AcDbEntity
  8
0
100
AcDbLine
 62
7
  6
CONTINUOUS
 10
11.4223183383
 20
7.6401108187
 11
11.4881445978
 21
7.5748458195
  0
LINE
  5
23D
100
AcDbEntity
  8
0
100
AcDbLine
 62
7
  6
CONTINUOUS
 10
11.422317933
 20
8.3378318604
 11
10.6723187436
 21
8.3378318604
  0
LINE
  5
23E
100
AcDbEntity
  8
0
100
AcDbLine
 62
7
  6
CONTINUOUS
 10
10.0773263715
 20
8.3478318604
 11
12.0173103051
 21
8.3478318604
  0
LINE
  5
23F
100
AcDbEntity
  8
0
100
AcDbLine
 62
9
  6
CONTINUOUS
 10
10.0473183383
 20
8.3778318604
 11
12.0473183383
 21
8.3778318604
  0
LINE
  5
240
100
AcDbEntity
  8
0
100
AcDbLine
 62
7
  6
CONTINUOUS
 10
12.0473183383
 20
8.3778318604
 11
12.0473183383
 21
8.5478318604
  0
LINE
  5
241
100
AcDbEntity
  8
0
100
AcDbLine
 62
7
  6
CONTINUOUS
 10
8.096265994
 20
8.5478318604
 11
13.9983706826
 21
8.5478318604
  0
LINE
  5
242
100
AcDbEntity
  8
0
100
AcDbLine
 62
9
  6
CONTINUOUS
 10
8.0763421
 20
8.5660887455
 11
14.0182945765
 21
8.5660887455
  0
LINE
  5
243
100
AcDbEntity
  8
0
100
AcDbLine
 62
9
  6
CONTINUOUS
 10
12.4723183383
 20
6.0668318604
 11
12.4723183383
 21
6.5048318604
  0
LINE
  5
244
100
AcDbEntity
  8
0
100
AcDbLine
 62
7
  6
CONTINUOUS
 10
12.5473183383
 20
6.0968318604
 11
12.5473183383
 21
6.4748318604
  0
LINE
  5
245
100
AcDbEntity
  8
0
100
AcDbLine
 62
7
  6
CONTINUOUS
 10
14.0473183383
 20
8.8978318604
 11
8.0473183383
 21
8.8978318604
  0
LINE
  5
246
100
AcDbEntity
  8
0
100
AcDbLine
 62
7
  6
CONTINUOUS
 10
14.0182945765
 20
8.5660887455
 11
14.0473183383
 21
8.8978318604
  0
ARC
  5
247
100
AcDbEntity
  8
0
100
AcDbCircle
 62
7
  6
CONTINUOUS
 10
11.4663183383
 20
7.5528318604
 40
0.031
100
AcDbArc
 50
0.0
 51
45.2453073495
  0
ARC
  5
248
100
AcDbEntity
  8
0
100
AcDbCircle
 62
7
  6
CONTINUOUS
 10
10.6283183383
 20
7.5528318604
 40
0.031
100
AcDbArc
 50
134.7546926505
 51
180.0
  0
ARC
  5
249
100
AcDbEntity
  8
0
100
AcDbCircle
 62
7
  6
CONTINUOUS
 10
11.4663183383
 20
7.4628318604
 40
0.031
100
AcDbArc
 50
346.9592389662
 51
360.0
  0
ARC
  5
24A
100
AcDbEntity
  8
0
100
AcDbCircle
 62
7
  6
CONTINUOUS
 10
10.6283183383
 20
7.4628318604
 40
0.031
100
AcDbArc
 50
180.0
 51
193.0407610338
  0
ARC
  5
24B
100
AcDbEntity
  8
0
100
AcDbCircle
 62
7
  6
CONTINUOUS
 10
11.4348183383
 20
7.3268318604
 40
0.031
100
AcDbArc
 50
270.0
 51
346.9592389661
  0
ARC
  5
24C
100
AcDbEntity
  8
0
100
AcDbCircle
 62
7
  6
CONTINUOUS
 10
10.6598183383
 20
7.3268318604
 40
0.031
100
AcDbArc
 50
193.0407610339
 51
270.0
  0
ARC
  5
24D
100
AcDbEntity
  8
0
100
AcDbCircle
 62
7
  6
CONTINUOUS
 10
10.0773183383
 20
8.3778318604
 40
0.03
100
AcDbArc
 50
180.0
 51
270.0
  0
ARC
  5
24E
100
AcDbEntity
  8
0
100
AcDbCircle
 62
7
  6
CONTINUOUS
 10
12.0173183383
 20
8.3778318604
 40
0.03
100
AcDbArc
 50
270.0
 51
360.0
  0
ARC
  5
24F
100
AcDbEntity
  8
0
100
AcDbCircle
 62
7
  6
CONTINUOUS
 10
10.7023183383
 20
6.8278318604
 40
0.03
100
AcDbArc
 50
180.0
 51
270.0
  0
ARC
  5
250
100
AcDbEntity
  8
0
100
AcDbCircle
 62
7
  6
CONTINUOUS
 10
11.3923183383
 20
6.8278318604
 40
0.03
100
AcDbArc
 50
270.0
 51
360.0
  0
ARC
  5
251
100
AcDbEntity
  8
0
100
AcDbCircle
 62
7
  6
CONTINUOUS
 10
11.0023183383
 20
6.0968318604
 40
0.03
100
AcDbArc
 50
180.0
 51
270.0
  0
ARC
  5
252
100
AcDbEntity
  8
0
100
AcDbCircle
 62
7
  6
CONTINUOUS
 10
11.0923183383
 20
6.0968318604
 40
0.03
100
AcDbArc
 50
270.0
 51
360.0
  0
ARC
  5
253
100
AcDbEntity
  8
0
100
AcDbCircle
 62
7
  6
CONTINUOUS
 10
12.5173183383
 20
6.4748318604
 40
0.03
100
AcDbArc
 50
0.0
 51
90.0
  0
ARC
  5
254
100
AcDbEntity
  8
0
100
AcDbCircle
 62
7
  6
CONTINUOUS
 10
11.0923183383
 20
6.4748318604
 40
0.03
100
AcDbArc
 50
0.0
 51
90.0
  0
ARC
  5
255
100
AcDbEntity
  8
0
100
AcDbCircle
 62
7
  6
CONTINUOUS
 10
11.0023183383
 20
6.4748318604
 40
0.03
100
AcDbArc
 50
90.0
 51
180.0
  0
ARC
  5
256
100
AcDbEntity
  8
0
100
AcDbCircle
 62
7
  6
CONTINUOUS
 10
11.3585683383
 20
6.5348318604
 40
0.03
100
AcDbArc
 50
180.0
 51
263.8058339715
  0
ARC
  5
257
100
AcDbEntity
  8
0
100
AcDbCircle
 62
7
  6
CONTINUOUS
 10
9.5773183383
 20
6.4748318604
 40
0.03
100
AcDbArc
 50
90.0
 51
180.0
  0
ARC
  5
258
100
AcDbEntity
  8
0
100
AcDbCircle
 62
7
  6
CONTINUOUS
 10
10.7360683383
 20
6.5348318604
 40
0.03
100
AcDbArc
 50
276.1941659779
 51
360.0
  0
ARC
  5
259
100
AcDbEntity
  8
0
100
AcDbCircle
 62
7
  6
CONTINUOUS
 10
9.5773183383
 20
6.0968318604
 40
0.03
100
AcDbArc
 50
180.0
 51
270.0
  0
ARC
  5
25A
100
AcDbEntity
  8
0
100
AcDbCircle
 62
7
  6
CONTINUOUS
 10
12.5173183383
 20
6.0968318604
 40
0.03
100
AcDbArc
 50
270.0
 51
360.0
  0
ARC
  5
25B
100
AcDbEntity
  8
0
100
AcDbCircle
 62
7
  6
CONTINUOUS
 10
8.096265994
 20
8.5678318604
 40
0.02
100
AcDbArc
 50
185.0000000003
 51
270.0
  0
ARC
  5
25C
100
AcDbEntity
  8
0
100
AcDbCircle
 62
7
  6
CONTINUOUS
 10
13.9983706826
 20
8.5678318604
 40
0.02
100
AcDbArc
 50
270.0
 51
354.9999999997
  0
SPLINE
  5
25D
100
AcDbEntity
  8
0
100
AcDbSpline
 62
9
  6
CONTINUOUS
 70
0
 71
3
 72
15
 73
11
 74
0
 42
0.0000001
 43
0.0000001
 44
0.0000000001
 40
0.0
 40
0.0
 40
0.0
 40
0.0
 40
0.1546827037
 40
0.3058904534
 40
0.4497866215
 40
0.5843965989
 40
0.7079876243
 40
0.8193475702
 40
0.9171059812
 40
1.0
 40
1.0
 40
1.0
 40
1.0
 10
11.3403227111
 20
6.4748318604
 30
0.0
 10
11.3403228605
 20
6.4764485953
 30
0.0
 10
11.3405151712
 20
6.4796483461
 30
0.0
 10
11.3413157319
 20
6.4842901029
 30
0.0
 10
11.3425636334
 20
6.4886135435
 30
0.0
 10
11.3441322934
 20
6.4925197885
 30
0.0
 10
11.345915402
 20
6.4959528602
 30
0.0
 10
11.3478081442
 20
6.4988767612
 30
0.0
 10
11.3497151361
 20
6.5012659222
 30
0.0
 10
11.3510672755
 20
6.5025951775
 30
0.0
 10
11.3517374257
 20
6.5031443168
 30
0.0
  0
SPLINE
  5
25E
100
AcDbEntity
  8
0
100
AcDbSpline
 62
9
  6
CONTINUOUS
 70
0
 71
3
 72
11
 73
7
 74
0
 42
0.0000001
 43
0.0000001
 44
0.0000000001
 40
0.0
 40
0.0
 40
0.0
 40
0.0
 40
0.3042443488
 40
0.5709912539
 40
0.8014685914
 40
1.0
 40
1.0
 40
1.0
 40
1.0
 10
11.3517374257
 20
6.5031443168
 30
0.0
 10
11.3520521104
 20
6.503402178
 30
0.0
 10
11.352664349
 20
6.503860958
 30
0.0
 10
11.353593977
 20
6.5044007499
 30
0.0
 10
11.3544645953
 20
6.5047407074
 30
0.0
 10
11.3550386834
 20
6.5048318033
 30
0.0
 10
11.3553041626
 20
6.5048318604
 30
0.0
  0
SPLINE
  5
25F
100
AcDbEntity
  8
0
100
AcDbSpline
 62
9
  6
CONTINUOUS
 70
0
 71
3
 72
18
 73
14
 74
0
 42
0.0000001
 43
0.0000001
 44
0.0000000001
 40
0.0
 40
0.0
 40
0.0
 40
0.0
 40
0.1248044858
 40
0.1871139082
 40
0.2492505807
 40
0.3112918254
 40
0.3732870276
 40
0.4973129523
 40
0.5595887486
 40
0.6220348165
 40
0.7473524764
 40
0.8735177568
 40
1.0
 40
1.0
 40
1.0
 40
1.0
 10
11.0066556877
 20
6.5348318604
 30
0.0
 10
11.0029256859
 20
6.5348314837
 30
0.0
 10
10.9973074931
 20
6.5341793702
 30
0.0
 10
10.9901465111
 20
6.5320903295
 30
0.0
 10
10.9849902092
 20
6.529943147
 30
0.0
 10
10.9801035532
 20
6.5272598303
 30
0.0
 10
10.9740082676
 20
6.5230206133
 30
0.0
 10
10.9685912911
 20
6.517864202
 30
0.0
 10
10.9639953802
 20
6.5120101691
 30
0.0
 10
10.9599442536
 20
6.5057190225
 30
0.0
 10
10.9559786539
 20
6.4971539339
 30
0.0
 10
10.9530932527
 20
6.4861784949
 30
0.0
 10
10.9524390932
 20
6.4786120052
 30
0.0
 10
10.9524388203
 20
6.4748318607
 30
0.0
  0
SPLINE
  5
260
100
AcDbEntity
  8
0
100
AcDbSpline
 62
9
  6
CONTINUOUS
 70
0
 71
3
 72
16
 73
12
 74
0
 42
0.0000001
 43
0.0000001
 44
0.0000000001
 40
0.0
 40
0.0
 40
0.0
 40
0.0
 40
0.1285521515
 40
0.2567920026
 40
0.3205586252
 40
0.3840043535
 40
0.5097386399
 40
0.6340054238
 40
0.7568852433
 40
0.8788421758
 40
1.0
 40
1.0
 40
1.0
 40
1.0
 10
11.3120813258
 20
6.0968318604
 30
0.0
 10
11.3120813258
 20
6.0948742083
 30
0.0
 10
11.311716571
 20
6.0909550618
 30
0.0
 10
11.3103740005
 20
6.0862310473
 30
0.0
 10
11.30878906
 20
6.0826726154
 30
0.0
 10
11.306895398
 20
6.0793126077
 30
0.0
 10
11.3039595789
 20
6.0755079649
 30
0.0
 10
11.2996583843
 20
6.0717454637
 30
0.0
 10
11.294738978
 20
6.0689449023
 30
0.0
 10
11.2893982599
 20
6.0672236334
 30
0.0
 10
11.2856849883
 20
6.0668318604
 30
0.0
 10
11.2838399405
 20
6.0668318604
 30
0.0
  0
SPLINE
  5
261
100
AcDbEntity
  8
0
100
AcDbSpline
 62
9
  6
CONTINUOUS
 70
0
 71
3
 72
19
 73
15
 74
0
 42
0.0000001
 43
0.0000001
 44
0.0000000001
 40
0.0
 40
0.0
 40
0.0
 40
0.0
 40
0.1748776765
 40
0.344148176
 40
0.5016390031
 40
0.6425895236
 40
0.7056594193
 40
0.7632480575
 40
0.8151424909
 40
0.861358898
 40
0.9021206954
 40
0.9380083394
 40
0.9701003834
 40
1.0
 40
1.0
 40
1.0
 40
1.0
 10
11.1421978564
 20
6.0968318604
 30
0.0
 10
11.1421978564
 20
6.0948815234
 30
0.0
 10
11.1420714838
 20
6.0910422055
 30
0.0
 10
11.1415131834
 20
6.0854709724
 30
0.0
 10
11.1406048711
 20
6.0803292388
 30
0.0
 10
11.1395525163
 20
6.0764288772
 30
0.0
 10
11.1385424616
 20
6.0736897093
 30
0.0
 10
11.1377518827
 20
6.0719331172
 30
0.0
 10
11.1369066435
 20
6.0704133934
 30
0.0
 10
11.1360146569
 20
6.0691429508
 30
0.0
 10
11.1350811014
 20
6.0681327126
 30
0.0
 10
11.1341088737
 20
6.0673944917
 30
0.0
 10
11.1331055237
 20
6.0669381442
 30
0.0
 10
11.1324108322
 20
6.0668318604
 30
0.0
 10
11.1320773744
 20
6.0668318604
 30
0.0
  0
SPLINE
  5
262
100
AcDbEntity
  8
0
100
AcDbSpline
 62
9
  6
CONTINUOUS
 70
0
 71
3
 72
15
 73
11
 74
0
 42
0.0000001
 43
0.0000001
 44
0.0000000001
 40
0.0
 40
0.0
 40
0.0
 40
0.0
 40
0.1242523446
 40
0.2488306826
 40
0.3734451213
 40
0.4983079516
 40
0.6234276917
 40
0.7487755769
 40
0.8744536196
 40
1.0
 40
1.0
 40
1.0
 40
1.0
 10
10.7393391906
 20
6.5048318604
 30
0.0
 10
10.7412775504
 20
6.5048318604
 30
0.0
 10
10.7451698679
 20
6.5052218269
 30
0.0
 10
10.7507754362
 20
6.5069369734
 30
0.0
 10
10.7559431836
 20
6.509730117
 30
0.0
 10
10.7604673639
 20
6.5134879764
 30
0.0
 10
10.7641833545
 20
6.5180610521
 30
0.0
 10
10.7669441013
 20
6.5232822689
 30
0.0
 10
10.7686387743
 20
6.5289439614
 30
0.0
 10
10.7690239277
 20
6.5328733133
 30
0.0
 10
10.7690239277
 20
6.5348318604
 30
0.0
  0
SPLINE
  5
263
100
AcDbEntity
  8
0
100
AcDbSpline
 62
9
  6
CONTINUOUS
 70
0
 71
3
 72
25
 73
21
 74
0
 42
0.0000001
 43
0.0000001
 44
0.0000000001
 40
0.0
 40
0.0
 40
0.0
 40
0.0
 40
0.0149950003
 40
0.0248393933
 40
0.0366157754
 40
0.0505059149
 40
0.0665779791
 40
0.1050756083
 40
0.1515555321
 40
0.2053646513
 40
0.2658767397
 40
0.3324257748
 40
0.4042917935
 40
0.480764566
 40
0.561188897
 40
0.6449232351
 40
0.7313434451
 40
0.8198406084
 40
0.9096781929
 40
1.0
 40
1.0
 40
1.0
 40
1.0
 10
10.7690233305
 20
6.5348318604
 30
0.0
 10
10.7693364306
 20
6.5348105894
 30
0.0
 10
10.7698343129
 20
6.5345732207
 30
0.0
 10
10.7704157585
 20
6.5340787417
 30
0.0
 10
10.7709160258
 20
6.5335246993
 30
0.0
 10
10.7714327476
 20
6.5328197068
 30
0.0
 10
10.7721915117
 20
6.5316029631
 30
0.0
 10
10.7731519037
 20
6.5297151826
 30
0.0
 10
10.7742880525
 20
6.5270406092
 30
0.0
 10
10.7754394114
 20
6.5238769113
 30
0.0
 10
10.776578687
 20
6.5202660648
 30
0.0
 10
10.7776797824
 20
6.5162501317
 30
0.0
 10
10.7787179146
 20
6.511873445
 30
0.0
 10
10.7796681603
 20
6.5071802059
 30
0.0
 10
10.7805154399
 20
6.5022151945
 30
0.0
 10
10.7812437453
 20
6.4970209956
 30
0.0
 10
10.7818243233
 20
6.4916379509
 30
0.0
 10
10.7822208102
 20
6.486110165
 30
0.0
 10
10.7824556579
 20
6.4804919239
 30
0.0
 10
10.7825315952
 20
6.4767220048
 30
0.0
 10
10.7825553508
 20
6.4748318607
 30
0.0
  0
SPLINE
  5
264
100
AcDbEntity
  8
0
100
AcDbSpline
 62
9
  6
CONTINUOUS
 70
0
 71
3
 72
19
 73
15
 74
0
 42
0.0000001
 43
0.0000001
 44
0.0000000001
 40
0.0
 40
0.0
 40
0.0
 40
0.0
 40
0.1748776765
 40
0.344148176
 40
0.5016390031
 40
0.6425895236
 40
0.7056594193
 40
0.7632480575
 40
0.815142491
 40
0.861358898
 40
0.9021206954
 40
0.9380083394
 40
0.9701003834
 40
1.0
 40
1.0
 40
1.0
 40
1.0
 10
10.9524388202
 20
6.0968318604
 30
0.0
 10
10.9524388202
 20
6.0948815234
 30
0.0
 10
10.9525651928
 20
6.0910422055
 30
0.0
 10
10.9531234932
 20
6.0854709724
 30
0.0
 10
10.9540318055
 20
6.0803292388
 30
0.0
 10
10.9550841602
 20
6.0764288772
 30
0.0
 10
10.956094215
 20
6.0736897093
 30
0.0
 10
10.9568847939
 20
6.0719331172
 30
0.0
 10
10.9577300331
 20
6.0704133934
 30
0.0
 10
10.9586220197
 20
6.0691429508
 30
0.0
 10
10.9595555751
 20
6.0681327126
 30
0.0
 10
10.9605278028
 20
6.0673944917
 30
0.0
 10
10.9615311528
 20
6.0669381442
 30
0.0
 10
10.9622258443
 20
6.0668318604
 30
0.0
 10
10.9625593021
 20
6.0668318604
 30
0.0
  0
SPLINE
  5
265
100
AcDbEntity
  8
0
100
AcDbSpline
 62
9
  6
CONTINUOUS
 70
0
 71
3
 72
17
 73
13
 74
0
 42
0.0000001
 43
0.0000001
 44
0.0000000001
 40
0.0
 40
0.0
 40
0.0
 40
0.0
 40
0.0574332246
 40
0.0943889489
 40
0.1371569555
 40
0.1855557151
 40
0.2393395519
 40
0.3617891467
 40
0.5021040074
 40
0.657757243
 40
0.8254165575
 40
1.0
 40
1.0
 40
1.0
 40
1.0
 10
10.7393374364
 20
6.5048318604
 30
0.0
 10
10.7400140252
 20
6.5048316589
 30
0.0
 10
10.7411084711
 20
6.5044143212
 30
0.0
 10
10.7424513362
 20
6.503529323
 30
0.0
 10
10.7436106502
 20
6.502553554
 30
0.0
 10
10.7448087774
 20
6.5013354275
 30
0.0
 10
10.7465148609
 20
6.4993093132
 30
0.0
 10
10.7486099256
 20
6.4962110237
 30
0.0
 10
10.7508659385
 20
6.4918157015
 30
0.0
 10
10.7527464658
 20
6.486671537
 30
0.0
 10
10.7540158272
 20
6.4809267145
 30
0.0
 10
10.7543138876
 20
6.4768885307
 30
0.0
 10
10.7543139654
 20
6.4748318604
 30
0.0
  0
SPLINE
  5
266
100
AcDbEntity
  8
0
100
AcDbSpline
 62
9
  6
CONTINUOUS
 70
0
 71
3
 72
16
 73
12
 74
0
 42
0.0000001
 43
0.0000001
 44
0.0000000001
 40
0.0
 40
0.0
 40
0.0
 40
0.0
 40
0.1285521515
 40
0.2567920026
 40
0.3205586252
 40
0.3840043535
 40
0.5097386399
 40
0.6340054238
 40
0.7568852432
 40
0.8788421758
 40
1.0
 40
1.0
 40
1.0
 40
1.0
 10
10.7825553508
 20
6.0968318604
 30
0.0
 10
10.7825553508
 20
6.0948742083
 30
0.0
 10
10.7829201055
 20
6.0909550618
 30
0.0
 10
10.7842626761
 20
6.0862310473
 30
0.0
 10
10.7858476165
 20
6.0826726154
 30
0.0
 10
10.7877412786
 20
6.0793126077
 30
0.0
 10
10.7906770977
 20
6.0755079649
 30
0.0
 10
10.7949782923
 20
6.0717454637
 30
0.0
 10
10.7998976986
 20
6.0689449023
 30
0.0
 10
10.8052384167
 20
6.0672236334
 30
0.0
 10
10.8089516883
 20
6.0668318604
 30
0.0
 10
10.8107967361
 20
6.0668318604
 30
0.0
  0
SPLINE
  5
267
100
AcDbEntity
  8
0
100
AcDbSpline
 62
9
  6
CONTINUOUS
 70
0
 71
3
 72
23
 73
19
 74
0
 42
0.0000001
 43
0.0000001
 44
0.0000000001
 40
0.0
 40
0.0
 40
0.0
 40
0.0
 40
0.1769317432
 40
0.357718047
 40
0.4464335001
 40
0.5321488938
 40
0.6133674974
 40
0.6886023334
 40
0.7565364635
 40
0.8164833524
 40
0.8679310399
 40
0.9104130408
 40
0.9437481165
 40
0.9686788407
 40
0.9784094386
 40
0.9866193078
 40
0.9936575778
 40
1.0
 40
1.0
 40
1.0
 40
1.0
 10
11.0066556877
 20
6.5348318604
 30
0.0
 10
11.0066556876
 20
6.5330104363
 30
0.0
 10
11.006606816
 20
6.5293277728
 30
0.0
 10
11.0064210968
 20
6.5247349464
 30
0.0
 10
11.0061807424
 20
6.5210858967
 30
0.0
 10
11.0059603445
 20
6.5184631962
 30
0.0
 10
11.0057015011
 20
6.5159834727
 30
0.0
 10
11.0054071006
 20
6.513692066
 30
0.0
 10
11.0050782844
 20
6.5116267437
 30
0.0
 10
11.0047229938
 20
6.5098146183
 30
0.0
 10
11.0043488176
 20
6.5082748146
 30
0.0
 10
11.0039636295
 20
6.5070210513
 30
0.0
 10
11.0035699341
 20
6.5060602539
 30
0.0
 10
11.0032162247
 20
6.50545029
 30
0.0
 10
11.0029244106
 20
6.5051172182
 30
0.0
 10
11.0027236338
 20
6.5049539617
 30
0.0
 10
11.0025220841
 20
6.5048548037
 30
0.0
 10
11.0023836303
 20
6.5048318657
 30
0.0
 10
11.0023183382
 20
6.5048318638
 30
0.0
  0
SPLINE
  5
268
100
AcDbEntity
  8
0
100
AcDbSpline
 62
9
  6
CONTINUOUS
 70
0
 71
3
 72
22
 73
18
 74
0
 42
0.0000001
 43
0.0000001
 44
0.0000000001
 40
0.0
 40
0.0
 40
0.0
 40
0.0
 40
0.0069706654
 40
0.0146862926
 40
0.023684222
 40
0.0342971416
 40
0.0610339976
 40
0.0956832281
 40
0.1383104636
 40
0.1887084672
 40
0.2465710482
 40
0.3114179385
 40
0.382641929
 40
0.4596167026
 40
0.6280249772
 40
0.8106306615
 40
1.0
 40
1.0
 40
1.0
 40
1.0
 10
11.0923223872
 20
6.5048318604
 30
0.0
 10
11.0922506273
 20
6.5048318604
 30
0.0
 10
11.0920985675
 20
6.5048595229
 30
0.0
 10
11.0918813974
 20
6.5049764055
 30
0.0
 10
11.0916691133
 20
6.5051636513
 30
0.0
 10
11.0913670685
 20
6.5055349212
 30
0.0
 10
11.0910099806
 20
6.5061899117
 30
0.0
 10
11.0906197948
 20
6.5071880832
 30
0.0
 10
11.0902433702
 20
6.5084487008
 30
0.0
 10
11.0898844827
 20
6.5099605183
 30
0.0
 10
11.0895477765
 20
6.5117109464
 30
0.0
 10
11.0892364881
 20
6.5136832729
 30
0.0
 10
11.088953535
 20
6.5158583891
 30
0.0
 10
11.088608419
 20
6.519099626
 30
0.0
 10
11.0882769671
 20
6.5234941981
 30
0.0
 10
11.0880385636
 20
6.5290528323
 30
0.0
 10
11.0879846475
 20
6.5328823888
 30
0.0
 10
11.0879846475
 20
6.5348318604
 30
0.0
  0
SPLINE
  5
269
100
AcDbEntity
  8
0
100
AcDbSpline
 62
9
  6
CONTINUOUS
 70
0
 71
3
 72
21
 73
17
 74
0
 42
0.0000001
 43
0.0000001
 44
0.0000000001
 40
0.0
 40
0.0
 40
0.0
 40
0.0
 40
0.1248375314
 40
0.1871133499
 40
0.2492409642
 40
0.3731031327
 40
0.4971307644
 40
0.5593836291
 40
0.621769727
 40
0.6843755777
 40
0.7472276271
 40
0.8102296501
 40
0.8417800263
 40
0.8733687059
 40
0.9366692186
 40
1.0
 40
1.0
 40
1.0
 40
1.0
 10
11.087980989
 20
6.5348318604
 30
0.0
 10
11.0917125011
 20
6.5348179494
 30
0.0
 10
11.0973309107
 20
6.5341813869
 30
0.0
 10
11.1044946302
 20
6.5320932328
 30
0.0
 10
11.1113568975
 20
6.529232081
 30
0.0
 10
11.1192878659
 20
6.5242996149
 30
0.0
 10
11.1260491309
 20
6.5178637024
 30
0.0
 10
11.1306439748
 20
6.5120094183
 30
0.0
 10
11.1336727136
 20
6.5072926455
 30
0.0
 10
11.136269809
 20
6.5023064369
 30
0.0
 10
11.1384327637
 20
6.4970973277
 30
0.0
 10
11.1398367281
 20
6.4925986065
 30
0.0
 10
11.140693966
 20
6.4889254875
 30
0.0
 10
11.1413751279
 20
6.4852066599
 30
0.0
 10
11.1419325457
 20
6.4805054154
 30
0.0
 10
11.1421375032
 20
6.4767239286
 30
0.0
 10
11.1421978563
 20
6.4748318607
 30
0.0
  0
SPLINE
  5
26A
100
AcDbEntity
  8
0
100
AcDbSpline
 62
9
  6
CONTINUOUS
 70
0
 71
3
 72
24
 73
20
 74
0
 42
0.0000001
 43
0.0000001
 44
0.0000000001
 40
0.0
 40
0.0
 40
0.0
 40
0.0
 40
0.0068787848
 40
0.0150398655
 40
0.0249495793
 40
0.0368392098
 40
0.0508161071
 40
0.0669151326
 40
0.0851125522
 40
0.105360469
 40
0.1517557617
 40
0.2055462128
 40
0.2660622317
 40
0.3325979452
 40
0.4044523886
 40
0.4809393065
 40
0.6451105701
 40
0.8200030378
 40
1.0
 40
1.0
 40
1.0
 40
1.0
 10
11.325613346
 20
6.5348318604
 30
0.0
 10
11.32546935
 20
6.5348317513
 30
0.0
 10
11.3251539697
 20
6.5347630244
 30
0.0
 10
11.3246962287
 20
6.5345022936
 30
0.0
 10
11.3242197475
 20
6.534090343
 30
0.0
 10
11.3237229525
 20
6.5335279041
 30
0.0
 10
11.3232060449
 20
6.5328164086
 30
0.0
 10
11.322671325
 20
6.5319582013
 30
0.0
 10
11.3221212101
 20
6.5309571487
 30
0.0
 10
11.3213352574
 20
6.5293640213
 30
0.0
 10
11.3203481418
 20
6.5270421528
 30
0.0
 10
11.3191977961
 20
6.5238797476
 30
0.0
 10
11.3180594337
 20
6.5202682
 30
0.0
 10
11.3169585658
 20
6.5162516876
 30
0.0
 10
11.3159197446
 20
6.5118742974
 30
0.0
 10
11.3146169141
 20
6.5054624213
 30
0.0
 10
11.3132997119
 20
6.4968574807
 30
0.0
 10
11.3123108055
 20
6.4860308312
 30
0.0
 10
11.3120814
 20
6.4785998013
 30
0.0
 10
11.3120813258
 20
6.4748318607
 30
0.0
  0
SPLINE
  5
26B
100
AcDbEntity
  8
0
100
AcDbSpline
 62
9
  6
CONTINUOUS
 70
0
 71
3
 72
15
 73
11
 74
0
 42
0.0000001
 43
0.0000001
 44
0.0000000001
 40
0.0
 40
0.0
 40
0.0
 40
0.0
 40
0.1172392203
 40
0.2411685898
 40
0.3702569053
 40
0.5016724822
 40
0.6328028327
 40
0.7611188015
 40
0.883956203
 40
1.0
 40
1.0
 40
1.0
 40
1.0
 10
11.325613346
 20
6.5348318604
 30
0.0
 10
11.325613346
 20
6.5330030567
 30
0.0
 10
11.3259595256
 20
6.5292334145
 30
0.0
 10
11.3275409785
 20
6.5236417617
 30
0.0
 10
11.3303126796
 20
6.5182791417
 30
0.0
 10
11.3341472434
 20
6.5134674528
 30
0.0
 10
11.3389079629
 20
6.5095884333
 30
0.0
 10
11.3442163485
 20
6.5067835093
 30
0.0
 10
11.3497537736
 20
6.5051823514
 30
0.0
 10
11.3534879905
 20
6.5048318693
 30
0.0
 10
11.3552981469
 20
6.5048318604
 30
0.0
  0
ENDSEC
  0
SECTION
  2
OBJECTS
  0
DICTIONARY
  5
C
100
AcDbDictionary
280
0
281
1
  3
ACAD_GROUP
350
D
  3
ACAD_MLINESTYLE
350
17
  3
ACAD_LAYOUT
350
1A
  3
ACAD_PLOTSETTINGS
350
19
  3
ACAD_PLOTSTYLENAME
350
E
  0
DICTIONARY
  5
D
102
{ACAD_REACTORS
330
C
102
}
100
AcDbDictionary
280
0
281
1
  0
ACDBDICTIONARYWDFLT
  5
E
102
{ACAD_REACTORS
330
C
102
}
100
AcDbDictionary
281
1
  3
Normal
350
F
100
AcDbDictionaryWithDefault
340
F
  0
DICTIONARY
  5
17
102
{ACAD_REACTORS
330
C
102
}
100
AcDbDictionary
280
0
281
1
  3
Standard
350
18
  0
DICTIONARY
  5
19
102
{ACAD_REACTORS
330
C
102
}
100
AcDbDictionary
281
1
  0
DICTIONARY
  5
1A
102
{ACAD_REACTORS
330
C
102
}
100
AcDbDictionary
281
1
  3
Model
350
26C
  3
Layout1
350
26D
  0
ACDBPLACEHOLDER
  5
F
102
{ACAD_REACTORS
330
E
102
}
  0
MLINESTYLE
  5
18
102
{ACAD_REACTORS
330
17
102
}
100
AcDbMlineStyle
  2
STANDARD
 70
0
  3

 62
256
 51
90.0
 52
90.0
 71
2
 49
0.5
 62
256
  6
BYLAYER
 49
-0.5
 62
256
  6
BYLAYER
  0
LAYOUT
  5
26C
102
{ACAD_REACTORS
330
1A
102
}
100
AcDbPlotSettings
  1

  2
none_device
  4
ANSI_C_(22.00_x_17.00_Inches)
  6

 40
0.0
 41
0.0
 42
0.0
 43
0.0
 44
558.8
 45
431.8
 46
0.0
 47
0.0
 48
0.0
 49
0.0
140
0.0
141
0.0
142
1.0
143
1.0
 70
1024
 72
0
 73
0
 74
0
  7

 75
0
147
1.0
148
0.0
149
0.0
100
AcDbLayout
  1
Model
 70
0
 71
0
 10
0.0
 20
0.0
 11
22.0
 21
17.0
 12
0.0
 22
0.0
 32
0.0
 14
0.0
 24
0.0
 34
0.0
 15
0.0
 25
0.0
 35
0.0
146
0.0
 13
0.0
 23
0.0
 33
0.0
 16
1.0
 26
0.0
 36
0.0
 17
0.0
 27
1.0
 37
0.0
 76
0
330
202
345
0
346
0
  0
LAYOUT
  5
26D
102
{ACAD_REACTORS
330
1A
102
}
100
AcDbPlotSettings
  1

  2
none_device
  4
ANSI_C_(22.00_x_17.00_Inches)
  6

 40
0.0
 41
0.0
 42
0.0
 43
0.0
 44
558.8
 45
431.8
 46
0.0
 47
0.0
 48
0.0
 49
0.0
140
0.0
141
0.0
142
1.0
143
1.0
 70
0
 72
0
 73
0
 74
0
  7

 75
0
147
1.0
148
0.0
149
0.0
100
AcDbLayout
  1
Layout1
 70
0
 71
1
 10
0.0
 20
0.0
 11
22.0
 21
17.0
 12
0.0
 22
0.0
 32
0.0
 14
0.0
 24
0.0
 34
0.0
 15
0.0
 25
0.0
 35
0.0
146
0.0
 13
0.0
 23
0.0
 33
0.0
 16
1.0
 26
0.0
 36
0.0
 17
0.0
 27
1.0
 37
0.0
 76
0
330
203
345
0
346
0
  0
ENDSEC
  0
EOF
