999
DXF file: E:\BT Custom\CADOUTPUT\_TOP.dxf
999
Pro/ENGINEER 2018400 by Parametric Technology Corporation
  0
SECTION
  2
HEADER
  9
$ACADVER
  1
AC1018
  9
$DWGCODEPAGE
  3
ANSI_1252
  9
$EXTMAX
 10
22.0
 20
17.0
 30
0.0
  9
$EXTMIN
 10
0.0
 20
0.0
 30
0.0
  9
$LIMMIN
 10
0.0
 20
0.0
  9
$LIMMAX
 10
22.0
 20
17.0
  9
$VIEWCTR
 10
11.0
 20
8.5
  9
$VIEWSIZE
 40
17.0
  9
$CLAYER
  8
0
  9
$LTSCALE
 40
1.21
  9
$CELTYPE
  6
BYLAYER
  9
$DIMSCALE
 40
1.0
  9
$DIMASZ
 40
0.1
  9
$DIMEXO
 40
0.0625
  9
$DIMDLI
 40
0.836
  9
$DIMEXE
 40
0.125
  9
$DIMCEN
 40
0.198
  9
$DIMLFAC
 40
1.0
  9
$DIMBLK
  1
_FILLED
  9
$DIMALT
 70
1
  9
$DIMALTD
 70
2
  9
$DIMALTTD
 70
2
  9
$DIMALTF
 40
25.4
  9
$DIMTXT
 40
0.08
  9
$DIMTOL
 70
1
  9
$DIMLIM
 70
0
  9
$DIMTFAC
 40
1.0
  9
$DIMTP
 40
0.001
  9
$DIMTM
 40
0.001
  9
$DIMGAP
 40
0.09
  9
$DIMDSEP
 70
46
  9
$AUNITS
 70
0
  9
$PDMODE
 70
3
  9
$PDSIZE
 40
0.06
  9
$HANDSEED
  5
2F5
  9
$TILEMODE
 70
1
  9
$MEASUREMENT
 70
0
  9
$INSUNITS
 70
1
  0
ENDSEC
  0
SECTION
  2
CLASSES
  0
CLASS
  1
ACDBDICTIONARYWDFLT
  2
AcDbDictionaryWithDefault
  3
AutoCAD 2000
 90
0
 91
1
280
0
281
0
  0
CLASS
  1
ACDBPLACEHOLDER
  2
AcDbPlaceHolder
  3
AutoCAD 2000
 90
0
 91
1
280
0
281
0
  0
CLASS
  1
LAYOUT
  2
AcDbLayout
  3
AutoCAD 2000
 90
0
 91
0
280
0
281
0
  0
ENDSEC
  0
SECTION
  2
TABLES
  0
TABLE
  2
VPORT
  5
8
100
AcDbSymbolTable
 70
2
  0
VPORT
  5
1F4
100
AcDbSymbolTableRecord
100
AcDbViewportTableRecord
  2
*ACTIVE
 70
0
 10
0.0
 20
0.0
 11
1.0
 21
1.0
 12
11.0
 22
8.5
 13
0.0
 23
0.0
 14
1.0
 24
1.0
 15
0.0
 25
0.0
 16
0.0
 26
0.0
 36
1.0
 17
0.0
 27
0.0
 37
0.0
 40
17.0
 41
1.2941176471
 42
50.0
 43
0.0
 44
0.0
 50
0.0
 51
0.0
 71
0
 72
100
 73
1
 74
1
 75
0
 76
0
 77
0
 78
0
  0
ENDTAB
  0
TABLE
  2
LTYPE
  5
5
100
AcDbSymbolTable
 70
6
  0
LTYPE
  5
14
100
AcDbSymbolTableRecord
100
AcDbLinetypeTableRecord
  2
BYBLOCK
 70
0
  3

 72
65
 73
0
 40
0.0
  0
LTYPE
  5
15
100
AcDbSymbolTableRecord
100
AcDbLinetypeTableRecord
  2
BYLAYER
 70
0
  3

 72
65
 73
0
 40
0.0
  0
LTYPE
  5
16
100
AcDbSymbolTableRecord
100
AcDbLinetypeTableRecord
  2
CONTINUOUS
 70
64
  3
Solid line
 72
65
 73
0
 40
0.0
  0
LTYPE
  5
1F5
100
AcDbSymbolTableRecord
100
AcDbLinetypeTableRecord
  2
CENTER
 70
64
  3
____ _ ____ _ ____ _ ____ _ ____ _ ____ _ ____
 72
65
 73
4
 40
0.6
 49
0.375
 74
0
 49
-0.075
 74
0
 49
0.075
 74
0
 49
-0.075
 74
0
  0
LTYPE
  5
1F6
100
AcDbSymbolTableRecord
100
AcDbLinetypeTableRecord
  2
HIDDEN
 70
64
  3
- - - - - - - - - - - - - - - - - - - -
 72
65
 73
2
 40
0.2
 49
0.1
 74
0
 49
-0.1
 74
0
  0
LTYPE
  5
1F7
100
AcDbSymbolTableRecord
100
AcDbLinetypeTableRecord
  2
PHANTOM
 70
64
  3
_____ _ _ _____ _ _ _____ _ _ _____
 72
65
 73
6
 40
0.8
 49
0.45
 74
0
 49
-0.05
 74
0
 49
0.1
 74
0
 49
-0.05
 74
0
 49
0.1
 74
0
 49
-0.05
 74
0
  0
LTYPE
  5
1F8
100
AcDbSymbolTableRecord
100
AcDbLinetypeTableRecord
  2
DOT
 70
64
  3
. . . . . . . . . . . . . . . . . . . .
 72
65
 73
2
 40
0.2
 49
0.1
 74
0
 49
-0.1
 74
0
  0
LTYPE
  5
1F9
100
AcDbSymbolTableRecord
100
AcDbLinetypeTableRecord
  2
DASHED
 70
64
  3
- - - - - - - - - - - - - - - - - - - -
 72
65
 73
2
 40
0.2
 49
0.1
 74
0
 49
-0.1
 74
0
  0
ENDTAB
  0
TABLE
  2
LAYER
  5
2
100
AcDbSymbolTable
 70
36
  0
LAYER
  5
10
100
AcDbSymbolTableRecord
100
AcDbLayerTableRecord
  2
0
 70
0
 62
7
  6
CONTINUOUS
370
-3
390
F
  0
LAYER
  5
1FA
100
AcDbSymbolTableRecord
100
AcDbLayerTableRecord
  2
DEFAULT_1
 70
0
 62
7
  6
CENTER
370
-3
390
F
  0
LAYER
  5
1FB
100
AcDbSymbolTableRecord
100
AcDbLayerTableRecord
  2
DEFAULT_2
 70
0
 62
8
  6
HIDDEN
370
-3
390
F
  0
LAYER
  5
1FC
100
AcDbSymbolTableRecord
100
AcDbLayerTableRecord
  2
DEFAULT_3
 70
0
 62
7
  6
PHANTOM
370
-3
390
F
  0
LAYER
  5
1FD
100
AcDbSymbolTableRecord
100
AcDbLayerTableRecord
  2
ALL_FEATURES
 70
0
 62
7
  6
CONTINUOUS
370
-3
390
F
  0
LAYER
  5
1FE
100
AcDbSymbolTableRecord
100
AcDbLayerTableRecord
  2
AXES_FEATURES
 70
0
 62
7
  6
CONTINUOUS
370
-3
390
F
  0
LAYER
  5
1FF
100
AcDbSymbolTableRecord
100
AcDbLayerTableRecord
  2
DEFAULT_COORDINATE_SYSTEM
 70
0
 62
7
  6
CONTINUOUS
370
-3
390
F
  0
LAYER
  5
200
100
AcDbSymbolTableRecord
100
AcDbLayerTableRecord
  2
DEFAULT_DATUM_AXES
 70
0
 62
7
  6
CONTINUOUS
370
-3
390
F
  0
LAYER
  5
201
100
AcDbSymbolTableRecord
100
AcDbLayerTableRecord
  2
DEFAULT_DATUM_PLANES
 70
0
 62
7
  6
CONTINUOUS
370
-3
390
F
  0
LAYER
  5
202
100
AcDbSymbolTableRecord
100
AcDbLayerTableRecord
  2
DIMENSIONS
 70
0
 62
7
  6
CONTINUOUS
370
-3
390
F
  0
ENDTAB
  0
TABLE
  2
STYLE
  5
3
100
AcDbSymbolTable
 70
1
  0
STYLE
  5
11
100
AcDbSymbolTableRecord
100
AcDbTextStyleTableRecord
  2
STANDARD
 70
0
 40
0.0
 41
0.8
 50
0.0
 71
0
 42
0.2
  3
txt
  4

  0
STYLE
  5
203
100
AcDbSymbolTableRecord
100
AcDbTextStyleTableRecord
  2
TEXTSTYLE_1
 70
0
 40
0.0
 41
0.8
 50
0.0
 71
0
 42
0.2
  3
gdt
  4

  0
ENDTAB
  0
TABLE
  2
VIEW
  5
6
100
AcDbSymbolTable
 70
0
  0
ENDTAB
  0
TABLE
  2
UCS
  5
7
100
AcDbSymbolTable
 70
0
  0
ENDTAB
  0
TABLE
  2
APPID
  5
9
100
AcDbSymbolTable
 70
1
  0
APPID
  5
204
100
AcDbSymbolTableRecord
100
AcDbRegAppTableRecord
  2
ACAD
 70
0
  0
ENDTAB
  0
TABLE
  2
BLOCK_RECORD
  5
1
100
AcDbSymbolTable
 70
0
  0
BLOCK_RECORD
  5
205
100
AcDbSymbolTableRecord
100
AcDbBlockTableRecord
  2
*Model_Space
  0
BLOCK_RECORD
  5
206
100
AcDbSymbolTableRecord
100
AcDbBlockTableRecord
  2
*Paper_Space
  0
BLOCK_RECORD
  5
207
100
AcDbSymbolTableRecord
100
AcDbBlockTableRecord
  2
_FILLED
  0
ENDTAB
  0
TABLE
  2
DIMSTYLE
  5
A
100
AcDbSymbolTable
 70
1
100
AcDbDimStyleTable
 71
0
  0
DIMSTYLE
105
208
100
AcDbSymbolTableRecord
100
AcDbDimStyleTableRecord
  2
STANDARD
 70
0
  3

  4

 40
1.0
 41
0.1
 42
0.0625
 43
0.38
 44
0.125
 45
0.0
 46
0.0
 47
0.001
 48
0.001
140
0.08
141
0.09
142
0.0
143
25.4
144
1.0
145
0.0
146
1.0
147
0.09
 71
1.0
 72
0.0
 73
1
 74
1
 75
0
 76
0
 77
0
 78
4
 79
1
170
1
171
2
172
0
173
0
174
0
175
0
176
0
177
0
178
0
270
2
179
3
271
3
272
3
273
2
274
2
275
0
280
0
281
0
282
0
283
1
284
4
285
0
286
0
287
3
288
0
340
11
278
46
341
207
342
207
343
207
344
207
  0
ENDTAB
  0
ENDSEC
  0
SECTION
  2
BLOCKS
  0
BLOCK
  5
20
100
AcDbEntity
  8
0
100
AcDbBlockBegin
  2
*Model_Space
 70
0
 10
0.0
 20
0.0
 30
0.0
  3
*Model_Space
  1

  0
ENDBLK
  5
21
100
AcDbEntity
  8
0
100
AcDbBlockEnd
  0
BLOCK
  5
1C
100
AcDbEntity
  8
0
100
AcDbBlockBegin
  2
*Paper_Space
 70
0
 10
0.0
 20
0.0
 30
0.0
  3
*Paper_Space
  1

  0
ENDBLK
  5
1D
100
AcDbEntity
  8
0
100
AcDbBlockEnd
  0
BLOCK
  5
209
100
AcDbEntity
  8
0
100
AcDbBlockBegin
  2
_FILLED
 70
64
 10
0.0
 20
0.0
  3
_FILLED
  1

  0
SOLID
  5
20A
100
AcDbEntity
  8
0
  6
BYBLOCK
 62
0
100
AcDbTrace
 10
0.0
 20
0.0
 11
-1.0
 21
0.2
 12
-1.0
 22
-0.2
 13
-1.0
 23
-0.2
  0
ENDBLK
  5
20B
100
AcDbEntity
  8
0
  6
BYBLOCK
 62
0
100
AcDbBlockEnd
  0
ENDSEC
  0
SECTION
  2
ENTITIES
  0
LINE
  5
20C
100
AcDbEntity
  8
0
100
AcDbLine
 62
9
  6
CONTINUOUS
 10
10.6521736817
 20
5.7055225672
 11
11.4424629948
 21
5.7055225672
  0
LINE
  5
20D
100
AcDbEntity
  8
0
100
AcDbLine
 62
7
  6
CONTINUOUS
 10
10.5928083859
 20
5.7293318604
 11
11.5018282907
 21
5.7293318604
  0
LINE
  5
20E
100
AcDbEntity
  8
0
100
AcDbLine
 62
7
  6
CONTINUOUS
 10
10.534084186
 20
5.7484125084
 11
11.5605524905
 21
5.7484125084
  0
LINE
  5
20F
100
AcDbEntity
  8
0
100
AcDbLine
 62
7
  6
CONTINUOUS
 10
10.5198183383
 20
5.7680477633
 11
11.5748183383
 21
5.7680477633
  0
LINE
  5
210
100
AcDbEntity
  8
0
100
AcDbLine
 62
7
  6
CONTINUOUS
 10
10.5928083822
 20
5.7293318604
 11
10.534084186
 21
5.7484125084
  0
LINE
  5
211
100
AcDbEntity
  8
0
100
AcDbLine
 62
7
  6
CONTINUOUS
 10
10.5198183383
 20
5.8393318604
 11
11.5748183383
 21
5.8393318604
  0
LINE
  5
212
100
AcDbEntity
  8
0
100
AcDbLine
 62
7
  6
CONTINUOUS
 10
10.5466651258
 20
5.8548318604
 11
11.5479715508
 21
5.8548318604
  0
LINE
  5
213
100
AcDbEntity
  8
0
100
AcDbLine
 62
7
  6
CONTINUOUS
 10
10.5198183383
 20
5.8703318604
 11
11.5748183383
 21
5.8703318604
  0
LINE
  5
214
100
AcDbEntity
  8
0
100
AcDbLine
 62
7
  6
CONTINUOUS
 10
10.4898183383
 20
5.9503318604
 11
11.6048183383
 21
5.9503318604
  0
LINE
  5
215
100
AcDbEntity
  8
0
100
AcDbLine
 62
7
  6
CONTINUOUS
 10
11.4072399157
 20
5.9593318604
 11
11.3957680422
 21
5.9593318604
  0
LINE
  5
216
100
AcDbEntity
  8
0
100
AcDbLine
 62
7
  6
CONTINUOUS
 10
10.6988687728
 20
5.9593318604
 11
10.6873967609
 21
5.9593318604
  0
LINE
  5
217
100
AcDbEntity
  8
0
100
AcDbLine
 62
7
  6
CONTINUOUS
 10
10.5466651258
 20
5.8548318604
 11
10.5198183383
 21
5.8703318604
  0
LINE
  5
218
100
AcDbEntity
  8
0
100
AcDbLine
 62
7
  6
CONTINUOUS
 10
10.534084186
 20
5.7484125084
 11
10.5198183383
 21
5.7680477633
  0
LINE
  5
219
100
AcDbEntity
  8
0
100
AcDbLine
 62
7
  6
CONTINUOUS
 10
11.4072399157
 20
6.3513318604
 11
11.3957680457
 21
6.3513318604
  0
LINE
  5
21A
100
AcDbEntity
  8
0
100
AcDbLine
 62
7
  6
CONTINUOUS
 10
10.6988687589
 20
6.3513318604
 11
10.6873967609
 21
6.3513318604
  0
LINE
  5
21B
100
AcDbEntity
  8
0
100
AcDbLine
 62
7
  6
CONTINUOUS
 10
11.6048183383
 20
6.3603318604
 11
10.4898183383
 21
6.3603318604
  0
LINE
  5
21C
100
AcDbEntity
  8
0
100
AcDbLine
 62
7
  6
CONTINUOUS
 10
11.5748183383
 20
5.8393318604
 11
11.5479715508
 21
5.8548318604
  0
LINE
  5
21D
100
AcDbEntity
  8
0
100
AcDbLine
 62
7
  6
CONTINUOUS
 10
10.4638199787
 20
6.2751218141
 11
10.4342334527
 21
6.3161587031
  0
LINE
  5
21E
100
AcDbEntity
  8
0
100
AcDbLine
 62
7
  6
CONTINUOUS
 10
10.5198183383
 20
6.4393318604
 11
11.5748183383
 21
6.4393318604
  0
LINE
  5
21F
100
AcDbEntity
  8
0
100
AcDbLine
 62
7
  6
CONTINUOUS
 10
10.6768183398
 20
6.4903318604
 11
11.4178183367
 21
6.4903318604
  0
LINE
  5
220
100
AcDbEntity
  8
0
100
AcDbLine
 62
7
  6
CONTINUOUS
 10
11.5748183383
 20
6.4393318604
 11
11.4178183383
 21
6.4903318604
  0
LINE
  5
221
100
AcDbEntity
  8
0
100
AcDbLine
 62
7
  6
CONTINUOUS
 10
10.2892574348
 20
8.1193318604
 11
10.2892574348
 21
7.8693892435
  0
LINE
  5
222
100
AcDbEntity
  8
0
100
AcDbLine
 62
7
  6
CONTINUOUS
 10
10.3063183383
 20
8.1813318604
 11
10.3063183383
 21
8.1193318604
  0
LINE
  5
223
100
AcDbEntity
  8
0
100
AcDbLine
 62
7
  6
CONTINUOUS
 10
10.7038183383
 20
6.8493318604
 11
11.3908183383
 21
6.8493318604
  0
LINE
  5
224
100
AcDbEntity
  8
0
100
AcDbLine
 62
7
  6
CONTINUOUS
 10
11.4461672268
 20
6.8693318604
 11
10.6484694498
 21
6.8693318604
  0
LINE
  5
225
100
AcDbEntity
  8
0
100
AcDbLine
 62
9
  6
CONTINUOUS
 10
11.4770580658
 20
6.8977326177
 11
10.6175786107
 21
6.8977326177
  0
LINE
  5
226
100
AcDbEntity
  8
0
100
AcDbLine
 62
7
  6
CONTINUOUS
 10
10.4326843441
 20
7.3096330489
 11
10.5068183383
 21
7.2037154216
  0
LINE
  5
227
100
AcDbEntity
  8
0
100
AcDbLine
 62
7
  6
CONTINUOUS
 10
10.5198183383
 20
5.7680477633
 11
10.5198183383
 21
5.8393318604
  0
LINE
  5
228
100
AcDbEntity
  8
0
100
AcDbLine
 62
7
  6
CONTINUOUS
 10
10.6682878866
 20
8.1193318604
 11
10.6682878866
 21
7.8693878045
  0
LINE
  5
229
100
AcDbEntity
  8
0
100
AcDbLine
 62
7
  6
CONTINUOUS
 10
10.7038183383
 20
6.4903318604
 11
10.7038183383
 21
6.8493318604
  0
LINE
  5
22A
100
AcDbEntity
  8
0
100
AcDbLine
 62
9
  6
CONTINUOUS
 10
11.5878183383
 20
7.2037154216
 11
10.5068183383
 21
7.2037154216
  0
LINE
  5
22B
100
AcDbEntity
  8
0
100
AcDbLine
 62
7
  6
CONTINUOUS
 10
10.2892626479
 20
7.8693873904
 11
10.4061548986
 21
7.7528318604
  0
LINE
  5
22C
100
AcDbEntity
  8
0
100
AcDbLine
 62
7
  6
CONTINUOUS
 10
11.6308166979
 20
6.0355419067
 11
11.6604032238
 21
5.9945050177
  0
LINE
  5
22D
100
AcDbEntity
  8
0
100
AcDbLine
 62
7
  6
CONTINUOUS
 10
10.8473183383
 20
6.8693318604
 11
10.8473183383
 21
6.8493318604
  0
LINE
  5
22E
100
AcDbEntity
  8
0
100
AcDbLine
 62
9
  6
CONTINUOUS
 10
10.9140879686
 20
5.6632750633
 11
10.9140879686
 21
5.6624298201
  0
LINE
  5
22F
100
AcDbEntity
  8
0
100
AcDbLine
 62
7
  6
CONTINUOUS
 10
10.9385844527
 20
5.6613168461
 11
10.9385844527
 21
5.6603129715
  0
LINE
  5
230
100
AcDbEntity
  8
0
100
AcDbLine
 62
7
  6
CONTINUOUS
 10
11.0173183383
 20
5.6570933169
 11
11.0173183383
 21
5.6560921797
  0
LINE
  5
231
100
AcDbEntity
  8
0
100
AcDbLine
 62
7
  6
CONTINUOUS
 10
11.0304531015
 20
5.6823277575
 11
11.0304531015
 21
5.68131004
  0
LINE
  5
232
100
AcDbEntity
  8
0
100
AcDbLine
 62
7
  6
CONTINUOUS
 10
11.064183575
 20
5.6823277575
 11
11.064183575
 21
5.68131004
  0
LINE
  5
233
100
AcDbEntity
  8
0
100
AcDbLine
 62
7
  6
CONTINUOUS
 10
11.0773183383
 20
5.6570933169
 11
11.0773183383
 21
5.6560921797
  0
LINE
  5
234
100
AcDbEntity
  8
0
100
AcDbLine
 62
9
  6
CONTINUOUS
 10
11.6619523325
 20
7.3096330489
 11
10.4326843441
 21
7.3096330489
  0
LINE
  5
235
100
AcDbEntity
  8
0
100
AcDbLine
 62
7
  6
CONTINUOUS
 10
11.1560522239
 20
5.6613168461
 11
11.1560522239
 21
5.6603129715
  0
LINE
  5
236
100
AcDbEntity
  8
0
100
AcDbLine
 62
9
  6
CONTINUOUS
 10
11.180548708
 20
5.6632750629
 11
11.180548708
 21
5.6624298201
  0
LINE
  5
237
100
AcDbEntity
  8
0
100
AcDbLine
 62
7
  6
CONTINUOUS
 10
11.2473183383
 20
6.8693318604
 11
11.2473183383
 21
6.8493318604
  0
LINE
  5
238
100
AcDbEntity
  8
0
100
AcDbLine
 62
7
  6
CONTINUOUS
 10
11.8053710846
 20
7.8693844548
 11
11.6884817779
 21
7.7528318604
  0
LINE
  5
239
100
AcDbEntity
  8
0
100
AcDbLine
 62
9
  6
CONTINUOUS
 10
11.6658183383
 20
7.5378318604
 11
10.4288183383
 21
7.5378318604
  0
LINE
  5
23A
100
AcDbEntity
  8
0
100
AcDbLine
 62
9
  6
CONTINUOUS
 10
11.6884817779
 20
7.7528318604
 11
10.4061548986
 21
7.7528318604
  0
LINE
  5
23B
100
AcDbEntity
  8
0
100
AcDbLine
 62
7
  6
CONTINUOUS
 10
11.3908183383
 20
6.4903318604
 11
11.3908183383
 21
6.8493318604
  0
LINE
  5
23C
100
AcDbEntity
  8
0
100
AcDbLine
 62
7
  6
CONTINUOUS
 10
11.42634879
 20
8.1193318604
 11
11.42634879
 21
7.8693873184
  0
LINE
  5
23D
100
AcDbEntity
  8
0
100
AcDbLine
 62
7
  6
CONTINUOUS
 10
11.5748183383
 20
5.7680477633
 11
11.5748183383
 21
5.8393318604
  0
LINE
  5
23E
100
AcDbEntity
  8
0
100
AcDbLine
 62
7
  6
CONTINUOUS
 10
11.6619523325
 20
7.3096330489
 11
11.5878183383
 21
7.2037154216
  0
LINE
  5
23F
100
AcDbEntity
  8
0
100
AcDbLine
 62
7
  6
CONTINUOUS
 10
10.4638199787
 20
6.0355419067
 11
10.4342334527
 21
5.9945050177
  0
LINE
  5
240
100
AcDbEntity
  8
0
100
AcDbLine
 62
7
  6
CONTINUOUS
 10
11.7883183383
 20
8.1813318604
 11
11.7883183383
 21
8.1193318604
  0
LINE
  5
241
100
AcDbEntity
  8
0
100
AcDbLine
 62
7
  6
CONTINUOUS
 10
11.8053792417
 20
8.1193318604
 11
11.8053792417
 21
7.8693873184
  0
LINE
  5
242
100
AcDbEntity
  8
0
100
AcDbLine
 62
7
  6
CONTINUOUS
 10
10.5198183383
 20
6.4393318604
 11
10.6768183383
 21
6.4903318604
  0
LINE
  5
243
100
AcDbEntity
  8
0
100
AcDbLine
 62
7
  6
CONTINUOUS
 10
11.8053792417
 20
8.1193318604
 11
10.2892574348
 21
8.1193318604
  0
LINE
  5
244
100
AcDbEntity
  8
0
100
AcDbLine
 62
7
  6
CONTINUOUS
 10
11.8603210121
 20
8.1813318604
 11
10.2343156645
 21
8.1813318604
  0
LINE
  5
245
100
AcDbEntity
  8
0
100
AcDbLine
 62
7
  6
CONTINUOUS
 10
12.0473183383
 20
8.3693318604
 11
10.0473183383
 21
8.3693318604
  0
LINE
  5
246
100
AcDbEntity
  8
0
100
AcDbLine
 62
7
  6
CONTINUOUS
 10
11.6308166979
 20
6.2751218141
 11
11.6604032238
 21
6.3161587031
  0
LINE
  5
247
100
AcDbEntity
  8
0
100
AcDbLine
 62
7
  6
CONTINUOUS
 10
10.5198183383
 20
5.8393318604
 11
10.5466651258
 21
5.8548318604
  0
LINE
  5
248
100
AcDbEntity
  8
0
100
AcDbLine
 62
7
  6
CONTINUOUS
 10
13.800896524
 20
8.5563318604
 11
8.2937401526
 21
8.5563318604
  0
LINE
  5
249
100
AcDbEntity
  8
0
100
AcDbLine
 62
7
  6
CONTINUOUS
 10
11.5605524905
 20
5.7484125084
 11
11.5748183383
 21
5.7680477633
  0
LINE
  5
24A
100
AcDbEntity
  8
0
100
AcDbLine
 62
9
  6
CONTINUOUS
 10
14.0191074311
 20
8.6843318604
 11
8.0755292454
 21
8.6843318604
  0
LINE
  5
24B
100
AcDbEntity
  8
0
100
AcDbLine
 62
7
  6
CONTINUOUS
 10
7.8541822079
 20
8.8123220252
 11
14.2404544687
 21
8.8123220252
  0
LINE
  5
24C
100
AcDbEntity
  8
0
100
AcDbLine
 62
9
  6
CONTINUOUS
 10
14.4563911441
 20
8.9363296653
 11
7.6382455324
 21
8.9363296653
  0
LINE
  5
24D
100
AcDbEntity
  8
0
100
AcDbLine
 62
7
  6
CONTINUOUS
 10
11.5479715508
 20
5.8548318604
 11
11.5748183383
 21
5.8703318604
  0
LINE
  5
24E
100
AcDbEntity
  8
0
100
AcDbLine
 62
7
  6
CONTINUOUS
 10
14.6723183383
 20
9.0603318604
 11
7.4223183383
 21
9.0603318604
  0
LINE
  5
24F
100
AcDbEntity
  8
0
100
AcDbLine
 62
7
  6
CONTINUOUS
 10
11.5018282944
 20
5.7293318604
 11
11.5605524905
 21
5.7484125084
  0
LINE
  5
250
100
AcDbEntity
  8
0
100
AcDbLine
 62
7
  6
CONTINUOUS
 10
14.9223183383
 20
9.3103318604
 11
7.1723183383
 21
9.3103318604
  0
ARC
  5
251
100
AcDbEntity
  8
0
100
AcDbCircle
 62
7
  6
CONTINUOUS
 10
10.3170390474
 20
6.3876240945
 40
1.36
100
AcDbArc
 50
337.6438963444
 51
341.2440132164
  0
ARC
  5
252
100
AcDbEntity
  8
0
100
AcDbCircle
 62
7
  6
CONTINUOUS
 10
10.3190195575
 20
5.9172500449
 40
1.36
100
AcDbArc
 50
19.0137742001
 51
22.5744557109
  0
ARC
  5
253
100
AcDbEntity
  8
0
100
AcDbCircle
 62
7
  6
CONTINUOUS
 10
11.0266630085
 20
6.9365865804
 40
1.2814984441
100
AcDbArc
 50
275.7934341458
 51
276.0188277798
  0
ARC
  5
254
100
AcDbEntity
  8
0
100
AcDbCircle
 62
7
  6
CONTINUOUS
 10
11.0267104202
 20
6.9361156241
 40
1.2810251074
100
AcDbArc
 50
275.0648433715
 51
275.7934506895
  0
ARC
  5
255
100
AcDbEntity
  8
0
100
AcDbCircle
 62
7
  6
CONTINUOUS
 10
11.0352439217
 20
6.9341552832
 40
1.2795580803
100
AcDbArc
 50
271.8855940388
 51
275.4175976376
  0
ARC
  5
256
100
AcDbEntity
  8
0
100
AcDbCircle
 62
7
  6
CONTINUOUS
 10
11.0268392693
 20
6.9346211947
 40
1.2795251379
100
AcDbArc
 50
272.260985972
 51
275.0650039893
  0
ARC
  5
257
100
AcDbEntity
  8
0
100
AcDbCircle
 62
7
  6
CONTINUOUS
 10
11.0352035189
 20
6.9348817476
 40
1.2792857257
100
AcDbArc
 50
273.199573327
 51
275.420572132
  0
ARC
  5
258
100
AcDbEntity
  8
0
100
AcDbCircle
 62
7
  6
CONTINUOUS
 10
11.0352815758
 20
6.9331729094
 40
1.2785749994
100
AcDbArc
 50
270.9427097325
 51
271.8613010851
  0
ARC
  5
259
100
AcDbEntity
  8
0
100
AcDbCircle
 62
7
  6
CONTINUOUS
 10
11.035281456
 20
6.9333522637
 40
1.2777541838
100
AcDbArc
 50
270.9861395294
 51
271.8623291864
  0
ARC
  5
25A
100
AcDbEntity
  8
0
100
AcDbCircle
 62
7
  6
CONTINUOUS
 10
9.5671794494
 20
6.1553318604
 40
0.9451388889
100
AcDbArc
 50
9.1276188939
 51
12.5269812287
  0
ARC
  5
25B
100
AcDbEntity
  8
0
100
AcDbCircle
 62
7
  6
CONTINUOUS
 10
9.5671794494
 20
6.1553318604
 40
0.9451388889
100
AcDbArc
 50
347.4730187713
 51
350.873253273
  0
ARC
  5
25C
100
AcDbEntity
  8
0
100
AcDbCircle
 62
7
  6
CONTINUOUS
 10
9.9947794362
 20
6.8453285319
 40
0.625
100
AcDbArc
 50
4.8096995456
 51
34.9889904702
  0
ARC
  5
25D
100
AcDbEntity
  8
0
100
AcDbCircle
 62
7
  6
CONTINUOUS
 10
10.9876972369
 20
6.0492302555
 40
0.3927542681
100
AcDbArc
 50
259.318113825
 51
261.808572703
  0
ARC
  5
25E
100
AcDbEntity
  8
0
100
AcDbCircle
 62
7
  6
CONTINUOUS
 10
11.0020706926
 20
6.026270336
 40
0.371423337
100
AcDbArc
 50
260.1582846024
 51
262.6630992698
  0
ARC
  5
25F
100
AcDbEntity
  8
0
100
AcDbCircle
 62
7
  6
CONTINUOUS
 10
10.9795051671
 20
5.995443654
 40
0.3383495007
100
AcDbArc
 50
261.8839168319
 51
262.1608295358
  0
ARC
  5
260
100
AcDbEntity
  8
0
100
AcDbCircle
 62
7
  6
CONTINUOUS
 10
10.9773917966
 20
5.9800074255
 40
0.322769278
100
AcDbArc
 50
262.1587400673
 51
263.0591655954
  0
ARC
  5
261
100
AcDbEntity
  8
0
100
AcDbCircle
 62
7
  6
CONTINUOUS
 10
10.9750695903
 20
5.9604843232
 40
0.3041040469
100
AcDbArc
 50
263.0712036166
 51
263.3491129496
  0
ARC
  5
262
100
AcDbEntity
  8
0
100
AcDbCircle
 62
7
  6
CONTINUOUS
 10
10.9750548635
 20
5.9611743224
 40
0.3037917906
100
AcDbArc
 50
263.0903435691
 51
263.434387802
  0
ARC
  5
263
100
AcDbEntity
  8
0
100
AcDbCircle
 62
7
  6
CONTINUOUS
 10
10.9719377693
 20
5.9333793098
 40
0.2758226703
100
AcDbArc
 50
263.4174670893
 51
265.7228133298
  0
ARC
  5
264
100
AcDbEntity
  8
0
100
AcDbCircle
 62
7
  6
CONTINUOUS
 10
10.2111645704
 20
6.155331863
 40
0.2750000008
100
AcDbArc
 50
35.7906249419
 51
324.2093797306
  0
ARC
  5
265
100
AcDbEntity
  8
0
100
AcDbCircle
 62
7
  6
CONTINUOUS
 10
10.9671437982
 20
5.8610693563
 40
0.2043483609
100
AcDbArc
 50
266.4969454825
 51
269.4515586201
  0
ARC
  5
266
100
AcDbEntity
  8
0
100
AcDbCircle
 62
7
  6
CONTINUOUS
 10
10.5997934594
 20
7.4265962636
 40
0.2039751211
100
AcDbArc
 50
146.9521644936
 51
214.9889904702
  0
ARC
  5
267
100
AcDbEntity
  8
0
100
AcDbCircle
 62
9
  6
CONTINUOUS
 10
10.6873798117
 20
6.0578490177
 40
0.0985171255
100
AcDbArc
 50
270.0098573412
 51
278.9473785079
  0
ARC
  5
268
100
AcDbEntity
  8
0
100
AcDbCircle
 62
9
  6
CONTINUOUS
 10
10.6873798119
 20
6.2528147072
 40
0.0985171215
100
AcDbArc
 50
81.0526526855
 51
89.9901427786
  0
ARC
  5
269
100
AcDbEntity
  8
0
100
AcDbCircle
 62
7
  6
CONTINUOUS
 10
10.6484694498
 20
6.9003318604
 40
0.031
100
AcDbArc
 50
184.8096995457
 51
270.0
  0
ARC
  5
26A
100
AcDbEntity
  8
0
100
AcDbCircle
 62
7
  6
CONTINUOUS
 10
10.6598183383
 20
5.7345322074
 40
0.03
100
AcDbArc
 50
189.9861146934
 51
255.2369687319
  0
ARC
  5
26B
100
AcDbEntity
  8
0
100
AcDbCircle
 62
7
  6
CONTINUOUS
 10
7.8541822079
 20
9.0623330026
 40
0.2500109774
100
AcDbArc
 50
210.2644101313
 51
270.0
  0
ARC
  5
26C
100
AcDbEntity
  8
0
100
AcDbCircle
 62
7
  6
CONTINUOUS
 10
7.4223183383
 20
9.3103318604
 40
0.25
100
AcDbArc
 50
180.0
 51
270.0
  0
ARC
  5
26D
100
AcDbEntity
  8
0
100
AcDbCircle
 62
7
  6
CONTINUOUS
 10
7.4223183383
 20
8.8103318604
 40
0.25
100
AcDbArc
 50
30.2644101313
 51
90.0
  0
ARC
  5
26E
100
AcDbEntity
  8
0
100
AcDbCircle
 62
7
  6
CONTINUOUS
 10
8.2937401526
 20
8.8063318604
 40
0.25
100
AcDbArc
 50
209.2092119338
 51
270.0
  0
ARC
  5
26F
100
AcDbEntity
  8
0
100
AcDbCircle
 62
7
  6
CONTINUOUS
 10
7.8573183383
 20
8.5623318604
 40
0.25
100
AcDbArc
 50
29.2092119338
 51
89.9405177291
  0
ARC
  5
270
100
AcDbEntity
  8
0
100
AcDbCircle
 62
7
  6
CONTINUOUS
 10
10.0544544494
 20
8.5563318604
 40
0.1871361111
100
AcDbArc
 50
180.0
 51
267.8145949287
  0
ARC
  5
271
100
AcDbEntity
  8
0
100
AcDbCircle
 62
7
  6
CONTINUOUS
 10
10.2343156645
 20
8.3683318604
 40
0.187
100
AcDbArc
 50
179.6936039968
 51
270.0
  0
ARC
  5
272
100
AcDbEntity
  8
0
100
AcDbCircle
 62
7
  6
CONTINUOUS
 10
10.2850438047
 20
7.631370885
 40
0.1715245336
100
AcDbArc
 50
326.9521644936
 51
45.0826423158
  0
ARC
  5
273
100
AcDbEntity
  8
0
100
AcDbCircle
 62
7
  6
CONTINUOUS
 10
11.7775976292
 20
6.3876240945
 40
1.36
100
AcDbArc
 50
198.7559867836
 51
202.3561036556
  0
ARC
  5
274
100
AcDbEntity
  8
0
100
AcDbCircle
 62
7
  6
CONTINUOUS
 10
11.7756171191
 20
5.9172500449
 40
1.36
100
AcDbArc
 50
157.4255442891
 51
160.9862257999
  0
ARC
  5
275
100
AcDbEntity
  8
0
100
AcDbCircle
 62
7
  6
CONTINUOUS
 10
11.1089512179
 20
6.0373074057
 40
0.380665202
100
AcDbArc
 50
277.9015844975
 51
280.7172067882
  0
ARC
  5
276
100
AcDbEntity
  8
0
100
AcDbCircle
 62
7
  6
CONTINUOUS
 10
11.0946567256
 20
6.0124282445
 40
0.3574277167
100
AcDbArc
 50
277.2884289292
 51
279.8907692462
  0
ARC
  5
277
100
AcDbEntity
  8
0
100
AcDbCircle
 62
7
  6
CONTINUOUS
 10
11.1177870179
 20
5.9758281434
 40
0.3185551115
100
AcDbArc
 50
276.9355064131
 51
277.8475835177
  0
ARC
  5
278
100
AcDbEntity
  8
0
100
AcDbCircle
 62
7
  6
CONTINUOUS
 10
11.1195420063
 20
5.9607055656
 40
0.304326699
100
AcDbArc
 50
276.5614942113
 51
276.9278024015
  0
ARC
  5
279
100
AcDbEntity
  8
0
100
AcDbCircle
 62
7
  6
CONTINUOUS
 10
11.1195952039
 20
5.9610520747
 40
0.3036688199
100
AcDbArc
 50
276.6553907257
 51
276.9103455814
  0
ARC
  5
27A
100
AcDbEntity
  8
0
100
AcDbCircle
 62
7
  6
CONTINUOUS
 10
11.123452824
 20
5.9255642598
 40
0.2679732101
100
AcDbArc
 50
274.2406821777
 51
276.715540784
  0
ARC
  5
27B
100
AcDbEntity
  8
0
100
AcDbCircle
 62
7
  6
CONTINUOUS
 10
11.1272247373
 20
5.8686191041
 40
0.2119004748
100
AcDbArc
 50
270.6120963096
 51
273.4506900479
  0
ARC
  5
27C
100
AcDbEntity
  8
0
100
AcDbCircle
 62
7
  6
CONTINUOUS
 10
11.6867779841
 20
6.065341239
 40
0.1060093786
100
AcDbArc
 50
270.0003952591
 51
272.0035856384
  0
ARC
  5
27D
100
AcDbEntity
  8
0
100
AcDbCircle
 62
7
  6
CONTINUOUS
 10
11.686777983
 20
6.2453227611
 40
0.1060090993
100
AcDbArc
 50
87.9975068519
 51
89.9996041556
  0
ARC
  5
27E
100
AcDbEntity
  8
0
100
AcDbCircle
 62
9
  6
CONTINUOUS
 10
11.4072591176
 20
6.0578754889
 40
0.0985436304
100
AcDbArc
 50
261.1043325966
 51
269.9888355419
  0
ARC
  5
27F
100
AcDbEntity
  8
0
100
AcDbCircle
 62
9
  6
CONTINUOUS
 10
11.4072591175
 20
6.2527882324
 40
0.0985436299
100
AcDbArc
 50
90.0111644454
 51
98.8956632584
  0
ARC
  5
280
100
AcDbEntity
  8
0
100
AcDbCircle
 62
7
  6
CONTINUOUS
 10
11.4348183383
 20
5.7345322074
 40
0.03
100
AcDbArc
 50
284.7630312681
 51
350.0138853066
  0
ARC
  5
281
100
AcDbEntity
  8
0
100
AcDbCircle
 62
7
  6
CONTINUOUS
 10
11.0473183383
 20
7.2050018759
 40
1.5506700155
100
AcDbArc
 50
255.2369687319
 51
266.5742389704
  0
ARC
  5
282
100
AcDbEntity
  8
0
100
AcDbCircle
 62
7
  6
CONTINUOUS
 10
11.0473183383
 20
7.2050018759
 40
1.5506700155
100
AcDbArc
 50
273.4257610296
 51
284.7630312681
  0
ARC
  5
283
100
AcDbEntity
  8
0
100
AcDbCircle
 62
7
  6
CONTINUOUS
 10
11.0473183383
 20
7.2050018759
 40
1.5506700155
100
AcDbArc
 50
267.3749745646
 51
272.6250254354
  0
ARC
  5
284
100
AcDbEntity
  8
0
100
AcDbCircle
 62
7
  6
CONTINUOUS
 10
11.0473183383
 20
7.2050018759
 40
1.5237851708
100
AcDbArc
 50
269.3658380229
 51
270.6341619771
  0
ARC
  5
285
100
AcDbEntity
  8
0
100
AcDbCircle
 62
7
  6
CONTINUOUS
 10
11.0473183383
 20
7.2050018759
 40
1.5227675157
100
AcDbArc
 50
269.3654141994
 51
270.6345858006
  0
ARC
  5
286
100
AcDbEntity
  8
0
100
AcDbCircle
 62
7
  6
CONTINUOUS
 10
11.0473183383
 20
7.2050018759
 40
1.519875405
100
AcDbArc
 50
268.5861934599
 51
271.4138065401
  0
ARC
  5
287
100
AcDbEntity
  8
0
100
AcDbCircle
 62
7
  6
CONTINUOUS
 10
11.067973668
 20
6.9365865798
 40
1.2814984434
100
AcDbArc
 50
263.9811722202
 51
264.2065658543
  0
ARC
  5
288
100
AcDbEntity
  8
0
100
AcDbCircle
 62
7
  6
CONTINUOUS
 10
11.0679262564
 20
6.9361156241
 40
1.2810251074
100
AcDbArc
 50
264.2065493105
 51
264.9351566285
  0
ARC
  5
289
100
AcDbEntity
  8
0
100
AcDbCircle
 62
7
  6
CONTINUOUS
 10
11.0593927549
 20
6.9341552831
 40
1.2795580803
100
AcDbArc
 50
264.5824023624
 51
268.1144059612
  0
ARC
  5
28A
100
AcDbEntity
  8
0
100
AcDbCircle
 62
7
  6
CONTINUOUS
 10
11.0677974073
 20
6.9346211947
 40
1.2795251379
100
AcDbArc
 50
264.9349960107
 51
267.739014028
  0
ARC
  5
28B
100
AcDbEntity
  8
0
100
AcDbCircle
 62
7
  6
CONTINUOUS
 10
11.0594331577
 20
6.9348817476
 40
1.2792857257
100
AcDbArc
 50
264.579427868
 51
266.800426673
  0
ARC
  5
28C
100
AcDbEntity
  8
0
100
AcDbCircle
 62
7
  6
CONTINUOUS
 10
11.0593551008
 20
6.9331729094
 40
1.2785749994
100
AcDbArc
 50
268.1386989149
 51
269.0572902675
  0
ARC
  5
28D
100
AcDbEntity
  8
0
100
AcDbCircle
 62
7
  6
CONTINUOUS
 10
11.0593552205
 20
6.9333522636
 40
1.2777541838
100
AcDbArc
 50
268.1376708135
 51
269.0138604706
  0
ARC
  5
28E
100
AcDbEntity
  8
0
100
AcDbCircle
 62
7
  6
CONTINUOUS
 10
11.4948432172
 20
7.4265962636
 40
0.2039751211
100
AcDbArc
 50
325.0110095298
 51
33.0478355064
  0
ARC
  5
28F
100
AcDbEntity
  8
0
100
AcDbCircle
 62
7
  6
CONTINUOUS
 10
11.4461672268
 20
6.9003318604
 40
0.031
100
AcDbArc
 50
270.0
 51
355.1903004543
  0
ARC
  5
290
100
AcDbEntity
  8
0
100
AcDbCircle
 62
7
  6
CONTINUOUS
 10
12.5274572272
 20
6.1553318604
 40
0.9451388889
100
AcDbArc
 50
167.4730187713
 51
170.867409227
  0
ARC
  5
291
100
AcDbEntity
  8
0
100
AcDbCircle
 62
7
  6
CONTINUOUS
 10
12.5274572272
 20
6.1553318604
 40
0.9451388889
100
AcDbArc
 50
189.1342143409
 51
192.5269812287
  0
ARC
  5
292
100
AcDbEntity
  8
0
100
AcDbCircle
 62
7
  6
CONTINUOUS
 10
11.8834721057
 20
6.1553318604
 40
0.275
100
AcDbArc
 50
215.7906204957
 51
144.2093797439
  0
ARC
  5
293
100
AcDbEntity
  8
0
100
AcDbCircle
 62
7
  6
CONTINUOUS
 10
12.0998572404
 20
6.8453285319
 40
0.625
100
AcDbArc
 50
145.0110095298
 51
175.1903004544
  0
ARC
  5
294
100
AcDbEntity
  8
0
100
AcDbCircle
 62
7
  6
CONTINUOUS
 10
14.2404544687
 20
9.0623330026
 40
0.2500109774
100
AcDbArc
 50
270.0
 51
329.7355898687
  0
ARC
  5
295
100
AcDbEntity
  8
0
100
AcDbCircle
 62
7
  6
CONTINUOUS
 10
14.6723183383
 20
9.3103318604
 40
0.25
100
AcDbArc
 50
270.0
 51
360.0
  0
ARC
  5
296
100
AcDbEntity
  8
0
100
AcDbCircle
 62
7
  6
CONTINUOUS
 10
14.6723183383
 20
8.8103318604
 40
0.25
100
AcDbArc
 50
90.0
 51
149.7355898687
  0
ARC
  5
297
100
AcDbEntity
  8
0
100
AcDbCircle
 62
7
  6
CONTINUOUS
 10
13.800896524
 20
8.8063318604
 40
0.25
100
AcDbArc
 50
270.0
 51
330.7907880662
  0
ARC
  5
298
100
AcDbEntity
  8
0
100
AcDbCircle
 62
7
  6
CONTINUOUS
 10
14.2373183383
 20
8.5623318604
 40
0.25
100
AcDbArc
 50
90.0594822709
 51
150.7907880662
  0
ARC
  5
299
100
AcDbEntity
  8
0
100
AcDbCircle
 62
7
  6
CONTINUOUS
 10
12.0401822272
 20
8.5563318604
 40
0.1871361111
100
AcDbArc
 50
272.1854050713
 51
360.0
  0
ARC
  5
29A
100
AcDbEntity
  8
0
100
AcDbCircle
 62
7
  6
CONTINUOUS
 10
11.8603210121
 20
8.3683318604
 40
0.187
100
AcDbArc
 50
270.0
 51
0.3063960032
  0
ARC
  5
29B
100
AcDbEntity
  8
0
100
AcDbCircle
 62
7
  6
CONTINUOUS
 10
11.8095928719
 20
7.631370885
 40
0.1715245336
100
AcDbArc
 50
134.9173576842
 51
213.0478355064
  0
SPLINE
  5
29C
100
AcDbEntity
  8
0
100
AcDbSpline
 62
7
  6
CONTINUOUS
 70
0
 71
3
 72
19
 73
15
 74
0
 42
0.0000001
 43
0.0000001
 44
0.0000000001
 40
0.0
 40
0.0
 40
0.0
 40
0.0
 40
0.0148303086
 40
0.0327725071
 40
0.0560697677
 40
0.0857614204
 40
0.1223340734
 40
0.1660346427
 40
0.2169797077
 40
0.2752079029
 40
0.4135027085
 40
0.5807614748
 40
0.7764907639
 40
1.0
 40
1.0
 40
1.0
 40
1.0
 10
10.912318341
 20
5.6629914195
 30
0.0
 10
10.9123183363
 20
5.6630010483
 30
0.0
 10
10.9123247463
 20
5.6630224906
 30
0.0
 10
10.9123500665
 20
5.6630496238
 30
0.0
 10
10.9123889974
 20
5.663074646
 30
0.0
 10
10.9124422713
 20
5.6630983324
 30
0.0
 10
10.9125100976
 20
5.6631208429
 30
0.0
 10
10.9125926363
 20
5.6631421453
 30
0.0
 10
10.9126898719
 20
5.6631622084
 30
0.0
 10
10.9128483582
 20
5.6631887904
 30
0.0
 10
10.9130829148
 20
5.6632173804
 30
0.0
 10
10.9134072573
 20
5.663244857
 30
0.0
 10
10.9137874493
 20
5.6632668482
 30
0.0
 10
10.9140594676
 20
5.6632771047
 30
0.0
 10
10.9142045177
 20
5.663281487
 30
0.0
  0
SPLINE
  5
29D
100
AcDbEntity
  8
0
100
AcDbSpline
 62
7
  6
CONTINUOUS
 70
0
 71
3
 72
14
 73
10
 74
0
 42
0.0000001
 43
0.0000001
 44
0.0000000001
 40
0.0
 40
0.0
 40
0.0
 40
0.0
 40
0.0815803317
 40
0.1839210573
 40
0.3034486263
 40
0.4359629296
 40
0.5768127701
 40
0.7210881146
 40
1.0
 40
1.0
 40
1.0
 40
1.0
 10
10.9142045177
 20
5.663281487
 30
0.0
 10
10.9147329069
 20
5.6632974507
 30
0.0
 10
10.9159249868
 20
5.6633035266
 30
0.0
 10
10.9178909799
 20
5.6632642114
 30
0.0
 10
10.9201857787
 20
5.6631765355
 30
0.0
 10
10.9227282421
 20
5.6630433297
 30
0.0
 10
10.9254289425
 20
5.6628689815
 30
0.0
 10
10.9290733984
 20
5.662592587
 30
0.0
 10
10.931804459
 20
5.6623419119
 30
0.0
 10
10.9336018101
 20
5.6621524056
 30
0.0
  0
SPLINE
  5
29E
100
AcDbEntity
  8
0
100
AcDbSpline
 62
7
  6
CONTINUOUS
 70
0
 71
3
 72
20
 73
16
 74
0
 42
0.0000001
 43
0.0000001
 44
0.0000000001
 40
0.0
 40
0.0
 40
0.0
 40
0.0
 40
0.059411343
 40
0.1188905623
 40
0.1785294165
 40
0.2383968301
 40
0.2985718838
 40
0.3591334905
 40
0.4201571675
 40
0.4817175495
 40
0.5438844473
 40
0.6067204087
 40
0.7345546186
 40
0.8656046824
 40
1.0
 40
1.0
 40
1.0
 40
1.0
 10
11.4072399157
 20
5.9593318604
 30
0.0
 10
11.4102348387
 20
5.9593318604
 30
0.0
 10
11.4162308112
 20
5.9595694295
 30
0.0
 10
11.425175985
 20
5.9606357072
 30
0.0
 10
11.4340332929
 20
5.9624029637
 30
0.0
 10
11.4427609754
 20
5.9648586229
 30
0.0
 10
11.4513208216
 20
5.9679846624
 30
0.0
 10
11.4596783575
 20
5.9717600449
 30
0.0
 10
11.4678028075
 20
5.9761616444
 30
0.0
 10
11.4756671803
 20
5.9811641563
 30
0.0
 10
11.4832481979
 20
5.9867418782
 30
0.0
 10
11.4930042725
 20
5.9949552069
 30
0.0
 10
11.5043932681
 20
6.0065639275
 30
0.0
 10
11.5165516624
 20
6.0222724523
 30
0.0
 10
11.5235594661
 20
6.0337060519
 30
0.0
 10
11.5268054796
 20
6.0396526599
 30
0.0
  0
SPLINE
  5
29F
100
AcDbEntity
  8
0
100
AcDbSpline
 62
7
  6
CONTINUOUS
 70
0
 71
3
 72
20
 73
16
 74
0
 42
0.0000001
 43
0.0000001
 44
0.0000000001
 40
0.0
 40
0.0
 40
0.0
 40
0.0
 40
0.1343992211
 40
0.2654521572
 40
0.3932878388
 40
0.4561240492
 40
0.5182907959
 40
0.5798507176
 40
0.6408737045
 40
0.7014343375
 40
0.7616082884
 40
0.8214744446
 40
0.8811119455
 40
0.940590027
 40
1.0
 40
1.0
 40
1.0
 40
1.0
 10
11.5268293111
 20
6.2709673916
 30
0.0
 10
11.5235835922
 20
6.2769169215
 30
0.0
 10
11.5165760401
 20
6.288356256
 30
0.0
 10
11.5044168865
 20
6.3040729916
 30
0.0
 10
11.4930263404
 20
6.3156880275
 30
0.0
 10
11.4832685115
 20
6.3239059091
 30
0.0
 10
11.4756859732
 20
6.3294867578
 30
0.0
 10
11.4678198601
 20
6.3344921263
 30
0.0
 10
11.4596934442
 20
6.3388962563
 30
0.0
 10
11.451333751
 20
6.3426738555
 30
0.0
 10
11.4427715682
 20
6.3458017528
 30
0.0
 10
11.4340413928
 20
6.3482588811
 30
0.0
 10
11.4251814606
 20
6.350027219
 30
0.0
 10
11.4162335723
 20
6.3510941423
 30
0.0
 10
11.4102357541
 20
6.3513318604
 30
0.0
 10
11.4072399157
 20
6.3513318604
 30
0.0
  0
SPLINE
  5
2A0
100
AcDbEntity
  8
0
100
AcDbSpline
 62
7
  6
CONTINUOUS
 70
0
 71
3
 72
38
 73
34
 74
0
 42
0.0000001
 43
0.0000001
 44
0.0000000001
 40
0.0
 40
0.0
 40
0.0
 40
0.0
 40
0.0039182539
 40
0.0068832174
 40
0.0089108483
 40
0.0100167523
 40
0.010228835
 40
0.0102504807
 40
0.0102847901
 40
0.0109768627
 40
0.0125436571
 40
0.01496696
 40
0.0182288006
 40
0.0223115143
 40
0.0271977556
 40
0.0328705115
 40
0.0465080021
 40
0.0630818871
 40
0.0824464614
 40
0.1044600787
 40
0.1289852278
 40
0.1558831079
 40
0.1850143492
 40
0.2162427001
 40
0.2844607411
 40
0.3595363576
 40
0.4405133988
 40
0.5264628633
 40
0.616431355
 40
0.7094735674
 40
0.804786114
 40
0.9018050926
 40
1.0
 40
1.0
 40
1.0
 40
1.0
 10
11.5192104075
 20
6.274546036
 30
0.0
 10
11.5191790746
 20
6.2745738792
 30
0.0
 10
11.5191240668
 20
6.2746223103
 30
0.0
 10
11.5190509168
 20
6.2746851824
 30
0.0
 10
11.5190028431
 20
6.2747257363
 30
0.0
 10
11.5189723586
 20
6.2747506984
 30
0.0
 10
11.5189634896
 20
6.2747579145
 30
0.0
 10
11.5189603129
 20
6.2747604274
 30
0.0
 10
11.5189705788
 20
6.2747522534
 30
0.0
 10
11.5189827651
 20
6.2747429822
 30
0.0
 10
11.5190283232
 20
6.2747080493
 30
0.0
 10
11.5190875992
 20
6.2746640383
 30
0.0
 10
11.5191732599
 20
6.2746014944
 30
0.0
 10
11.5192793583
 20
6.2745259297
 30
0.0
 10
11.5194080788
 20
6.2744363185
 30
0.0
 10
11.5196221249
 20
6.2742909114
 30
0.0
 10
11.519943664
 20
6.2740810386
 30
0.0
 10
11.5203941793
 20
6.2738011664
 30
0.0
 10
11.5209279452
 20
6.27348571
 30
0.0
 10
11.5215428234
 20
6.2731406645
 30
0.0
 10
11.5222367029
 20
6.2727721272
 30
0.0
 10
11.5230068408
 20
6.2723853166
 30
0.0
 10
11.5238502424
 20
6.2719851078
 30
0.0
 10
11.525105942
 20
6.2714234367
 30
0.0
 10
11.5268368763
 20
6.2707218564
 30
0.0
 10
11.5290994603
 20
6.2699215168
 30
0.0
 10
11.53157733
 20
6.2691683965
 30
0.0
 10
11.534241858
 20
6.2684915521
 30
0.0
 10
11.5370602996
 20
6.2679080217
 30
0.0
 10
11.5400011623
 20
6.2674362114
 30
0.0
 10
11.5430355748
 20
6.2670915413
 30
0.0
 10
11.546137322
 20
6.2668798367
 30
0.0
 10
11.5482259793
 20
6.2668318604
 30
0.0
 10
11.5492764427
 20
6.2668318604
 30
0.0
  0
SPLINE
  5
2A1
100
AcDbEntity
  8
0
100
AcDbSpline
 62
7
  6
CONTINUOUS
 70
0
 71
3
 72
32
 73
28
 74
0
 42
0.0000001
 43
0.0000001
 44
0.0000000001
 40
0.0
 40
0.0
 40
0.0
 40
0.0
 40
0.0951116789
 40
0.189088187
 40
0.2814626585
 40
0.3717585805
 40
0.459370195
 40
0.543471641
 40
0.6231959678
 40
0.6976788995
 40
0.7660755279
 40
0.7977208694
 40
0.8275132925
 40
0.8553364693
 40
0.8810699076
 40
0.9045897703
 40
0.9257692484
 40
0.9444813764
 40
0.9606042095
 40
0.974013269
 40
0.984580022
 40
0.9887564109
 40
0.9921728442
 40
0.9948148742
 40
0.9966683495
 40
0.9979514723
 40
1.0
 40
1.0
 40
1.0
 40
1.0
 10
11.5492764427
 20
6.0438318604
 30
0.0
 10
11.5482673447
 20
6.0438318604
 30
0.0
 10
11.5462609178
 20
6.0437875156
 30
0.0
 10
11.5432802395
 20
6.0435919597
 30
0.0
 10
11.5403614846
 20
6.043273764
 30
0.0
 10
11.5375261995
 20
6.0428383766
 30
0.0
 10
11.5347989819
 20
6.0422956855
 30
0.0
 10
11.5322064148
 20
6.0416638382
 30
0.0
 10
11.5297772143
 20
6.0409596953
 30
0.0
 10
11.5275397511
 20
6.0402013497
 30
0.0
 10
11.5258126803
 20
6.0395319316
 30
0.0
 10
11.5245454588
 20
6.0389916541
 30
0.0
 10
11.5236827071
 20
6.0386009281
 30
0.0
 10
11.5228853125
 20
6.0382184723
 30
0.0
 10
11.5221557168
 20
6.0378490008
 30
0.0
 10
11.5214963978
 20
6.0374971591
 30
0.0
 10
11.5209098095
 20
6.0371676192
 30
0.0
 10
11.5203982746
 20
6.0368649506
 30
0.0
 10
11.5199635442
 20
6.0365948613
 30
0.0
 10
11.5196067725
 20
6.0363625928
 30
0.0
 10
11.5193603158
 20
6.0361948732
 30
0.0
 10
11.5192022281
 20
6.036083136
 30
0.0
 10
11.5191157589
 20
6.0360206927
 30
0.0
 10
11.5190444681
 20
6.0359676042
 30
0.0
 10
11.5190044112
 20
6.0359377134
 30
0.0
 10
11.5189359903
 20
6.0358837784
 30
0.0
 10
11.5189949601
 20
6.035931541
 30
0.0
 10
11.519011609
 20
6.0359455119
 30
0.0
  0
SPLINE
  5
2A2
100
AcDbEntity
  8
0
100
AcDbSpline
 62
7
  6
CONTINUOUS
 70
0
 71
3
 72
13
 73
9
 74
0
 42
0.0000001
 43
0.0000001
 44
0.0000000001
 40
0.0
 40
0.0
 40
0.0
 40
0.0
 40
0.2211800695
 40
0.3417776692
 40
0.4674234698
 40
0.5969294615
 40
0.7293322026
 40
1.0
 40
1.0
 40
1.0
 40
1.0
 10
11.5710076485
 20
6.0401858965
 30
0.0
 10
11.5694730623
 20
6.0407420593
 30
0.0
 10
11.567060832
 20
6.0414930447
 30
0.0
 10
11.5637078851
 20
6.0423062262
 30
0.0
 10
11.5609868124
 20
6.0428448059
 30
0.0
 10
11.5581587666
 20
6.0432780737
 30
0.0
 10
11.5542506124
 20
6.0437024187
 30
0.0
 10
11.5512739108
 20
6.0438318604
 30
0.0
 10
11.5492764427
 20
6.0438318604
 30
0.0
  0
SPLINE
  5
2A3
100
AcDbEntity
  8
0
100
AcDbSpline
 62
7
  6
CONTINUOUS
 70
0
 71
3
 72
14
 73
10
 74
0
 42
0.0000001
 43
0.0000001
 44
0.0000000001
 40
0.0
 40
0.0
 40
0.0
 40
0.0
 40
0.2708772157
 40
0.4032498606
 40
0.5326557949
 40
0.6582340137
 40
0.7788078484
 40
0.893140991
 40
1.0
 40
1.0
 40
1.0
 40
1.0
 10
11.5492764427
 20
6.2668318604
 30
0.0
 10
11.5512776687
 20
6.2668318604
 30
0.0
 10
11.5542589995
 20
6.2669619336
 30
0.0
 10
11.5581719636
 20
6.2673875018
 30
0.0
 10
11.561001729
 20
6.2678210373
 30
0.0
 10
11.5637240415
 20
6.2683615162
 30
0.0
 10
11.5663126685
 20
6.268990972
 30
0.0
 10
11.5687389895
 20
6.2696925839
 30
0.0
 10
11.5702876474
 20
6.2702161949
 30
0.0
 10
11.5710296808
 20
6.2704857258
 30
0.0
  0
SPLINE
  5
2A4
100
AcDbEntity
  8
0
100
AcDbSpline
 62
7
  6
CONTINUOUS
 70
0
 71
3
 72
47
 73
43
 74
0
 42
0.0000001
 43
0.0000001
 44
0.0000000001
 40
0.0
 40
0.0
 40
0.0
 40
0.0
 40
0.0135073046
 40
0.0270339822
 40
0.0406019413
 40
0.0542306614
 40
0.0679394064
 40
0.0817470438
 40
0.0956716738
 40
0.1097299883
 40
0.1382965984
 40
0.1675657769
 40
0.1976138486
 40
0.2284843631
 40
0.2601870707
 40
0.2926983581
 40
0.3259638121
 40
0.3599012931
 40
0.3944052073
 40
0.4293507886
 40
0.4645988765
 40
0.5000006268
 40
0.5354023672
 40
0.5706504241
 40
0.6055959565
 40
0.6400998022
 40
0.6740372019
 40
0.7073025582
 40
0.7398137401
 40
0.7715163334
 40
0.8023867239
 40
0.8324346752
 40
0.8617037344
 40
0.8902702377
 40
0.9043285034
 40
0.9182530893
 40
0.9320606886
 40
0.9457694008
 40
0.9593980899
 40
0.9729660306
 40
0.9864927105
 40
1.0
 40
1.0
 40
1.0
 40
1.0
 10
11.6867787154
 20
6.3513318604
 30
0.0
 10
11.6843638673
 20
6.3513318604
 30
0.0
 10
11.6795290876
 20
6.351166424
 30
0.0
 10
11.6723029801
 20
6.3504236704
 30
0.0
 10
11.6651221367
 20
6.349189342
 30
0.0
 10
11.6580086835
 20
6.3474691459
 30
0.0
 10
11.6509835222
 20
6.3452703041
 30
0.0
 10
11.6440664956
 20
6.3426018574
 30
0.0
 10
11.6372757108
 20
6.3394742093
 30
0.0
 10
11.6283672215
 20
6.334682629
 30
0.0
 10
11.617619143
 20
6.3275749805
 30
0.0
 10
11.605555202
 20
6.3174612551
 30
0.0
 10
11.5943460497
 20
6.3058313053
 30
0.0
 10
11.5840776698
 20
6.2928082632
 30
0.0
 10
11.5748251588
 20
6.2785201306
 30
0.0
 10
11.5666567589
 20
6.2631017903
 30
0.0
 10
11.5596336048
 20
6.2466954958
 30
0.0
 10
11.5538095111
 20
6.2294512079
 30
0.0
 10
11.5492301599
 20
6.2115262925
 30
0.0
 10
11.5459322256
 20
6.1930846481
 30
0.0
 10
11.5439425495
 20
6.1742954461
 30
0.0
 10
11.543277506
 20
6.1553315255
 30
0.0
 10
11.5439425978
 20
6.1363676122
 30
0.0
 10
11.5459323197
 20
6.1175784312
 30
0.0
 10
11.5492302956
 20
6.0991368212
 30
0.0
 10
11.5538096816
 20
6.0812119515
 30
0.0
 10
11.5596338017
 20
6.0639677193
 30
0.0
 10
11.5666569731
 20
6.0475614877
 30
0.0
 10
11.574825379
 20
6.0321432148
 30
0.0
 10
11.5840778868
 20
6.0178551536
 30
0.0
 10
11.5943462523
 20
6.0048321821
 30
0.0
 10
11.6055553803
 20
5.9932022994
 30
0.0
 10
11.6176192888
 20
5.9830886321
 30
0.0
 10
11.628367335
 20
5.9759810244
 30
0.0
 10
11.6372757966
 20
5.971189468
 30
0.0
 10
11.644066563
 20
5.9680618361
 30
0.0
 10
11.6509835709
 20
5.9653933983
 30
0.0
 10
11.6580087164
 20
5.9631945674
 30
0.0
 10
11.665122155
 20
5.9614743735
 30
0.0
 10
11.6723029906
 20
5.9602400491
 30
0.0
 10
11.6795290926
 20
5.9594972971
 30
0.0
 10
11.68436387
 20
5.9593318604
 30
0.0
 10
11.6867787154
 20
5.9593318604
 30
0.0
  0
SPLINE
  5
2A5
100
AcDbEntity
  8
0
100
AcDbSpline
 62
7
  6
CONTINUOUS
 70
0
 71
3
 72
20
 73
16
 74
0
 42
0.0000001
 43
0.0000001
 44
0.0000000001
 40
0.0
 40
0.0
 40
0.0
 40
0.0
 40
0.1344069393
 40
0.2654658031
 40
0.3933046667
 40
0.4561417194
 40
0.5183083405
 40
0.5798675811
 40
0.6408894065
 40
0.7014481375
 40
0.7616199257
 40
0.821483422
 40
0.8811179792
 40
0.9405935614
 40
1.0
 40
1.0
 40
1.0
 40
1.0
 10
10.5677610247
 20
6.0397813013
 30
0.0
 10
10.5710061629
 20
6.0338260762
 30
0.0
 10
10.5780132441
 20
6.022375568
 30
0.0
 10
10.5901739142
 20
6.0066428439
 30
0.0
 10
10.6015674946
 20
5.9950154674
 30
0.0
 10
10.6113287898
 20
5.9867887262
 30
0.0
 10
10.6189143118
 20
5.9812017676
 30
0.0
 10
10.6267838403
 20
5.9761908349
 30
0.0
 10
10.6349141134
 20
5.9717818025
 30
0.0
 10
10.643278012
 20
5.967999893
 30
0.0
 10
10.6518447323
 20
5.9648683929
 30
0.0
 10
10.6605797404
 20
5.9624084477
 30
0.0
 10
10.6694447382
 20
5.9606380212
 30
0.0
 10
10.6783978346
 20
5.9595698551
 30
0.0
 10
10.6843991856
 20
5.9593318604
 30
0.0
 10
10.6873967609
 20
5.9593318604
 30
0.0
  0
SPLINE
  5
2A6
100
AcDbEntity
  8
0
100
AcDbSpline
 62
7
  6
CONTINUOUS
 70
0
 71
3
 72
20
 73
16
 74
0
 42
0.0000001
 43
0.0000001
 44
0.0000000001
 40
0.0
 40
0.0
 40
0.0
 40
0.0
 40
0.0594072011
 40
0.1188836291
 40
0.1785190668
 40
0.2383833912
 40
0.2985559508
 40
0.3591153418
 40
0.4201376871
 40
0.4816972585
 40
0.5438640063
 40
0.6067009388
 40
0.7345388457
 40
0.8655957745
 40
1.0
 40
1.0
 40
1.0
 40
1.0
 10
10.6873967609
 20
6.3513318604
 30
0.0
 10
10.6843998311
 20
6.3513318604
 30
0.0
 10
10.6783997693
 20
6.3510939712
 30
0.0
 10
10.6694485679
 20
6.3500262581
 30
0.0
 10
10.6605853963
 20
6.3482565811
 30
0.0
 10
10.6518521222
 20
6.3457976681
 30
0.0
 10
10.6432870281
 20
6.3426674582
 30
0.0
 10
10.6349246271
 20
6.3388870883
 30
0.0
 10
10.6267957114
 20
6.3344798252
 30
0.0
 10
10.6189273919
 20
6.3294708696
 30
0.0
 10
10.6113429196
 20
6.3238860855
 30
0.0
 10
10.6015828321
 20
6.3156625091
 30
0.0
 10
10.5901903214
 20
6.304039514
 30
0.0
 10
10.5780301731
 20
6.2883124897
 30
0.0
 10
10.5710229184
 20
6.2768659617
 30
0.0
 10
10.5677775681
 20
6.2709127706
 30
0.0
  0
SPLINE
  5
2A7
100
AcDbEntity
  8
0
100
AcDbSpline
 62
7
  6
CONTINUOUS
 70
0
 71
3
 72
24
 73
20
 74
0
 42
0.0000001
 43
0.0000001
 44
0.0000000001
 40
0.0
 40
0.0
 40
0.0
 40
0.0
 40
0.0642292921
 40
0.1341604434
 40
0.2084478704
 40
0.2858051741
 40
0.4447947862
 40
0.5241291196
 40
0.6017438898
 40
0.6764234115
 40
0.7468881701
 40
0.8117991949
 40
0.8697276252
 40
0.9191521591
 40
0.9584657173
 40
0.9738071433
 40
0.9859894125
 40
0.9947932455
 40
1.0
 40
1.0
 40
1.0
 40
1.0
 10
10.5238121239
 20
6.2704120333
 30
0.0
 10
10.5248929597
 20
6.2700248082
 30
0.0
 10
10.527177006
 20
6.2692879193
 30
0.0
 10
10.5307898982
 20
6.2683677027
 30
0.0
 10
10.5346828862
 20
6.2676238981
 30
0.0
 10
10.5401939714
 20
6.2669245106
 30
0.0
 10
10.5458508331
 20
6.266731209
 30
0.0
 10
10.5514911588
 20
6.2670627272
 30
0.0
 10
10.5556048967
 20
6.2675562692
 30
0.0
 10
10.5595232055
 20
6.2682785543
 30
0.0
 10
10.5631702816
 20
6.2691814343
 30
0.0
 10
10.5664677385
 20
6.27022126
 30
0.0
 10
10.5693450787
 20
6.2713234698
 30
0.0
 10
10.5717315547
 20
6.2724125844
 30
0.0
 10
10.5733762948
 20
6.2732849227
 30
0.0
 10
10.5744024271
 20
6.2738971665
 30
0.0
 10
10.5749499532
 20
6.2742464636
 30
0.0
 10
10.5753372373
 20
6.2745096815
 30
0.0
 10
10.5755400769
 20
6.2746566545
 30
0.0
 10
10.5756143003
 20
6.2747128077
 30
0.0
  0
SPLINE
  5
2A8
100
AcDbEntity
  8
0
100
AcDbSpline
 62
7
  6
CONTINUOUS
 70
0
 71
3
 72
26
 73
22
 74
0
 42
0.0000001
 43
0.0000001
 44
0.0000000001
 40
0.0
 40
0.0
 40
0.0
 40
0.0
 40
0.1415119039
 40
0.2115293182
 40
0.2806339616
 40
0.3485701624
 40
0.4151224779
 40
0.480125822
 40
0.5434738542
 40
0.6051258989
 40
0.665111576
 40
0.7235315847
 40
0.7805546693
 40
0.8086253977
 40
0.8364372083
 40
0.8640258713
 40
0.8914294731
 40
0.918687385
 40
0.9458406763
 40
0.9729307787
 40
1.0
 40
1.0
 40
1.0
 40
1.0
 10
10.5511371818
 20
6.1553318604
 30
0.0
 10
10.5511371818
 20
6.1681552557
 30
0.0
 10
10.5497754039
 20
6.1873625658
 30
0.0
 10
10.5452234988
 20
6.212398138
 30
0.0
 10
10.5404992004
 20
6.2305765622
 30
0.0
 10
10.534493086
 20
6.2480402394
 30
0.0
 10
10.5272533513
 20
6.2646269448
 30
0.0
 10
10.5188371682
 20
6.2801795596
 30
0.0
 10
10.5093093146
 20
6.2945498967
 30
0.0
 10
10.4987421818
 20
6.3075973309
 30
0.0
 10
10.4872155664
 20
6.3191884443
 30
0.0
 10
10.4748212842
 20
6.3291949018
 30
0.0
 10
10.4637922028
 20
6.3361507641
 30
0.0
 10
10.4546626201
 20
6.3407816488
 30
0.0
 10
10.4477083969
 20
6.3437705184
 30
0.0
 10
10.4406315941
 20
6.3462807672
 30
0.0
 10
10.4334517659
 20
6.3483018751
 30
0.0
 10
10.4261903714
 20
6.3498255215
 30
0.0
 10
10.4188696046
 20
6.3508443884
 30
0.0
 10
10.411513317
 20
6.3513541371
 30
0.0
 10
10.4066008894
 20
6.3513527187
 30
0.0
 10
10.4041494553
 20
6.3512669562
 30
0.0
  0
SPLINE
  5
2A9
100
AcDbEntity
  8
0
100
AcDbSpline
 62
7
  6
CONTINUOUS
 70
0
 71
3
 72
42
 73
38
 74
0
 42
0.0000001
 43
0.0000001
 44
0.0000000001
 40
0.0
 40
0.0
 40
0.0
 40
0.0
 40
0.000863454
 40
0.0009066834
 40
0.0009316989
 40
0.0011848443
 40
0.0024902828
 40
0.0048349266
 40
0.0081877982
 40
0.0125187055
 40
0.0177982803
 40
0.0239966469
 40
0.03108182
 40
0.0390220703
 40
0.0477863138
 40
0.0573441615
 40
0.0787205757
 40
0.1029108431
 40
0.1296780184
 40
0.1587941109
 40
0.1900383326
 40
0.2231947208
 40
0.2580534492
 40
0.2944134113
 40
0.3320818884
 40
0.3708693847
 40
0.4105901631
 40
0.4510644167
 40
0.4921183221
 40
0.533578849
 40
0.575274025
 40
0.6170341349
 40
0.7000632866
 40
0.781307278
 40
0.8593701225
 40
0.9327819735
 40
1.0
 40
1.0
 40
1.0
 40
1.0
 10
10.5756382488
 20
6.0359344964
 30
0.0
 10
10.5756501554
 20
6.0359245987
 30
0.0
 10
10.5756549771
 20
6.0359203463
 30
0.0
 10
10.5756767332
 20
6.0359029968
 30
0.0
 10
10.5756704646
 20
6.0359079934
 30
0.0
 10
10.5756523237
 20
6.0359220119
 30
0.0
 10
10.5755913592
 20
6.0359685932
 30
0.0
 10
10.575493642
 20
6.0360404768
 30
0.0
 10
10.5753458196
 20
6.0361462839
 30
0.0
 10
10.5751551988
 20
6.0362779969
 30
0.0
 10
10.5749191831
 20
6.0364355482
 30
0.0
 10
10.5746393551
 20
6.0366156761
 30
0.0
 10
10.5743160689
 20
6.0368165824
 30
0.0
 10
10.5739502026
 20
6.0370359665
 30
0.0
 10
10.5735424821
 20
6.037271684
 30
0.0
 10
10.572920488
 20
6.0376179715
 30
0.0
 10
10.5720445811
 20
6.0380765262
 30
0.0
 10
10.5708765952
 20
6.0386411183
 30
0.0
 10
10.5695642598
 20
6.0392244034
 30
0.0
 10
10.5681161154
 20
6.0398115204
 30
0.0
 10
10.5665422407
 20
6.0403911336
 30
0.0
 10
10.5648529102
 20
6.0409526436
 30
0.0
 10
10.5630582695
 20
6.0414851366
 30
0.0
 10
10.5611686912
 20
6.0419783765
 30
0.0
 10
10.5591955205
 20
6.0424261447
 30
0.0
 10
10.5571498282
 20
6.0428218816
 30
0.0
 10
10.5550426832
 20
6.0431590936
 30
0.0
 10
10.5528852098
 20
6.0434314981
 30
0.0
 10
10.5506890192
 20
6.0436370465
 30
0.0
 10
10.5484655219
 20
6.0437734607
 30
0.0
 10
10.5462260904
 20
6.0438387145
 30
0.0
 10
10.5432402949
 20
6.0438271979
 30
0.0
 10
10.5395480967
 20
6.0436329707
 30
0.0
 10
10.5352289011
 20
6.0431288407
 30
0.0
 10
10.5311218646
 20
6.0423728313
 30
0.0
 10
10.5273153027
 20
6.0414194368
 30
0.0
 10
10.5249125934
 20
6.0406468277
 30
0.0
 10
10.5237781882
 20
6.0402394323
 30
0.0
  0
SPLINE
  5
2AA
100
AcDbEntity
  8
0
100
AcDbSpline
 62
7
  6
CONTINUOUS
 70
0
 71
3
 72
26
 73
22
 74
0
 42
0.0000001
 43
0.0000001
 44
0.0000000001
 40
0.0
 40
0.0
 40
0.0
 40
0.0
 40
0.0270684273
 40
0.0541580119
 40
0.0813110359
 40
0.10856892
 40
0.1359726783
 40
0.163561721
 40
0.191374014
 40
0.2194453992
 40
0.2764700099
 40
0.334891684
 40
0.3948789438
 40
0.4565323072
 40
0.5198812417
 40
0.5848849848
 40
0.6514371534
 40
0.7193726693
 40
0.7884761388
 40
0.8584919725
 40
1.0
 40
1.0
 40
1.0
 40
1.0
 10
10.4041969295
 20
5.9593951246
 30
0.0
 10
10.4066479021
 20
5.959310477
 30
0.0
 10
10.4115593527
 20
5.9593111868
 30
0.0
 10
10.4189139906
 20
5.9598240222
 30
0.0
 10
10.4262329903
 20
5.9608456618
 30
0.0
 10
10.4334925047
 20
5.9623718922
 30
0.0
 10
10.4406703668
 20
5.964395334
 30
0.0
 10
10.4477451456
 20
5.9669076369
 30
0.0
 10
10.4546972807
 20
5.9698983592
 30
0.0
 10
10.4638240632
 20
5.97453134
 30
0.0
 10
10.4748495547
 20
5.9814892437
 30
0.0
 10
10.4872396118
 20
5.9914971623
 30
0.0
 10
10.4987621592
 20
6.0030888555
 30
0.0
 10
10.5093254574
 20
6.0161360477
 30
0.0
 10
10.5188497699
 20
6.0305053913
 30
0.0
 10
10.52726276
 20
6.046056331
 30
0.0
 10
10.5344996981
 20
6.0626407578
 30
0.0
 10
10.540503457
 20
6.0801016361
 30
0.0
 10
10.5452258788
 20
6.0982768312
 30
0.0
 10
10.5497759512
 20
6.1233076063
 30
0.0
 10
10.5511371818
 20
6.1425110535
 30
0.0
 10
10.5511371818
 20
6.1553318604
 30
0.0
  0
SPLINE
  5
2AB
100
AcDbEntity
  8
0
100
AcDbSpline
 62
7
  6
CONTINUOUS
 70
0
 71
3
 72
14
 73
10
 74
0
 42
0.0000001
 43
0.0000001
 44
0.0000000001
 40
0.0
 40
0.0
 40
0.0
 40
0.0
 40
0.2789115959
 40
0.4231868098
 40
0.5640365612
 40
0.6965508453
 40
0.8160784852
 40
0.9184193826
 40
1.0
 40
1.0
 40
1.0
 40
1.0
 10
11.1610348665
 20
5.6621524056
 30
0.0
 10
11.1628322136
 20
5.6623419115
 30
0.0
 10
11.1655632681
 20
5.6625925861
 30
0.0
 10
11.1692077163
 20
5.6628689803
 30
0.0
 10
11.1719084118
 20
5.6630433284
 30
0.0
 10
11.1744508719
 20
5.6631765343
 30
0.0
 10
11.1767456694
 20
5.6632642106
 30
0.0
 10
11.1787116636
 20
5.6633035263
 30
0.0
 10
11.1799037449
 20
5.6632974511
 30
0.0
 10
11.1804321354
 20
5.6632814877
 30
0.0
  0
LINE
  5
2AC
100
AcDbEntity
  8
0
100
AcDbLine
 62
7
  6
CONTINUOUS
 10
11.1804321354
 20
5.6632814877
 11
11.1820896053
 21
5.663130163
  0
LINE
  5
2AD
100
AcDbEntity
  8
0
100
AcDbLine
 62
7
  6
CONTINUOUS
 10
11.1820896053
 20
5.663130163
 11
11.1823183355
 21
5.6629914195
  0
SPLINE
  5
2AE
100
AcDbEntity
  8
0
100
AcDbSpline
 62
7
  6
CONTINUOUS
 70
0
 71
3
 72
11
 73
7
 74
0
 42
0.0000001
 43
0.0000001
 44
0.0000000001
 40
0.0
 40
0.0
 40
0.0
 40
0.0
 40
0.4765282354
 40
0.6032303221
 40
0.7327904242
 40
1.0
 40
1.0
 40
1.0
 40
1.0
 10
11.4415303688
 20
5.9503318604
 30
0.0
 10
11.4330364378
 20
5.9503318604
 30
0.0
 10
11.4222526325
 20
5.9516677889
 30
0.0
 10
11.4095631569
 20
5.9547517116
 30
0.0
 10
11.4006026697
 20
5.9573672138
 30
0.0
 10
11.3939490525
 20
5.9597947424
 30
0.0
 10
11.3895415236
 20
5.961600005
 30
0.0
  0
SPLINE
  5
2AF
100
AcDbEntity
  8
0
100
AcDbSpline
 62
7
  6
CONTINUOUS
 70
0
 71
3
 72
39
 73
35
 74
0
 42
0.0000001
 43
0.0000001
 44
0.0000000001
 40
0.0
 40
0.0
 40
0.0
 40
0.0
 40
0.0280091886
 40
0.0568638484
 40
0.0864472881
 40
0.1166465145
 40
0.14735716
 40
0.1784860624
 40
0.2099520962
 40
0.2416860188
 40
0.2736297599
 40
0.3057350157
 40
0.3379622255
 40
0.3702792637
 40
0.4026603744
 40
0.4350848949
 40
0.4675361159
 40
0.4999999998
 40
0.5324638838
 40
0.564915105
 40
0.5973396255
 40
0.6297207362
 40
0.6620377743
 40
0.6942649842
 40
0.7263702399
 40
0.7583139811
 40
0.7900479038
 40
0.8215139376
 40
0.8526428401
 40
0.8833534854
 40
0.9135527119
 40
0.9431361515
 40
0.9719908114
 40
1.0
 40
1.0
 40
1.0
 40
1.0
 10
11.3895415236
 20
5.961600005
 30
0.0
 10
11.3852039968
 20
5.9633765958
 30
0.0
 10
11.3765335576
 20
5.9673223627
 30
0.0
 10
11.3638102147
 20
5.9742294053
 30
0.0
 10
11.3512644769
 20
5.9821632577
 30
0.0
 10
11.3390021464
 20
5.9910669301
 30
0.0
 10
11.3271239013
 20
6.0008879675
 30
0.0
 10
11.3157287932
 20
6.0115783009
 30
0.0
 10
11.30491589
 20
6.0230939294
 30
0.0
 10
11.2947865474
 20
6.0353934057
 30
0.0
 10
11.2854462166
 20
6.0484354335
 30
0.0
 10
11.2770054645
 20
6.0621755242
 30
0.0
 10
11.2695795798
 20
6.0765617945
 30
0.0
 10
11.2632862221
 20
6.0915303948
 30
0.0
 10
11.2582406554
 20
6.107001109
 30
0.0
 10
11.2545482036
 20
6.1228742108
 30
0.0
 10
11.2522947906
 20
6.1390299637
 30
0.0
 10
11.2515370351
 20
6.1553318604
 30
0.0
 10
11.2522947906
 20
6.171633757
 30
0.0
 10
11.2545482036
 20
6.18778951
 30
0.0
 10
11.2582406554
 20
6.2036626118
 30
0.0
 10
11.2632862221
 20
6.219133326
 30
0.0
 10
11.2695795798
 20
6.2341019263
 30
0.0
 10
11.2770054645
 20
6.2484881966
 30
0.0
 10
11.2854462166
 20
6.2622282873
 30
0.0
 10
11.2947865474
 20
6.2752703151
 30
0.0
 10
11.3049158901
 20
6.2875697915
 30
0.0
 10
11.3157287933
 20
6.2990854199
 30
0.0
 10
11.3271239013
 20
6.3097757534
 30
0.0
 10
11.3390021465
 20
6.3195967908
 30
0.0
 10
11.3512644769
 20
6.3285004631
 30
0.0
 10
11.3638102147
 20
6.3364343155
 30
0.0
 10
11.3765335577
 20
6.3433413582
 30
0.0
 10
11.3852039969
 20
6.347287125
 30
0.0
 10
11.3895415237
 20
6.3490637158
 30
0.0
  0
SPLINE
  5
2B0
100
AcDbEntity
  8
0
100
AcDbSpline
 62
7
  6
CONTINUOUS
 70
0
 71
3
 72
11
 73
7
 74
0
 42
0.0000001
 43
0.0000001
 44
0.0000000001
 40
0.0
 40
0.0
 40
0.0
 40
0.0
 40
0.2672095764
 40
0.396769679
 40
0.5234717659
 40
1.0
 40
1.0
 40
1.0
 40
1.0
 10
11.3895415237
 20
6.3490637158
 30
0.0
 10
11.3939490525
 20
6.3508689784
 30
0.0
 10
11.4006026698
 20
6.3532965071
 30
0.0
 10
11.409563157
 20
6.3559120093
 30
0.0
 10
11.4222526325
 20
6.3589959319
 30
0.0
 10
11.4330364378
 20
6.3603318604
 30
0.0
 10
11.4415303688
 20
6.3603318604
 30
0.0
  0
SPLINE
  5
2B1
100
AcDbEntity
  8
0
100
AcDbSpline
 62
7
  6
CONTINUOUS
 70
0
 71
3
 72
11
 73
7
 74
0
 42
0.0000001
 43
0.0000001
 44
0.0000000001
 40
0.0
 40
0.0
 40
0.0
 40
0.0
 40
0.4765282224
 40
0.6032303102
 40
0.7327904116
 40
1.0
 40
1.0
 40
1.0
 40
1.0
 10
10.6531063078
 20
6.3603318604
 30
0.0
 10
10.6616002569
 20
6.3603318604
 30
0.0
 10
10.6723840855
 20
6.3589959262
 30
0.0
 10
10.685073587
 20
6.3559119915
 30
0.0
 10
10.6940340926
 20
6.353296479
 30
0.0
 10
10.700687723
 20
6.3508689412
 30
0.0
 10
10.7050952605
 20
6.3490636717
 30
0.0
  0
SPLINE
  5
2B2
100
AcDbEntity
  8
0
100
AcDbSpline
 62
7
  6
CONTINUOUS
 70
0
 71
3
 72
39
 73
35
 74
0
 42
0.0000001
 43
0.0000001
 44
0.0000000001
 40
0.0
 40
0.0
 40
0.0
 40
0.0
 40
0.0280091941
 40
0.0568638563
 40
0.0864473014
 40
0.1166465288
 40
0.1473571754
 40
0.1784860782
 40
0.2099521085
 40
0.2416860308
 40
0.2736297699
 40
0.3057350237
 40
0.3379622322
 40
0.3702792691
 40
0.4026603797
 40
0.4350848998
 40
0.4675361189
 40
0.5000000002
 40
0.5324638814
 40
0.5649151005
 40
0.5973396206
 40
0.6297207313
 40
0.6620377684
 40
0.6942649768
 40
0.7263702305
 40
0.7583139697
 40
0.7900478919
 40
0.8215139221
 40
0.8526428249
 40
0.8833534715
 40
0.9135526988
 40
0.9431361439
 40
0.9719908059
 40
1.0
 40
1.0
 40
1.0
 40
1.0
 10
10.7050952605
 20
6.3490636717
 30
0.0
 10
10.709432785
 20
6.3472870786
 30
0.0
 10
10.7181032191
 20
6.343341308
 30
0.0
 10
10.7308265546
 20
6.3364342609
 30
0.0
 10
10.7433722841
 20
6.3285004055
 30
0.0
 10
10.7556346064
 20
6.3195967316
 30
0.0
 10
10.7675128425
 20
6.3097756938
 30
0.0
 10
10.7789079415
 20
6.2990853616
 30
0.0
 10
10.7897208356
 20
6.2875697354
 30
0.0
 10
10.7998501694
 20
6.2752702625
 30
0.0
 10
10.809190492
 20
6.2622282388
 30
0.0
 10
10.8176312363
 20
6.2484881532
 30
0.0
 10
10.8250571142
 20
6.2341018886
 30
0.0
 10
10.831350466
 20
6.2191332944
 30
0.0
 10
10.8363960278
 20
6.2036625869
 30
0.0
 10
10.840088476
 20
6.1877894923
 30
0.0
 10
10.8423418866
 20
6.1716337475
 30
0.0
 10
10.8430996412
 20
6.1553318596
 30
0.0
 10
10.8423418864
 20
6.1390299717
 30
0.0
 10
10.8400884757
 20
6.1228742269
 30
0.0
 10
10.8363960274
 20
6.1070011324
 30
0.0
 10
10.8313504654
 20
6.0915304248
 30
0.0
 10
10.8250571135
 20
6.0765618306
 30
0.0
 10
10.8176312355
 20
6.0621755661
 30
0.0
 10
10.809190491
 20
6.0484354806
 30
0.0
 10
10.7998501684
 20
6.0353934569
 30
0.0
 10
10.7897208345
 20
6.0230939842
 30
0.0
 10
10.7789079403
 20
6.011578358
 30
0.0
 10
10.7675128413
 20
6.000888026
 30
0.0
 10
10.7556346051
 20
5.9910669883
 30
0.0
 10
10.7433722828
 20
5.9821633144
 30
0.0
 10
10.7308265533
 20
5.9742294591
 30
0.0
 10
10.7181032178
 20
5.9673224121
 30
0.0
 10
10.7094327837
 20
5.9633766416
 30
0.0
 10
10.7050952591
 20
5.9616000485
 30
0.0
  0
SPLINE
  5
2B3
100
AcDbEntity
  8
0
100
AcDbSpline
 62
7
  6
CONTINUOUS
 70
0
 71
3
 72
11
 73
7
 74
0
 42
0.0000001
 43
0.0000001
 44
0.0000000001
 40
0.0
 40
0.0
 40
0.0
 40
0.0
 40
0.267209589
 40
0.3967696886
 40
0.5234717784
 40
1.0
 40
1.0
 40
1.0
 40
1.0
 10
10.7050952591
 20
5.9616000485
 30
0.0
 10
10.7006877218
 20
5.9597947792
 30
0.0
 10
10.6940340915
 20
5.9573672415
 30
0.0
 10
10.6850735862
 20
5.9547517291
 30
0.0
 10
10.672384085
 20
5.9516677946
 30
0.0
 10
10.6616002567
 20
5.9503318604
 30
0.0
 10
10.6531063078
 20
5.9503318604
 30
0.0
  0
SPLINE
  5
2B4
100
AcDbEntity
  8
0
100
AcDbSpline
 62
7
  6
CONTINUOUS
 70
0
 71
3
 72
15
 73
11
 74
0
 42
0.0000001
 43
0.0000001
 44
0.0000000001
 40
0.0
 40
0.0
 40
0.0
 40
0.0
 40
0.1745520424
 40
0.3348559241
 40
0.4809221406
 40
0.6127809301
 40
0.7304884996
 40
0.8341399829
 40
0.9238912554
 40
1.0
 40
1.0
 40
1.0
 40
1.0
 10
11.064183575
 20
5.68131004
 30
0.0
 10
11.0639513701
 20
5.6799054244
 30
0.0
 10
11.0634886534
 20
5.6772136464
 30
0.0
 10
11.0627635448
 20
5.67335857
 30
0.0
 10
11.0620372142
 20
5.6698586149
 30
0.0
 10
11.0613099766
 20
5.6667144247
 30
0.0
 10
11.0605822001
 20
5.6639264923
 30
0.0
 10
11.0598543038
 20
5.6614948812
 30
0.0
 10
11.0591267902
 20
5.6594197027
 30
0.0
 10
11.0585998652
 20
5.6581720057
 30
0.0
 10
11.0583308432
 20
5.6576125712
 30
0.0
  0
SPLINE
  5
2B5
100
AcDbEntity
  8
0
100
AcDbSpline
 62
7
  6
CONTINUOUS
 70
0
 71
3
 72
11
 73
7
 74
0
 42
0.0000001
 43
0.0000001
 44
0.0000000001
 40
0.0
 40
0.0
 40
0.0
 40
0.0
 40
0.3091540343
 40
0.5769727176
 40
0.8059270735
 40
1.0
 40
1.0
 40
1.0
 40
1.0
 10
11.0583308432
 20
5.6576125712
 30
0.0
 10
11.0581740486
 20
5.6572865149
 30
0.0
 10
11.0578638008
 20
5.6566861059
 30
0.0
 10
11.0573638404
 20
5.6558846822
 30
0.0
 10
11.0568630748
 20
5.6552476879
 30
0.0
 10
11.0564996933
 20
5.6549066007
 30
0.0
 10
11.0563175181
 20
5.6547709701
 30
0.0
  0
SPLINE
  5
2B6
100
AcDbEntity
  8
0
100
AcDbSpline
 62
7
  6
CONTINUOUS
 70
0
 71
3
 72
15
 73
11
 74
0
 42
0.0000001
 43
0.0000001
 44
0.0000000001
 40
0.0
 40
0.0
 40
0.0
 40
0.0
 40
0.1745520424
 40
0.3348559241
 40
0.4809221406
 40
0.6127809301
 40
0.7304884996
 40
0.8341399829
 40
0.9238912554
 40
1.0
 40
1.0
 40
1.0
 40
1.0
 10
11.0304531015
 20
5.68131004
 30
0.0
 10
11.0306853064
 20
5.6799054244
 30
0.0
 10
11.0311480231
 20
5.6772136464
 30
0.0
 10
11.0318731318
 20
5.67335857
 30
0.0
 10
11.0325994624
 20
5.6698586149
 30
0.0
 10
11.0333267
 20
5.6667144247
 30
0.0
 10
11.0340544765
 20
5.6639264923
 30
0.0
 10
11.0347823728
 20
5.6614948812
 30
0.0
 10
11.0355098863
 20
5.6594197027
 30
0.0
 10
11.0360368114
 20
5.6581720057
 30
0.0
 10
11.0363058334
 20
5.6576125712
 30
0.0
  0
SPLINE
  5
2B7
100
AcDbEntity
  8
0
100
AcDbSpline
 62
7
  6
CONTINUOUS
 70
0
 71
3
 72
11
 73
7
 74
0
 42
0.0000001
 43
0.0000001
 44
0.0000000001
 40
0.0
 40
0.0
 40
0.0
 40
0.0
 40
0.3091540343
 40
0.5769727176
 40
0.8059270735
 40
1.0
 40
1.0
 40
1.0
 40
1.0
 10
11.0363058334
 20
5.6576125712
 30
0.0
 10
11.0364626279
 20
5.6572865149
 30
0.0
 10
11.0367728758
 20
5.6566861059
 30
0.0
 10
11.0372728362
 20
5.6558846822
 30
0.0
 10
11.0377736017
 20
5.6552476879
 30
0.0
 10
11.0381369833
 20
5.6549066007
 30
0.0
 10
11.0383191584
 20
5.6547709701
 30
0.0
  0
LINE
  5
2B8
100
AcDbEntity
  8
0
100
AcDbLine
 62
7
  6
CONTINUOUS
 10
10.9546386692
 20
5.6578880638
 11
10.9547677166
 21
5.6578716455
  0
LINE
  5
2B9
100
AcDbEntity
  8
0
100
AcDbLine
 62
7
  6
CONTINUOUS
 10
10.9547677166
 20
5.6578716455
 11
10.955569671
 21
5.657770801
  0
SPLINE
  5
2BA
100
AcDbEntity
  8
0
100
AcDbSpline
 62
7
  6
CONTINUOUS
 70
0
 71
3
 72
9
 73
5
 74
0
 42
0.0000001
 43
0.0000001
 44
0.0000000001
 40
0.0
 40
0.0
 40
0.0
 40
0.0
 40
0.5150800036
 40
1.0
 40
1.0
 40
1.0
 40
1.0
 10
10.955569671
 20
5.657770801
 30
0.0
 10
10.959106717
 20
5.65733055
 30
0.0
 10
10.9659886221
 20
5.6565902238
 30
0.0
 10
10.9728945972
 20
5.6561159025
 30
0.0
 10
10.9762466729
 20
5.6559614313
 30
0.0
  0
SPLINE
  5
2BB
100
AcDbEntity
  8
0
100
AcDbSpline
 62
7
  6
CONTINUOUS
 70
0
 71
3
 72
8
 73
4
 74
0
 42
0.0000001
 43
0.0000001
 44
0.0000000001
 40
0.0
 40
0.0
 40
0.0
 40
0.0
 40
1.0
 40
1.0
 40
1.0
 40
1.0
 10
10.9762466729
 20
5.6559614313
 30
0.0
 10
10.9762640223
 20
5.6559606338
 30
0.0
 10
10.9762813716
 20
5.6559598363
 30
0.0
 10
10.9762987209
 20
5.6559590389
 30
0.0
  0
SPLINE
  5
2BC
100
AcDbEntity
  8
0
100
AcDbSpline
 62
7
  6
CONTINUOUS
 70
0
 71
3
 72
8
 73
4
 74
0
 42
0.0000001
 43
0.0000001
 44
0.0000000001
 40
0.0
 40
0.0
 40
0.0
 40
0.0
 40
1.0
 40
1.0
 40
1.0
 40
1.0
 10
11.1183379557
 20
5.6559590389
 30
0.0
 10
11.1183554145
 20
5.6559598414
 30
0.0
 10
11.1183728733
 20
5.6559606439
 30
0.0
 10
11.1183903322
 20
5.6559614464
 30
0.0
  0
SPLINE
  5
2BD
100
AcDbEntity
  8
0
100
AcDbSpline
 62
7
  6
CONTINUOUS
 70
0
 71
3
 72
9
 73
5
 74
0
 42
0.0000001
 43
0.0000001
 44
0.0000000001
 40
0.0
 40
0.0
 40
0.0
 40
0.0
 40
0.4846785977
 40
1.0
 40
1.0
 40
1.0
 40
1.0
 10
11.1183903322
 20
5.6559614464
 30
0.0
 10
11.1218009801
 20
5.6561186219
 30
0.0
 10
11.1288310115
 20
5.6566042286
 30
0.0
 10
11.135835973
 20
5.6573645914
 30
0.0
 10
11.139437778
 20
5.6578171703
 30
0.0
  0
LINE
  5
2BE
100
AcDbEntity
  8
0
100
AcDbLine
 62
7
  6
CONTINUOUS
 10
11.139437778
 20
5.6578171703
 11
11.1398717688
 21
5.6578720022
  0
LINE
  5
2BF
100
AcDbEntity
  8
0
100
AcDbLine
 62
7
  6
CONTINUOUS
 10
11.1398717688
 20
5.6578720022
 11
11.140001539
 21
5.6578885139
  0
SPLINE
  5
2C0
100
AcDbEntity
  8
0
100
AcDbSpline
 62
7
  6
CONTINUOUS
 70
0
 71
3
 72
17
 73
13
 74
0
 42
0.0000001
 43
0.0000001
 44
0.0000000001
 40
0.0
 40
0.0
 40
0.0
 40
0.0
 40
0.220172031
 40
0.4137698221
 40
0.5799841941
 40
0.7182307674
 40
0.8283406371
 40
0.8728913156
 40
0.9105351203
 40
0.9414739135
 40
0.9661014348
 40
1.0
 40
1.0
 40
1.0
 40
1.0
 10
10.9140879686
 20
5.6624298201
 30
0.0
 10
10.9139518325
 20
5.6624556911
 30
0.0
 10
10.9136963437
 20
5.6625062124
 30
0.0
 10
10.9133396981
 20
5.6625841366
 30
0.0
 10
10.9130352427
 20
5.6626589996
 30
0.0
 10
10.9127842508
 20
5.6627305281
 30
0.0
 10
10.9126096787
 20
5.6627902709
 30
0.0
 10
10.9124981867
 20
5.6628376333
 30
0.0
 10
10.9124345328
 20
5.6628694479
 30
0.0
 10
10.9123843654
 20
5.6629006736
 30
0.0
 10
10.9123412219
 20
5.6629355487
 30
0.0
 10
10.9123183516
 20
5.6629700843
 30
0.0
 10
10.912318341
 20
5.6629914195
 30
0.0
  0
SPLINE
  5
2C1
100
AcDbEntity
  8
0
100
AcDbSpline
 62
7
  6
CONTINUOUS
 70
0
 71
3
 72
19
 73
15
 74
0
 42
0.0000001
 43
0.0000001
 44
0.0000000001
 40
0.0
 40
0.0
 40
0.0
 40
0.0
 40
0.0287411112
 40
0.0616491878
 40
0.098879963
 40
0.1405393385
 40
0.186701311
 40
0.2374186924
 40
0.2927297345
 40
0.3526623565
 40
0.4864633682
 40
0.6389300245
 40
0.8101066758
 40
1.0
 40
1.0
 40
1.0
 40
1.0
 10
11.0173183383
 20
5.6560921797
 30
0.0
 10
11.0171491243
 20
5.656331431
 30
0.0
 10
11.0168143232
 20
5.6568646468
 30
0.0
 10
11.0163452569
 20
5.6577577902
 30
0.0
 10
11.0158761826
 20
5.6587973106
 30
0.0
 10
11.0154071702
 20
5.659983338
 30
0.0
 10
11.0149382434
 20
5.6613160683
 30
0.0
 10
11.0144694947
 20
5.6627955249
 30
0.0
 10
11.0140009728
 20
5.6644216765
 30
0.0
 10
11.013352676
 20
5.6668769543
 30
0.0
 10
11.0125521761
 20
5.6703156044
 30
0.0
 10
11.0116243146
 20
5.6748869148
 30
0.0
 10
11.010698221
 20
5.6800407333
 30
0.0
 10
11.0101127051
 20
5.683675522
 30
0.0
 10
11.0098183383
 20
5.6855891614
 30
0.0
  0
SPLINE
  5
2C2
100
AcDbEntity
  8
0
100
AcDbSpline
 62
9
  6
CONTINUOUS
 70
0
 71
3
 72
21
 73
17
 74
0
 42
0.0000001
 43
0.0000001
 44
0.0000000001
 40
0.0
 40
0.0
 40
0.0
 40
0.0
 40
0.1169630859
 40
0.1780520702
 40
0.2405923456
 40
0.304342784
 40
0.3690292751
 40
0.4343532555
 40
0.5
 40
0.5656467445
 40
0.6309707249
 40
0.695657216
 40
0.7594076544
 40
0.8219479298
 40
0.8830369141
 40
1.0
 40
1.0
 40
1.0
 40
1.0
 10
11.6308167123
 20
6.2751217933
 30
0.0
 10
11.6250306012
 20
6.2670963301
 30
0.0
 10
11.6173903037
 20
6.2539973017
 30
0.0
 10
11.6093623922
 20
6.2352834887
 30
0.0
 10
11.6042775389
 20
6.2202519255
 30
0.0
 10
11.6002717399
 20
6.2045870961
 30
0.0
 10
11.5973820523
 20
6.1884391095
 30
0.0
 10
11.5956370016
 20
6.1719669942
 30
0.0
 10
11.5950534111
 20
6.1553318604
 30
0.0
 10
11.5956370016
 20
6.1386967266
 30
0.0
 10
11.5973820523
 20
6.1222246113
 30
0.0
 10
11.6002717399
 20
6.1060766247
 30
0.0
 10
11.6042775389
 20
6.0904117953
 30
0.0
 10
11.6093623922
 20
6.0753802321
 30
0.0
 10
11.6173903037
 20
6.0566664191
 30
0.0
 10
11.6250306012
 20
6.0435673907
 30
0.0
 10
11.6308167123
 20
6.0355419275
 30
0.0
  0
LINE
  5
2C3
100
AcDbEntity
  8
0
100
AcDbLine
 62
7
  6
CONTINUOUS
 10
11.1561314501
 20
5.6595892164
 11
11.1562531947
 21
5.6596039946
  0
SPLINE
  5
2C4
100
AcDbEntity
  8
0
100
AcDbSpline
 62
9
  6
CONTINUOUS
 70
0
 71
3
 72
13
 73
9
 74
0
 42
0.0000001
 43
0.0000001
 44
0.0000000001
 40
0.0
 40
0.0
 40
0.0
 40
0.0
 40
0.2339644138
 40
0.3561623429
 40
0.481263385
 40
0.6087849504
 40
0.7381795517
 40
1.0
 40
1.0
 40
1.0
 40
1.0
 10
10.4638199642
 20
6.2751217933
 30
0.0
 10
10.4696060754
 20
6.26709633
 30
0.0
 10
10.4772463669
 20
6.253997336
 30
0.0
 10
10.4852742947
 20
6.2352834275
 30
0.0
 10
10.4903591008
 20
6.220252167
 30
0.0
 10
10.4943650677
 20
6.2045861702
 30
0.0
 10
10.4982317743
 20
6.1829799053
 30
0.0
 10
10.499388416
 20
6.1664036184
 30
0.0
 10
10.499388416
 20
6.1553318604
 30
0.0
  0
SPLINE
  5
2C5
100
AcDbEntity
  8
0
100
AcDbSpline
 62
9
  6
CONTINUOUS
 70
0
 71
3
 72
13
 73
9
 74
0
 42
0.0000001
 43
0.0000001
 44
0.0000000001
 40
0.0
 40
0.0
 40
0.0
 40
0.0
 40
0.2339644138
 40
0.3561623429
 40
0.481263385
 40
0.6087849504
 40
0.7381795517
 40
1.0
 40
1.0
 40
1.0
 40
1.0
 10
10.4638199642
 20
6.0355419275
 30
0.0
 10
10.4696060754
 20
6.0435673908
 30
0.0
 10
10.4772463669
 20
6.0566663848
 30
0.0
 10
10.4852742947
 20
6.0753802934
 30
0.0
 10
10.4903591008
 20
6.0904115538
 30
0.0
 10
10.4943650677
 20
6.1060775506
 30
0.0
 10
10.4982317743
 20
6.1276838155
 30
0.0
 10
10.499388416
 20
6.1442601024
 30
0.0
 10
10.499388416
 20
6.1553318604
 30
0.0
  0
LINE
  5
2C6
100
AcDbEntity
  8
0
100
AcDbLine
 62
7
  6
CONTINUOUS
 10
10.9383869558
 20
5.6596035722
 11
10.9385074494
 21
5.6595889471
  0
SPLINE
  5
2C7
100
AcDbEntity
  8
0
100
AcDbSpline
 62
9
  6
CONTINUOUS
 70
0
 71
3
 72
13
 73
9
 74
0
 42
0.0000001
 43
0.0000001
 44
0.0000000001
 40
0.0
 40
0.0
 40
0.0
 40
0.0
 40
0.2361850854
 40
0.3588110012
 40
0.4839302585
 40
0.6111143338
 40
0.7398879977
 40
1.0
 40
1.0
 40
1.0
 40
1.0
 10
10.7903985273
 20
6.2864702157
 30
0.0
 10
10.7962157104
 20
6.2773321813
 30
0.0
 10
10.8038801126
 20
6.2626678875
 30
0.0
 10
10.8119294039
 20
6.2419720782
 30
0.0
 10
10.817004366
 20
6.2255255401
 30
0.0
 10
10.8209950291
 20
6.2084948876
 30
0.0
 10
10.8248392687
 20
6.1851275969
 30
0.0
 10
10.82598969
 20
6.1672617674
 30
0.0
 10
10.82598969
 20
6.1553318604
 30
0.0
  0
SPLINE
  5
2C8
100
AcDbEntity
  8
0
100
AcDbSpline
 62
9
  6
CONTINUOUS
 70
0
 71
3
 72
15
 73
11
 74
0
 42
0.0000001
 43
0.0000001
 44
0.0000000001
 40
0.0
 40
0.0
 40
0.0
 40
0.0
 40
0.2339202787
 40
0.2946307012
 40
0.3561204022
 40
0.4811978432
 40
0.6086953605
 40
0.738065597
 40
0.8687087827
 40
1.0
 40
1.0
 40
1.0
 40
1.0
 10
10.4342334501
 20
6.3161586993
 30
0.0
 10
10.4420018092
 20
6.305383978
 30
0.0
 10
10.4504922027
 20
6.2908267112
 30
0.0
 10
10.4588567827
 20
6.2724171976
 30
0.0
 10
10.4641435976
 20
6.2594040175
 30
0.0
 10
10.4698639909
 20
6.2424921016
 30
0.0
 10
10.4752423826
 20
6.2214606021
 30
0.0
 10
10.47912187
 20
6.1997806509
 30
0.0
 10
10.4814648158
 20
6.1776665009
 30
0.0
 10
10.4819867016
 20
6.1627872238
 30
0.0
 10
10.4819867016
 20
6.1553318604
 30
0.0
  0
LINE
  5
2C9
100
AcDbEntity
  8
0
100
AcDbLine
 62
7
  6
CONTINUOUS
 10
11.0768059792
 20
5.6562729912
 11
11.0773114309
 21
5.6562895261
  0
LINE
  5
2CA
100
AcDbEntity
  8
0
100
AcDbLine
 62
7
  6
CONTINUOUS
 10
11.0773183383
 20
5.6570933169
 11
11.07787377
 21
5.6579815466
  0
SPLINE
  5
2CB
100
AcDbEntity
  8
0
100
AcDbSpline
 62
7
  6
CONTINUOUS
 70
0
 71
3
 72
17
 73
13
 74
0
 42
0.0000001
 43
0.0000001
 44
0.0000000001
 40
0.0
 40
0.0
 40
0.0
 40
0.0
 40
0.0324966293
 40
0.0688021313
 40
0.1089993879
 40
0.1531483191
 40
0.2534582913
 40
0.3699782946
 40
0.5028394201
 40
0.6521126854
 40
0.8178306895
 40
1.0
 40
1.0
 40
1.0
 40
1.0
 10
11.07787377
 20
5.6579815466
 30
0.0
 10
11.0780247801
 20
5.6582508934
 30
0.0
 10
11.0783243027
 20
5.6588325586
 30
0.0
 10
11.0787490728
 20
5.6597775635
 30
0.0
 10
11.0791738199
 20
5.6608427682
 30
0.0
 10
11.0797654475
 20
5.6624949724
 30
0.0
 10
11.0804942709
 20
5.6648666176
 30
0.0
 10
11.0813361721
 20
5.6680816912
 30
0.0
 10
11.0821775727
 20
5.6717757226
 30
0.0
 10
11.0830180001
 20
5.6759478649
 30
0.0
 10
11.0838568532
 20
5.6805971939
 30
0.0
 10
11.0843895573
 20
5.6838598477
 30
0.0
 10
11.084657112
 20
5.6855700622
 30
0.0
  0
LINE
  5
2CC
100
AcDbEntity
  8
0
100
AcDbLine
 62
7
  6
CONTINUOUS
 10
11.0173183383
 20
5.6570933169
 11
11.0167629066
 21
5.6579815466
  0
SPLINE
  5
2CD
100
AcDbEntity
  8
0
100
AcDbSpline
 62
7
  6
CONTINUOUS
 70
0
 71
3
 72
17
 73
13
 74
0
 42
0.0000001
 43
0.0000001
 44
0.0000000001
 40
0.0
 40
0.0
 40
0.0
 40
0.0
 40
0.0324966293
 40
0.0688021313
 40
0.1089993879
 40
0.1531483191
 40
0.2534582913
 40
0.3699782946
 40
0.5028394201
 40
0.6521126854
 40
0.8178306895
 40
1.0
 40
1.0
 40
1.0
 40
1.0
 10
11.0167629066
 20
5.6579815466
 30
0.0
 10
11.0166118964
 20
5.6582508934
 30
0.0
 10
11.0163123738
 20
5.6588325586
 30
0.0
 10
11.0158876037
 20
5.6597775635
 30
0.0
 10
11.0154628567
 20
5.6608427682
 30
0.0
 10
11.0148712291
 20
5.6624949724
 30
0.0
 10
11.0141424057
 20
5.6648666176
 30
0.0
 10
11.0133005045
 20
5.6680816912
 30
0.0
 10
11.0124591039
 20
5.6717757226
 30
0.0
 10
11.0116186764
 20
5.6759478649
 30
0.0
 10
11.0107798234
 20
5.6805971939
 30
0.0
 10
11.0102471193
 20
5.6838598477
 30
0.0
 10
11.0099795646
 20
5.6855700622
 30
0.0
  0
LINE
  5
2CE
100
AcDbEntity
  8
0
100
AcDbLine
 62
7
  6
CONTINUOUS
 10
11.0178306973
 20
5.6562729912
 11
11.0173252457
 21
5.6562895261
  0
SPLINE
  5
2CF
100
AcDbEntity
  8
0
100
AcDbSpline
 62
7
  6
CONTINUOUS
 70
0
 71
3
 72
17
 73
13
 74
0
 42
0.0000001
 43
0.0000001
 44
0.0000000001
 40
0.0
 40
0.0
 40
0.0
 40
0.0
 40
0.0338985661
 40
0.0585260872
 40
0.0894648799
 40
0.1271086845
 40
0.171659363
 40
0.2817692328
 40
0.4200158067
 40
0.5862301796
 40
0.7798279703
 40
1.0
 40
1.0
 40
1.0
 40
1.0
 10
11.1823183355
 20
5.6629914195
 30
0.0
 10
11.182318325
 20
5.6629700843
 30
0.0
 10
11.1822954547
 20
5.6629355487
 30
0.0
 10
11.1822523112
 20
5.6629006736
 30
0.0
 10
11.1822021437
 20
5.6628694479
 30
0.0
 10
11.1821384899
 20
5.6628376333
 30
0.0
 10
11.1820269979
 20
5.6627902709
 30
0.0
 10
11.1818524258
 20
5.6627305281
 30
0.0
 10
11.1816014338
 20
5.6626589996
 30
0.0
 10
11.1812969785
 20
5.6625841366
 30
0.0
 10
11.1809403329
 20
5.6625062124
 30
0.0
 10
11.1806848441
 20
5.6624556911
 30
0.0
 10
11.180548708
 20
5.6624298201
 30
0.0
  0
LINE
  5
2D0
100
AcDbEntity
  8
0
100
AcDbLine
 62
7
  6
CONTINUOUS
 10
11.0768098436
 20
5.6552725095
 11
11.0773463525
 21
5.6552900572
  0
LINE
  5
2D1
100
AcDbEntity
  8
0
100
AcDbLine
 62
7
  6
CONTINUOUS
 10
11.017826833
 20
5.6552725095
 11
11.0172903241
 21
5.6552900572
  0
SPLINE
  5
2D2
100
AcDbEntity
  8
0
100
AcDbSpline
 62
9
  6
CONTINUOUS
 70
0
 71
3
 72
15
 73
11
 74
0
 42
0.0000001
 43
0.0000001
 44
0.0000000001
 40
0.0
 40
0.0
 40
0.0
 40
0.0
 40
0.2339202787
 40
0.2946307012
 40
0.3561204022
 40
0.4811978432
 40
0.6086953605
 40
0.738065597
 40
0.8687087827
 40
1.0
 40
1.0
 40
1.0
 40
1.0
 10
10.4342334501
 20
5.9945050215
 30
0.0
 10
10.4420018092
 20
6.0052797428
 30
0.0
 10
10.4504922027
 20
6.0198370096
 30
0.0
 10
10.4588567827
 20
6.0382465233
 30
0.0
 10
10.4641435976
 20
6.0512597033
 30
0.0
 10
10.4698639909
 20
6.0681716192
 30
0.0
 10
10.4752423826
 20
6.0892031187
 30
0.0
 10
10.47912187
 20
6.11088307
 30
0.0
 10
10.4814648158
 20
6.1329972199
 30
0.0
 10
10.4819867016
 20
6.1478764971
 30
0.0
 10
10.4819867016
 20
6.1553318604
 30
0.0
  0
SPLINE
  5
2D3
100
AcDbEntity
  8
0
100
AcDbSpline
 62
7
  6
CONTINUOUS
 70
0
 71
3
 72
39
 73
35
 74
0
 42
0.0000001
 43
0.0000001
 44
0.0000000001
 40
0.0
 40
0.0
 40
0.0
 40
0.0
 40
0.0352248051
 40
0.0699579916
 40
0.104176306
 40
0.1378533011
 40
0.1709666579
 40
0.2034996001
 40
0.2354404361
 40
0.266785749
 40
0.297542322
 40
0.3277295876
 40
0.357382044
 40
0.386550743
 40
0.4153042295
 40
0.4437281131
 40
0.4719228484
 40
0.4999999998
 40
0.5280771513
 40
0.5562718865
 40
0.5846957702
 40
0.6134492567
 40
0.6426179557
 40
0.6722704121
 40
0.7024576777
 40
0.7332142507
 40
0.7645595635
 40
0.7965003996
 40
0.8290333417
 40
0.8621466985
 40
0.8958236936
 40
0.930042008
 40
0.9647751947
 40
1.0
 40
1.0
 40
1.0
 40
1.0
 10
11.42634879
 20
7.869387318
 30
0.0
 10
11.4300147018
 20
7.8657319663
 30
0.0
 10
11.4373757337
 20
7.8585522467
 30
0.0
 10
11.4485921527
 20
7.8481285492
 30
0.0
 10
11.4599090827
 20
7.8381542715
 30
0.0
 10
11.4713313212
 20
7.8286685992
 30
0.0
 10
11.4828607753
 20
7.8197110877
 30
0.0
 10
11.4944975558
 20
7.8113217472
 30
0.0
 10
11.5062416004
 20
7.8035432986
 30
0.0
 10
11.5180913105
 20
7.796419693
 30
0.0
 10
11.5300434807
 20
7.789995452
 30
0.0
 10
11.5420929542
 20
7.7843146618
 30
0.0
 10
11.5542325276
 20
7.7794201458
 30
0.0
 10
11.5664527102
 20
7.7753521984
 30
0.0
 10
11.5787414136
 20
7.7721465864
 30
0.0
 10
11.5910842068
 20
7.7698334763
 30
0.0
 10
11.6034645183
 20
7.7684361235
 30
0.0
 10
11.6158640159
 20
7.7679687604
 30
0.0
 10
11.6282635136
 20
7.7684361235
 30
0.0
 10
11.6406438251
 20
7.7698334763
 30
0.0
 10
11.6529866182
 20
7.7721465864
 30
0.0
 10
11.6652753217
 20
7.7753521984
 30
0.0
 10
11.6774955042
 20
7.7794201458
 30
0.0
 10
11.6896350777
 20
7.7843146618
 30
0.0
 10
11.7016845511
 20
7.7899954521
 30
0.0
 10
11.7136367213
 20
7.796419693
 30
0.0
 10
11.7254864314
 20
7.8035432987
 30
0.0
 10
11.7372304761
 20
7.8113217473
 30
0.0
 10
11.7488672565
 20
7.8197110877
 30
0.0
 10
11.7603967106
 20
7.8286685993
 30
0.0
 10
11.7718189491
 20
7.8381542715
 30
0.0
 10
11.7831358791
 20
7.8481285493
 30
0.0
 10
11.794352298
 20
7.8585522469
 30
0.0
 10
11.8017133299
 20
7.8657319666
 30
0.0
 10
11.8053792417
 20
7.8693873184
 30
0.0
  0
SPLINE
  5
2D4
100
AcDbEntity
  8
0
100
AcDbSpline
 62
7
  6
CONTINUOUS
 70
0
 71
3
 72
33
 73
29
 74
0
 42
0.0000001
 43
0.0000001
 44
0.0000000001
 40
0.0
 40
0.0
 40
0.0
 40
0.0
 40
0.0624986917
 40
0.0937494909
 40
0.1250001737
 40
0.1562510231
 40
0.1875020004
 40
0.2499978623
 40
0.3124925232
 40
0.3437436734
 40
0.3749949141
 40
0.4062461403
 40
0.4374973939
 40
0.4687487061
 40
0.5
 40
0.531251294
 40
0.5625026061
 40
0.5937538597
 40
0.625005086
 40
0.6562563266
 40
0.6875074769
 40
0.7500021377
 40
0.8124979996
 40
0.8437489769
 40
0.8749998263
 40
0.9062505091
 40
0.9375013083
 40
1.0
 40
1.0
 40
1.0
 40
1.0
 10
10.6682878866
 20
7.869387318
 30
0.0
 10
10.6830508701
 20
7.8620270777
 30
0.0
 10
10.7053947865
 20
7.8513772413
 30
0.0
 10
10.7355897256
 20
7.8380765919
 30
0.0
 10
10.7584467866
 20
7.8285906241
 30
0.0
 10
10.7815169101
 20
7.8196342271
 30
0.0
 10
10.8125593247
 20
7.8084524889
 30
0.0
 10
10.851897485
 20
7.796004787
 30
0.0
 10
10.8919076605
 20
7.7858947142
 30
0.0
 10
10.924256122
 20
7.7793833908
 30
0.0
 10
10.9486719435
 20
7.7753262683
 30
0.0
 10
10.9732155821
 20
7.7721309379
 30
0.0
 10
10.9978591605
 20
7.7698263146
 30
0.0
 10
11.0225713037
 20
7.7684345924
 30
0.0
 10
11.0473183384
 20
7.7679692002
 30
0.0
 10
11.0720653731
 20
7.7684345924
 30
0.0
 10
11.0967775163
 20
7.7698263146
 30
0.0
 10
11.1214210947
 20
7.7721309379
 30
0.0
 10
11.1459647333
 20
7.7753262683
 30
0.0
 10
11.1703805548
 20
7.7793833909
 30
0.0
 10
11.2027290162
 20
7.7858947142
 30
0.0
 10
11.2427391918
 20
7.7960047871
 30
0.0
 10
11.2820773521
 20
7.8084524889
 30
0.0
 10
11.3131197667
 20
7.8196342271
 30
0.0
 10
11.3361898899
 20
7.8285906247
 30
0.0
 10
11.3590469514
 20
7.8380765914
 30
0.0
 10
11.3892418915
 20
7.8513772387
 30
0.0
 10
11.4115858018
 20
7.8620270875
 30
0.0
 10
11.42634879
 20
7.8693873184
 30
0.0
  0
SPLINE
  5
2D5
100
AcDbEntity
  8
0
100
AcDbSpline
 62
7
  6
CONTINUOUS
 70
0
 71
3
 72
39
 73
35
 74
0
 42
0.0000001
 43
0.0000001
 44
0.0000000001
 40
0.0
 40
0.0
 40
0.0
 40
0.0
 40
0.0352256072
 40
0.0699597889
 40
0.1041780487
 40
0.1378548044
 40
0.1709681311
 40
0.2035010241
 40
0.235441786
 40
0.2667870378
 40
0.297543548
 40
0.3277307504
 40
0.3573831456
 40
0.3865517797
 40
0.4153052029
 40
0.4437290239
 40
0.4719236905
 40
0.5000007758
 40
0.5280778595
 40
0.5562725218
 40
0.5846963358
 40
0.6134497495
 40
0.6426183723
 40
0.6722707546
 40
0.7024579433
 40
0.7332144383
 40
0.7645596743
 40
0.7965004292
 40
0.8290332951
 40
0.8621465797
 40
0.8958234482
 40
0.9300416836
 40
0.9647750615
 40
1.0
 40
1.0
 40
1.0
 40
1.0
 10
10.2892574348
 20
7.8693892433
 30
0.0
 10
10.2929234439
 20
7.8657337945
 30
0.0
 10
10.3002842494
 20
7.8585534193
 30
0.0
 10
10.3115001688
 20
7.848128711
 30
0.0
 10
10.3228173394
 20
7.8381544529
 30
0.0
 10
10.3342397074
 20
7.8286689295
 30
0.0
 10
10.3457690953
 20
7.8197113211
 30
0.0
 10
10.3574058896
 20
7.811321943
 30
0.0
 10
10.3691499604
 20
7.8035434872
 30
0.0
 10
10.3809996784
 20
7.7964198503
 30
0.0
 10
10.3929518618
 20
7.7899955832
 30
0.0
 10
10.4050013502
 20
7.7843147713
 30
0.0
 10
10.4171409375
 20
7.779420232
 30
0.0
 10
10.4293611347
 20
7.7753522626
 30
0.0
 10
10.4416498541
 20
7.7721466327
 30
0.0
 10
10.4539926629
 20
7.7698335042
 30
0.0
 10
10.4663729908
 20
7.7684361353
 30
0.0
 10
10.4787725052
 20
7.7679687611
 30
0.0
 10
10.4911720198
 20
7.7684361119
 30
0.0
 10
10.5035523484
 20
7.7698334576
 30
0.0
 10
10.5158951584
 20
7.7721465634
 30
0.0
 10
10.5281838793
 20
7.7753521713
 30
0.0
 10
10.5404040784
 20
7.7794201195
 30
0.0
 10
10.5525436681
 20
7.7843146381
 30
0.0
 10
10.5645931583
 20
7.789995432
 30
0.0
 10
10.5765453442
 20
7.7964196802
 30
0.0
 10
10.5883950687
 20
7.8035432959
 30
0.0
 10
10.6001391323
 20
7.8113217497
 30
0.0
 10
10.6117759278
 20
7.8197111051
 30
0.0
 10
10.6233053763
 20
7.8286686474
 30
0.0
 10
10.6347276595
 20
7.8381542881
 30
0.0
 10
10.6460446624
 20
7.8481285691
 30
0.0
 10
10.657260962
 20
7.8585525361
 30
0.0
 10
10.6646219441
 20
7.8657324281
 30
0.0
 10
10.6682878866
 20
7.8693878045
 30
0.0
  0
SPLINE
  5
2D6
100
AcDbEntity
  8
0
100
AcDbSpline
 62
7
  6
CONTINUOUS
 70
0
 71
3
 72
19
 73
15
 74
0
 42
0.0000001
 43
0.0000001
 44
0.0000000001
 40
0.0
 40
0.0
 40
0.0
 40
0.0
 40
0.0287411112
 40
0.0616491878
 40
0.098879963
 40
0.1405393385
 40
0.186701311
 40
0.2374186924
 40
0.2927297345
 40
0.3526623565
 40
0.4864633682
 40
0.6389300245
 40
0.8101066758
 40
1.0
 40
1.0
 40
1.0
 40
1.0
 10
11.0773183383
 20
5.6560921797
 30
0.0
 10
11.0774875523
 20
5.656331431
 30
0.0
 10
11.0778223534
 20
5.6568646468
 30
0.0
 10
11.0782914197
 20
5.6577577902
 30
0.0
 10
11.078760494
 20
5.6587973106
 30
0.0
 10
11.0792295064
 20
5.659983338
 30
0.0
 10
11.0796984332
 20
5.6613160683
 30
0.0
 10
11.0801671819
 20
5.6627955249
 30
0.0
 10
11.0806357037
 20
5.6644216765
 30
0.0
 10
11.0812840006
 20
5.6668769543
 30
0.0
 10
11.0820845005
 20
5.6703156044
 30
0.0
 10
11.0830123619
 20
5.6748869148
 30
0.0
 10
11.0839384556
 20
5.6800407333
 30
0.0
 10
11.0845239715
 20
5.683675522
 30
0.0
 10
11.0848183383
 20
5.6855891614
 30
0.0
  0
SPLINE
  5
2D7
100
AcDbEntity
  8
0
100
AcDbSpline
 62
9
  6
CONTINUOUS
 70
0
 71
3
 72
47
 73
43
 74
0
 42
0.0000001
 43
0.0000001
 44
0.0000000001
 40
0.0
 40
0.0
 40
0.0
 40
0.0
 40
0.0128545217
 40
0.0257423981
 40
0.0386902448
 40
0.0517282007
 40
0.064884911
 40
0.0781860592
 40
0.0916553172
 40
0.1053141073
 40
0.1332601447
 40
0.1621529119
 40
0.1920625135
 40
0.2230150469
 40
0.2549959478
 40
0.2879543046
 40
0.3218076028
 40
0.3564465637
 40
0.3917399147
 40
0.4275390245
 40
0.4636823901
 40
0.5
 40
0.5363176099
 40
0.5724609755
 40
0.6082600853
 40
0.6435534364
 40
0.6781923974
 40
0.7120456956
 40
0.7450040525
 40
0.7769849533
 40
0.8079374865
 40
0.837847088
 40
0.8667398553
 40
0.8946858927
 40
0.9083446828
 40
0.9218139407
 40
0.935115089
 40
0.9482717992
 40
0.9613097551
 40
0.9742576018
 40
0.9871454783
 40
1.0
 40
1.0
 40
1.0
 40
1.0
 10
11.4229094258
 20
5.9686539245
 30
0.0
 10
11.4207493238
 20
5.9686539245
 30
0.0
 10
11.4164220244
 20
5.9688044381
 30
0.0
 10
11.4099506921
 20
5.9694801542
 30
0.0
 10
11.4035105717
 20
5.9706048711
 30
0.0
 10
11.3971181014
 20
5.972175382
 30
0.0
 10
11.3907884795
 20
5.9741878221
 30
0.0
 10
11.3845370784
 20
5.9766371339
 30
0.0
 10
11.3783788647
 20
5.9795174012
 30
0.0
 10
11.3702519125
 20
5.9839554542
 30
0.0
 10
11.3603922763
 20
5.9905768648
 30
0.0
 10
11.3492687291
 20
6.0000422451
 30
0.0
 10
11.3388620593
 20
6.0109961917
 30
0.0
 10
11.3292706713
 20
6.0233311886
 30
0.0
 10
11.3205835349
 20
6.0369283926
 30
0.0
 10
11.3128819293
 20
6.0516573039
 30
0.0
 10
11.3062380235
 20
6.0673770362
 30
0.0
 10
11.3007143227
 20
6.0839373728
 30
0.0
 10
11.2963629337
 20
6.101180107
 30
0.0
 10
11.293225006
 20
6.1189404876
 30
0.0
 10
11.291330265
 20
6.1370487741
 30
0.0
 10
11.2906966806
 20
6.1553318604
 30
0.0
 10
11.291330265
 20
6.1736149467
 30
0.0
 10
11.293225006
 20
6.1917232332
 30
0.0
 10
11.2963629338
 20
6.2094836139
 30
0.0
 10
11.3007143228
 20
6.226726348
 30
0.0
 10
11.3062380235
 20
6.2432866847
 30
0.0
 10
11.3128819294
 20
6.259006417
 30
0.0
 10
11.320583535
 20
6.2737353283
 30
0.0
 10
11.3292706713
 20
6.2873325323
 30
0.0
 10
11.3388620593
 20
6.2996675291
 30
0.0
 10
11.3492687291
 20
6.3106214757
 30
0.0
 10
11.3603922763
 20
6.320086856
 30
0.0
 10
11.3702519125
 20
6.3267082666
 30
0.0
 10
11.3783788647
 20
6.3311463196
 30
0.0
 10
11.3845370784
 20
6.3340265869
 30
0.0
 10
11.3907884795
 20
6.3364758987
 30
0.0
 10
11.3971181014
 20
6.3384883388
 30
0.0
 10
11.4035105717
 20
6.3400588497
 30
0.0
 10
11.4099506921
 20
6.3411835667
 30
0.0
 10
11.4164220244
 20
6.3418592828
 30
0.0
 10
11.4207493238
 20
6.3420097963
 30
0.0
 10
11.4229094258
 20
6.3420097963
 30
0.0
  0
SPLINE
  5
2D8
100
AcDbEntity
  8
0
100
AcDbSpline
 62
9
  6
CONTINUOUS
 70
0
 71
3
 72
21
 73
17
 74
0
 42
0.0000001
 43
0.0000001
 44
0.0000000001
 40
0.0
 40
0.0
 40
0.0
 40
0.0
 40
0.1180368176
 40
0.1793338319
 40
0.241884566
 40
0.3054738409
 40
0.3698626229
 40
0.4347941673
 40
0.5000000097
 40
0.5652058516
 40
0.630137395
 40
0.6945261753
 40
0.758115448
 40
0.8206661793
 40
0.8819631903
 40
1.0
 40
1.0
 40
1.0
 40
1.0
 10
11.3044477515
 20
6.0238650111
 30
0.0
 10
11.2985973156
 20
6.0330138562
 30
0.0
 10
11.2908883614
 20
6.0477036106
 30
0.0
 10
11.2827922922
 20
6.0684438986
 30
0.0
 10
11.2776869485
 20
6.0849322262
 30
0.0
 10
11.2736723004
 20
6.1020086056
 30
0.0
 10
11.270780358
 20
6.1195327354
 30
0.0
 10
11.2690355571
 20
6.1373569146
 30
0.0
 10
11.2684523263
 20
6.1553318832
 30
0.0
 10
11.26903556
 20
6.1733068517
 30
0.0
 10
11.2707803639
 20
6.1911310303
 30
0.0
 10
11.2736723091
 20
6.2086551591
 30
0.0
 10
11.2776869601
 20
6.2257315372
 30
0.0
 10
11.2827923065
 20
6.2422198632
 30
0.0
 10
11.2908883792
 20
6.2629601485
 30
0.0
 10
11.2985973358
 20
6.2776499005
 30
0.0
 10
11.3044477732
 20
6.2867987437
 30
0.0
  0
SPLINE
  5
2D9
100
AcDbEntity
  8
0
100
AcDbSpline
 62
9
  6
CONTINUOUS
 70
0
 71
3
 72
19
 73
15
 74
0
 42
0.0000001
 43
0.0000001
 44
0.0000000001
 40
0.0
 40
0.0
 40
0.0
 40
0.0
 40
0.056539551
 40
0.1132670566
 40
0.1703429948
 40
0.227941215
 40
0.2862187563
 40
0.3453170089
 40
0.4053628371
 40
0.4664652545
 40
0.5921166087
 40
0.7228377043
 40
0.8588247506
 40
1.0
 40
1.0
 40
1.0
 40
1.0
 10
11.4229094258
 20
6.3420097963
 30
0.0
 10
11.4253929733
 20
6.3420097963
 30
0.0
 10
11.4303705907
 20
6.3418107247
 30
0.0
 10
11.4378070133
 20
6.340917084
 30
0.0
 10
11.4451957639
 20
6.3394306845
 30
0.0
 10
11.4525120102
 20
6.3373567771
 30
0.0
 10
11.4597327339
 20
6.3347024519
 30
0.0
 10
11.4668345836
 20
6.3314763115
 30
0.0
 10
11.4737951759
 20
6.3276888939
 30
0.0
 10
11.4829410405
 20
6.3218547709
 30
0.0
 10
11.4939111201
 20
6.3131755883
 30
0.0
 10
11.5060277428
 20
6.300863322
 30
0.0
 10
11.5170772136
 20
6.2867150852
 30
0.0
 10
11.5235280501
 20
6.2763608812
 30
0.0
 10
11.5265487737
 20
6.2709451048
 30
0.0
  0
SPLINE
  5
2DA
100
AcDbEntity
  8
0
100
AcDbSpline
 62
9
  6
CONTINUOUS
 70
0
 71
3
 72
19
 73
15
 74
0
 42
0.0000001
 43
0.0000001
 44
0.0000000001
 40
0.0
 40
0.0
 40
0.0
 40
0.0
 40
0.1411700861
 40
0.2771528783
 40
0.4078711874
 40
0.533521595
 40
0.5946242672
 40
0.6546708391
 40
0.7137703009
 40
0.7720494714
 40
0.8296496795
 40
0.8867278955
 40
0.9434578774
 40
1.0
 40
1.0
 40
1.0
 40
1.0
 10
11.5265261202
 20
6.0396780125
 30
0.0
 10
11.523505259
 20
6.0342650759
 30
0.0
 10
11.5170544798
 20
6.0239163998
 30
0.0
 10
11.5060061222
 20
6.0097760187
 30
0.0
 10
11.4938915357
 20
5.9974708047
 30
0.0
 10
11.4829238978
 20
5.9887967588
 30
0.0
 10
11.4737803395
 20
5.9829661338
 30
0.0
 10
11.4668215829
 20
5.9791809913
 30
0.0
 10
11.4597216981
 20
5.9759568018
 30
0.0
 10
11.4525030483
 20
5.9733040919
 30
0.0
 10
11.4451889642
 20
5.9712314522
 30
0.0
 10
11.4378024427
 20
5.9697459645
 30
0.0
 10
11.4303682937
 20
5.9688528735
 30
0.0
 10
11.4253922107
 20
5.9686539245
 30
0.0
 10
11.4229094258
 20
5.9686539245
 30
0.0
  0
SPLINE
  5
2DB
100
AcDbEntity
  8
0
100
AcDbSpline
 62
7
  6
CONTINUOUS
 70
0
 71
3
 72
9
 73
5
 74
0
 42
0.0000001
 43
0.0000001
 44
0.0000000001
 40
0.0
 40
0.0
 40
0.0
 40
0.0
 40
0.514572353
 40
1.0
 40
1.0
 40
1.0
 40
1.0
 10
11.180548708
 20
5.6624298201
 30
0.0
 10
11.1764029798
 20
5.6616419759
 30
0.0
 10
11.1683236567
 20
5.6602270549
 30
0.0
 10
11.1602013049
 20
5.6590809162
 30
0.0
 10
11.1562494526
 20
5.6586007773
 30
0.0
  0
LINE
  5
2DC
100
AcDbEntity
  8
0
100
AcDbLine
 62
7
  6
CONTINUOUS
 10
11.1543172738
 20
5.6583722719
 11
11.1400452183
 21
5.6571067898
  0
SPLINE
  5
2DD
100
AcDbEntity
  8
0
100
AcDbSpline
 62
7
  6
CONTINUOUS
 70
0
 71
3
 72
8
 73
4
 74
0
 42
0.0000001
 43
0.0000001
 44
0.0000000001
 40
0.0
 40
0.0
 40
0.0
 40
0.0
 40
1.0
 40
1.0
 40
1.0
 40
1.0
 10
11.1400452183
 20
5.6571067898
 30
0.0
 10
11.1400231193
 20
5.6571054637
 30
0.0
 10
11.1400010202
 20
5.6571041377
 30
0.0
 10
11.1399789212
 20
5.6571028116
 30
0.0
  0
SPLINE
  5
2DE
100
AcDbEntity
  8
0
100
AcDbSpline
 62
7
  6
CONTINUOUS
 70
0
 71
3
 72
41
 73
37
 74
0
 42
0.0000001
 43
0.0000001
 44
0.0000000001
 40
0.0
 40
0.0
 40
0.0
 40
0.0
 40
0.012795691
 40
0.0256723835
 40
0.051754934
 40
0.0784368253
 40
0.1058635421
 40
0.1341448247
 40
0.1633532723
 40
0.1935248713
 40
0.2246612208
 40
0.2567325427
 40
0.2896812689
 40
0.3234256838
 40
0.3578636803
 40
0.3928763358
 40
0.4283314759
 40
0.4640870563
 40
0.4999945229
 40
0.5359020695
 40
0.5716578886
 40
0.6071134206
 40
0.6421266129
 40
0.6765652787
 40
0.7103104798
 40
0.7432600895
 40
0.7753323688
 40
0.8064697223
 40
0.8366423407
 40
0.8658517884
 40
0.8941340144
 40
0.9215615786
 40
0.9482441826
 40
0.974327276
 40
0.9872041665
 40
1.0
 40
1.0
 40
1.0
 40
1.0
 10
11.683189454
 20
6.3435407352
 30
0.0
 10
11.6811410492
 20
6.3432599603
 30
0.0
 10
11.6770481984
 20
6.3425632497
 30
0.0
 10
11.6689061317
 20
6.3406355551
 30
0.0
 10
11.6588348427
 20
6.3372148182
 30
0.0
 10
11.6471337483
 20
6.3315808554
 30
0.0
 10
11.6358579939
 20
6.32445114
 30
0.0
 10
11.6251033908
 20
6.3158898064
 30
0.0
 10
11.614958581
 20
6.305971842
 30
0.0
 10
11.6055073164
 20
6.2947827326
 30
0.0
 10
11.5968274086
 20
6.282417875
 30
0.0
 10
11.5889904704
 20
6.2689820097
 30
0.0
 10
11.5820613079
 20
6.2545885661
 30
0.0
 10
11.5760973961
 20
6.2393588504
 30
0.0
 10
11.5711483269
 20
6.2234211489
 30
0.0
 10
11.5672553598
 20
6.2069096947
 30
0.0
 10
11.5644509979
 20
6.1899635833
 30
0.0
 10
11.5627586996
 20
6.1727255984
 30
0.0
 10
11.5621926215
 20
6.1553410136
 30
0.0
 10
11.5627575112
 20
6.1379563517
 30
0.0
 10
11.564448631
 20
6.1207181359
 30
0.0
 10
11.5672518342
 20
6.1037716421
 30
0.0
 10
11.5711436721
 20
6.0872596571
 30
0.0
 10
11.576091651
 20
6.0713212808
 30
0.0
 10
11.5820545203
 20
6.0560907521
 30
0.0
 10
11.5889826967
 20
6.0416963642
 30
0.0
 10
11.5968187131
 20
6.0282594309
 30
0.0
 10
11.605497771
 20
6.0158933904
 30
0.0
 10
11.6149482642
 20
6.0047029929
 30
0.0
 10
11.6250923877
 20
5.9947836452
 30
0.0
 10
11.6358463953
 20
5.9862208437
 30
0.0
 10
11.6471216507
 20
5.9790895873
 30
0.0
 10
11.6588223479
 20
5.9734540223
 30
0.0
 10
11.6688934118
 20
5.970031898
 30
0.0
 10
11.6770353597
 20
5.9681030832
 30
0.0
 10
11.6811281704
 20
5.9674058102
 30
0.0
 10
11.6831765599
 20
5.9671247539
 30
0.0
  0
SPLINE
  5
2DF
100
AcDbEntity
  8
0
100
AcDbSpline
 62
7
  6
CONTINUOUS
 70
0
 71
3
 72
23
 73
19
 74
0
 42
0.0000001
 43
0.0000001
 44
0.0000000001
 40
0.0
 40
0.0
 40
0.0
 40
0.0
 40
0.06400248
 40
0.1258156964
 40
0.1857534459
 40
0.2442371869
 40
0.3017484249
 40
0.3588120745
 40
0.4159610932
 40
0.4737055717
 40
0.5325101577
 40
0.5927813363
 40
0.6548599037
 40
0.7190211456
 40
0.7854808894
 40
0.854398904
 40
0.9258844266
 40
1.0
 40
1.0
 40
1.0
 40
1.0
 10
10.6531063078
 20
5.9503318604
 30
0.0
 10
10.650119889
 20
5.9503318604
 30
0.0
 10
10.6442450431
 20
5.9505887328
 30
0.0
 10
10.6356481594
 20
5.951793993
 30
0.0
 10
10.6274661309
 20
5.9538038381
 30
0.0
 10
10.6197315599
 20
5.956601807
 30
0.0
 10
10.6124675439
 20
5.9601658526
 30
0.0
 10
10.605688938
 20
5.9644679743
 30
0.0
 10
10.5994016935
 20
5.9694767495
 30
0.0
 10
10.5936038449
 20
5.9751593846
 30
0.0
 10
10.588286518
 20
5.9814833901
 30
0.0
 10
10.5834353767
 20
5.9884179012
 30
0.0
 10
10.5790325562
 20
5.9959346099
 30
0.0
 10
10.575057809
 20
6.0040077131
 30
0.0
 10
10.5714895761
 20
6.0126136747
 30
0.0
 10
10.568305822
 20
6.0217308575
 30
0.0
 10
10.565484474
 20
6.0313384192
 30
0.0
 10
10.5638600641
 20
6.0379375878
 30
0.0
 10
10.5630977158
 20
6.0413108211
 30
0.0
  0
SPLINE
  5
2E0
100
AcDbEntity
  8
0
100
AcDbSpline
 62
7
  6
CONTINUOUS
 70
0
 71
3
 72
23
 73
19
 74
0
 42
0.0000001
 43
0.0000001
 44
0.0000000001
 40
0.0
 40
0.0
 40
0.0
 40
0.0
 40
0.0741122299
 40
0.1455947573
 40
0.2145101955
 40
0.280967844
 40
0.3451275174
 40
0.4072050815
 40
0.4674758442
 40
0.5262806011
 40
0.5840258144
 40
0.6411760773
 40
0.69824139
 40
0.7557545912
 40
0.814240459
 40
0.8741803771
 40
0.9359956336
 40
1.0
 40
1.0
 40
1.0
 40
1.0
 10
10.5631025622
 20
6.2693743398
 30
0.0
 10
10.5638650301
 20
6.2727468297
 30
0.0
 10
10.5654896679
 20
6.2793445397
 30
0.0
 10
10.5683113144
 20
6.2889499432
 30
0.0
 10
10.5714953123
 20
6.2980650573
 30
0.0
 10
10.5750637262
 20
6.3066690465
 30
0.0
 10
10.5790385822
 20
6.3147402798
 30
0.0
 10
10.5834414292
 20
6.3222552272
 30
0.0
 10
10.5882925044
 20
6.3291880923
 30
0.0
 10
10.593609661
 20
6.3355105754
 30
0.0
 10
10.5994072246
 20
6.3411918219
 30
0.0
 10
10.6056940603
 20
6.3461993545
 30
0.0
 10
10.6124721263
 20
6.3505003934
 30
0.0
 10
10.6197354682
 20
6.3540635309
 30
0.0
 10
10.6274692329
 20
6.3568607806
 30
0.0
 10
10.6356503283
 20
6.3588701046
 30
0.0
 10
10.6442461636
 20
6.3600750536
 30
0.0
 10
10.6501202697
 20
6.3603318604
 30
0.0
 10
10.6531063078
 20
6.3603318604
 30
0.0
  0
SPLINE
  5
2E1
100
AcDbEntity
  8
0
100
AcDbSpline
 62
9
  6
CONTINUOUS
 70
0
 71
3
 72
39
 73
35
 74
0
 42
0.0000001
 43
0.0000001
 44
0.0000000001
 40
0.0
 40
0.0
 40
0.0
 40
0.0
 40
0.0257336623
 40
0.0519967363
 40
0.0789255347
 40
0.1066272689
 40
0.1351779455
 40
0.1646223457
 40
0.1949753236
 40
0.2262240165
 40
0.2583305184
 40
0.2912347759
 40
0.3248575545
 40
0.3591033842
 40
0.3938634317
 40
0.4290182913
 40
0.4644406994
 40
0.4999981892
 40
0.5355557035
 40
0.5709781842
 40
0.6061331634
 40
0.6408933751
 40
0.6751394102
 40
0.7087624312
 40
0.7416669627
 40
0.7737737638
 40
0.8050227738
 40
0.8353760781
 40
0.8648208044
 40
0.8933717965
 40
0.9210738246
 40
0.9480028839
 40
0.9742661746
 40
1.0
 40
1.0
 40
1.0
 40
1.0
 10
11.6739695554
 20
6.3335003734
 30
0.0
 10
11.6702746199
 20
6.3325829254
 30
0.0
 10
11.662914194
 20
6.3302748028
 30
0.0
 10
11.6522303876
 20
6.3255049005
 30
0.0
 10
11.6418878173
 20
6.3194368458
 30
0.0
 10
11.6319667215
 20
6.3121201471
 30
0.0
 10
11.6225406541
 20
6.3036124323
 30
0.0
 10
11.6136798571
 20
6.2939798428
 30
0.0
 10
11.6054500339
 20
6.2832963692
 30
0.0
 10
11.597912294
 20
6.2716435125
 30
0.0
 10
11.5911226927
 20
6.2591097962
 30
0.0
 10
11.5851318449
 20
6.2457902284
 30
0.0
 10
11.579984518
 20
6.2317856737
 30
0.0
 10
11.5757192617
 20
6.2172021496
 30
0.0
 10
11.5723680787
 20
6.202150058
 30
0.0
 10
11.5699561511
 20
6.1867433664
 30
0.0
 10
11.5685016226
 20
6.1710987494
 30
0.0
 10
11.5680154428
 20
6.1553347015
 30
0.0
 10
11.5685012729
 20
6.1395706322
 30
0.0
 10
11.5699554543
 20
6.1239259508
 30
0.0
 10
11.5723670401
 20
6.1085191524
 30
0.0
 10
11.575717889
 20
6.0934669125
 30
0.0
 10
11.5799828217
 20
6.0788831996
 30
0.0
 10
11.5851298376
 20
6.0648784171
 30
0.0
 10
11.5911203894
 20
6.0515585842
 30
0.0
 10
11.5979097119
 20
6.0390245674
 30
0.0
 10
11.6054471922
 20
6.0273713774
 30
0.0
 10
11.613676777
 20
6.0166875396
 30
0.0
 10
11.6225373584
 20
6.0070545581
 30
0.0
 10
11.6319632346
 20
5.9985464259
 30
0.0
 10
11.6418841653
 20
5.9912292875
 30
0.0
 10
11.6522265978
 20
5.985160774
 30
0.0
 10
11.6629102953
 20
5.9803903967
 30
0.0
 10
11.6702706762
 20
5.9780819441
 30
0.0
 10
11.6739655955
 20
5.9771643308
 30
0.0
  0
SPLINE
  5
2E2
100
AcDbEntity
  8
0
100
AcDbSpline
 62
7
  6
CONTINUOUS
 70
0
 71
3
 72
23
 73
19
 74
0
 42
0.0000001
 43
0.0000001
 44
0.0000000001
 40
0.0
 40
0.0
 40
0.0
 40
0.0
 40
0.0640019146
 40
0.1258145415
 40
0.1857516483
 40
0.2442347703
 40
0.3017454359
 40
0.3588085968
 40
0.4159572513
 40
0.4737015162
 40
0.5325060458
 40
0.5927773453
 40
0.6548562102
 40
0.7190179073
 40
0.7854782676
 40
0.854397045
 40
0.925883446
 40
1.0
 40
1.0
 40
1.0
 40
1.0
 10
11.4415303688
 20
6.3603318604
 30
0.0
 10
11.4445168988
 20
6.3603318604
 30
0.0
 10
11.4503919619
 20
6.3600749686
 30
0.0
 10
11.4589891533
 20
6.3588696177
 30
0.0
 10
11.4671714563
 20
6.3568596189
 30
0.0
 10
11.4749062643
 20
6.354061439
 30
0.0
 10
11.4821704786
 20
6.3504971263
 30
0.0
 10
11.4889492434
 20
6.3461946866
 30
0.0
 10
11.4952366079
 20
6.3411855461
 30
0.0
 10
11.5010345401
 20
6.3355025033
 30
0.0
 10
11.5063519168
 20
6.3291780509
 30
0.0
 10
11.5112030773
 20
6.3222430563
 30
0.0
 10
11.51560589
 20
6.3147258305
 30
0.0
 10
11.5195806052
 20
6.3066521782
 30
0.0
 10
11.5231487849
 20
6.2980456371
 30
0.0
 10
11.5263324675
 20
6.2889278465
 30
0.0
 10
11.5291537279
 20
6.2793196507
 30
0.0
 10
11.5307780708
 20
6.2727200538
 30
0.0
 10
11.5315403839
 20
6.2693466022
 30
0.0
  0
SPLINE
  5
2E3
100
AcDbEntity
  8
0
100
AcDbSpline
 62
7
  6
CONTINUOUS
 70
0
 71
3
 72
23
 73
19
 74
0
 42
0.0000001
 43
0.0000001
 44
0.0000000001
 40
0.0
 40
0.0
 40
0.0
 40
0.0
 40
0.0741025793
 40
0.1455764617
 40
0.2144844726
 40
0.2809360774
 40
0.3450912198
 40
0.4071658931
 40
0.4674354561
 40
0.5262406999
 40
0.5839880372
 40
0.6411418921
 40
0.698212001
 40
0.7557308705
 40
0.8142228917
 40
0.8741690111
 40
0.9359902671
 40
1.0
 40
1.0
 40
1.0
 40
1.0
 10
11.5315201244
 20
6.0412275354
 30
0.0
 10
11.5307573115
 20
6.03785719
 30
0.0
 10
11.5291320166
 20
6.0312636876
 30
0.0
 10
11.5263095096
 20
6.02166451
 30
0.0
 10
11.5231248083
 20
6.012555363
 30
0.0
 10
11.5195558731
 20
6.0039570632
 30
0.0
 10
11.5155807037
 20
5.9958912241
 30
0.0
 10
11.511177781
 20
5.9883813575
 30
0.0
 10
11.5063268978
 20
5.9814532407
 30
0.0
 10
11.5010102331
 20
5.9751351492
 30
0.0
 10
11.4952134924
 20
5.969457908
 30
0.0
 10
11.488927837
 20
5.96445396
 30
0.0
 10
11.4821513289
 20
5.9601560441
 30
0.0
 10
11.4748899319
 20
5.9565955248
 30
0.0
 10
11.4671584942
 20
5.9538003522
 30
0.0
 10
11.458980089
 20
5.9517925262
 30
0.0
 10
11.4503872783
 20
5.9505884805
 30
0.0
 10
11.4445153051
 20
5.9503318604
 30
0.0
 10
11.4415303688
 20
5.9503318604
 30
0.0
  0
SPLINE
  5
2E4
100
AcDbEntity
  8
0
100
AcDbSpline
 62
7
  6
CONTINUOUS
 70
0
 71
3
 72
8
 73
4
 74
0
 42
0.0000001
 43
0.0000001
 44
0.0000000001
 40
0.0
 40
0.0
 40
0.0
 40
0.0
 40
1.0
 40
1.0
 40
1.0
 40
1.0
 10
10.9546577554
 20
5.6571028116
 30
0.0
 10
10.9546355564
 20
5.6571041437
 30
0.0
 10
10.9546133575
 20
5.6571054758
 30
0.0
 10
10.9545911585
 20
5.6571068078
 30
0.0
  0
SPLINE
  5
2E5
100
AcDbEntity
  8
0
100
AcDbSpline
 62
7
  6
CONTINUOUS
 70
0
 71
3
 72
9
 73
5
 74
0
 42
0.0000001
 43
0.0000001
 44
0.0000000001
 40
0.0
 40
0.0
 40
0.0
 40
0.0
 40
0.2418392502
 40
1.0
 40
1.0
 40
1.0
 40
1.0
 10
10.9545911585
 20
5.6571068078
 30
0.0
 10
10.9534000129
 20
5.6571784567
 30
0.0
 10
10.9484769708
 20
5.65751279
 30
0.0
 10
10.9435642438
 20
5.6579935493
 30
0.0
 10
10.9398484525
 20
5.6584268075
 30
0.0
  0
SPLINE
  5
2E6
100
AcDbEntity
  8
0
100
AcDbSpline
 62
7
  6
CONTINUOUS
 70
0
 71
3
 72
9
 73
5
 74
0
 42
0.0000001
 43
0.0000001
 44
0.0000000001
 40
0.0
 40
0.0
 40
0.0
 40
0.0
 40
0.4854301241
 40
1.0
 40
1.0
 40
1.0
 40
1.0
 10
10.9383837629
 20
5.6586011978
 30
0.0
 10
10.9344324558
 20
5.6590813159
 30
0.0
 10
10.9263112643
 20
5.6602273539
 30
0.0
 10
10.9182330894
 20
5.6616420913
 30
0.0
 10
10.9140879686
 20
5.6624298201
 30
0.0
  0
SPLINE
  5
2E7
100
AcDbEntity
  8
0
100
AcDbSpline
 62
7
  6
CONTINUOUS
 70
0
 71
3
 72
11
 73
7
 74
0
 42
0.0000001
 43
0.0000001
 44
0.0000000001
 40
0.0
 40
0.0
 40
0.0
 40
0.0
 40
0.2457379675
 40
0.4940204651
 40
0.7453027974
 40
1.0
 40
1.0
 40
1.0
 40
1.0
 10
11.4144586364
 20
5.9536464076
 30
0.0
 10
11.4167977283
 20
5.954248612
 30
0.0
 10
11.4214607035
 20
5.9556183209
 30
0.0
 10
11.428342747
 20
5.9581432164
 30
0.0
 10
11.4351282545
 20
5.9611417931
 30
0.0
 10
11.4395452918
 20
5.9634353819
 30
0.0
 10
11.4417310601
 20
5.9646558616
 30
0.0
  0
SPLINE
  5
2E8
100
AcDbEntity
  8
0
100
AcDbSpline
 62
7
  6
CONTINUOUS
 70
0
 71
3
 72
11
 73
7
 74
0
 42
0.0000001
 43
0.0000001
 44
0.0000000001
 40
0.0
 40
0.0
 40
0.0
 40
0.0
 40
0.2546928472
 40
0.5059740871
 40
0.7542582398
 40
1.0
 40
1.0
 40
1.0
 40
1.0
 10
11.4417119084
 20
6.3460185508
 30
0.0
 10
11.4395275872
 20
6.3472377155
 30
0.0
 10
11.4351135244
 20
6.3495288746
 30
0.0
 10
11.428332756
 20
6.3525244178
 30
0.0
 10
11.4214556164
 20
6.3550469565
 30
0.0
 10
11.4167960298
 20
6.356415546
 30
0.0
 10
11.4144586413
 20
6.357017312
 30
0.0
  0
SPLINE
  5
2E9
100
AcDbEntity
  8
0
100
AcDbSpline
 62
7
  6
CONTINUOUS
 70
0
 71
3
 72
11
 73
7
 74
0
 42
0.0000001
 43
0.0000001
 44
0.0000000001
 40
0.0
 40
0.0
 40
0.0
 40
0.0
 40
0.2457610114
 40
0.4940535622
 40
0.7453292566
 40
1.0
 40
1.0
 40
1.0
 40
1.0
 10
10.6801781024
 20
5.9536463916
 30
0.0
 10
10.6778493621
 20
5.9542459294
 30
0.0
 10
10.6732069793
 20
5.9556088342
 30
0.0
 10
10.6663547386
 20
5.9581194117
 30
0.0
 10
10.6595980349
 20
5.9610995668
 30
0.0
 10
10.6551990802
 20
5.9633784021
 30
0.0
 10
10.6530221089
 20
5.9645908973
 30
0.0
  0
SPLINE
  5
2EA
100
AcDbEntity
  8
0
100
AcDbSpline
 62
7
  6
CONTINUOUS
 70
0
 71
3
 72
11
 73
7
 74
0
 42
0.0000001
 43
0.0000001
 44
0.0000000001
 40
0.0
 40
0.0
 40
0.0
 40
0.0
 40
0.2546684679
 40
0.5059435911
 40
0.7542370064
 40
1.0
 40
1.0
 40
1.0
 40
1.0
 10
10.6530321441
 20
6.3460784122
 30
0.0
 10
10.6552083582
 20
6.3472902211
 30
0.0
 10
10.6596057565
 20
6.3495677884
 30
0.0
 10
10.6663599814
 20
6.3525463599
 30
0.0
 10
10.6732096577
 20
6.3550557061
 30
0.0
 10
10.6778502689
 20
6.3564180252
 30
0.0
 10
10.6801781185
 20
6.3570173334
 30
0.0
  0
SPLINE
  5
2EB
100
AcDbEntity
  8
0
100
AcDbSpline
 62
9
  6
CONTINUOUS
 70
0
 71
3
 72
23
 73
19
 74
0
 42
0.0000001
 43
0.0000001
 44
0.0000000001
 40
0.0
 40
0.0
 40
0.0
 40
0.0
 40
0.1169601393
 40
0.14731535
 40
0.178060204
 40
0.240598909
 40
0.3043477388
 40
0.3690325921
 40
0.4343549174
 40
0.5
 40
0.5656450826
 40
0.6309674079
 40
0.6956522612
 40
0.759401091
 40
0.821939796
 40
0.85268465
 40
0.8830398607
 40
1.0
 40
1.0
 40
1.0
 40
1.0
 10
11.6604032265
 20
6.3161586993
 30
0.0
 10
11.6526348674
 20
6.3053839781
 30
0.0
 10
11.6441444743
 20
6.2908267109
 30
0.0
 10
11.6357798934
 20
6.2724171979
 30
0.0
 10
11.6304930809
 20
6.2594040167
 30
0.0
 10
11.6247726778
 20
6.2424921113
 30
0.0
 10
11.6193943128
 20
6.2214605674
 30
0.0
 10
11.6155147729
 20
6.1997808017
 30
0.0
 10
11.6131718864
 20
6.177665748
 30
0.0
 10
11.6123883761
 20
6.1553318604
 30
0.0
 10
11.6131718864
 20
6.1329979728
 30
0.0
 10
11.6155147729
 20
6.1108829191
 30
0.0
 10
11.6193943128
 20
6.0892031534
 30
0.0
 10
11.6247726778
 20
6.0681716095
 30
0.0
 10
11.6304930809
 20
6.0512597041
 30
0.0
 10
11.6357798934
 20
6.0382465229
 30
0.0
 10
11.6441444743
 20
6.0198370099
 30
0.0
 10
11.6526348674
 20
6.0052797427
 30
0.0
 10
11.6604032265
 20
5.9945050215
 30
0.0
  0
SPLINE
  5
2EC
100
AcDbEntity
  8
0
100
AcDbSpline
 62
9
  6
CONTINUOUS
 70
0
 71
3
 72
36
 73
32
 74
0
 42
0.0000001
 43
0.0000001
 44
0.0000000001
 40
0.0
 40
0.0
 40
0.0
 40
0.0
 40
0.0750123888
 40
0.1122539676
 40
0.1491673587
 40
0.2215755566
 40
0.2569206759
 40
0.2915780106
 40
0.3254839745
 40
0.3585892092
 40
0.3908605024
 40
0.4222826778
 40
0.4528603766
 40
0.4826196053
 40
0.5116088811
 40
0.5398997568
 40
0.5675864353
 40
0.5947842231
 40
0.6216266439
 40
0.6482611609
 40
0.6748436828
 40
0.701532267
 40
0.7284806066
 40
0.7558319431
 40
0.7837139578
 40
0.8122349648
 40
0.8414815034
 40
0.8715172234
 40
0.9023828389
 40
0.9340968772
 40
1.0
 40
1.0
 40
1.0
 40
1.0
 10
10.8037284852
 20
6.1553318604
 30
0.0
 10
10.8037284852
 20
6.145739194
 30
0.0
 10
10.8029466764
 20
6.1313674534
 30
0.0
 10
10.8003356061
 20
6.1124637347
 30
0.0
 10
10.7967339939
 20
6.0940626135
 30
0.0
 10
10.7916359736
 20
6.0762257062
 30
0.0
 10
10.7850492223
 20
6.0592369772
 30
0.0
 10
10.7794723394
 20
6.0471654589
 30
0.0
 10
10.7732531931
 20
6.0357369239
 30
0.0
 10
10.7664280139
 20
6.0250186611
 30
0.0
 10
10.7590368519
 20
6.0150746408
 30
0.0
 10
10.7511229241
 20
6.0059641715
 30
0.0
 10
10.742732496
 20
5.9977418782
 30
0.0
 10
10.7339146402
 20
5.9904573784
 30
0.0
 10
10.7247210534
 20
5.9841550652
 30
0.0
 10
10.71520591
 20
5.9788738338
 30
0.0
 10
10.7054257093
 20
5.9746467999
 30
0.0
 10
10.6954390995
 20
5.9715009672
 30
0.0
 10
10.6853066322
 20
5.9694568157
 30
0.0
 10
10.675090369
 20
5.9685278747
 30
0.0
 10
10.664853318
 20
5.9687203635
 30
0.0
 10
10.6546587355
 20
5.9700330059
 30
0.0
 10
10.6445693845
 20
5.9724570496
 30
0.0
 10
10.6346468654
 20
5.9759765175
 30
0.0
 10
10.6249511082
 20
5.980568636
 30
0.0
 10
10.615540053
 20
5.9862042336
 30
0.0
 10
10.6064693666
 20
5.992848234
 30
0.0
 10
10.5977925637
 20
6.0004595913
 30
0.0
 10
10.5895597977
 20
6.0089930659
 30
0.0
 10
10.5791099569
 20
6.0216881401
 30
0.0
 10
10.5722859034
 20
6.0322083105
 30
0.0
 10
10.5681738157
 20
6.0395647996
 30
0.0
  0
SPLINE
  5
2ED
100
AcDbEntity
  8
0
100
AcDbSpline
 62
9
  6
CONTINUOUS
 70
0
 71
3
 72
13
 73
9
 74
0
 42
0.0000001
 43
0.0000001
 44
0.0000000001
 40
0.0
 40
0.0
 40
0.0
 40
0.0
 40
0.2601119841
 40
0.3888856413
 40
0.5160697129
 40
0.6411889702
 40
0.7638148902
 40
1.0
 40
1.0
 40
1.0
 40
1.0
 10
10.82598969
 20
6.1553318604
 30
0.0
 10
10.82598969
 20
6.1434019644
 30
0.0
 10
10.8248392708
 20
6.1255361512
 30
0.0
 10
10.8209950382
 20
6.1021688811
 30
0.0
 10
10.8170043824
 20
6.0851382427
 30
0.0
 10
10.8119294294
 20
6.0686917172
 30
0.0
 10
10.8038801522
 20
6.0479959212
 30
0.0
 10
10.7962157634
 20
6.0333316352
 30
0.0
 10
10.7903985903
 20
6.024193604
 30
0.0
  0
SPLINE
  5
2EE
100
AcDbEntity
  8
0
100
AcDbSpline
 62
9
  6
CONTINUOUS
 70
0
 71
3
 72
36
 73
32
 74
0
 42
0.0000001
 43
0.0000001
 44
0.0000000001
 40
0.0
 40
0.0
 40
0.0
 40
0.0
 40
0.0659001638
 40
0.0976127434
 40
0.1284769654
 40
0.1585113943
 40
0.1877567799
 40
0.2162768035
 40
0.2441580308
 40
0.2715087957
 40
0.2984567904
 40
0.3251452581
 40
0.3517278832
 40
0.3783627049
 40
0.4052056059
 40
0.4324040176
 40
0.4600914286
 40
0.4883831098
 40
0.5173732303
 40
0.5471333124
 40
0.5777118473
 40
0.6091348204
 40
0.6414068567
 40
0.6745127688
 40
0.7084193385
 40
0.7430772051
 40
0.7784227836
 40
0.8508317078
 40
0.8877453785
 40
0.9249871967
 40
1.0
 40
1.0
 40
1.0
 40
1.0
 10
10.5681869232
 20
6.2711223666
 30
0.0
 10
10.5722995694
 20
6.2784774346
 30
0.0
 10
10.5791243351
 20
6.2889954258
 30
0.0
 10
10.5895748336
 20
6.3016875067
 30
0.0
 10
10.5978079321
 20
6.3102187722
 30
0.0
 10
10.6064849197
 20
6.3178279507
 30
0.0
 10
10.6155556482
 20
6.3244698211
 30
0.0
 10
10.6249666086
 20
6.3301033551
 30
0.0
 10
10.6346621414
 20
6.3346934932
 30
0.0
 10
10.6445843144
 20
6.3382110795
 30
0.0
 10
10.6546732062
 20
6.3406333552
 30
0.0
 10
10.6648672269
 20
6.3419443568
 30
0.0
 10
10.6751036244
 20
6.3421353437
 30
0.0
 10
10.6853191551
 20
6.3412050501
 30
0.0
 10
10.695450824
 20
6.3391597034
 30
0.0
 10
10.7054365834
 20
6.3360128389
 30
0.0
 10
10.7152158956
 20
6.3317849397
 30
0.0
 10
10.7247301259
 20
6.326503011
 30
0.0
 10
10.7339227885
 20
6.3202001678
 30
0.0
 10
10.7427397213
 20
6.3129153026
 30
0.0
 10
10.7511292399
 20
6.3046928045
 30
0.0
 10
10.7590422832
 20
6.2955822856
 30
0.0
 10
10.7664325969
 20
6.2856383637
 30
0.0
 10
10.7732569743
 20
6.2749203391
 30
0.0
 10
10.7794753752
 20
6.2634921721
 30
0.0
 10
10.785051578
 20
6.2514211409
 30
0.0
 10
10.7916375075
 20
6.2344332263
 30
0.0
 10
10.7967348871
 20
6.216597298
 30
0.0
 10
10.8003360425
 20
6.1981972627
 30
0.0
 10
10.8029467768
 20
6.1792947256
 30
0.0
 10
10.8037284852
 20
6.1649239088
 30
0.0
 10
10.8037284852
 20
6.1553318604
 30
0.0
  0
SPLINE
  5
2EF
100
AcDbEntity
  8
0
100
AcDbSpline
 62
9
  6
CONTINUOUS
 70
0
 71
3
 72
22
 73
18
 74
0
 42
0.0000001
 43
0.0000001
 44
0.0000000001
 40
0.0
 40
0.0
 40
0.0
 40
0.0
 40
0.0514737282
 40
0.1040080719
 40
0.1578751306
 40
0.2132885292
 40
0.2703996256
 40
0.3292974507
 40
0.3900113501
 40
0.4525153476
 40
0.5167334712
 40
0.5825455392
 40
0.649793148
 40
0.7182855017
 40
0.7878052246
 40
0.8581134071
 40
1.0
 40
1.0
 40
1.0
 40
1.0
 10
10.4207689565
 20
5.9771887257
 30
0.0
 10
10.4244613689
 20
5.9781098977
 30
0.0
 10
10.431816434
 20
5.9804248995
 30
0.0
 10
10.4424916011
 20
5.9852031534
 30
0.0
 10
10.4528252813
 20
5.9912777097
 30
0.0
 10
10.462737403
 20
5.9985991027
 30
0.0
 10
10.4721545639
 20
6.0071097287
 30
0.0
 10
10.4810066646
 20
6.0167435098
 30
0.0
 10
10.4892281412
 20
6.0274265352
 30
0.0
 10
10.4967580137
 20
6.0390774027
 30
0.0
 10
10.5035403454
 20
6.0516077101
 30
0.0
 10
10.5095246291
 20
6.0649225564
 30
0.0
 10
10.5146662027
 20
6.0789213205
 30
0.0
 10
10.5189265734
 20
6.0934977999
 30
0.0
 10
10.5222739435
 20
6.1085431181
 30
0.0
 10
10.5254949037
 20
6.1291300031
 30
0.0
 10
10.5264590485
 20
6.1448418236
 30
0.0
 10
10.5264590485
 20
6.1553318604
 30
0.0
  0
SPLINE
  5
2F0
100
AcDbEntity
  8
0
100
AcDbSpline
 62
9
  6
CONTINUOUS
 70
0
 71
3
 72
22
 73
18
 74
0
 42
0.0000001
 43
0.0000001
 44
0.0000000001
 40
0.0
 40
0.0
 40
0.0
 40
0.0
 40
0.0514751059
 40
0.104011789
 40
0.1578817345
 40
0.2132981833
 40
0.2704121614
 40
0.3293124316
 40
0.39002814
 40
0.4525331778
 40
0.516751503
 40
0.5825629196
 40
0.6498090587
 40
0.7182991995
 40
0.7878160763
 40
0.8581209121
 40
1.0
 40
1.0
 40
1.0
 40
1.0
 10
10.4208213136
 20
6.3334619173
 30
0.0
 10
10.4245124019
 20
6.3325388389
 30
0.0
 10
10.4318646622
 20
6.3302203159
 30
0.0
 10
10.4425353254
 20
6.3254378195
 30
0.0
 10
10.4528643776
 20
6.3193599768
 30
0.0
 10
10.4627718342
 20
6.3120362462
 30
0.0
 10
10.4721843723
 20
6.3035242094
 30
0.0
 10
10.4810319684
 20
6.2938899125
 30
0.0
 10
10.4892491301
 20
6.2832072238
 30
0.0
 10
10.4967749445
 20
6.2715574932
 30
0.0
 10
10.5035535371
 20
6.259029061
 30
0.0
 10
10.5095344576
 20
6.2457167577
 30
0.0
 10
10.514673095
 20
6.2317211255
 30
0.0
 10
10.5189310008
 20
6.2171482802
 30
0.0
 10
10.5222764141
 20
6.2021070072
 30
0.0
 10
10.525495472
 20
6.1815259797
 30
0.0
 10
10.5264590485
 20
6.1658187941
 30
0.0
 10
10.5264590485
 20
6.1553318604
 30
0.0
  0
SPLINE
  5
2F1
100
AcDbEntity
  8
0
100
AcDbSpline
 62
7
  6
CONTINUOUS
 70
0
 71
3
 72
24
 73
20
 74
0
 42
0.0000001
 43
0.0000001
 44
0.0000000001
 40
0.0
 40
0.0
 40
0.0
 40
0.0
 40
0.0255924328
 40
0.0513482927
 40
0.0773163816
 40
0.1035426592
 40
0.1569119365
 40
0.2117714012
 40
0.2683402311
 40
0.3267633097
 40
0.3871123568
 40
0.4493903979
 40
0.5135377425
 40
0.5794392024
 40
0.6469313116
 40
0.7158099164
 40
0.7858371527
 40
0.8567489743
 40
1.0
 40
1.0
 40
1.0
 40
1.0
 10
10.4114997711
 20
5.9671302418
 30
0.0
 10
10.4135476051
 20
5.9674120958
 30
0.0
 10
10.4176392494
 20
5.9681107768
 30
0.0
 10
10.4237192407
 20
5.9695538476
 30
0.0
 10
10.429745746
 20
5.9713914943
 30
0.0
 10
10.4377365953
 20
5.9743789924
 30
0.0
 10
10.4475449239
 20
5.9791060873
 30
0.0
 10
10.4588152699
 20
5.9862389248
 30
0.0
 10
10.4695658175
 20
5.9948028018
 30
0.0
 10
10.4797061959
 20
6.0047223355
 30
0.0
 10
10.4891532424
 20
6.0159121819
 30
0.0
 10
10.4978290643
 20
6.0282769569
 30
0.0
 10
10.5056621646
 20
6.0417119824
 30
0.0
 10
10.5125877734
 20
6.0561038627
 30
0.0
 10
10.5185484998
 20
6.0713314719
 30
0.0
 10
10.5234947315
 20
6.0872661685
 30
0.0
 10
10.5273854758
 20
6.1037754732
 30
0.0
 10
10.531133628
 20
6.126433733
 30
0.0
 10
10.5322553169
 20
6.1437612583
 30
0.0
 10
10.5322553169
 20
6.1553318604
 30
0.0
  0
SPLINE
  5
2F2
100
AcDbEntity
  8
0
100
AcDbSpline
 62
7
  6
CONTINUOUS
 70
0
 71
3
 72
24
 73
20
 74
0
 42
0.0000001
 43
0.0000001
 44
0.0000000001
 40
0.0
 40
0.0
 40
0.0
 40
0.0
 40
0.0255923034
 40
0.0513485346
 40
0.0773174274
 40
0.1035448675
 40
0.1569172844
 40
0.2117804653
 40
0.2683530722
 40
0.3267795579
 40
0.3871313079
 40
0.4494111149
 40
0.5135591501
 40
0.5794601748
 40
0.6469507473
 40
0.7158268025
 40
0.7858506179
 40
0.8567583278
 40
1.0
 40
1.0
 40
1.0
 40
1.0
 10
10.4115720366
 20
6.3435235047
 30
0.0
 10
10.4136190298
 20
6.3432401799
 30
0.0
 10
10.4177089378
 20
6.3425386536
 30
0.0
 10
10.4237861501
 20
6.3410916676
 30
0.0
 10
10.4298097721
 20
6.3392504322
 30
0.0
 10
10.4377966817
 20
6.3362585613
 30
0.0
 10
10.4475998387
 20
6.3315268622
 30
0.0
 10
10.4588638302
 20
6.3243899409
 30
0.0
 10
10.469608009
 20
6.3158233387
 30
0.0
 10
10.4797421261
 20
6.3059024003
 30
0.0
 10
10.4891831299
 20
6.2947124131
 30
0.0
 10
10.4978532332
 20
6.282348689
 30
0.0
 10
10.5056810369
 20
6.2689158186
 30
0.0
 10
10.5126018606
 20
6.2545270959
 30
0.0
 10
10.5185583941
 20
6.2393035312
 30
0.0
 10
10.5235010954
 20
6.2233736376
 30
0.0
 10
10.5273890305
 20
6.2068697579
 30
0.0
 10
10.5311344453
 20
6.1842194346
 30
0.0
 10
10.5322553169
 20
6.1668982293
 30
0.0
 10
10.5322553169
 20
6.1553318604
 30
0.0
  0
ENDSEC
  0
SECTION
  2
OBJECTS
  0
DICTIONARY
  5
C
100
AcDbDictionary
280
0
281
1
  3
ACAD_GROUP
350
D
  3
ACAD_MLINESTYLE
350
17
  3
ACAD_LAYOUT
350
1A
  3
ACAD_PLOTSETTINGS
350
19
  3
ACAD_PLOTSTYLENAME
350
E
  0
DICTIONARY
  5
D
102
{ACAD_REACTORS
330
C
102
}
100
AcDbDictionary
280
0
281
1
  0
ACDBDICTIONARYWDFLT
  5
E
102
{ACAD_REACTORS
330
C
102
}
100
AcDbDictionary
281
1
  3
Normal
350
F
100
AcDbDictionaryWithDefault
340
F
  0
DICTIONARY
  5
17
102
{ACAD_REACTORS
330
C
102
}
100
AcDbDictionary
280
0
281
1
  3
Standard
350
18
  0
DICTIONARY
  5
19
102
{ACAD_REACTORS
330
C
102
}
100
AcDbDictionary
281
1
  0
DICTIONARY
  5
1A
102
{ACAD_REACTORS
330
C
102
}
100
AcDbDictionary
281
1
  3
Model
350
2F3
  3
Layout1
350
2F4
  0
ACDBPLACEHOLDER
  5
F
102
{ACAD_REACTORS
330
E
102
}
  0
MLINESTYLE
  5
18
102
{ACAD_REACTORS
330
17
102
}
100
AcDbMlineStyle
  2
STANDARD
 70
0
  3

 62
256
 51
90.0
 52
90.0
 71
2
 49
0.5
 62
256
  6
BYLAYER
 49
-0.5
 62
256
  6
BYLAYER
  0
LAYOUT
  5
2F3
102
{ACAD_REACTORS
330
1A
102
}
100
AcDbPlotSettings
  1

  2
none_device
  4
ANSI_C_(22.00_x_17.00_Inches)
  6

 40
0.0
 41
0.0
 42
0.0
 43
0.0
 44
558.8
 45
431.8
 46
0.0
 47
0.0
 48
0.0
 49
0.0
140
0.0
141
0.0
142
1.0
143
1.0
 70
1024
 72
0
 73
0
 74
0
  7

 75
0
147
1.0
148
0.0
149
0.0
100
AcDbLayout
  1
Model
 70
0
 71
0
 10
0.0
 20
0.0
 11
22.0
 21
17.0
 12
0.0
 22
0.0
 32
0.0
 14
0.0
 24
0.0
 34
0.0
 15
0.0
 25
0.0
 35
0.0
146
0.0
 13
0.0
 23
0.0
 33
0.0
 16
1.0
 26
0.0
 36
0.0
 17
0.0
 27
1.0
 37
0.0
 76
0
330
205
345
0
346
0
  0
LAYOUT
  5
2F4
102
{ACAD_REACTORS
330
1A
102
}
100
AcDbPlotSettings
  1

  2
none_device
  4
ANSI_C_(22.00_x_17.00_Inches)
  6

 40
0.0
 41
0.0
 42
0.0
 43
0.0
 44
558.8
 45
431.8
 46
0.0
 47
0.0
 48
0.0
 49
0.0
140
0.0
141
0.0
142
1.0
143
1.0
 70
0
 72
0
 73
0
 74
0
  7

 75
0
147
1.0
148
0.0
149
0.0
100
AcDbLayout
  1
Layout1
 70
0
 71
1
 10
0.0
 20
0.0
 11
22.0
 21
17.0
 12
0.0
 22
0.0
 32
0.0
 14
0.0
 24
0.0
 34
0.0
 15
0.0
 25
0.0
 35
0.0
146
0.0
 13
0.0
 23
0.0
 33
0.0
 16
1.0
 26
0.0
 36
0.0
 17
0.0
 27
1.0
 37
0.0
 76
0
330
206
345
0
346
0
  0
ENDSEC
  0
EOF
