  0
SECTION
  2
HEADER
  9
$ACADVER
  1
AC1015
  9
$DWGCODEPAGE
  3
ANSI_1252
  9
$EXTMAX
 10
11.6929133858
 20
8.2677165354
 30
0.0
  9
$EXTMIN
 10
0.0
 20
0.0
 30
0.0
  9
$LIMMIN
 10
0.0
 20
0.0
  9
$LIMMAX
 10
11.6929133858
 20
8.2677165354
  9
$VIEWCTR
 10
5.8464566929
 20
4.1338582677
  9
$VIEWSIZE
 40
8.2677165354
  9
$CLAYER
  8
0
  9
$LTSCALE
 40
0.6431102362
  9
$CELTYPE
  6
BYLAYER
  9
$DIMSCALE
 40
1.0
  9
$DIMASZ
 40
0.1875
  9
$DIMEXO
 40
0.0730807087
  9
$DIMDLI
 40
0.4443307087
  9
$DIMEXE
 40
0.2104724409
  9
$DIMCEN
 40
0.1052362205
  9
$DIMLFAC
 40
1.0
  9
$DIMBLK
  1
_CLOSED
  9
$DIMTXT
 40
0.15625
  9
$DIMTOL
 70
0
  9
$DIMLIM
 70
0
  9
$DIMTFAC
 40
1.0
  9
$PDMODE
 70
3
  9
$PDSIZE
 40
0.3125
  9
$HANDSEED
  5
23E
  9
$TILEMODE
 70
1
  9
$MEASUREMENT
 70
0
  9
$INSUNITS
 70
1
  0
ENDSEC
  0
SECTION
  2
CLASSES
  0
CLASS
  1
ACDBDICTIONARYWDFLT
  2
AcDbDictionaryWithDefault
  3
AutoCAD 2000
 90
0
280
0
281
0
  0
CLASS
  1
ACDBPLACEHOLDER
  2
AcDbPlaceHolder
  3
AutoCAD 2000
 90
0
280
0
281
0
  0
CLASS
  1
LAYOUT
  2
AcDbLayout
  3
AutoCAD 2000
 90
0
280
0
281
0
  0
ENDSEC
  0
SECTION
  2
TABLES
  0
TABLE
  2
VPORT
  5
8
100
AcDbSymbolTable
 70
2
  0
VPORT
  5
1F4
100
AcDbSymbolTableRecord
100
AcDbViewportTableRecord
  2
*ACTIVE
 70
0
 10
0.0
 20
0.0
 11
1.0
 21
1.0
 12
5.8464566929
 22
4.1338582677
 13
0.0
 23
0.0
 14
1.0
 24
1.0
 15
0.0
 25
0.0
 16
0.0
 26
0.0
 36
1.0
 17
0.0
 27
0.0
 37
0.0
 40
8.2677165354
 41
1.4142857143
 42
50.0
 43
0.0
 44
0.0
 50
0.0
 51
0.0
 71
0
 72
100
 73
1
 74
1
 75
0
 76
0
 77
0
 78
0
  0
ENDTAB
  0
TABLE
  2
LTYPE
  5
5
100
AcDbSymbolTable
 70
6
  0
LTYPE
  5
14
100
AcDbSymbolTableRecord
100
AcDbLinetypeTableRecord
  2
BYBLOCK
 70
0
  3

 72
65
 73
0
 40
0.0
  0
LTYPE
  5
15
100
AcDbSymbolTableRecord
100
AcDbLinetypeTableRecord
  2
BYLAYER
 70
0
  3

 72
65
 73
0
 40
0.0
  0
LTYPE
  5
16
100
AcDbSymbolTableRecord
100
AcDbLinetypeTableRecord
  2
CONTINUOUS
 70
64
  3
Solid line
 72
65
 73
0
 40
0.0
  0
LTYPE
  5
1F5
100
AcDbSymbolTableRecord
100
AcDbLinetypeTableRecord
  2
CENTER
 70
64
  3
____ _ ____ _ ____ _ ____ _ ____ _ ____ _ ____
 72
65
 73
4
 40
0.6
 49
0.375
 74
0
 49
-0.075
 74
0
 49
0.075
 74
0
 49
-0.075
 74
0
  0
LTYPE
  5
1F6
100
AcDbSymbolTableRecord
100
AcDbLinetypeTableRecord
  2
HIDDEN
 70
64
  3
- - - - - - - - - - - - - - - - - - - -
 72
65
 73
2
 40
0.2
 49
0.1
 74
0
 49
-0.1
 74
0
  0
LTYPE
  5
1F7
100
AcDbSymbolTableRecord
100
AcDbLinetypeTableRecord
  2
PHANTOM
 70
64
  3
_____ _ _ _____ _ _ _____ _ _ _____
 72
65
 73
6
 40
0.8
 49
0.45
 74
0
 49
-0.05
 74
0
 49
0.1
 74
0
 49
-0.05
 74
0
 49
0.1
 74
0
 49
-0.05
 74
0
  0
LTYPE
  5
1F8
100
AcDbSymbolTableRecord
100
AcDbLinetypeTableRecord
  2
DOT
 70
64
  3
. . . . . . . . . . . . . . . . . . . .
 72
65
 73
2
 40
0.2
 49
0.1
 74
0
 49
-0.1
 74
0
  0
LTYPE
  5
1F9
100
AcDbSymbolTableRecord
100
AcDbLinetypeTableRecord
  2
DASHED
 70
64
  3
- - - - - - - - - - - - - - - - - - - -
 72
65
 73
2
 40
0.2
 49
0.1
 74
0
 49
-0.1
 74
0
  0
ENDTAB
  0
TABLE
  2
LAYER
  5
2
100
AcDbSymbolTable
 70
36
  0
LAYER
  5
10
100
AcDbSymbolTableRecord
100
AcDbLayerTableRecord
  2
0
 70
0
 62
7
  6
CONTINUOUS
370
-3
390
F
  0
LAYER
  5
1FA
100
AcDbSymbolTableRecord
100
AcDbLayerTableRecord
  2
DEFAULT_1
 70
0
 62
7
  6
CENTER
370
-3
390
F
  0
LAYER
  5
1FB
100
AcDbSymbolTableRecord
100
AcDbLayerTableRecord
  2
DEFAULT_2
 70
0
 62
8
  6
HIDDEN
370
-3
390
F
  0
LAYER
  5
1FC
100
AcDbSymbolTableRecord
100
AcDbLayerTableRecord
  2
DEFAULT_3
 70
0
 62
7
  6
PHANTOM
370
-3
390
F
  0
LAYER
  5
1FD
100
AcDbSymbolTableRecord
100
AcDbLayerTableRecord
  2
DEFAULT_COORDINATE_SYSTEM
 70
0
 62
7
  6
CONTINUOUS
370
-3
390
F
  0
LAYER
  5
1FE
100
AcDbSymbolTableRecord
100
AcDbLayerTableRecord
  2
DEFAULT_DATUM_AXES
 70
0
 62
7
  6
CONTINUOUS
370
-3
390
F
  0
LAYER
  5
1FF
100
AcDbSymbolTableRecord
100
AcDbLayerTableRecord
  2
DEFAULT_DATUM_CURVES
 70
0
 62
7
  6
CONTINUOUS
370
-3
390
F
  0
LAYER
  5
200
100
AcDbSymbolTableRecord
100
AcDbLayerTableRecord
  2
DEFAULT_DATUM_PLANES
 70
0
 62
7
  6
CONTINUOUS
370
-3
390
F
  0
ENDTAB
  0
TABLE
  2
STYLE
  5
3
100
AcDbSymbolTable
 70
1
  0
STYLE
  5
11
100
AcDbSymbolTableRecord
100
AcDbTextStyleTableRecord
  2
STANDARD
 70
0
 40
0.0
 41
0.8
 50
0.0
 71
0
 42
0.2
  3
txt
  4

  0
STYLE
  5
201
100
AcDbSymbolTableRecord
100
AcDbTextStyleTableRecord
  2
TEXTSTYLE_1
 70
0
 40
0.0
 41
0.8
 50
0.0
 71
0
 42
0.2
  3
gdt
  4

  0
ENDTAB
  0
TABLE
  2
VIEW
  5
6
100
AcDbSymbolTable
 70
0
  0
ENDTAB
  0
TABLE
  2
UCS
  5
7
100
AcDbSymbolTable
 70
0
  0
ENDTAB
  0
TABLE
  2
APPID
  5
9
100
AcDbSymbolTable
 70
1
  0
APPID
  5
202
100
AcDbSymbolTableRecord
100
AcDbRegAppTableRecord
  2
ACAD
 70
0
  0
ENDTAB
  0
TABLE
  2
BLOCK_RECORD
  5
1
100
AcDbSymbolTable
 70
0
  0
BLOCK_RECORD
  5
203
100
AcDbSymbolTableRecord
100
AcDbBlockTableRecord
  2
*Model_Space
  0
BLOCK_RECORD
  5
204
100
AcDbSymbolTableRecord
100
AcDbBlockTableRecord
  2
*Paper_Space
  0
ENDTAB
  0
TABLE
  2
DIMSTYLE
  5
A
100
AcDbSymbolTable
 70
1
100
AcDbDimStyleTable
 71
0
  0
DIMSTYLE
105
205
100
AcDbSymbolTableRecord
100
AcDbDimStyleTableRecord
  2
STANDARD
 70
0
  3

  4

 40
1.0
 41
0.1875
 42
0.0625
 43
0.38
 44
0.18
 45
0.0
 46
0.0
 47
0.01
 48
0.01
140
0.15625
141
0.09
142
0.0
143
25.4
144
1.0
145
0.0
146
1.0
147
0.09
 71
0.0
 72
0.0
 73
1
 74
1
 75
0
 76
0
 77
0
 78
4
170
0
171
2
172
0
173
0
174
0
175
0
176
0
177
0
178
0
270
2
271
2
272
2
273
2
274
2
275
0
280
0
281
0
282
0
283
1
284
4
285
0
286
0
287
3
288
0
340
11
  0
ENDTAB
  0
ENDSEC
  0
SECTION
  2
BLOCKS
  0
BLOCK
  5
20
100
AcDbEntity
  8
0
100
AcDbBlockBegin
  2
*Model_Space
 70
0
 10
0.0
 20
0.0
 30
0.0
  3
*Model_Space
  1

  0
ENDBLK
  5
21
100
AcDbEntity
  8
0
100
AcDbBlockEnd
  0
BLOCK
  5
1C
100
AcDbEntity
  8
0
100
AcDbBlockBegin
  2
*Paper_Space
 70
0
 10
0.0
 20
0.0
 30
0.0
  3
*Paper_Space
  1

  0
ENDBLK
  5
1D
100
AcDbEntity
  8
0
100
AcDbBlockEnd
  0
ENDSEC
  0
SECTION
  2
ENTITIES
  0
LINE
  5
206
100
AcDbEntity
  8
0
100
AcDbLine
 62
6
  6
CONTINUOUS
 10
3.9850901889
 20
4.1062907929
 11
3.9850901889
 21
4.5812907929
  0
LINE
  5
207
100
AcDbEntity
  8
0
100
AcDbLine
 62
9
  6
CONTINUOUS
 10
4.1151480244
 20
4.1275942646
 11
4.1151480244
 21
4.5599873212
  0
LINE
  5
208
100
AcDbEntity
  8
0
100
AcDbLine
 62
6
  6
CONTINUOUS
 10
4.3080901889
 20
4.1252907929
 11
4.3080901889
 21
4.5622907929
  0
LINE
  5
209
100
AcDbEntity
  8
0
100
AcDbLine
 62
9
  6
CONTINUOUS
 10
4.6518499338
 20
3.9495414845
 11
4.6518499338
 21
4.7380401013
  0
LINE
  5
20A
100
AcDbEntity
  8
0
100
AcDbLine
 62
6
  6
CONTINUOUS
 10
6.7242580276
 20
3.7187907929
 11
7.2179258457
 21
3.7187907929
  0
LINE
  5
20B
100
AcDbEntity
  8
0
100
AcDbLine
 62
6
  6
CONTINUOUS
 10
6.7139712603
 20
4.9645252234
 11
6.7166621373
 21
4.9657404778
  0
LINE
  5
20C
100
AcDbEntity
  8
0
100
AcDbLine
 62
6
  6
CONTINUOUS
 10
4.6518499338
 20
3.9495414845
 11
5.7066861059
 21
4.1545808657
  0
LINE
  5
20D
100
AcDbEntity
  8
0
100
AcDbLine
 62
6
  6
CONTINUOUS
 10
6.5000901889
 20
4.0937907929
 11
6.5450901889
 21
4.0937907929
  0
LINE
  5
20E
100
AcDbEntity
  8
0
100
AcDbLine
 62
9
  6
CONTINUOUS
 10
5.7066861059
 20
4.1545808657
 11
5.7066861059
 21
4.5330007201
  0
LINE
  5
20F
100
AcDbEntity
  8
0
100
AcDbLine
 62
6
  6
CONTINUOUS
 10
6.5000901889
 20
4.5937907929
 11
6.5450901889
 21
4.5937907929
  0
LINE
  5
210
100
AcDbEntity
  8
0
100
AcDbLine
 62
6
  6
CONTINUOUS
 10
4.6518499338
 20
4.7380401013
 11
5.7066861059
 21
4.5330007201
  0
LINE
  5
211
100
AcDbEntity
  8
0
100
AcDbLine
 62
6
  6
CONTINUOUS
 10
7.2098059812
 20
4.9687907929
 11
6.7323743979
 21
4.9687907929
  0
LINE
  5
212
100
AcDbEntity
  8
0
100
AcDbLine
 62
6
  6
CONTINUOUS
 10
6.5000901889
 20
4.0937907929
 11
6.5000901889
 21
4.5937907929
  0
LINE
  5
213
100
AcDbEntity
  8
0
100
AcDbLine
 62
6
  6
CONTINUOUS
 10
6.5450901889
 20
4.0937907929
 11
6.5450901889
 21
4.5937907929
  0
LINE
  5
214
100
AcDbEntity
  8
0
100
AcDbLine
 62
6
  6
CONTINUOUS
 10
6.5450901889
 20
4.0937907929
 11
6.5700901889
 21
4.1187907929
  0
LINE
  5
215
100
AcDbEntity
  8
0
100
AcDbLine
 62
6
  6
CONTINUOUS
 10
6.5450901889
 20
4.5937907929
 11
6.5700901889
 21
4.5687907929
  0
LINE
  5
216
100
AcDbEntity
  8
0
100
AcDbLine
 62
6
  6
CONTINUOUS
 10
6.5700901889
 20
4.1187907929
 11
6.5700901889
 21
4.5687907929
  0
LINE
  5
217
100
AcDbEntity
  8
0
100
AcDbLine
 62
7
  6
CONTINUOUS
 10
6.5790901889
 20
4.5747905896
 11
6.5790901889
 21
4.1131867537
  0
LINE
  5
218
100
AcDbEntity
  8
0
100
AcDbLine
 62
6
  6
CONTINUOUS
 10
7.2255182404
 20
4.9657404778
 11
7.2282091175
 21
4.9645252234
  0
ARC
  5
219
100
AcDbEntity
  8
0
100
AcDbCircle
 62
6
  6
CONTINUOUS
 10
4.5921267182
 20
4.2567907929
 40
0.313
100
AcDbArc
 50
204.842656017
 51
281.0
  0
ARC
  5
21A
100
AcDbEntity
  8
0
100
AcDbCircle
 62
6
  6
CONTINUOUS
 10
4.2129902415
 20
4.2412907929
 40
0.15
100
AcDbArc
 50
229.2861651139
 51
309.3458297662
  0
ARC
  5
21B
100
AcDbEntity
  8
0
100
AcDbCircle
 62
6
  6
CONTINUOUS
 10
4.0590518199
 20
4.062408255
 40
0.086
100
AcDbArc
 50
49.2861651139
 51
149.3187124064
  0
ARC
  5
21C
100
AcDbEntity
  8
0
100
AcDbCircle
 62
6
  6
CONTINUOUS
 10
4.5921267182
 20
4.4307907929
 40
0.313
100
AcDbArc
 50
79.0
 51
155.157343983
  0
ARC
  5
21D
100
AcDbEntity
  8
0
100
AcDbCircle
 62
6
  6
CONTINUOUS
 10
4.0630618459
 20
4.3437907929
 40
0.249971657
100
AcDbArc
 50
108.1750968409
 51
251.8249031591
  0
ARC
  5
21E
100
AcDbEntity
  8
0
100
AcDbCircle
 62
6
  6
CONTINUOUS
 10
4.2129902415
 20
4.4462907929
 40
0.15
100
AcDbArc
 50
50.6541702338
 51
130.7138348861
  0
ARC
  5
21F
100
AcDbEntity
  8
0
100
AcDbCircle
 62
6
  6
CONTINUOUS
 10
4.0590518199
 20
4.6251733308
 40
0.086
100
AcDbArc
 50
210.6812875936
 51
310.7138348861
  0
ARC
  5
220
100
AcDbEntity
  8
0
100
AcDbCircle
 62
6
  6
CONTINUOUS
 10
5.992899599
 20
2.6821400905
 40
1.5
100
AcDbArc
 50
70.2371945424
 51
101.0
  0
ARC
  5
221
100
AcDbEntity
  8
0
100
AcDbCircle
 62
6
  6
CONTINUOUS
 10
5.992899599
 20
6.0054414953
 40
1.5
100
AcDbArc
 50
259.0
 51
289.7628054576
  0
ARC
  5
222
100
AcDbEntity
  8
0
100
AcDbCircle
 62
6
  6
CONTINUOUS
 10
6.9710901889
 20
4.3437907929
 40
0.6719784581
100
AcDbArc
 50
291.5440722231
 51
67.7511328781
  0
ARC
  5
223
100
AcDbEntity
  8
0
100
AcDbCircle
 62
6
  6
CONTINUOUS
 10
6.9710901889
 20
4.3437907929
 40
0.6719784581
100
AcDbArc
 50
197.4486330943
 51
248.4589707321
  0
ARC
  5
224
100
AcDbEntity
  8
0
100
AcDbCircle
 62
6
  6
CONTINUOUS
 10
6.9710901889
 20
4.3437907929
 40
0.6719784581
100
AcDbArc
 50
112.2488671219
 51
162.5372746446
  0
ARC
  5
225
100
AcDbEntity
  8
0
100
AcDbCircle
 62
9
  6
CONTINUOUS
 10
6.9710901889
 20
4.3437907929
 40
0.6718789896
100
AcDbArc
 50
112.5002926355
 51
162.5190351209
  0
ARC
  5
226
100
AcDbEntity
  8
0
100
AcDbCircle
 62
9
  6
CONTINUOUS
 10
6.9710901889
 20
4.3437907929
 40
0.6718789896
100
AcDbArc
 50
197.4966253679
 51
248.4702331896
  0
ARC
  5
227
100
AcDbEntity
  8
0
100
AcDbCircle
 62
9
  6
CONTINUOUS
 10
6.9710901889
 20
4.3437907929
 40
0.6718789896
100
AcDbArc
 50
291.5297668104
 51
67.4997073645
  0
ARC
  5
228
100
AcDbEntity
  8
0
100
AcDbCircle
 62
9
  6
CONTINUOUS
 10
6.9710901889
 20
4.3437907929
 40
0.6631070044
100
AcDbArc
 50
110.4322026017
 51
162.0685744505
  0
ARC
  5
229
100
AcDbEntity
  8
0
100
AcDbCircle
 62
9
  6
CONTINUOUS
 10
6.9710901889
 20
4.3437907929
 40
0.6631070044
100
AcDbArc
 50
197.9343813323
 51
250.4813261732
  0
ARC
  5
22A
100
AcDbEntity
  8
0
100
AcDbCircle
 62
9
  6
CONTINUOUS
 10
6.9710901889
 20
4.3437907929
 40
0.6631070044
100
AcDbArc
 50
289.5186738268
 51
69.5677973983
  0
ARC
  5
22B
100
AcDbEntity
  8
0
100
AcDbCircle
 62
9
  6
CONTINUOUS
 10
6.9710901889
 20
4.3437907929
 40
0.5321176282
100
AcDbArc
 50
207.9567310475
 51
152.0432689525
  0
ARC
  5
22C
100
AcDbEntity
  8
0
100
AcDbCircle
 62
6
  6
CONTINUOUS
 10
6.9710901889
 20
4.3437907929
 40
0.455
100
AcDbArc
 50
208.0464876403
 51
151.9535123597
  0
CIRCLE
  5
22D
100
AcDbEntity
  8
0
100
AcDbCircle
 62
6
  6
CONTINUOUS
 10
6.9710901889
 20
4.3437907929
 40
0.3305
  0
CIRCLE
  5
22E
100
AcDbEntity
  8
0
100
AcDbCircle
 62
9
  6
CONTINUOUS
 10
6.9710901889
 20
4.3437907929
 40
0.2835
  0
CIRCLE
  5
22F
100
AcDbEntity
  8
0
100
AcDbCircle
 62
6
  6
CONTINUOUS
 10
6.9710901889
 20
4.3437907929
 40
0.272
  0
CIRCLE
  5
230
100
AcDbEntity
  8
0
100
AcDbCircle
 62
7
  6
CONTINUOUS
 10
6.9710901889
 20
4.3437907929
 40
0.236
  0
CIRCLE
  5
231
100
AcDbEntity
  8
0
100
AcDbCircle
 62
6
  6
CONTINUOUS
 10
6.9710901889
 20
4.3437907929
 40
0.18
  0
CIRCLE
  5
232
100
AcDbEntity
  8
0
100
AcDbCircle
 62
6
  6
CONTINUOUS
 10
6.9710901889
 20
4.3437907929
 40
0.17
  0
SPLINE
  5
233
100
AcDbEntity
  8
0
100
AcDbSpline
 62
6
  6
CONTINUOUS
 70
0
 71
3
 72
11
 73
7
 74
5
 42
0.0000001
 43
0.0000001
 44
0.0000000001
 12
0.0149040249
 22
0.0060999591
 32
0.0
 13
0.0161040199
 23
-0.0
 33
0.0
 40
0.0
 40
0.0
 40
0.0
 40
0.0
 40
0.2466086134
 40
0.4943944605
 40
0.745108538
 40
1.0
 40
1.0
 40
1.0
 40
1.0
 10
6.7166604037
 20
4.9657396699
 30
0.0
 10
6.7178855574
 20
4.9662411041
 30
0.0
 10
6.7203921197
 20
4.9671280823
 30
0.0
 10
6.7242817084
 20
4.9680869229
 30
0.0
 10
6.7282907807
 20
4.9686644866
 30
0.0
 10
6.7310067544
 20
4.9687907929
 30
0.0
 10
6.7323750134
 20
4.9687907929
 30
0.0
 11
6.7166604037
 21
4.9657396699
 31
0.0
 11
6.7204046273
 21
4.9670635764
 31
0.0
 11
6.7242788873
 21
4.9680190807
 31
0.0
 11
6.7282748118
 21
4.9685970341
 31
0.0
 11
6.7323750134
 21
4.9687907929
 31
0.0
  0
SPLINE
  5
234
100
AcDbEntity
  8
0
100
AcDbSpline
 62
6
  6
CONTINUOUS
 70
0
 71
3
 72
11
 73
7
 74
5
 42
0.0000001
 43
0.0000001
 44
0.0000000001
 12
0.0161040199
 22
0.0
 32
0.0
 13
0.0149040249
 23
-0.0060999591
 33
0.0
 40
0.0
 40
0.0
 40
0.0
 40
0.0
 40
0.254891462
 40
0.5056055395
 40
0.7533913866
 40
1.0
 40
1.0
 40
1.0
 40
1.0
 10
7.2098053644
 20
4.9687907929
 30
0.0
 10
7.2111736234
 20
4.9687907929
 30
0.0
 10
7.213889597
 20
4.9686644866
 30
0.0
 10
7.2178986694
 20
4.9680869229
 30
0.0
 10
7.2217882581
 20
4.9671280823
 30
0.0
 10
7.2242948204
 20
4.9662411041
 30
0.0
 10
7.2255199741
 20
4.9657396699
 30
0.0
 11
7.2098053644
 21
4.9687907929
 31
0.0
 11
7.213905566
 21
4.9685970341
 31
0.0
 11
7.2179014905
 21
4.9680190807
 31
0.0
 11
7.2217757505
 21
4.9670635764
 31
0.0
 11
7.2255199741
 21
4.9657396699
 31
0.0
  0
SPLINE
  5
235
100
AcDbEntity
  8
0
100
AcDbSpline
 62
9
  6
CONTINUOUS
 70
0
 71
3
 72
27
 73
23
 74
21
 42
0.0000001
 43
0.0000001
 44
0.0000000001
 12
-0.4622285064
 22
-0.0343018691
 32
0.0
 13
-0.4622285457
 23
0.0343013389
 33
0.0
 40
0.0
 40
0.0
 40
0.0
 40
0.0
 40
0.0147450963
 40
0.0346967989
 40
0.0587477565
 40
0.085942362
 40
0.1468947664
 40
0.2133964256
 40
0.2830842455
 40
0.3545885187
 40
0.4270773985
 40
0.4999992322
 40
0.5729211258
 40
0.6454102246
 40
0.7169149962
 40
0.7866032823
 40
0.8531052085
 40
0.9140576317
 40
0.9412521553
 40
0.9653030213
 40
0.9852547503
 40
1.0
 40
1.0
 40
1.0
 40
1.0
 10
7.2025800375
 20
4.9651790365
 30
0.0
 10
7.2003081696
 20
4.9650104418
 30
0.0
 10
7.1949621225
 20
4.9646150127
 30
0.0
 10
7.1859091497
 20
4.9639615775
 30
0.0
 10
7.1749362679
 20
4.9631899988
 30
0.0
 10
7.1576413223
 20
4.9620183906
 30
0.0
 10
7.133795299
 20
4.960514498
 30
0.0
 10
7.1033826028
 20
4.9588394149
 30
0.0
 10
7.071326081
 20
4.9573900671
 30
0.0
 10
7.0383302639
 20
4.9562793665
 30
0.0
 10
7.0048231596
 20
4.9555832123
 30
0.0
 10
6.9710905355
 20
4.955346222
 30
0.0
 10
6.9373578775
 20
4.9555831986
 30
0.0
 10
6.9038506529
 20
4.9562793468
 30
0.0
 10
6.8708546531
 20
4.9573900543
 30
0.0
 10
6.838797941
 20
4.9588394077
 30
0.0
 10
6.8083851288
 20
4.9605144953
 30
0.0
 10
6.7845390741
 20
4.9620183923
 30
0.0
 10
6.7672441521
 20
4.9631899961
 30
0.0
 10
6.7562712937
 20
4.9639615827
 30
0.0
 10
6.7472183062
 20
4.9646150033
 30
0.0
 10
6.7418722321
 20
4.9650104426
 30
0.0
 10
6.7396003403
 20
4.9651790365
 30
0.0
 11
7.2025800375
 21
4.9651790365
 31
0.0
 11
7.1957642253
 21
4.9646760677
 31
0.0
 11
7.1865406566
 21
4.9640097555
 31
0.0
 11
7.1754204574
 21
4.9632285243
 31
0.0
 11
7.1628445716
 21
4.9623769226
 31
0.0
 11
7.1346488303
 21
4.9606042497
 31
0.0
 11
7.1038716226
 21
4.9589157989
 31
0.0
 11
7.0716039955
 21
4.9574639793
 31
0.0
 11
7.0384803547
 21
4.9563550949
 31
0.0
 11
7.0048889563
 21
4.9556613517
 31
0.0
 11
6.9710905447
 21
4.9554253731
 31
0.0
 11
6.9372921054
 21
4.9556613386
 31
0.0
 11
6.9037006053
 21
4.9563550759
 31
0.0
 11
6.8705767336
 21
4.9574639665
 31
0.0
 11
6.8383088905
 21
4.9589157937
 31
0.0
 11
6.8075315592
 21
4.9606042502
 31
0.0
 11
6.7793358092
 21
4.9623769241
 31
0.0
 11
6.7667599613
 21
4.9632285239
 31
0.0
 11
6.7556398047
 21
4.9640097546
 31
0.0
 11
6.7464162233
 21
4.9646760612
 31
0.0
 11
6.7396003403
 21
4.9651790365
 31
0.0
  0
SPLINE
  5
236
100
AcDbEntity
  8
0
100
AcDbSpline
 62
9
  6
CONTINUOUS
 70
0
 71
3
 72
11
 73
7
 74
5
 42
0.0000001
 43
0.0000001
 44
0.0000000001
 12
-0.0163004904
 22
0.0070789518
 32
0.0
 13
-0.0177712562
 23
0.0000001095
 33
0.0
 40
0.0
 40
0.0
 40
0.0
 40
0.0
 40
0.2512388273
 40
0.5014502476
 40
0.7509287373
 40
1.0
 40
1.0
 40
1.0
 40
1.0
 10
7.2025799921
 20
4.9651789148
 30
0.0
 10
7.2012148868
 20
4.9657717506
 30
0.0
 10
7.1984285418
 20
4.9668184482
 30
0.0
 10
7.194119619
 20
4.9679531598
 30
0.0
 10
7.1897296684
 20
4.9686379157
 30
0.0
 10
7.1867741565
 20
4.9687907838
 30
0.0
 10
7.1852987201
 20
4.9687907929
 30
0.0
 11
7.2025799921
 21
4.9651789148
 31
0.0
 11
7.1983999798
 21
4.9667480546
 31
0.0
 11
7.1940997739
 21
4.9678795249
 31
0.0
 11
7.1897191328
 21
4.9685623981
 31
0.0
 11
7.1852987201
 21
4.9687907929
 31
0.0
  0
LINE
  5
237
100
AcDbEntity
  8
0
100
AcDbLine
 62
9
  6
CONTINUOUS
 10
7.2282103171
 20
4.9645247265
 11
7.2255148319
 21
4.9645955759
  0
LINE
  5
238
100
AcDbEntity
  8
0
100
AcDbLine
 62
9
  6
CONTINUOUS
 10
7.2255148319
 20
4.9645955759
 11
7.2025800375
 21
4.9651790365
  0
SPLINE
  5
239
100
AcDbEntity
  8
0
100
AcDbSpline
 62
9
  6
CONTINUOUS
 70
0
 71
3
 72
11
 73
7
 74
5
 42
0.0000001
 43
0.0000001
 44
0.0000000001
 12
0.0163005707
 22
0.007078813
 32
0.0
 13
0.0177712745
 23
-0.0000000015
 33
0.0
 40
0.0
 40
0.0
 40
0.0
 40
0.0
 40
0.2512390929
 40
0.5014506047
 40
0.750929005
 40
1.0
 40
1.0
 40
1.0
 40
1.0
 10
6.7396003397
 20
4.965179038
 30
0.0
 10
6.7409654533
 20
4.9657718628
 30
0.0
 10
6.7437518119
 20
4.9668185385
 30
0.0
 10
6.7480607494
 20
4.9679532184
 30
0.0
 10
6.7524507076
 20
4.9686379439
 30
0.0
 10
6.7554062214
 20
4.968790793
 30
0.0
 10
6.7568816577
 20
4.9687907929
 30
0.0
 11
6.7396003397
 21
4.965179038
 31
0.0
 11
6.7437803742
 21
4.9667481454
 31
0.0
 11
6.7480805949
 21
4.967879584
 31
0.0
 11
6.7524612437
 21
4.9685624267
 31
0.0
 11
6.7568816577
 21
4.9687907929
 31
0.0
  0
LINE
  5
23A
100
AcDbEntity
  8
0
100
AcDbLine
 62
9
  6
CONTINUOUS
 10
6.7396003403
 20
4.9651790365
 11
6.7166689297
 21
4.9645956647
  0
LINE
  5
23B
100
AcDbEntity
  8
0
100
AcDbLine
 62
9
  6
CONTINUOUS
 10
6.7166689297
 20
4.9645956647
 11
6.7139700607
 21
4.9645247265
  0
ENDSEC
  0
SECTION
  2
OBJECTS
  0
DICTIONARY
  5
C
100
AcDbDictionary
280
0
281
1
  3
ACAD_GROUP
350
D
  3
ACAD_MLINESTYLE
350
17
  3
ACAD_LAYOUT
350
1A
  3
ACAD_PLOTSETTINGS
350
19
  3
ACAD_PLOTSTYLENAME
350
E
  0
DICTIONARY
  5
D
102
{ACAD_REACTORS
330
C
102
}
100
AcDbDictionary
280
0
281
1
  0
ACDBDICTIONARYWDFLT
  5
E
102
{ACAD_REACTORS
330
C
102
}
100
AcDbDictionary
281
1
  3
Normal
350
F
100
AcDbDictionaryWithDefault
340
F
  0
DICTIONARY
  5
17
102
{ACAD_REACTORS
330
C
102
}
100
AcDbDictionary
280
0
281
1
  3
Standard
350
18
  0
DICTIONARY
  5
19
102
{ACAD_REACTORS
330
C
102
}
100
AcDbDictionary
281
1
  0
DICTIONARY
  5
1A
102
{ACAD_REACTORS
330
C
102
}
100
AcDbDictionary
281
1
  3
Model
350
23C
  3
Layout1
350
23D
  0
ACDBPLACEHOLDER
  5
F
102
{ACAD_REACTORS
330
E
102
}
  0
MLINESTYLE
  5
18
102
{ACAD_REACTORS
330
17
102
}
100
AcDbMlineStyle
  2
STANDARD
 70
0
  3

 62
256
 51
90.0
 52
90.0
 71
2
 49
0.5
 62
256
  6
BYLAYER
 49
-0.5
 62
256
  6
BYLAYER
  0
LAYOUT
  5
23C
102
{ACAD_REACTORS
330
1A
102
}
100
AcDbPlotSettings
  1

  2
none_device
  4
ISO_A4_(297.00_x_210.00_MM)
  6

 40
0.0
 41
0.0
 42
0.0
 43
0.0
 44
297.0
 45
210.0
 46
0.0
 47
0.0
 48
0.0
 49
0.0
140
0.0
141
0.0
142
1.0
143
1.0
 70
1024
 72
0
 73
0
 74
0
  7

 75
0
147
1.0
148
0.0
149
0.0
100
AcDbLayout
  1
Model
 70
0
 71
0
 10
0.0
 20
0.0
 11
11.6929133858
 21
8.2677165354
 12
0.0
 22
0.0
 32
0.0
 14
0.0
 24
0.0
 34
0.0
 15
0.0
 25
0.0
 35
0.0
146
0.0
 13
0.0
 23
0.0
 33
0.0
 16
1.0
 26
0.0
 36
0.0
 17
0.0
 27
1.0
 37
0.0
 76
0
330
203
345
0
346
0
  0
LAYOUT
  5
23D
102
{ACAD_REACTORS
330
1A
102
}
100
AcDbPlotSettings
  1

  2
none_device
  4
ISO_A4_(297.00_x_210.00_MM)
  6

 40
0.0
 41
0.0
 42
0.0
 43
0.0
 44
297.0
 45
210.0
 46
0.0
 47
0.0
 48
0.0
 49
0.0
140
0.0
141
0.0
142
1.0
143
1.0
 70
0
 72
0
 73
0
 74
0
  7

 75
0
147
1.0
148
0.0
149
0.0
100
AcDbLayout
  1
Layout1
 70
0
 71
1
 10
0.0
 20
0.0
 11
11.6929133858
 21
8.2677165354
 12
0.0
 22
0.0
 32
0.0
 14
0.0
 24
0.0
 34
0.0
 15
0.0
 25
0.0
 35
0.0
146
0.0
 13
0.0
 23
0.0
 33
0.0
 16
1.0
 26
0.0
 36
0.0
 17
0.0
 27
1.0
 37
0.0
 76
0
330
204
345
0
346
0
  0
ENDSEC
  0
EOF
