  0
SECTION
  2
HEADER
  9
$ACADVER
  1
AC1015
  9
$DWGCODEPAGE
  3
ANSI_1252
  9
$EXTMAX
 10
16.5354330709
 20
11.6929133858
 30
0.0
  9
$EXTMIN
 10
0.0
 20
0.0
 30
0.0
  9
$LIMMIN
 10
0.0
 20
0.0
  9
$LIMMAX
 10
16.5354330709
 20
11.6929133858
  9
$VIEWCTR
 10
8.2677165354
 20
5.8464566929
  9
$VIEWSIZE
 40
11.6929133858
  9
$CLAYER
  8
0
  9
$LTSCALE
 40
0.9094488189
  9
$CELTYPE
  6
BYLAYER
  9
$DIMSCALE
 40
1.0
  9
$DIMASZ
 40
0.1
  9
$DIMEXO
 40
0.1033464567
  9
$DIMDLI
 40
0.6283464567
  9
$DIMEXE
 40
0.2976377953
  9
$DIMCEN
 40
0.1488188976
  9
$DIMLFAC
 40
1.0
  9
$DIMBLK
  1
_FILLED
  9
$DIMTXT
 40
0.08
  9
$DIMTOL
 70
1
  9
$DIMLIM
 70
0
  9
$DIMTFAC
 40
1.0
  9
$DIMTP
 40
0.01
  9
$DIMTM
 40
0.01
  9
$PDMODE
 70
3
  9
$PDSIZE
 40
0.06
  9
$HANDSEED
  5
422
  9
$TILEMODE
 70
1
  9
$MEASUREMENT
 70
0
  9
$INSUNITS
 70
1
  0
ENDSEC
  0
SECTION
  2
CLASSES
  0
CLASS
  1
ACDBDICTIONARYWDFLT
  2
AcDbDictionaryWithDefault
  3
AutoCAD 2000
 90
0
280
0
281
0
  0
CLASS
  1
ACDBPLACEHOLDER
  2
AcDbPlaceHolder
  3
AutoCAD 2000
 90
0
280
0
281
0
  0
CLASS
  1
LAYOUT
  2
AcDbLayout
  3
AutoCAD 2000
 90
0
280
0
281
0
  0
ENDSEC
  0
SECTION
  2
TABLES
  0
TABLE
  2
VPORT
  5
8
100
AcDbSymbolTable
 70
2
  0
VPORT
  5
1F4
100
AcDbSymbolTableRecord
100
AcDbViewportTableRecord
  2
*ACTIVE
 70
0
 10
0.0
 20
0.0
 11
1.0
 21
1.0
 12
8.2677165354
 22
5.8464566929
 13
0.0
 23
0.0
 14
1.0
 24
1.0
 15
0.0
 25
0.0
 16
0.0
 26
0.0
 36
1.0
 17
0.0
 27
0.0
 37
0.0
 40
11.6929133858
 41
1.4141414141
 42
50.0
 43
0.0
 44
0.0
 50
0.0
 51
0.0
 71
0
 72
100
 73
1
 74
1
 75
0
 76
0
 77
0
 78
0
  0
ENDTAB
  0
TABLE
  2
LTYPE
  5
5
100
AcDbSymbolTable
 70
6
  0
LTYPE
  5
14
100
AcDbSymbolTableRecord
100
AcDbLinetypeTableRecord
  2
BYBLOCK
 70
0
  3

 72
65
 73
0
 40
0.0
  0
LTYPE
  5
15
100
AcDbSymbolTableRecord
100
AcDbLinetypeTableRecord
  2
BYLAYER
 70
0
  3

 72
65
 73
0
 40
0.0
  0
LTYPE
  5
16
100
AcDbSymbolTableRecord
100
AcDbLinetypeTableRecord
  2
CONTINUOUS
 70
64
  3
Solid line
 72
65
 73
0
 40
0.0
  0
LTYPE
  5
1F5
100
AcDbSymbolTableRecord
100
AcDbLinetypeTableRecord
  2
CENTER
 70
64
  3
____ _ ____ _ ____ _ ____ _ ____ _ ____ _ ____
 72
65
 73
4
 40
0.6
 49
0.375
 74
0
 49
-0.075
 74
0
 49
0.075
 74
0
 49
-0.075
 74
0
  0
LTYPE
  5
1F6
100
AcDbSymbolTableRecord
100
AcDbLinetypeTableRecord
  2
HIDDEN
 70
64
  3
- - - - - - - - - - - - - - - - - - - -
 72
65
 73
2
 40
0.2
 49
0.1
 74
0
 49
-0.1
 74
0
  0
LTYPE
  5
1F7
100
AcDbSymbolTableRecord
100
AcDbLinetypeTableRecord
  2
PHANTOM
 70
64
  3
_____ _ _ _____ _ _ _____ _ _ _____
 72
65
 73
6
 40
0.8
 49
0.45
 74
0
 49
-0.05
 74
0
 49
0.1
 74
0
 49
-0.05
 74
0
 49
0.1
 74
0
 49
-0.05
 74
0
  0
LTYPE
  5
1F8
100
AcDbSymbolTableRecord
100
AcDbLinetypeTableRecord
  2
DOT
 70
64
  3
. . . . . . . . . . . . . . . . . . . .
 72
65
 73
2
 40
0.2
 49
0.1
 74
0
 49
-0.1
 74
0
  0
LTYPE
  5
1F9
100
AcDbSymbolTableRecord
100
AcDbLinetypeTableRecord
  2
DASHED
 70
64
  3
- - - - - - - - - - - - - - - - - - - -
 72
65
 73
2
 40
0.2
 49
0.1
 74
0
 49
-0.1
 74
0
  0
ENDTAB
  0
TABLE
  2
LAYER
  5
2
100
AcDbSymbolTable
 70
36
  0
LAYER
  5
10
100
AcDbSymbolTableRecord
100
AcDbLayerTableRecord
  2
0
 70
0
 62
7
  6
CONTINUOUS
370
-3
390
F
  0
LAYER
  5
1FA
100
AcDbSymbolTableRecord
100
AcDbLayerTableRecord
  2
DEFAULT_1
 70
0
 62
7
  6
CENTER
370
-3
390
F
  0
LAYER
  5
1FB
100
AcDbSymbolTableRecord
100
AcDbLayerTableRecord
  2
DEFAULT_2
 70
0
 62
8
  6
HIDDEN
370
-3
390
F
  0
LAYER
  5
1FC
100
AcDbSymbolTableRecord
100
AcDbLayerTableRecord
  2
DEFAULT_3
 70
0
 62
7
  6
PHANTOM
370
-3
390
F
  0
LAYER
  5
1FD
100
AcDbSymbolTableRecord
100
AcDbLayerTableRecord
  2
DEFAULT_COORDINATE_SYSTEM
 70
0
 62
7
  6
CONTINUOUS
370
-3
390
F
  0
LAYER
  5
1FE
100
AcDbSymbolTableRecord
100
AcDbLayerTableRecord
  2
DEFAULT_DATUM_AXES
 70
0
 62
7
  6
CONTINUOUS
370
-3
390
F
  0
LAYER
  5
1FF
100
AcDbSymbolTableRecord
100
AcDbLayerTableRecord
  2
DEFAULT_DATUM_CURVES
 70
0
 62
7
  6
CONTINUOUS
370
-3
390
F
  0
LAYER
  5
200
100
AcDbSymbolTableRecord
100
AcDbLayerTableRecord
  2
DEFAULT_DATUM_PLANES
 70
0
 62
7
  6
CONTINUOUS
370
-3
390
F
  0
ENDTAB
  0
TABLE
  2
STYLE
  5
3
100
AcDbSymbolTable
 70
1
  0
STYLE
  5
11
100
AcDbSymbolTableRecord
100
AcDbTextStyleTableRecord
  2
STANDARD
 70
0
 40
0.0
 41
0.8
 50
0.0
 71
0
 42
0.2
  3
txt
  4

  0
STYLE
  5
201
100
AcDbSymbolTableRecord
100
AcDbTextStyleTableRecord
  2
TEXTSTYLE_1
 70
0
 40
0.0
 41
0.8
 50
0.0
 71
0
 42
0.2
  3
gdt
  4

  0
ENDTAB
  0
TABLE
  2
VIEW
  5
6
100
AcDbSymbolTable
 70
0
  0
ENDTAB
  0
TABLE
  2
UCS
  5
7
100
AcDbSymbolTable
 70
0
  0
ENDTAB
  0
TABLE
  2
APPID
  5
9
100
AcDbSymbolTable
 70
1
  0
APPID
  5
202
100
AcDbSymbolTableRecord
100
AcDbRegAppTableRecord
  2
ACAD
 70
0
  0
ENDTAB
  0
TABLE
  2
BLOCK_RECORD
  5
1
100
AcDbSymbolTable
 70
0
  0
BLOCK_RECORD
  5
203
100
AcDbSymbolTableRecord
100
AcDbBlockTableRecord
  2
*Model_Space
  0
BLOCK_RECORD
  5
204
100
AcDbSymbolTableRecord
100
AcDbBlockTableRecord
  2
*Paper_Space
  0
ENDTAB
  0
TABLE
  2
DIMSTYLE
  5
A
100
AcDbSymbolTable
 70
1
100
AcDbDimStyleTable
 71
0
  0
DIMSTYLE
105
205
100
AcDbSymbolTableRecord
100
AcDbDimStyleTableRecord
  2
STANDARD
 70
0
  3

  4

 40
1.0
 41
0.1
 42
0.0625
 43
0.38
 44
0.18
 45
0.0
 46
0.0
 47
0.01
 48
0.01
140
0.08
141
0.09
142
0.0
143
25.4
144
1.0
145
0.0
146
1.0
147
0.09
 71
1.0
 72
0.0
 73
1
 74
1
 75
0
 76
0
 77
0
 78
4
170
0
171
2
172
0
173
0
174
0
175
0
176
0
177
0
178
0
270
2
271
2
272
2
273
2
274
2
275
0
280
0
281
0
282
0
283
1
284
4
285
0
286
0
287
3
288
0
340
11
  0
ENDTAB
  0
ENDSEC
  0
SECTION
  2
BLOCKS
  0
BLOCK
  5
20
100
AcDbEntity
  8
0
100
AcDbBlockBegin
  2
*Model_Space
 70
0
 10
0.0
 20
0.0
 30
0.0
  3
*Model_Space
  1

  0
ENDBLK
  5
21
100
AcDbEntity
  8
0
100
AcDbBlockEnd
  0
BLOCK
  5
1C
100
AcDbEntity
  8
0
100
AcDbBlockBegin
  2
*Paper_Space
 70
0
 10
0.0
 20
0.0
 30
0.0
  3
*Paper_Space
  1

  0
ENDBLK
  5
1D
100
AcDbEntity
  8
0
100
AcDbBlockEnd
  0
ENDSEC
  0
SECTION
  2
ENTITIES
  0
LINE
  5
206
100
AcDbEntity
  8
0
100
AcDbLine
 62
9
  6
CONTINUOUS
 10
5.9392458989
 20
5.9643973144
 11
5.9392458989
 21
5.4923973144
  0
LINE
  5
207
100
AcDbEntity
  8
0
100
AcDbLine
 62
9
  6
CONTINUOUS
 10
6.6621212359
 20
5.9643973144
 11
6.6621212359
 21
5.4923973144
  0
LINE
  5
208
100
AcDbEntity
  8
0
100
AcDbLine
 62
9
  6
CONTINUOUS
 10
7.2989329451
 20
5.9643973144
 11
7.2989329451
 21
5.4923973144
  0
LINE
  5
209
100
AcDbEntity
  8
0
100
AcDbLine
 62
6
  6
CONTINUOUS
 10
12.8552458989
 20
6.1188973144
 11
12.9651613768
 21
6.1428973144
  0
LINE
  5
20A
100
AcDbEntity
  8
0
100
AcDbLine
 62
9
  6
CONTINUOUS
 10
9.8681985891
 20
5.1638949036
 11
9.8194454336
 21
5.1589271287
  0
LINE
  5
20B
100
AcDbEntity
  8
0
100
AcDbLine
 62
9
  6
CONTINUOUS
 10
10.1753385825
 20
5.3134913199
 11
10.240473801
 21
5.3188743829
  0
LINE
  5
20C
100
AcDbEntity
  8
0
100
AcDbLine
 62
7
  6
CONTINUOUS
 10
9.9669071205
 20
5.1092018727
 11
9.9489109985
 21
5.1090558306
  0
LINE
  5
20D
100
AcDbEntity
  8
0
100
AcDbLine
 62
7
  6
CONTINUOUS
 10
9.9669150277
 20
5.1081867501
 11
9.9489185285
 21
5.1080521542
  0
LINE
  5
20E
100
AcDbEntity
  8
0
100
AcDbLine
 62
9
  6
CONTINUOUS
 10
10.1804286838
 20
5.313067997
 11
10.2418666919
 21
5.3133420876
  0
LINE
  5
20F
100
AcDbEntity
  8
0
100
AcDbLine
 62
6
  6
CONTINUOUS
 10
9.9514817058
 20
5.052191737
 11
10.1120066743
 21
5.052191737
  0
LINE
  5
210
100
AcDbEntity
  8
0
100
AcDbLine
 62
9
  6
CONTINUOUS
 10
9.9724867584
 20
5.087839737
 11
10.0994424179
 21
5.087839737
  0
LINE
  5
211
100
AcDbEntity
  8
0
100
AcDbLine
 62
6
  6
CONTINUOUS
 10
10.6924102422
 20
5.1033973144
 11
11.1860780602
 21
5.1033973144
  0
LINE
  5
212
100
AcDbEntity
  8
0
100
AcDbLine
 62
7
  6
CONTINUOUS
 10
10.1597906306
 20
5.1487592742
 11
10.1647565521
 21
5.1487592742
  0
LINE
  5
213
100
AcDbEntity
  8
0
100
AcDbLine
 62
9
  6
CONTINUOUS
 10
10.196768524
 20
5.1987561241
 11
10.2147592944
 21
5.1987561241
  0
LINE
  5
214
100
AcDbEntity
  8
0
100
AcDbLine
 62
9
  6
CONTINUOUS
 10
9.8716782242
 20
5.1996054942
 11
9.8536880414
 21
5.1996059124
  0
LINE
  5
215
100
AcDbEntity
  8
0
100
AcDbLine
 62
9
  6
CONTINUOUS
 10
10.2569476644
 20
5.2465848144
 11
10.2477361801
 21
5.2465848144
  0
LINE
  5
216
100
AcDbEntity
  8
0
100
AcDbLine
 62
7
  6
CONTINUOUS
 10
9.8716798463
 20
5.2693892639
 11
9.8536890561
 21
5.2693896821
  0
LINE
  5
217
100
AcDbEntity
  8
0
100
AcDbLine
 62
9
  6
CONTINUOUS
 10
10.196768524
 20
5.2729510284
 11
10.2147592383
 21
5.2729510284
  0
LINE
  5
218
100
AcDbEntity
  8
0
100
AcDbLine
 62
9
  6
CONTINUOUS
 10
10.1319479866
 20
5.3139548918
 11
9.8941576452
 21
5.3139548918
  0
LINE
  5
219
100
AcDbEntity
  8
0
100
AcDbLine
 62
7
  6
CONTINUOUS
 10
10.1995994176
 20
5.3463777839
 11
9.8889760486
 21
5.3463777839
  0
LINE
  5
21A
100
AcDbEntity
  8
0
100
AcDbLine
 62
7
  6
CONTINUOUS
 10
10.1015390443
 20
5.1089117137
 11
10.1195365005
 21
5.1088534282
  0
LINE
  5
21B
100
AcDbEntity
  8
0
100
AcDbLine
 62
7
  6
CONTINUOUS
 10
9.8716874966
 20
5.2739887157
 11
9.8536967465
 21
5.2740480128
  0
LINE
  5
21C
100
AcDbEntity
  8
0
100
AcDbLine
 62
6
  6
CONTINUOUS
 10
9.8185361284
 20
5.1811932928
 11
9.8185271695
 21
5.1811934287
  0
LINE
  5
21D
100
AcDbEntity
  8
0
100
AcDbLine
 62
7
  6
CONTINUOUS
 10
10.1015153112
 20
5.1075788012
 11
10.1190915149
 21
5.1053568462
  0
LINE
  5
21E
100
AcDbEntity
  8
0
100
AcDbLine
 62
9
  6
CONTINUOUS
 10
7.9621213276
 20
5.9643973144
 11
7.9621213276
 21
5.4923973144
  0
LINE
  5
21F
100
AcDbEntity
  8
0
100
AcDbLine
 62
9
  6
CONTINUOUS
 10
9.8536874329
 20
6.2571887165
 11
9.8238388017
 21
6.2460851315
  0
LINE
  5
220
100
AcDbEntity
  8
0
100
AcDbLine
 62
6
  6
CONTINUOUS
 10
11.9672458989
 20
5.3983973144
 11
11.7472458989
 21
5.3983973144
  0
LINE
  5
221
100
AcDbEntity
  8
0
100
AcDbLine
 62
6
  6
CONTINUOUS
 10
14.0722458989
 20
5.4158973144
 11
14.0422458989
 21
5.4158973144
  0
LINE
  5
222
100
AcDbEntity
  8
0
100
AcDbLine
 62
6
  6
CONTINUOUS
 10
11.7072458989
 20
5.4158973144
 11
11.6022458989
 21
5.4158973144
  0
LINE
  5
223
100
AcDbEntity
  8
0
100
AcDbLine
 62
6
  6
CONTINUOUS
 10
1.9674928439
 20
5.4923973144
 11
11.4338743827
 21
5.4923973144
  0
LINE
  5
224
100
AcDbEntity
  8
0
100
AcDbLine
 62
6
  6
CONTINUOUS
 10
10.815476961
 20
5.5908973144
 11
11.0630148369
 21
5.5908973144
  0
LINE
  5
225
100
AcDbEntity
  8
0
100
AcDbLine
 62
9
  6
CONTINUOUS
 10
9.8536874329
 20
5.1996059124
 11
9.8238388017
 21
5.2107094973
  0
LINE
  5
226
100
AcDbEntity
  8
0
100
AcDbLine
 62
6
  6
CONTINUOUS
 10
10.6848178474
 20
6.3503469993
 11
10.6821269703
 21
6.3491317449
  0
LINE
  5
227
100
AcDbEntity
  8
0
100
AcDbLine
 62
7
  6
CONTINUOUS
 10
10.1015153112
 20
6.3492158276
 11
10.1190909948
 21
6.3514376739
  0
LINE
  5
228
100
AcDbEntity
  8
0
100
AcDbLine
 62
6
  6
CONTINUOUS
 10
9.8185361284
 20
6.275601336
 11
9.8185271696
 21
6.27560089
  0
LINE
  5
229
100
AcDbEntity
  8
0
100
AcDbLine
 62
7
  6
CONTINUOUS
 10
9.8716874966
 20
6.1828059132
 11
9.8536967431
 21
6.1827466161
  0
LINE
  5
22A
100
AcDbEntity
  8
0
100
AcDbLine
 62
6
  6
CONTINUOUS
 10
10.815476961
 20
5.8658973144
 11
11.0630148369
 21
5.8658973144
  0
LINE
  5
22B
100
AcDbEntity
  8
0
100
AcDbLine
 62
6
  6
CONTINUOUS
 10
1.9674928439
 20
5.9643973144
 11
11.4338743827
 21
5.9643973144
  0
LINE
  5
22C
100
AcDbEntity
  8
0
100
AcDbLine
 62
6
  6
CONTINUOUS
 10
14.0722458989
 20
6.0408973144
 11
14.0422458989
 21
6.0408973144
  0
LINE
  5
22D
100
AcDbEntity
  8
0
100
AcDbLine
 62
6
  6
CONTINUOUS
 10
11.7072458989
 20
6.0408973144
 11
11.6022458989
 21
6.0408973144
  0
LINE
  5
22E
100
AcDbEntity
  8
0
100
AcDbLine
 62
6
  6
CONTINUOUS
 10
11.9672458989
 20
6.0583973144
 11
11.7472458989
 21
6.0583973144
  0
LINE
  5
22F
100
AcDbEntity
  8
0
100
AcDbLine
 62
7
  6
CONTINUOUS
 10
10.2450206522
 20
6.097362381
 11
10.2282048886
 21
6.097362381
  0
LINE
  5
230
100
AcDbEntity
  8
0
100
AcDbLine
 62
7
  6
CONTINUOUS
 10
9.8889760486
 20
6.1104168449
 11
10.1995994176
 21
6.1104168449
  0
LINE
  5
231
100
AcDbEntity
  8
0
100
AcDbLine
 62
9
  6
CONTINUOUS
 10
9.8941576448
 20
6.142839737
 11
10.1319479866
 21
6.142839737
  0
LINE
  5
232
100
AcDbEntity
  8
0
100
AcDbLine
 62
9
  6
CONTINUOUS
 10
10.196768524
 20
6.1838436004
 11
10.2147592944
 21
6.1838436004
  0
LINE
  5
233
100
AcDbEntity
  8
0
100
AcDbLine
 62
7
  6
CONTINUOUS
 10
9.8716798463
 20
6.187405365
 11
9.8536890561
 21
6.1874049468
  0
LINE
  5
234
100
AcDbEntity
  8
0
100
AcDbLine
 62
9
  6
CONTINUOUS
 10
10.2569476644
 20
6.2102098145
 11
10.2477361803
 21
6.2102098145
  0
LINE
  5
235
100
AcDbEntity
  8
0
100
AcDbLine
 62
9
  6
CONTINUOUS
 10
10.1804286838
 20
6.1437266319
 11
10.2418666919
 21
6.1434525412
  0
LINE
  5
236
100
AcDbEntity
  8
0
100
AcDbLine
 62
9
  6
CONTINUOUS
 10
9.853696623
 20
6.1827466157
 11
9.8242557613
 21
6.1479744519
  0
LINE
  5
237
100
AcDbEntity
  8
0
100
AcDbLine
 62
6
  6
CONTINUOUS
 10
9.8242557613
 20
6.1479744519
 11
9.8217144774
 21
6.1449729792
  0
LINE
  5
238
100
AcDbEntity
  8
0
100
AcDbLine
 62
9
  6
CONTINUOUS
 10
9.8536890561
 20
6.1874049468
 11
9.8238391962
 21
6.1541007756
  0
LINE
  5
239
100
AcDbEntity
  8
0
100
AcDbLine
 62
9
  6
CONTINUOUS
 10
10.2147592944
 20
6.1838436004
 11
10.2477361803
 21
6.2102098145
  0
LINE
  5
23A
100
AcDbEntity
  8
0
100
AcDbLine
 62
7
  6
CONTINUOUS
 10
10.1015390443
 20
6.3478829151
 11
10.1195365005
 21
6.3479412006
  0
LINE
  5
23B
100
AcDbEntity
  8
0
100
AcDbLine
 62
9
  6
CONTINUOUS
 10
9.8716782242
 20
6.2571891347
 11
9.8536874329
 21
6.2571887165
  0
LINE
  5
23C
100
AcDbEntity
  8
0
100
AcDbLine
 62
9
  6
CONTINUOUS
 10
10.196768524
 20
6.2580385048
 11
10.2147593993
 21
6.2580385048
  0
LINE
  5
23D
100
AcDbEntity
  8
0
100
AcDbLine
 62
7
  6
CONTINUOUS
 10
10.1647565521
 20
6.3080353546
 11
10.1597906306
 21
6.3080353546
  0
LINE
  5
23E
100
AcDbEntity
  8
0
100
AcDbLine
 62
6
  6
CONTINUOUS
 10
11.1779616899
 20
6.3533973144
 11
10.7005301066
 21
6.3533973144
  0
LINE
  5
23F
100
AcDbEntity
  8
0
100
AcDbLine
 62
9
  6
CONTINUOUS
 10
10.0994424189
 20
6.3689548918
 11
9.9724867584
 21
6.3689548918
  0
LINE
  5
240
100
AcDbEntity
  8
0
100
AcDbLine
 62
6
  6
CONTINUOUS
 10
10.1120066743
 20
6.4046028918
 11
9.9514817049
 21
6.4046028918
  0
LINE
  5
241
100
AcDbEntity
  8
0
100
AcDbLine
 62
7
  6
CONTINUOUS
 10
9.9669150277
 20
6.3486078787
 11
9.9489185256
 21
6.3487424747
  0
LINE
  5
242
100
AcDbEntity
  8
0
100
AcDbLine
 62
7
  6
CONTINUOUS
 10
9.9669071205
 20
6.3475927561
 11
9.9489109988
 21
6.3477387982
  0
LINE
  5
243
100
AcDbEntity
  8
0
100
AcDbLine
 62
9
  6
CONTINUOUS
 10
10.1753385825
 20
6.1433033089
 11
10.240473801
 21
6.1379202459
  0
LINE
  5
244
100
AcDbEntity
  8
0
100
AcDbLine
 62
9
  6
CONTINUOUS
 10
9.8681985891
 20
6.2928997253
 11
9.8194454336
 21
6.2978675001
  0
LINE
  5
245
100
AcDbEntity
  8
0
100
AcDbLine
 62
6
  6
CONTINUOUS
 10
12.8552458989
 20
5.3378973144
 11
12.9651613768
 21
5.3138973144
  0
LINE
  5
246
100
AcDbEntity
  8
0
100
AcDbLine
 62
9
  6
CONTINUOUS
 10
10.2147592944
 20
5.2729510284
 11
10.2477361803
 21
5.2465848144
  0
LINE
  5
247
100
AcDbEntity
  8
0
100
AcDbLine
 62
9
  6
CONTINUOUS
 10
9.8536890561
 20
5.2693896821
 11
9.8238391962
 21
5.3026938533
  0
LINE
  5
248
100
AcDbEntity
  8
0
100
AcDbLine
 62
9
  6
CONTINUOUS
 10
9.853696623
 20
5.2740480132
 11
9.8242557613
 21
5.308820177
  0
LINE
  5
249
100
AcDbEntity
  8
0
100
AcDbLine
 62
6
  6
CONTINUOUS
 10
9.8217144774
 20
5.3118216496
 11
9.8242557613
 21
5.308820177
  0
LINE
  5
24A
100
AcDbEntity
  8
0
100
AcDbLine
 62
9
  6
CONTINUOUS
 10
10.1195364958
 20
6.3479412006
 11
10.1378216896
 21
6.3821640872
  0
LINE
  5
24B
100
AcDbEntity
  8
0
100
AcDbLine
 62
9
  6
CONTINUOUS
 10
9.8816140014
 20
6.1645499972
 11
9.8717931661
 21
6.1494834311
  0
LINE
  5
24C
100
AcDbEntity
  8
0
100
AcDbLine
 62
9
  6
CONTINUOUS
 10
10.1435208856
 20
6.3114209075
 11
10.1757326963
 21
6.3494917489
  0
LINE
  5
24D
100
AcDbEntity
  8
0
100
AcDbLine
 62
9
  6
CONTINUOUS
 10
10.1597906306
 20
6.3080353546
 11
10.1951426323
 21
6.3494428875
  0
LINE
  5
24E
100
AcDbEntity
  8
0
100
AcDbLine
 62
9
  6
CONTINUOUS
 10
10.1647565521
 20
6.3080353546
 11
10.2008962621
 21
6.3495495402
  0
LINE
  5
24F
100
AcDbEntity
  8
0
100
AcDbLine
 62
9
  6
CONTINUOUS
 10
10.2485592519
 20
6.2968649842
 11
10.251369449
 21
6.3000930966
  0
LINE
  5
250
100
AcDbEntity
  8
0
100
AcDbLine
 62
9
  6
CONTINUOUS
 10
10.2147592944
 20
6.2580385048
 11
10.2473848135
 21
6.2955158906
  0
LINE
  5
251
100
AcDbEntity
  8
0
100
AcDbLine
 62
9
  6
CONTINUOUS
 10
9.9033700827
 20
5.1488992653
 11
9.8476260775
 21
5.1171667678
  0
LINE
  5
252
100
AcDbEntity
  8
0
100
AcDbLine
 62
6
  6
CONTINUOUS
 10
11.6022458989
 20
6.0408973144
 11
11.5457134884
 21
6.0109683912
  0
LINE
  5
253
100
AcDbEntity
  8
0
100
AcDbLine
 62
9
  6
CONTINUOUS
 10
10.1319479866
 20
5.3139548918
 11
10.1995994176
 21
5.3463777839
  0
LINE
  5
254
100
AcDbEntity
  8
0
100
AcDbLine
 62
9
  6
CONTINUOUS
 10
10.1319479866
 20
6.142839737
 11
10.1995994176
 21
6.1104168449
  0
LINE
  5
255
100
AcDbEntity
  8
0
100
AcDbLine
 62
6
  6
CONTINUOUS
 10
11.6022458989
 20
5.4158973144
 11
11.547043731
 21
5.4451219915
  0
LINE
  5
256
100
AcDbEntity
  8
0
100
AcDbLine
 62
9
  6
CONTINUOUS
 10
9.9033700827
 20
6.3078953635
 11
9.8476260775
 21
6.339627861
  0
LINE
  5
257
100
AcDbEntity
  8
0
100
AcDbLine
 62
9
  6
CONTINUOUS
 10
10.1647565521
 20
5.1487592742
 11
10.2008962621
 21
5.1072450887
  0
LINE
  5
258
100
AcDbEntity
  8
0
100
AcDbLine
 62
9
  6
CONTINUOUS
 10
10.2147592944
 20
5.1987561241
 11
10.247384816
 21
5.1612787354
  0
LINE
  5
259
100
AcDbEntity
  8
0
100
AcDbLine
 62
9
  6
CONTINUOUS
 10
10.2485592519
 20
5.1599296447
 11
10.251369449
 21
5.1567015323
  0
LINE
  5
25A
100
AcDbEntity
  8
0
100
AcDbLine
 62
9
  6
CONTINUOUS
 10
10.1597906306
 20
5.1487592742
 11
10.1951426323
 21
5.1073517413
  0
LINE
  5
25B
100
AcDbEntity
  8
0
100
AcDbLine
 62
9
  6
CONTINUOUS
 10
10.1435208856
 20
5.1453737213
 11
10.1757326963
 21
5.1073028799
  0
LINE
  5
25C
100
AcDbEntity
  8
0
100
AcDbLine
 62
9
  6
CONTINUOUS
 10
9.8816140014
 20
5.2922446316
 11
9.8717923218
 21
5.307312493
  0
LINE
  5
25D
100
AcDbEntity
  8
0
100
AcDbLine
 62
9
  6
CONTINUOUS
 10
10.1195364958
 20
5.1088534282
 11
10.1378216896
 21
5.0746305416
  0
LINE
  5
25E
100
AcDbEntity
  8
0
100
AcDbLine
 62
9
  6
CONTINUOUS
 10
9.8559008904
 20
5.3651327258
 11
9.8573664994
 21
5.3452012011
  0
LINE
  5
25F
100
AcDbEntity
  8
0
100
AcDbLine
 62
7
  6
CONTINUOUS
 10
9.9035288525
 20
6.2899035939
 11
9.9033700826
 21
6.3078953707
  0
LINE
  5
260
100
AcDbEntity
  8
0
100
AcDbLine
 62
7
  6
CONTINUOUS
 10
9.9085055402
 20
6.289941133
 11
9.9083929277
 21
6.3079324808
  0
LINE
  5
261
100
AcDbEntity
  8
0
100
AcDbLine
 62
7
  6
CONTINUOUS
 10
9.9689808221
 20
6.3509562789
 11
9.968900676
 21
6.3689473436
  0
LINE
  5
262
100
AcDbEntity
  8
0
100
AcDbLine
 62
9
  6
CONTINUOUS
 10
9.8185361284
 20
6.275600821
 11
9.8185361284
 21
5.9643973144
  0
LINE
  5
263
100
AcDbEntity
  8
0
100
AcDbLine
 62
9
  6
CONTINUOUS
 10
9.8185361284
 20
5.4923973144
 11
9.8185361284
 21
5.1811934791
  0
LINE
  5
264
100
AcDbEntity
  8
0
100
AcDbLine
 62
6
  6
CONTINUOUS
 10
9.8211063163
 20
6.1064280272
 11
9.8211063163
 21
5.9643973144
  0
LINE
  5
265
100
AcDbEntity
  8
0
100
AcDbLine
 62
6
  6
CONTINUOUS
 10
9.8211063163
 20
5.4923973144
 11
9.8211063163
 21
5.3503660582
  0
LINE
  5
266
100
AcDbEntity
  8
0
100
AcDbLine
 62
7
  6
CONTINUOUS
 10
9.8238388017
 20
6.2460851315
 11
9.8238391962
 21
6.1541007756
  0
LINE
  5
267
100
AcDbEntity
  8
0
100
AcDbLine
 62
7
  6
CONTINUOUS
 10
9.8238391962
 20
5.3026938533
 11
9.8238388017
 21
5.2107094973
  0
LINE
  5
268
100
AcDbEntity
  8
0
100
AcDbLine
 62
9
  6
CONTINUOUS
 10
9.8536874329
 20
6.2571887165
 11
9.8536890561
 21
6.1874049468
  0
LINE
  5
269
100
AcDbEntity
  8
0
100
AcDbLine
 62
9
  6
CONTINUOUS
 10
9.8536890561
 20
5.2693896821
 11
9.8536874329
 21
5.1996059125
  0
LINE
  5
26A
100
AcDbEntity
  8
0
100
AcDbLine
 62
7
  6
CONTINUOUS
 10
9.8889760486
 20
5.3663675518
 11
9.8889760486
 21
5.3463777846
  0
LINE
  5
26B
100
AcDbEntity
  8
0
100
AcDbLine
 62
7
  6
CONTINUOUS
 10
9.8889760486
 20
6.090427077
 11
9.8889760486
 21
6.1104168441
  0
LINE
  5
26C
100
AcDbEntity
  8
0
100
AcDbLine
 62
9
  6
CONTINUOUS
 10
9.8941576448
 20
6.1608305281
 11
9.8941576448
 21
6.142839737
  0
LINE
  5
26D
100
AcDbEntity
  8
0
100
AcDbLine
 62
9
  6
CONTINUOUS
 10
9.8941576448
 20
5.2959641008
 11
9.8941576452
 21
5.3139534132
  0
LINE
  5
26E
100
AcDbEntity
  8
0
100
AcDbLine
 62
7
  6
CONTINUOUS
 10
9.9724867584
 20
5.1058305281
 11
9.9724867584
 21
5.087839737
  0
LINE
  5
26F
100
AcDbEntity
  8
0
100
AcDbLine
 62
7
  6
CONTINUOUS
 10
9.9724867584
 20
6.3509641008
 11
9.9724867584
 21
6.3689548918
  0
LINE
  5
270
100
AcDbEntity
  8
0
100
AcDbLine
 62
7
  6
CONTINUOUS
 10
9.9689808221
 20
5.1058383499
 11
9.968900676
 21
5.087847281
  0
LINE
  5
271
100
AcDbEntity
  8
0
100
AcDbLine
 62
7
  6
CONTINUOUS
 10
9.9085055402
 20
5.1668534958
 11
9.9083929278
 21
5.1488621486
  0
LINE
  5
272
100
AcDbEntity
  8
0
100
AcDbLine
 62
7
  6
CONTINUOUS
 10
9.9035288525
 20
5.1668910349
 11
9.9033700825
 21
5.1488992527
  0
LINE
  5
273
100
AcDbEntity
  8
0
100
AcDbLine
 62
9
  6
CONTINUOUS
 10
9.8559008905
 20
6.091661903
 11
9.8573664987
 21
6.1115934165
  0
LINE
  5
274
100
AcDbEntity
  8
0
100
AcDbLine
 62
9
  6
CONTINUOUS
 10
9.8941576448
 20
6.142839737
 11
9.8889760486
 21
6.1104168449
  0
LINE
  5
275
100
AcDbEntity
  8
0
100
AcDbLine
 62
7
  6
CONTINUOUS
 10
10.100001406
 20
6.3508988094
 11
10.1041554077
 21
6.3684021052
  0
LINE
  5
276
100
AcDbEntity
  8
0
100
AcDbLine
 62
9
  6
CONTINUOUS
 10
9.9251845892
 20
5.1643765499
 11
9.9200648376
 21
5.1471362958
  0
LINE
  5
277
100
AcDbEntity
  8
0
100
AcDbLine
 62
9
  6
CONTINUOUS
 10
10.0994424189
 20
6.3689548918
 11
10.1120066743
 21
6.4046028918
  0
LINE
  5
278
100
AcDbEntity
  8
0
100
AcDbLine
 62
9
  6
CONTINUOUS
 10
10.104155382
 20
6.3684019972
 11
10.1177940717
 21
6.4045494482
  0
LINE
  5
279
100
AcDbEntity
  8
0
100
AcDbLine
 62
9
  6
CONTINUOUS
 10
9.871792325
 20
6.1494821407
 11
9.8573664987
 21
6.1115934165
  0
LINE
  5
27A
100
AcDbEntity
  8
0
100
AcDbLine
 62
9
  6
CONTINUOUS
 10
10.136336477
 20
6.2949347341
 11
10.1435208715
 21
6.3114208754
  0
LINE
  5
27B
100
AcDbEntity
  8
0
100
AcDbLine
 62
9
  6
CONTINUOUS
 10
10.1193696236
 20
6.3514731752
 11
10.1372743961
 21
6.3863583027
  0
LINE
  5
27C
100
AcDbEntity
  8
0
100
AcDbLine
 62
9
  6
CONTINUOUS
 10
10.1195335316
 20
6.3489441296
 11
10.1376290228
 21
6.3833452602
  0
LINE
  5
27D
100
AcDbEntity
  8
0
100
AcDbLine
 62
9
  6
CONTINUOUS
 10
9.9522686089
 20
5.0969129728
 11
9.9314566721
 21
5.0711355521
  0
LINE
  5
27E
100
AcDbEntity
  8
0
100
AcDbLine
 62
9
  6
CONTINUOUS
 10
9.9477090679
 20
5.1517820833
 11
9.9356964854
 21
5.1383984611
  0
LINE
  5
27F
100
AcDbEntity
  8
0
100
AcDbLine
 62
9
  6
CONTINUOUS
 10
9.9489186676
 20
5.1080521552
 11
9.9282833334
 21
5.0862862779
  0
LINE
  5
280
100
AcDbEntity
  8
0
100
AcDbLine
 62
9
  6
CONTINUOUS
 10
9.9489110038
 20
5.1090558307
 11
9.9277827102
 21
5.0875118625
  0
LINE
  5
281
100
AcDbEntity
  8
0
100
AcDbLine
 62
9
  6
CONTINUOUS
 10
9.8810701112
 20
5.1764623299
 11
9.8681985761
 21
5.1638948908
  0
LINE
  5
282
100
AcDbEntity
  8
0
100
AcDbLine
 62
9
  6
CONTINUOUS
 10
9.9200651273
 20
5.1471372713
 11
9.8696152111
 21
5.1121237529
  0
LINE
  5
283
100
AcDbEntity
  8
0
100
AcDbLine
 62
9
  6
CONTINUOUS
 10
9.9673520013
 20
5.1067227886
 11
9.9522685064
 21
5.0969129061
  0
LINE
  5
284
100
AcDbEntity
  8
0
100
AcDbLine
 62
9
  6
CONTINUOUS
 10
9.9356970286
 20
5.1383990663
 11
9.8937098647
 21
5.1112804907
  0
LINE
  5
285
100
AcDbEntity
  8
0
100
AcDbLine
 62
9
  6
CONTINUOUS
 10
9.9083929298
 20
5.1488624732
 11
9.8539288411
 21
5.1147116003
  0
LINE
  5
286
100
AcDbEntity
  8
0
100
AcDbLine
 62
9
  6
CONTINUOUS
 10
9.9083929298
 20
6.3079321557
 11
9.8539288411
 21
6.3420830285
  0
LINE
  5
287
100
AcDbEntity
  8
0
100
AcDbLine
 62
9
  6
CONTINUOUS
 10
9.9356970286
 20
6.3183955625
 11
9.8937098647
 21
6.3455141381
  0
LINE
  5
288
100
AcDbEntity
  8
0
100
AcDbLine
 62
9
  6
CONTINUOUS
 10
9.9673520013
 20
6.3500718403
 11
9.9522686068
 21
6.3598816574
  0
LINE
  5
289
100
AcDbEntity
  8
0
100
AcDbLine
 62
9
  6
CONTINUOUS
 10
9.9200651273
 20
6.3096573575
 11
9.8696152111
 21
6.3446708759
  0
LINE
  5
28A
100
AcDbEntity
  8
0
100
AcDbLine
 62
9
  6
CONTINUOUS
 10
9.8810701112
 20
6.280332299
 11
9.8681994059
 21
6.2928989278
  0
LINE
  5
28B
100
AcDbEntity
  8
0
100
AcDbLine
 62
9
  6
CONTINUOUS
 10
9.9489110038
 20
6.3477387982
 11
9.9277827102
 21
6.3692827663
  0
LINE
  5
28C
100
AcDbEntity
  8
0
100
AcDbLine
 62
9
  6
CONTINUOUS
 10
9.9489186676
 20
6.3487424736
 11
9.9282833334
 21
6.3705083509
  0
LINE
  5
28D
100
AcDbEntity
  8
0
100
AcDbLine
 62
9
  6
CONTINUOUS
 10
9.9477090678
 20
6.3050125456
 11
9.9356965247
 21
6.3183961236
  0
LINE
  5
28E
100
AcDbEntity
  8
0
100
AcDbLine
 62
9
  6
CONTINUOUS
 10
9.9522686089
 20
6.359881656
 11
9.9314566721
 21
6.3856590767
  0
LINE
  5
28F
100
AcDbEntity
  8
0
100
AcDbLine
 62
9
  6
CONTINUOUS
 10
10.1195335316
 20
5.1078504992
 11
10.1376290228
 21
5.0734493687
  0
LINE
  5
290
100
AcDbEntity
  8
0
100
AcDbLine
 62
9
  6
CONTINUOUS
 10
10.1193696236
 20
5.1053214536
 11
10.1372743961
 21
5.0704363262
  0
LINE
  5
291
100
AcDbEntity
  8
0
100
AcDbLine
 62
9
  6
CONTINUOUS
 10
10.1363364771
 20
5.1618598948
 11
10.1435212963
 21
5.1453727787
  0
LINE
  5
292
100
AcDbEntity
  8
0
100
AcDbLine
 62
9
  6
CONTINUOUS
 10
9.871792325
 20
5.3073124881
 11
9.8573664987
 21
5.3452012123
  0
LINE
  5
293
100
AcDbEntity
  8
0
100
AcDbLine
 62
9
  6
CONTINUOUS
 10
10.104155382
 20
5.0883926316
 11
10.1177940717
 21
5.0522451806
  0
LINE
  5
294
100
AcDbEntity
  8
0
100
AcDbLine
 62
9
  6
CONTINUOUS
 10
10.0994424189
 20
5.087839737
 11
10.1120066743
 21
5.052191737
  0
LINE
  5
295
100
AcDbEntity
  8
0
100
AcDbLine
 62
9
  6
CONTINUOUS
 10
9.9251845892
 20
6.2924180789
 11
9.9200650993
 21
6.3096574519
  0
LINE
  5
296
100
AcDbEntity
  8
0
100
AcDbLine
 62
7
  6
CONTINUOUS
 10
10.100001406
 20
5.1058958194
 11
10.1041554071
 21
5.088392526
  0
LINE
  5
297
100
AcDbEntity
  8
0
100
AcDbLine
 62
9
  6
CONTINUOUS
 10
9.8941576448
 20
5.3139548918
 11
9.8889760486
 21
5.3463777839
  0
LINE
  5
298
100
AcDbEntity
  8
0
100
AcDbLine
 62
7
  6
CONTINUOUS
 10
10.1750083649
 20
6.1612999084
 11
10.1753325288
 21
6.1436330813
  0
LINE
  5
299
100
AcDbEntity
  8
0
100
AcDbLine
 62
7
  6
CONTINUOUS
 10
10.0994424189
 20
6.3509641008
 11
10.0994424189
 21
6.3689548918
  0
LINE
  5
29A
100
AcDbEntity
  8
0
100
AcDbLine
 62
9
  6
CONTINUOUS
 10
10.1319479866
 20
6.1608305281
 11
10.1319479866
 21
6.1428396086
  0
LINE
  5
29B
100
AcDbEntity
  8
0
100
AcDbLine
 62
9
  6
CONTINUOUS
 10
10.1319479866
 20
5.2959641008
 11
10.1319479866
 21
5.3139548918
  0
LINE
  5
29C
100
AcDbEntity
  8
0
100
AcDbLine
 62
9
  6
CONTINUOUS
 10
10.1449553447
 20
5.3463777839
 11
10.1449553447
 21
5.3663675518
  0
LINE
  5
29D
100
AcDbEntity
  8
0
100
AcDbLine
 62
9
  6
CONTINUOUS
 10
10.1449553447
 20
6.090427077
 11
10.1449553447
 21
6.1104168449
  0
LINE
  5
29E
100
AcDbEntity
  8
0
100
AcDbLine
 62
7
  6
CONTINUOUS
 10
10.1597906306
 20
5.1667470984
 11
10.1597906305
 21
5.1487586884
  0
LINE
  5
29F
100
AcDbEntity
  8
0
100
AcDbLine
 62
7
  6
CONTINUOUS
 10
10.1597906306
 20
6.2900475304
 11
10.1597906305
 21
6.3080359397
  0
LINE
  5
2A0
100
AcDbEntity
  8
0
100
AcDbLine
 62
7
  6
CONTINUOUS
 10
10.1647565521
 20
6.2900475304
 11
10.1647565521
 21
6.3080353599
  0
LINE
  5
2A1
100
AcDbEntity
  8
0
100
AcDbLine
 62
7
  6
CONTINUOUS
 10
10.1647565521
 20
5.1667470985
 11
10.1647565519
 21
5.1487574837
  0
LINE
  5
2A2
100
AcDbEntity
  8
0
100
AcDbLine
 62
6
  6
CONTINUOUS
 10
10.1972314775
 20
5.3463777839
 11
10.1972314775
 21
5.3663675518
  0
LINE
  5
2A3
100
AcDbEntity
  8
0
100
AcDbLine
 62
6
  6
CONTINUOUS
 10
10.1972314775
 20
6.090427077
 11
10.1972314775
 21
6.1104168449
  0
LINE
  5
2A4
100
AcDbEntity
  8
0
100
AcDbLine
 62
7
  6
CONTINUOUS
 10
10.1995994177
 20
5.3663675518
 11
10.1995994176
 21
5.3463777336
  0
LINE
  5
2A5
100
AcDbEntity
  8
0
100
AcDbLine
 62
7
  6
CONTINUOUS
 10
10.1995994176
 20
6.090427077
 11
10.1995994176
 21
6.1104168952
  0
LINE
  5
2A6
100
AcDbEntity
  8
0
100
AcDbLine
 62
9
  6
CONTINUOUS
 10
10.2147592944
 20
5.1987561241
 11
10.2147592944
 21
5.2729510284
  0
LINE
  5
2A7
100
AcDbEntity
  8
0
100
AcDbLine
 62
9
  6
CONTINUOUS
 10
10.2147592944
 20
6.1838436004
 11
10.2147592944
 21
6.2580385048
  0
LINE
  5
2A8
100
AcDbEntity
  8
0
100
AcDbLine
 62
9
  6
CONTINUOUS
 10
10.2282048886
 20
6.0972503318
 11
10.2282048886
 21
5.9643973144
  0
LINE
  5
2A9
100
AcDbEntity
  8
0
100
AcDbLine
 62
9
  6
CONTINUOUS
 10
10.2282048886
 20
5.4923973144
 11
10.2282048886
 21
5.3596500504
  0
LINE
  5
2AA
100
AcDbEntity
  8
0
100
AcDbLine
 62
9
  6
CONTINUOUS
 10
10.2450206522
 20
6.097362381
 11
10.2450206522
 21
5.9643973144
  0
LINE
  5
2AB
100
AcDbEntity
  8
0
100
AcDbLine
 62
9
  6
CONTINUOUS
 10
10.2450206522
 20
5.4923973144
 11
10.2450206522
 21
5.3594322561
  0
LINE
  5
2AC
100
AcDbEntity
  8
0
100
AcDbLine
 62
9
  6
CONTINUOUS
 10
10.2477361803
 20
5.1621369695
 11
10.2477361803
 21
5.2465848144
  0
LINE
  5
2AD
100
AcDbEntity
  8
0
100
AcDbLine
 62
9
  6
CONTINUOUS
 10
10.2477361803
 20
6.2102098145
 11
10.2477361803
 21
6.2946568742
  0
LINE
  5
2AE
100
AcDbEntity
  8
0
100
AcDbLine
 62
6
  6
CONTINUOUS
 10
10.251369449
 20
5.1567015324
 11
10.251369449
 21
5.1659533378
  0
LINE
  5
2AF
100
AcDbEntity
  8
0
100
AcDbLine
 62
6
  6
CONTINUOUS
 10
10.251369449
 20
6.290841291
 11
10.251369449
 21
6.3000930966
  0
LINE
  5
2B0
100
AcDbEntity
  8
0
100
AcDbLine
 62
9
  6
CONTINUOUS
 10
10.2569476644
 20
5.1974305437
 11
10.2569476644
 21
5.2465848144
  0
LINE
  5
2B1
100
AcDbEntity
  8
0
100
AcDbLine
 62
9
  6
CONTINUOUS
 10
10.2569476644
 20
6.2102098145
 11
10.2569476644
 21
6.2593640852
  0
LINE
  5
2B2
100
AcDbEntity
  8
0
100
AcDbLine
 62
7
  6
CONTINUOUS
 10
10.0994424189
 20
5.1058305281
 11
10.0994424179
 21
5.087839737
  0
LINE
  5
2B3
100
AcDbEntity
  8
0
100
AcDbLine
 62
7
  6
CONTINUOUS
 10
10.1750083649
 20
5.2954947204
 11
10.1753325326
 21
5.3131614651
  0
LINE
  5
2B4
100
AcDbEntity
  8
0
100
AcDbLine
 62
7
  6
CONTINUOUS
 10
10.1777849832
 20
5.2952639459
 11
10.180380381
 21
5.3127426911
  0
LINE
  5
2B5
100
AcDbEntity
  8
0
100
AcDbLine
 62
7
  6
CONTINUOUS
 10
10.2473848442
 20
5.161278703
 11
10.2477361803
 21
5.162137384
  0
LINE
  5
2B6
100
AcDbEntity
  8
0
100
AcDbLine
 62
9
  6
CONTINUOUS
 10
9.9724867584
 20
5.087839737
 11
9.9514817058
 21
5.052191737
  0
LINE
  5
2B7
100
AcDbEntity
  8
0
100
AcDbLine
 62
9
  6
CONTINUOUS
 10
9.9689006771
 20
5.0878475251
 11
9.9468390598
 21
5.0527128897
  0
LINE
  5
2B8
100
AcDbEntity
  8
0
100
AcDbLine
 62
9
  6
CONTINUOUS
 10
10.5543519324
 20
5.260688618
 11
10.543155017
 21
5.2441166813
  0
LINE
  5
2B9
100
AcDbEntity
  8
0
100
AcDbLine
 62
9
  6
CONTINUOUS
 10
10.5666685393
 20
5.2517306478
 11
10.5543519324
 21
5.235973072
  0
LINE
  5
2BA
100
AcDbEntity
  8
0
100
AcDbLine
 62
6
  6
CONTINUOUS
 10
11.1963648275
 20
6.3491317449
 11
11.1936739505
 21
6.3503469993
  0
LINE
  5
2BB
100
AcDbEntity
  8
0
100
AcDbLine
 62
9
  6
CONTINUOUS
 10
10.5666685393
 20
6.2050639811
 11
10.5543519324
 21
6.2208215568
  0
LINE
  5
2BC
100
AcDbEntity
  8
0
100
AcDbLine
 62
9
  6
CONTINUOUS
 10
10.5543519324
 20
6.1961060108
 11
10.543155017
 21
6.2126779475
  0
LINE
  5
2BD
100
AcDbEntity
  8
0
100
AcDbLine
 62
9
  6
CONTINUOUS
 10
9.9689006771
 20
6.3689471037
 11
9.9468390598
 21
6.4040817392
  0
LINE
  5
2BE
100
AcDbEntity
  8
0
100
AcDbLine
 62
9
  6
CONTINUOUS
 10
9.9724867584
 20
6.3689548918
 11
9.9514817058
 21
6.4046028918
  0
LINE
  5
2BF
100
AcDbEntity
  8
0
100
AcDbLine
 62
7
  6
CONTINUOUS
 10
10.2477361803
 20
6.2946572449
 11
10.2473848442
 21
6.2955159258
  0
LINE
  5
2C0
100
AcDbEntity
  8
0
100
AcDbLine
 62
7
  6
CONTINUOUS
 10
10.1777849832
 20
6.1615306829
 11
10.1803803137
 21
6.1440522507
  0
LINE
  5
2C1
100
AcDbEntity
  8
0
100
AcDbLine
 62
9
  6
CONTINUOUS
 10
10.5543519324
 20
5.260688618
 11
10.5543519324
 21
5.4923973144
  0
LINE
  5
2C2
100
AcDbEntity
  8
0
100
AcDbLine
 62
9
  6
CONTINUOUS
 10
10.5543519324
 20
5.9643973144
 11
10.5543519324
 21
6.1961060108
  0
LINE
  5
2C3
100
AcDbEntity
  8
0
100
AcDbLine
 62
6
  6
CONTINUOUS
 10
10.7662694552
 20
5.662791294
 11
10.7662694552
 21
5.7940033348
  0
LINE
  5
2C4
100
AcDbEntity
  8
0
100
AcDbLine
 62
6
  6
CONTINUOUS
 10
11.6022458989
 20
5.4158973144
 11
11.6022458989
 21
5.6373161386
  0
LINE
  5
2C5
100
AcDbEntity
  8
0
100
AcDbLine
 62
6
  6
CONTINUOUS
 10
11.6022458989
 20
5.8275705674
 11
11.6022458989
 21
6.0408973144
  0
LINE
  5
2C6
100
AcDbEntity
  8
0
100
AcDbLine
 62
7
  6
CONTINUOUS
 10
11.7072458989
 20
5.4158973144
 11
11.7072458989
 21
6.0408973144
  0
LINE
  5
2C7
100
AcDbEntity
  8
0
100
AcDbLine
 62
9
  6
CONTINUOUS
 10
11.7472458989
 20
6.0583973144
 11
11.7472458989
 21
5.3983973144
  0
LINE
  5
2C8
100
AcDbEntity
  8
0
100
AcDbLine
 62
9
  6
CONTINUOUS
 10
11.9672458989
 20
6.0583973144
 11
11.9672458989
 21
5.3983973144
  0
LINE
  5
2C9
100
AcDbEntity
  8
0
100
AcDbLine
 62
9
  6
CONTINUOUS
 10
12.8552458989
 20
6.1188973144
 11
12.8552458989
 21
5.3378973144
  0
LINE
  5
2CA
100
AcDbEntity
  8
0
100
AcDbLine
 62
9
  6
CONTINUOUS
 10
12.9651613768
 20
6.1428973144
 11
12.9651613768
 21
5.3138973144
  0
LINE
  5
2CB
100
AcDbEntity
  8
0
100
AcDbLine
 62
9
  6
CONTINUOUS
 10
13.5897150961
 20
6.2553973144
 11
13.5897150961
 21
5.2013973144
  0
LINE
  5
2CC
100
AcDbEntity
  8
0
100
AcDbLine
 62
9
  6
CONTINUOUS
 10
13.9945989427
 20
5.3535379345
 11
13.9945989427
 21
6.1032566943
  0
LINE
  5
2CD
100
AcDbEntity
  8
0
100
AcDbLine
 62
7
  6
CONTINUOUS
 10
14.0422458989
 20
6.0408973144
 11
14.0422458989
 21
5.4158973144
  0
LINE
  5
2CE
100
AcDbEntity
  8
0
100
AcDbLine
 62
6
  6
CONTINUOUS
 10
14.0722458989
 20
6.0408973144
 11
14.0722458989
 21
5.4158973144
  0
LINE
  5
2CF
100
AcDbEntity
  8
0
100
AcDbLine
 62
9
  6
CONTINUOUS
 10
14.2014382649
 20
5.9010364917
 11
14.2014382649
 21
5.5557581372
  0
LINE
  5
2D0
100
AcDbEntity
  8
0
100
AcDbLine
 62
9
  6
CONTINUOUS
 10
14.2268540857
 20
5.8973973144
 11
14.2268540857
 21
5.5593973144
  0
LINE
  5
2D1
100
AcDbEntity
  8
0
100
AcDbLine
 62
9
  6
CONTINUOUS
 10
14.2514526535
 20
5.8953973144
 11
14.2514526535
 21
5.5613973144
  0
LINE
  5
2D2
100
AcDbEntity
  8
0
100
AcDbLine
 62
9
  6
CONTINUOUS
 10
14.2738773243
 20
5.8912356603
 11
14.2738773243
 21
5.5655589686
  0
LINE
  5
2D3
100
AcDbEntity
  8
0
100
AcDbLine
 62
6
  6
CONTINUOUS
 10
14.5725229753
 20
5.8880744117
 11
14.5725229753
 21
5.5687202171
  0
ARC
  5
2D4
100
AcDbEntity
  8
0
100
AcDbCircle
 62
6
  6
CONTINUOUS
 10
2.9392458989
 20
5.7283973144
 40
1.0
100
AcDbArc
 50
166.3494233268
 51
193.6505766732
  0
CIRCLE
  5
2D5
100
AcDbEntity
  8
0
100
AcDbCircle
 62
6
  6
CONTINUOUS
 10
2.2829958989
 20
5.7283973144
 40
0.09375
  0
CIRCLE
  5
2D6
100
AcDbEntity
  8
0
100
AcDbCircle
 62
6
  6
CONTINUOUS
 10
3.0329958989
 20
5.7283973144
 40
0.09375
  0
CIRCLE
  5
2D7
100
AcDbEntity
  8
0
100
AcDbCircle
 62
6
  6
CONTINUOUS
 10
3.7829958989
 20
5.7283973144
 40
0.09375
  0
CIRCLE
  5
2D8
100
AcDbEntity
  8
0
100
AcDbCircle
 62
6
  6
CONTINUOUS
 10
4.7829958989
 20
5.7283973144
 40
0.09375
  0
ARC
  5
2D9
100
AcDbEntity
  8
0
100
AcDbCircle
 62
6
  6
CONTINUOUS
 10
11.9672458989
 20
-1.1487452476
 40
6.547142562
100
AcDbArc
 50
82.2048510549
 51
90.0
  0
ARC
  5
2DA
100
AcDbEntity
  8
0
100
AcDbCircle
 62
6
  6
CONTINUOUS
 10
10.1553842179
 20
2.8072399695
 40
2.3004553668
100
AcDbArc
 50
88.8663904456
 51
89.0097166009
  0
ARC
  5
2DB
100
AcDbEntity
  8
0
100
AcDbCircle
 62
6
  6
CONTINUOUS
 10
9.8518968934
 20
4.2612070269
 40
0.851101184
100
AcDbArc
 50
87.1840345225
 51
88.8071240002
  0
ARC
  5
2DC
100
AcDbEntity
  8
0
100
AcDbCircle
 62
7
  6
CONTINUOUS
 10
9.9206511321
 20
4.3498523439
 40
1.9401268064
100
AcDbArc
 50
90.3586856782
 51
90.5056613246
  0
ARC
  5
2DD
100
AcDbEntity
  8
0
100
AcDbCircle
 62
6
  6
CONTINUOUS
 10
10.1866963386
 20
4.6266283091
 40
0.4807995532
100
AcDbArc
 50
90.1308483623
 51
91.3066252097
  0
ARC
  5
2DE
100
AcDbEntity
  8
0
100
AcDbCircle
 62
6
  6
CONTINUOUS
 10
10.18663832
 20
4.6317216281
 40
0.4757061173
100
AcDbArc
 50
88.975655048
 51
90.125261379
  0
ARC
  5
2DF
100
AcDbEntity
  8
0
100
AcDbCircle
 62
9
  6
CONTINUOUS
 10
9.8892597703
 20
4.915186911
 40
0.45118073
100
AcDbArc
 50
90.0360300403
 51
94.2401384153
  0
ARC
  5
2E0
100
AcDbEntity
  8
0
100
AcDbCircle
 62
9
  6
CONTINUOUS
 10
9.8892619392
 20
4.9135007883
 40
0.4328770908
100
AcDbArc
 50
90.0378405971
 51
94.2255222534
  0
ARC
  5
2E1
100
AcDbEntity
  8
0
100
AcDbCircle
 62
9
  6
CONTINUOUS
 10
9.908126725
 20
5.1069082028
 40
0.0599464899
100
AcDbArc
 50
73.4679579443
 51
89.6379328347
  0
ARC
  5
2E2
100
AcDbEntity
  8
0
100
AcDbCircle
 62
9
  6
CONTINUOUS
 10
9.9084189348
 20
5.1079530421
 40
0.0588616973
100
AcDbArc
 50
48.1256595674
 51
73.451234431
  0
ARC
  5
2E3
100
AcDbEntity
  8
0
100
AcDbCircle
 62
9
  6
CONTINUOUS
 10
9.909036059
 20
5.1087288752
 40
0.0578724659
100
AcDbArc
 50
0.4682850443
 51
48.0678898843
  0
ARC
  5
2E4
100
AcDbEntity
  8
0
100
AcDbCircle
 62
6
  6
CONTINUOUS
 10
9.8707895624
 20
5.1681181854
 40
0.056005022
100
AcDbArc
 50
252.4788374226
 51
268.7818373068
  0
ARC
  5
2E5
100
AcDbEntity
  8
0
100
AcDbCircle
 62
6
  6
CONTINUOUS
 10
9.8695412067
 20
5.1641085827
 40
0.0518054763
100
AcDbArc
 50
244.9741377982
 51
252.4603853824
  0
ARC
  5
2E6
100
AcDbEntity
  8
0
100
AcDbCircle
 62
9
  6
CONTINUOUS
 10
9.9038277711
 20
5.1987183382
 40
0.049820637
100
AcDbArc
 50
224.3447523922
 51
269.4736378043
  0
ARC
  5
2E7
100
AcDbEntity
  8
0
100
AcDbCircle
 62
6
  6
CONTINUOUS
 10
9.8683831578
 20
5.1615971897
 40
0.0490401522
100
AcDbArc
 50
198.3407130695
 51
244.9427529792
  0
ARC
  5
2E8
100
AcDbEntity
  8
0
100
AcDbCircle
 62
6
  6
CONTINUOUS
 10
9.8679241521
 20
5.1613932704
 40
0.0485403212
100
AcDbArc
 50
182.9121613917
 51
198.2827251828
  0
ARC
  5
2E9
100
AcDbEntity
  8
0
100
AcDbCircle
 62
6
  6
CONTINUOUS
 10
9.8842746481
 20
5.0691568428
 40
0.0472243159
100
AcDbArc
 50
11.7979649873
 51
21.26740575
  0
ARC
  5
2EA
100
AcDbEntity
  8
0
100
AcDbCircle
 62
6
  6
CONTINUOUS
 10
9.8846409094
 20
5.0692110274
 40
0.0468547185
100
AcDbArc
 50
2.3540175851
 51
11.8246794623
  0
ARC
  5
2EB
100
AcDbEntity
  8
0
100
AcDbCircle
 62
7
  6
CONTINUOUS
 10
9.8690505186
 20
5.3026992027
 40
0.0452110231
100
AcDbArc
 50
172.2190146038
 51
179.9979847467
  0
ARC
  5
2EC
100
AcDbEntity
  8
0
100
AcDbCircle
 62
9
  6
CONTINUOUS
 10
9.9081799054
 20
5.1070332588
 40
0.0418280059
100
AcDbArc
 50
73.4922875171
 51
89.6825831463
  0
ARC
  5
2ED
100
AcDbEntity
  8
0
100
AcDbCircle
 62
7
  6
CONTINUOUS
 10
9.8897691294
 20
5.0712691479
 40
0.0413383371
100
AcDbArc
 50
21.3013809347
 51
23.136396091
  0
ARC
  5
2EE
100
AcDbEntity
  8
0
100
AcDbCircle
 62
9
  6
CONTINUOUS
 10
9.8941642562
 20
5.2729591797
 40
0.040994234
100
AcDbArc
 50
90.0092397898
 51
123.0734115796
  0
ARC
  5
2EF
100
AcDbEntity
  8
0
100
AcDbCircle
 62
9
  6
CONTINUOUS
 10
9.9084535146
 20
5.1080126929
 40
0.0408102821
100
AcDbArc
 50
48.1215471939
 51
73.4698683015
  0
ARC
  5
2F0
100
AcDbEntity
  8
0
100
AcDbCircle
 62
9
  6
CONTINUOUS
 10
9.893620385
 20
5.2738840981
 40
0.0399232925
100
AcDbArc
 50
123.1437210878
 51
179.7647618224
  0
ARC
  5
2F1
100
AcDbEntity
  8
0
100
AcDbCircle
 62
9
  6
CONTINUOUS
 10
9.9090402196
 20
5.1087485572
 40
0.0398710108
100
AcDbArc
 50
0.4415544354
 51
48.0433872856
  0
ARC
  5
2F2
100
AcDbEntity
  8
0
100
AcDbCircle
 62
9
  6
CONTINUOUS
 10
9.9038034995
 20
5.1986704967
 40
0.0317806485
100
AcDbArc
 50
224.330427963
 51
269.5048460744
  0
ARC
  5
2F3
100
AcDbEntity
  8
0
100
AcDbCircle
 62
9
  6
CONTINUOUS
 10
9.8935671671
 20
5.2739185099
 40
0.0218797831
100
AcDbArc
 50
123.1142969361
 51
179.8161545362
  0
ARC
  5
2F4
100
AcDbEntity
  8
0
100
AcDbCircle
 62
7
  6
CONTINUOUS
 10
9.9515081625
 20
5.0733673161
 40
0.0211755956
100
AcDbArc
 50
257.2619203153
 51
269.9284151082
  0
ARC
  5
2F5
100
AcDbEntity
  8
0
100
AcDbCircle
 62
9
  6
CONTINUOUS
 10
9.9694165702
 20
5.1080655807
 40
0.0204556437
100
AcDbArc
 50
204.7879083946
 51
213.0389753966
  0
ARC
  5
2F6
100
AcDbEntity
  8
0
100
AcDbCircle
 62
9
  6
CONTINUOUS
 10
9.9690040028
 20
5.1078272724
 40
0.0199797798
100
AcDbArc
 50
213.1111308377
 51
269.7036967727
  0
ARC
  5
2F7
100
AcDbEntity
  8
0
100
AcDbCircle
 62
7
  6
CONTINUOUS
 10
9.9724835312
 20
5.5666068446
 40
0.8023480883
100
AcDbArc
 50
89.9997695506
 51
90.2558528651
  0
ARC
  5
2F8
100
AcDbEntity
  8
0
100
AcDbCircle
 62
7
  6
CONTINUOUS
 10
9.9724892398
 20
5.564124436
 40
0.7868396648
100
AcDbArc
 50
90.0001806908
 51
90.2554754148
  0
ARC
  5
2F9
100
AcDbEntity
  8
0
100
AcDbCircle
 62
7
  6
CONTINUOUS
 10
10.1832938341
 20
5.210764315
 40
0.3594550366
100
AcDbArc
 50
180.0087377228
 51
182.7599837758
  0
ARC
  5
2FA
100
AcDbEntity
  8
0
100
AcDbCircle
 62
7
  6
CONTINUOUS
 10
10.1828456973
 20
5.2878158372
 40
0.0776914755
100
AcDbArc
 50
50.2809138635
 51
54.077993558
  0
ARC
  5
2FB
100
AcDbEntity
  8
0
100
AcDbCircle
 62
7
  6
CONTINUOUS
 10
10.1947804211
 20
5.3003649356
 40
0.0603592632
100
AcDbArc
 50
42.005121516
 51
43.9357403985
  0
ARC
  5
2FC
100
AcDbEntity
  8
0
100
AcDbCircle
 62
9
  6
CONTINUOUS
 10
10.1598186278
 20
5.1078897822
 40
0.0588573229
100
AcDbArc
 50
90.0272544128
 51
113.5136391441
  0
ARC
  5
2FD
100
AcDbEntity
  8
0
100
AcDbCircle
 62
9
  6
CONTINUOUS
 10
10.1595148657
 20
5.1087200571
 40
0.0579726548
100
AcDbArc
 50
113.5657350302
 51
174.4779673045
  0
ARC
  5
2FE
100
AcDbEntity
  8
0
100
AcDbCircle
 62
9
  6
CONTINUOUS
 10
10.1589333871
 20
5.108717158
 40
0.0573946726
100
AcDbArc
 50
174.4192282183
 51
179.8057791438
  0
ARC
  5
2FF
100
AcDbEntity
  8
0
100
AcDbCircle
 62
6
  6
CONTINUOUS
 10
10.2015296012
 20
5.1586201182
 40
0.0513789559
100
AcDbArc
 50
269.2944917116
 51
277.3073690026
  0
ARC
  5
300
100
AcDbEntity
  8
0
100
AcDbCircle
 62
7
  6
CONTINUOUS
 10
10.2001910975
 20
5.3080674918
 40
0.0510801769
100
AcDbArc
 50
9.3335779125
 51
19.3669293794
  0
ARC
  5
301
100
AcDbEntity
  8
0
100
AcDbCircle
 62
7
  6
CONTINUOUS
 10
10.1867827372
 20
5.0661367232
 40
0.0496946921
100
AcDbArc
 50
171.5381158492
 51
175.0365424678
  0
ARC
  5
302
100
AcDbEntity
  8
0
100
AcDbCircle
 62
7
  6
CONTINUOUS
 10
10.1790870048
 20
5.0672932551
 40
0.0419125519
100
AcDbArc
 50
169.9177458523
 51
171.5538418551
  0
ARC
  5
303
100
AcDbEntity
  8
0
100
AcDbCircle
 62
9
  6
CONTINUOUS
 10
10.2010902932
 20
5.3045910292
 40
0.041395482
100
AcDbArc
 50
45.757709598
 51
58.3579253463
  0
ARC
  5
304
100
AcDbEntity
  8
0
100
AcDbCircle
 62
9
  6
CONTINUOUS
 10
10.1597969954
 20
5.1079758491
 40
0.0407828398
100
AcDbArc
 50
90.0089421219
 51
113.5034353916
  0
ARC
  5
305
100
AcDbEntity
  8
0
100
AcDbCircle
 62
6
  6
CONTINUOUS
 10
10.1777036481
 20
5.0672915344
 40
0.0405714494
100
AcDbArc
 50
148.6980910826
 51
158.6801560453
  0
ARC
  5
306
100
AcDbEntity
  8
0
100
AcDbCircle
 62
9
  6
CONTINUOUS
 10
10.1593716602
 20
5.1087039814
 40
0.0398354401
100
AcDbArc
 50
168.8719028792
 51
179.7850483567
  0
ARC
  5
307
100
AcDbEntity
  8
0
100
AcDbCircle
 62
7
  6
CONTINUOUS
 10
10.1746025757
 20
5.2738277102
 40
0.0396704379
100
AcDbArc
 50
81.5548402893
 51
88.9369287509
  0
ARC
  5
308
100
AcDbEntity
  8
0
100
AcDbCircle
 62
9
  6
CONTINUOUS
 10
10.2037797613
 20
5.3045755761
 40
0.0395774036
100
AcDbArc
 50
45.7802913626
 51
48.5589976916
  0
ARC
  5
309
100
AcDbEntity
  8
0
100
AcDbCircle
 62
6
  6
CONTINUOUS
 10
10.1767181544
 20
5.0676808231
 40
0.0395118627
100
AcDbArc
 50
158.6864612212
 51
169.8697297756
  0
ARC
  5
30A
100
AcDbEntity
  8
0
100
AcDbCircle
 62
6
  6
CONTINUOUS
 10
10.1766228129
 20
5.0680280644
 40
0.0392914974
100
AcDbArc
 50
109.0688170779
 51
123.5595189793
  0
ARC
  5
30B
100
AcDbEntity
  8
0
100
AcDbCircle
 62
9
  6
CONTINUOUS
 10
10.2078373192
 20
5.3074472779
 40
0.0345820609
100
AcDbArc
 50
23.3206801475
 51
28.9962358855
  0
ARC
  5
30C
100
AcDbEntity
  8
0
100
AcDbCircle
 62
9
  6
CONTINUOUS
 10
10.2093182605
 20
5.3080803824
 40
0.032971476
100
AcDbArc
 50
19.1089442412
 51
23.3291749932
  0
ARC
  5
30D
100
AcDbEntity
  8
0
100
AcDbCircle
 62
7
  6
CONTINUOUS
 10
10.2094024692
 20
5.3081132553
 40
0.0328820548
100
AcDbArc
 50
9.1654930098
 51
19.1089442412
  0
ARC
  5
30E
100
AcDbEntity
  8
0
100
AcDbCircle
 62
7
  6
CONTINUOUS
 10
10.1746103813
 20
5.2738871234
 40
0.0216112619
100
AcDbArc
 50
81.552928207
 51
88.9448061907
  0
ARC
  5
30F
100
AcDbEntity
  8
0
100
AcDbCircle
 62
7
  6
CONTINUOUS
 10
10.0988804129
 20
5.1079191986
 40
0.020653233
100
AcDbArc
 50
352.7742503183
 51
359.8094152906
  0
ARC
  5
310
100
AcDbEntity
  8
0
100
AcDbCircle
 62
7
  6
CONTINUOUS
 10
10.0994281289
 20
5.1083250241
 40
0.0204852921
100
AcDbArc
 50
270.039968055
 51
283.3420131745
  0
ARC
  5
311
100
AcDbEntity
  8
0
100
AcDbCircle
 62
6
  6
CONTINUOUS
 10
10.1172704757
 20
5.0725230467
 40
0.0202944641
100
AcDbArc
 50
280.3975610078
 51
298.1773163934
  0
ARC
  5
312
100
AcDbEntity
  8
0
100
AcDbCircle
 62
9
  6
CONTINUOUS
 10
10.0993884775
 20
5.1080904798
 40
0.0202718284
100
AcDbArc
 50
294.3860342344
 51
311.0475724461
  0
ARC
  5
313
100
AcDbEntity
  8
0
100
AcDbCircle
 62
9
  6
CONTINUOUS
 10
10.0995390622
 20
5.1077377307
 40
0.0198883781
100
AcDbArc
 50
283.4214865341
 51
294.4105035684
  0
ARC
  5
314
100
AcDbEntity
  8
0
100
AcDbCircle
 62
6
  6
CONTINUOUS
 10
10.1174118235
 20
5.0717541879
 40
0.0195127207
100
AcDbArc
 50
271.1224768213
 51
280.3967823479
  0
ARC
  5
315
100
AcDbEntity
  8
0
100
AcDbCircle
 62
7
  6
CONTINUOUS
 10
10.1120151731
 20
5.3669450038
 40
0.3147531344
100
AcDbArc
 50
269.998452927
 51
271.0520161316
  0
ARC
  5
316
100
AcDbEntity
  8
0
100
AcDbCircle
 62
7
  6
CONTINUOUS
 10
10.5977339438
 20
5.0902418482
 40
0.357304828
100
AcDbArc
 50
166.8982353055
 51
167.4687782252
  0
ARC
  5
317
100
AcDbEntity
  8
0
100
AcDbCircle
 62
7
  6
CONTINUOUS
 10
10.5931084221
 20
5.0913186315
 40
0.3525556267
100
AcDbArc
 50
166.214487648
 51
166.8982733698
  0
ARC
  5
318
100
AcDbEntity
  8
0
100
AcDbCircle
 62
7
  6
CONTINUOUS
 10
10.5846793169
 20
5.0933768007
 40
0.3438788889
100
AcDbArc
 50
165.4128148454
 51
166.2128763093
  0
ARC
  5
319
100
AcDbEntity
  8
0
100
AcDbCircle
 62
7
  6
CONTINUOUS
 10
10.5710703705
 20
5.0969342447
 40
0.3298126674
100
AcDbArc
 50
163.42661949
 51
165.4154760823
  0
ARC
  5
31A
100
AcDbEntity
  8
0
100
AcDbCircle
 62
7
  6
CONTINUOUS
 10
10.5538769667
 20
5.1019614662
 40
0.3118995917
100
AcDbArc
 50
162.176298893
 51
163.4108335966
  0
ARC
  5
31B
100
AcDbEntity
  8
0
100
AcDbCircle
 62
9
  6
CONTINUOUS
 10
10.4311858631
 20
5.0783973144
 40
0.2200000013
100
AcDbArc
 50
51.9877204556
 51
55.9548676523
  0
ARC
  5
31C
100
AcDbEntity
  8
0
100
AcDbCircle
 62
7
  6
CONTINUOUS
 10
10.4311858631
 20
5.0783973144
 40
0.2
100
AcDbArc
 50
147.2441641168
 51
156.2683916142
  0
ARC
  5
31D
100
AcDbEntity
  8
0
100
AcDbCircle
 62
6
  6
CONTINUOUS
 10
10.4311858631
 20
5.0783973144
 40
0.2
100
AcDbArc
 50
51.9877204556
 51
147.2441641168
  0
ARC
  5
31E
100
AcDbEntity
  8
0
100
AcDbCircle
 62
6
  6
CONTINUOUS
 10
11.2805400114
 20
5.3515490569
 40
1.4594341692
100
AcDbArc
 50
180.0463032743
 51
181.3516143281
  0
ARC
  5
31F
100
AcDbEntity
  8
0
100
AcDbCircle
 62
7
  6
CONTINUOUS
 10
11.2773994084
 20
5.2693510376
 40
1.4237103815
100
AcDbArc
 50
179.8109746633
 51
179.9984447944
  0
ARC
  5
320
100
AcDbEntity
  8
0
100
AcDbCircle
 62
7
  6
CONTINUOUS
 10
11.2771242624
 20
5.269351307
 40
1.4054444166
100
AcDbArc
 50
179.8109463286
 51
179.9984526112
  0
ARC
  5
321
100
AcDbEntity
  8
0
100
AcDbCircle
 62
6
  6
CONTINUOUS
 10
10.9595969838
 20
5.2164947767
 40
1.1416039788
100
AcDbArc
 50
181.77142548
 51
182.8904794338
  0
ARC
  5
322
100
AcDbEntity
  8
0
100
AcDbCircle
 62
6
  6
CONTINUOUS
 10
10.9428194351
 20
5.7266529653
 40
0.2727321338
100
AcDbArc
 50
60.7161608082
 51
68.8851100791
  0
ARC
  5
323
100
AcDbEntity
  8
0
100
AcDbCircle
 62
6
  6
CONTINUOUS
 10
10.9432418606
 20
5.7280163503
 40
0.2713057877
100
AcDbArc
 50
68.8646081779
 51
100.2167853424
  0
ARC
  5
324
100
AcDbEntity
  8
0
100
AcDbCircle
 62
6
  6
CONTINUOUS
 10
10.9352702167
 20
5.7280506578
 40
0.2581035594
100
AcDbArc
 50
269.752394039
 51
271.8214647659
  0
ARC
  5
325
100
AcDbEntity
  8
0
100
AcDbCircle
 62
6
  6
CONTINUOUS
 10
10.935347764
 20
5.7275142857
 40
0.2575650006
100
AcDbArc
 50
271.8080154565
 51
293.6365177345
  0
ARC
  5
326
100
AcDbEntity
  8
0
100
AcDbCircle
 62
6
  6
CONTINUOUS
 10
11.7472458989
 20
5.4383973144
 40
0.04
100
AcDbArc
 50
197.9999685677
 51
270.0
  0
ARC
  5
327
100
AcDbEntity
  8
0
100
AcDbCircle
 62
6
  6
CONTINUOUS
 10
12.7584754874
 20
4.6310109746
 40
0.713479369
100
AcDbArc
 50
73.1607658436
 51
82.2048510549
  0
ARC
  5
328
100
AcDbEntity
  8
0
100
AcDbCircle
 62
6
  6
CONTINUOUS
 10
13.7615116771
 20
3.5117707118
 40
2.749
100
AcDbArc
 50
93.5829892572
 51
106.8392341564
  0
ARC
  5
329
100
AcDbEntity
  8
0
100
AcDbCircle
 62
6
  6
CONTINUOUS
 10
13.8537420233
 20
5.4955214837
 40
0.2
100
AcDbArc
 50
314.771776675
 51
340.8610809229
  0
ARC
  5
32A
100
AcDbEntity
  8
0
100
AcDbCircle
 62
6
  6
CONTINUOUS
 10
13.9418547457
 20
5.6659416048
 40
0.282
100
AcDbArc
 50
297.5407899526
 51
337.0005982877
  0
ARC
  5
32B
100
AcDbEntity
  8
0
100
AcDbCircle
 62
6
  6
CONTINUOUS
 10
14.2152458989
 20
5.5498973144
 40
0.015
100
AcDbArc
 50
39.2964802392
 51
157.0005982877
  0
ARC
  5
32C
100
AcDbEntity
  8
0
100
AcDbCircle
 62
6
  6
CONTINUOUS
 10
14.2384622724
 20
5.5688973144
 40
0.015
100
AcDbArc
 50
219.2964802392
 51
330.0
  0
ARC
  5
32D
100
AcDbEntity
  8
0
100
AcDbCircle
 62
6
  6
CONTINUOUS
 10
14.2644430346
 20
5.5538973144
 40
0.015
100
AcDbArc
 50
51.0271069131
 51
150.0
  0
ARC
  5
32E
100
AcDbEntity
  8
0
100
AcDbCircle
 62
6
  6
CONTINUOUS
 10
14.4212881014
 20
5.7090223144
 40
0.234375
100
AcDbArc
 50
49.8141682044
 51
128.9728930869
  0
ARC
  5
32F
100
AcDbEntity
  8
0
100
AcDbCircle
 62
7
  6
CONTINUOUS
 10
9.9724867299
 20
5.8916216796
 40
0.8037819836
100
AcDbArc
 50
269.7443755533
 51
270.0000020309
  0
ARC
  5
330
100
AcDbEntity
  8
0
100
AcDbCircle
 62
7
  6
CONTINUOUS
 10
9.8691267077
 20
6.1541028182
 40
0.0452875116
100
AcDbArc
 50
180.0025843003
 51
187.7772013259
  0
ARC
  5
331
100
AcDbEntity
  8
0
100
AcDbCircle
 62
9
  6
CONTINUOUS
 10
9.8941642111
 20
6.1838352828
 40
0.040994065
100
AcDbArc
 50
236.9265142814
 51
269.9908230869
  0
ARC
  5
332
100
AcDbEntity
  8
0
100
AcDbCircle
 62
9
  6
CONTINUOUS
 10
9.8935159241
 20
6.1829192521
 40
0.0398195553
100
AcDbArc
 50
180.2484042771
 51
236.867691554
  0
ARC
  5
333
100
AcDbEntity
  8
0
100
AcDbCircle
 62
9
  6
CONTINUOUS
 10
9.8598244528
 20
6.1505071703
 40
0.0385097077
100
AcDbArc
 50
188.2625297319
 51
195.4416663181
  0
ARC
  5
334
100
AcDbEntity
  8
0
100
AcDbCircle
 62
9
  6
CONTINUOUS
 10
9.8934076055
 20
6.1828935658
 40
0.0217202857
100
AcDbArc
 50
180.2312189488
 51
190.2214008436
  0
ARC
  5
335
100
AcDbEntity
  8
0
100
AcDbCircle
 62
9
  6
CONTINUOUS
 10
9.9081267304
 20
6.3498863895
 40
0.0599464533
100
AcDbArc
 50
270.3620621959
 51
286.5320470252
  0
ARC
  5
336
100
AcDbEntity
  8
0
100
AcDbCircle
 62
9
  6
CONTINUOUS
 10
9.9084189698
 20
6.3488415242
 40
0.0588616274
100
AcDbArc
 50
286.5487502738
 51
311.8743557278
  0
ARC
  5
337
100
AcDbEntity
  8
0
100
AcDbCircle
 62
9
  6
CONTINUOUS
 10
9.909036034
 20
6.3480657686
 40
0.0578724937
100
AcDbArc
 50
311.9321185556
 51
359.5317002837
  0
ARC
  5
338
100
AcDbEntity
  8
0
100
AcDbCircle
 62
6
  6
CONTINUOUS
 10
9.8707895493
 20
6.2886764891
 40
0.0560049745
100
AcDbArc
 50
91.2181734383
 51
107.5211638937
  0
ARC
  5
339
100
AcDbEntity
  8
0
100
AcDbCircle
 62
6
  6
CONTINUOUS
 10
9.8695411844
 20
6.2926861
 40
0.0518054181
100
AcDbArc
 50
107.5396090282
 51
115.0258648008
  0
ARC
  5
33A
100
AcDbEntity
  8
0
100
AcDbCircle
 62
9
  6
CONTINUOUS
 10
9.9038272538
 20
6.2583292636
 40
0.0495682154
100
AcDbArc
 50
90.5284505997
 51
135.6651305728
  0
ARC
  5
33B
100
AcDbEntity
  8
0
100
AcDbCircle
 62
6
  6
CONTINUOUS
 10
9.8683832065
 20
6.2951974609
 40
0.0490401799
100
AcDbArc
 50
115.0584938708
 51
161.6594832352
  0
ARC
  5
33C
100
AcDbEntity
  8
0
100
AcDbCircle
 62
6
  6
CONTINUOUS
 10
9.8679823267
 20
6.2953903514
 40
0.0485990012
100
AcDbArc
 50
161.7266244255
 51
177.0783631312
  0
ARC
  5
33D
100
AcDbEntity
  8
0
100
AcDbCircle
 62
6
  6
CONTINUOUS
 10
9.8844900365
 20
6.3875883079
 40
0.0470056585
100
AcDbArc
 50
338.6935679215
 51
357.6478039701
  0
ARC
  5
33E
100
AcDbEntity
  8
0
100
AcDbCircle
 62
9
  6
CONTINUOUS
 10
9.9081692317
 20
6.3497990235
 40
0.0418671402
100
AcDbArc
 50
270.3061326561
 51
286.5070755823
  0
ARC
  5
33F
100
AcDbEntity
  8
0
100
AcDbCircle
 62
7
  6
CONTINUOUS
 10
9.8897680607
 20
6.3855259175
 40
0.0413394913
100
AcDbArc
 50
336.8636295293
 51
338.6985934451
  0
ARC
  5
340
100
AcDbEntity
  8
0
100
AcDbCircle
 62
9
  6
CONTINUOUS
 10
9.9084535709
 20
6.3487818556
 40
0.0408101854
100
AcDbArc
 50
286.5300880171
 51
311.8784689889
  0
ARC
  5
341
100
AcDbEntity
  8
0
100
AcDbCircle
 62
9
  6
CONTINUOUS
 10
9.9090756132
 20
6.3480232817
 40
0.0398296027
100
AcDbArc
 50
311.9406681279
 51
359.5150709411
  0
ARC
  5
342
100
AcDbEntity
  8
0
100
AcDbCircle
 62
9
  6
CONTINUOUS
 10
9.9038131372
 20
6.2583609086
 40
0.0315439663
100
AcDbArc
 50
90.5163756444
 51
135.6629870565
  0
ARC
  5
343
100
AcDbEntity
  8
0
100
AcDbCircle
 62
7
  6
CONTINUOUS
 10
9.9515082191
 20
6.3834268079
 40
0.0211761006
100
AcDbArc
 50
90.0717365276
 51
102.7379280489
  0
ARC
  5
344
100
AcDbEntity
  8
0
100
AcDbCircle
 62
6
  6
CONTINUOUS
 10
9.9514026233
 20
6.3844553786
 40
0.0201571411
100
AcDbArc
 50
112.0380296525
 51
129.932178404
  0
ARC
  5
345
100
AcDbEntity
  8
0
100
AcDbCircle
 62
9
  6
CONTINUOUS
 10
9.9690123816
 20
6.3489862566
 40
0.0199613995
100
AcDbArc
 50
90.3206335099
 51
146.9019325542
  0
ARC
  5
346
100
AcDbEntity
  8
0
100
AcDbCircle
 62
6
  6
CONTINUOUS
 10
9.9511880527
 20
6.3849849532
 40
0.0195857483
100
AcDbArc
 50
102.8294097603
 51
112.0374882667
  0
ARC
  5
347
100
AcDbEntity
  8
0
100
AcDbCircle
 62
7
  6
CONTINUOUS
 10
10.1120193803
 20
6.090308559
 40
0.3142942005
100
AcDbArc
 50
88.9472146376
 51
90.0023163038
  0
ARC
  5
348
100
AcDbEntity
  8
0
100
AcDbCircle
 62
7
  6
CONTINUOUS
 10
10.1828357981
 20
6.1689882943
 40
0.0777049989
100
AcDbArc
 50
305.9237995907
 51
309.7213732648
  0
ARC
  5
349
100
AcDbEntity
  8
0
100
AcDbCircle
 62
7
  6
CONTINUOUS
 10
10.1947688538
 20
6.1564413118
 40
0.060375472
100
AcDbArc
 50
316.0637971038
 51
317.9940224753
  0
ARC
  5
34A
100
AcDbEntity
  8
0
100
AcDbCircle
 62
7
  6
CONTINUOUS
 10
10.199846662
 20
6.1488219468
 40
0.0514373399
100
AcDbArc
 50
340.6378974474
 51
345.688088507
  0
ARC
  5
34B
100
AcDbEntity
  8
0
100
AcDbCircle
 62
7
  6
CONTINUOUS
 10
10.2001746905
 20
6.1487307985
 40
0.0510969606
100
AcDbArc
 50
345.6961964172
 51
350.6653545319
  0
ARC
  5
34C
100
AcDbEntity
  8
0
100
AcDbCircle
 62
9
  6
CONTINUOUS
 10
10.2010900756
 20
6.1522038862
 40
0.04139584
100
AcDbArc
 50
301.642114089
 51
314.2424787463
  0
ARC
  5
34D
100
AcDbEntity
  8
0
100
AcDbCircle
 62
7
  6
CONTINUOUS
 10
10.1746025432
 20
6.1829673088
 40
0.0396708286
100
AcDbArc
 50
271.0631076521
 51
278.4451233077
  0
ARC
  5
34E
100
AcDbEntity
  8
0
100
AcDbCircle
 62
9
  6
CONTINUOUS
 10
10.2037231545
 20
6.1522800932
 40
0.0396606293
100
AcDbArc
 50
311.4434714693
 51
314.2170451904
  0
ARC
  5
34F
100
AcDbEntity
  8
0
100
AcDbCircle
 62
9
  6
CONTINUOUS
 10
10.1746343256
 20
6.1824931026
 40
0.0391968943
100
AcDbArc
 50
278.5009695015
 51
288.7231263705
  0
ARC
  5
350
100
AcDbEntity
  8
0
100
AcDbCircle
 62
9
  6
CONTINUOUS
 10
10.2091040924
 20
6.148797555
 40
0.0332011263
100
AcDbArc
 50
336.6852269761
 51
340.876203261
  0
ARC
  5
351
100
AcDbEntity
  8
0
100
AcDbCircle
 62
7
  6
CONTINUOUS
 10
10.2094946647
 20
6.1486538757
 40
0.0327859374
100
AcDbArc
 50
340.8898573445
 51
350.8363977755
  0
ARC
  5
352
100
AcDbEntity
  8
0
100
AcDbCircle
 62
7
  6
CONTINUOUS
 10
10.1746103368
 20
6.1829080408
 40
0.0216117979
100
AcDbArc
 50
271.055285606
 51
278.4469799964
  0
ARC
  5
353
100
AcDbEntity
  8
0
100
AcDbCircle
 62
7
  6
CONTINUOUS
 10
10.187607685
 20
6.2459260638
 40
0.3637689181
100
AcDbArc
 50
177.2563326129
 51
179.9749458885
  0
ARC
  5
354
100
AcDbEntity
  8
0
100
AcDbCircle
 62
9
  6
CONTINUOUS
 10
10.159818611
 20
6.3489047658
 40
0.0588572421
100
AcDbArc
 50
246.4863445031
 51
269.9727619399
  0
ARC
  5
355
100
AcDbEntity
  8
0
100
AcDbCircle
 62
9
  6
CONTINUOUS
 10
10.1595315645
 20
6.3480865806
 40
0.0579912832
100
AcDbArc
 50
180.2012177719
 51
246.4238862042
  0
ARC
  5
356
100
AcDbEntity
  8
0
100
AcDbCircle
 62
6
  6
CONTINUOUS
 10
10.2015075054
 20
6.2974105276
 40
0.0521410175
100
AcDbArc
 50
82.7918097313
 51
90.6716875557
  0
ARC
  5
357
100
AcDbEntity
  8
0
100
AcDbCircle
 62
9
  6
CONTINUOUS
 10
10.1647227769
 20
6.2579977897
 40
0.0500365164
100
AcDbArc
 50
0.0466218223
 51
89.961325552
  0
ARC
  5
358
100
AcDbEntity
  8
0
100
AcDbCircle
 62
7
  6
CONTINUOUS
 10
10.1867615364
 20
6.3906557874
 40
0.0496734104
100
AcDbArc
 50
184.962719364
 51
188.4630659918
  0
ARC
  5
359
100
AcDbEntity
  8
0
100
AcDbCircle
 62
6
  6
CONTINUOUS
 10
10.2019500141
 20
6.3000695363
 40
0.0494194245
100
AcDbArc
 50
0.0273152422
 51
6.2557946516
  0
ARC
  5
35A
100
AcDbEntity
  8
0
100
AcDbCircle
 62
7
  6
CONTINUOUS
 10
10.1791032191
 20
6.3895040185
 40
0.0419289788
100
AcDbArc
 50
188.4464786607
 51
190.0819336318
  0
ARC
  5
35B
100
AcDbEntity
  8
0
100
AcDbCircle
 62
9
  6
CONTINUOUS
 10
10.1597969915
 20
6.3488187502
 40
0.040782811
100
AcDbArc
 50
246.4965152584
 51
269.9910633472
  0
ARC
  5
35C
100
AcDbEntity
  8
0
100
AcDbCircle
 62
9
  6
CONTINUOUS
 10
10.1595309916
 20
6.3480704621
 40
0.0399929115
100
AcDbArc
 50
180.1851782797
 51
246.4022195164
  0
ARC
  5
35D
100
AcDbEntity
  8
0
100
AcDbCircle
 62
6
  6
CONTINUOUS
 10
10.1766770113
 20
6.3888761594
 40
0.0394127887
100
AcDbArc
 50
236.4628979915
 51
250.9087706212
  0
ARC
  5
35E
100
AcDbEntity
  8
0
100
AcDbCircle
 62
9
  6
CONTINUOUS
 10
10.1647447954
 20
6.2580236126
 40
0.0320242193
100
AcDbArc
 50
0.0266445358
 51
89.9789654378
  0
ARC
  5
35F
100
AcDbEntity
  8
0
100
AcDbCircle
 62
7
  6
CONTINUOUS
 10
10.099008765
 20
6.3488866895
 40
0.0205244846
100
AcDbArc
 50
0.195776261
 51
7.2396356929
  0
ARC
  5
360
100
AcDbEntity
  8
0
100
AcDbCircle
 62
7
  6
CONTINUOUS
 10
10.0994283362
 20
6.3484713714
 40
0.0204835253
100
AcDbArc
 50
76.6574105529
 51
89.9606082176
  0
ARC
  5
361
100
AcDbEntity
  8
0
100
AcDbCircle
 62
6
  6
CONTINUOUS
 10
10.1171428391
 20
6.384467793
 40
0.0202287453
100
AcDbArc
 50
14.3092747718
 51
31.9275947447
  0
ARC
  5
362
100
AcDbEntity
  8
0
100
AcDbCircle
 62
9
  6
CONTINUOUS
 10
10.0996758065
 20
6.3489530708
 40
0.0198544297
100
AcDbArc
 50
7.2921806438
 51
38.4957942488
  0
ARC
  5
363
100
AcDbEntity
  8
0
100
AcDbCircle
 62
6
  6
CONTINUOUS
 10
10.1178178043
 20
6.3846392056
 40
0.0195323547
100
AcDbArc
 50
5.049285665
 51
14.3114071669
  0
ARC
  5
364
100
AcDbEntity
  8
0
100
AcDbCircle
 62
9
  6
CONTINUOUS
 10
10.0996510381
 20
6.3494536356
 40
0.0194764947
100
AcDbArc
 50
73.909451192
 51
76.62802346
  0
ARC
  5
365
100
AcDbEntity
  8
0
100
AcDbCircle
 62
6
  6
CONTINUOUS
 10
10.4621213276
 20
5.7283973144
 40
1.0
100
AcDbArc
 50
346.3494233268
 51
13.6505766732
  0
ARC
  5
366
100
AcDbEntity
  8
0
100
AcDbCircle
 62
7
  6
CONTINUOUS
 10
10.5937080395
 20
6.3656392001
 40
0.3531767195
100
AcDbArc
 50
192.3650004293
 51
194.0821901536
  0
ARC
  5
367
100
AcDbEntity
  8
0
100
AcDbCircle
 62
7
  6
CONTINUOUS
 10
10.5750080786
 20
6.3609156849
 40
0.3338894418
100
AcDbArc
 50
194.0767659809
 51
195.7135159528
  0
ARC
  5
368
100
AcDbEntity
  8
0
100
AcDbCircle
 62
7
  6
CONTINUOUS
 10
10.5555372105
 20
6.3553659174
 40
0.313643219
100
AcDbArc
 50
195.7008903766
 51
197.8235187
  0
ARC
  5
369
100
AcDbEntity
  8
0
100
AcDbCircle
 62
9
  6
CONTINUOUS
 10
10.4311858631
 20
6.3783973144
 40
0.2200000018
100
AcDbArc
 50
304.0451323477
 51
308.0122795444
  0
ARC
  5
36A
100
AcDbEntity
  8
0
100
AcDbCircle
 62
7
  6
CONTINUOUS
 10
10.4311858631
 20
6.3783973144
 40
0.2
100
AcDbArc
 50
203.7318843874
 51
212.7558358832
  0
ARC
  5
36B
100
AcDbEntity
  8
0
100
AcDbCircle
 62
6
  6
CONTINUOUS
 10
10.4311858631
 20
6.3783973144
 40
0.2
100
AcDbArc
 50
212.7558358832
 51
308.0122795444
  0
ARC
  5
36C
100
AcDbEntity
  8
0
100
AcDbCircle
 62
6
  6
CONTINUOUS
 10
10.700281011
 20
6.3125686757
 40
0.0408203839
100
AcDbArc
 50
107.5852552467
 51
112.2626109803
  0
ARC
  5
36D
100
AcDbEntity
  8
0
100
AcDbCircle
 62
7
  6
CONTINUOUS
 10
9.9206511324
 20
7.1069423283
 40
1.9401268498
100
AcDbArc
 50
269.4943386771
 51
269.6413143202
  0
ARC
  5
36E
100
AcDbEntity
  8
0
100
AcDbCircle
 62
6
  6
CONTINUOUS
 10
9.8518968936
 20
7.1955876062
 40
0.8511011883
100
AcDbArc
 50
271.1928759787
 51
272.8159654419
  0
ARC
  5
36F
100
AcDbEntity
  8
0
100
AcDbCircle
 62
6
  6
CONTINUOUS
 10
10.186668325
 20
6.8279332137
 40
0.4785663896
100
AcDbArc
 50
268.6906313137
 51
269.8718946721
  0
ARC
  5
370
100
AcDbEntity
  8
0
100
AcDbCircle
 62
6
  6
CONTINUOUS
 10
10.1866275816
 20
6.8264417376
 40
0.4770748276
100
AcDbArc
 50
269.8763873725
 51
271.0226956996
  0
ARC
  5
371
100
AcDbEntity
  8
0
100
AcDbCircle
 62
9
  6
CONTINUOUS
 10
9.8892597154
 20
6.5416062471
 40
0.4511792593
100
AcDbArc
 50
265.7598547296
 51
269.9639768148
  0
ARC
  5
372
100
AcDbEntity
  8
0
100
AcDbCircle
 62
9
  6
CONTINUOUS
 10
9.8892619253
 20
6.5432932459
 40
0.4328764962
100
AcDbArc
 50
265.7744738015
 51
269.9621611913
  0
ARC
  5
373
100
AcDbEntity
  8
0
100
AcDbCircle
 62
6
  6
CONTINUOUS
 10
10.9392458989
 20
5.7283973144
 40
0.6719784581
100
AcDbArc
 50
67.4997073645
 51
67.7511328781
  0
ARC
  5
374
100
AcDbEntity
  8
0
100
AcDbCircle
 62
6
  6
CONTINUOUS
 10
10.9392458989
 20
5.7283973144
 40
0.6719784581
100
AcDbArc
 50
112.2488671219
 51
112.5002926355
  0
ARC
  5
375
100
AcDbEntity
  8
0
100
AcDbCircle
 62
9
  6
CONTINUOUS
 10
10.9392458989
 20
5.7283973144
 40
0.6718789896
100
AcDbArc
 50
291.5297668104
 51
67.4997073645
  0
ARC
  5
376
100
AcDbEntity
  8
0
100
AcDbCircle
 62
9
  6
CONTINUOUS
 10
10.9392458989
 20
5.7283973144
 40
0.6718789896
100
AcDbArc
 50
222.2036714663
 51
248.4702331896
  0
ARC
  5
377
100
AcDbEntity
  8
0
100
AcDbCircle
 62
9
  6
CONTINUOUS
 10
10.9392458989
 20
5.7283973144
 40
0.6718789896
100
AcDbArc
 50
112.5002926355
 51
137.8167654693
  0
ARC
  5
378
100
AcDbEntity
  8
0
100
AcDbCircle
 62
9
  6
CONTINUOUS
 10
10.9392458989
 20
5.7283973144
 40
0.6619784581
100
AcDbArc
 50
289.2412281497
 51
70.7587718503
  0
ARC
  5
379
100
AcDbEntity
  8
0
100
AcDbCircle
 62
9
  6
CONTINUOUS
 10
10.9392458989
 20
5.7283973144
 40
0.6619784581
100
AcDbArc
 50
109.2412281497
 51
136.8027597091
  0
ARC
  5
37A
100
AcDbEntity
  8
0
100
AcDbCircle
 62
9
  6
CONTINUOUS
 10
10.9392458989
 20
5.7283973144
 40
0.6619784581
100
AcDbArc
 50
223.1730901498
 51
250.7587718503
  0
ARC
  5
37B
100
AcDbEntity
  8
0
100
AcDbCircle
 62
9
  6
CONTINUOUS
 10
10.9392458989
 20
5.7283973144
 40
0.625
100
AcDbArc
 50
231.9877204556
 51
128.0122795444
  0
ARC
  5
37C
100
AcDbEntity
  8
0
100
AcDbCircle
 62
9
  6
CONTINUOUS
 10
10.9392458989
 20
5.7283973144
 40
0.6049999527
100
AcDbArc
 50
231.9877204556
 51
128.0122795444
  0
ARC
  5
37D
100
AcDbEntity
  8
0
100
AcDbCircle
 62
6
  6
CONTINUOUS
 10
10.9392458989
 20
5.7283973144
 40
0.32
100
AcDbArc
 50
227.7425641892
 51
312.2574358108
  0
ARC
  5
37E
100
AcDbEntity
  8
0
100
AcDbCircle
 62
6
  6
CONTINUOUS
 10
10.9392458989
 20
5.7283973144
 40
0.32
100
AcDbArc
 50
47.7425641892
 51
132.2574358108
  0
ARC
  5
37F
100
AcDbEntity
  8
0
100
AcDbCircle
 62
7
  6
CONTINUOUS
 10
10.9392458989
 20
5.7283973144
 40
0.29
100
AcDbArc
 50
234.6509633519
 51
305.3490366481
  0
ARC
  5
380
100
AcDbEntity
  8
0
100
AcDbCircle
 62
7
  6
CONTINUOUS
 10
10.9392458989
 20
5.7283973144
 40
0.29
100
AcDbArc
 50
54.6509633519
 51
125.3490366481
  0
ARC
  5
381
100
AcDbEntity
  8
0
100
AcDbCircle
 62
6
  6
CONTINUOUS
 10
10.9392458989
 20
5.7283973144
 40
0.275
100
AcDbArc
 50
59.1838130441
 51
120.7246980365
  0
ARC
  5
382
100
AcDbEntity
  8
0
100
AcDbCircle
 62
6
  6
CONTINUOUS
 10
10.9392458989
 20
5.7283973144
 40
0.275
100
AcDbArc
 50
239.1936126149
 51
300.5753754642
  0
ARC
  5
383
100
AcDbEntity
  8
0
100
AcDbCircle
 62
6
  6
CONTINUOUS
 10
10.9429980619
 20
5.7297528226
 40
0.2695515775
100
AcDbArc
 50
100.5874350484
 51
119.3490444131
  0
ARC
  5
384
100
AcDbEntity
  8
0
100
AcDbCircle
 62
6
  6
CONTINUOUS
 10
10.9429357685
 20
5.7303157533
 40
0.2689867881
100
AcDbArc
 50
100.2394946652
 51
100.596423382
  0
ARC
  5
385
100
AcDbEntity
  8
0
100
AcDbCircle
 62
6
  6
CONTINUOUS
 10
10.9353330879
 20
5.7292198122
 40
0.2592729811
100
AcDbArc
 50
246.4172247738
 51
269.7396170176
  0
ARC
  5
386
100
AcDbEntity
  8
0
100
AcDbCircle
 62
7
  6
CONTINUOUS
 10
10.9392458989
 20
5.7283973144
 40
0.245
100
AcDbArc
 50
75.2863830903
 51
104.7136169097
  0
ARC
  5
387
100
AcDbEntity
  8
0
100
AcDbCircle
 62
7
  6
CONTINUOUS
 10
10.9392458989
 20
5.7283973144
 40
0.245
100
AcDbArc
 50
255.2863830903
 51
284.7136169097
  0
ARC
  5
388
100
AcDbEntity
  8
0
100
AcDbCircle
 62
6
  6
CONTINUOUS
 10
10.9392458989
 20
5.7283973144
 40
0.185
100
AcDbArc
 50
200.7705942133
 51
228.0084279261
  0
ARC
  5
389
100
AcDbEntity
  8
0
100
AcDbCircle
 62
6
  6
CONTINUOUS
 10
10.9392458989
 20
5.7283973144
 40
0.185
100
AcDbArc
 50
131.9915720739
 51
159.2294057867
  0
ARC
  5
38A
100
AcDbEntity
  8
0
100
AcDbCircle
 62
6
  6
CONTINUOUS
 10
10.9392458989
 20
5.7283973144
 40
0.185
100
AcDbArc
 50
311.9915720739
 51
48.0084279261
  0
ARC
  5
38B
100
AcDbEntity
  8
0
100
AcDbCircle
 62
7
  6
CONTINUOUS
 10
11.2773994077
 20
6.1874435912
 40
1.4237103808
100
AcDbArc
 50
180.0015552056
 51
180.1890253367
  0
ARC
  5
38C
100
AcDbEntity
  8
0
100
AcDbCircle
 62
7
  6
CONTINUOUS
 10
11.2771242651
 20
6.1874433218
 40
1.4054444193
100
AcDbArc
 50
180.001547389
 51
180.1890536712
  0
ARC
  5
38D
100
AcDbEntity
  8
0
100
AcDbCircle
 62
6
  6
CONTINUOUS
 10
10.9587213078
 20
6.2403392624
 40
1.1407274243
100
AcDbArc
 50
177.109279599
 51
178.2291934718
  0
ARC
  5
38E
100
AcDbEntity
  8
0
100
AcDbCircle
 62
6
  6
CONTINUOUS
 10
11.1780165804
 20
6.3110252127
 40
0.0423721381
100
AcDbArc
 50
81.3435624963
 51
90.0750555173
  0
ARC
  5
38F
100
AcDbEntity
  8
0
100
AcDbCircle
 62
6
  6
CONTINUOUS
 10
11.1782772922
 20
6.3127590104
 40
0.0406188513
100
AcDbArc
 50
67.7373890193
 51
81.339033699
  0
ARC
  5
390
100
AcDbEntity
  8
0
100
AcDbCircle
 62
6
  6
CONTINUOUS
 10
11.7472458989
 20
6.0183973144
 40
0.04
100
AcDbArc
 50
90.0
 51
180.0
  0
ARC
  5
391
100
AcDbEntity
  8
0
100
AcDbCircle
 62
6
  6
CONTINUOUS
 10
11.9672458989
 20
12.6055398764
 40
6.547142562
100
AcDbArc
 50
270.0
 51
277.7951489451
  0
ARC
  5
392
100
AcDbEntity
  8
0
100
AcDbCircle
 62
6
  6
CONTINUOUS
 10
12.7584754874
 20
6.8257836542
 40
0.713479369
100
AcDbArc
 50
277.7951489451
 51
286.8392341564
  0
ARC
  5
393
100
AcDbEntity
  8
0
100
AcDbCircle
 62
6
  6
CONTINUOUS
 10
13.6227140465
 20
5.7283973144
 40
0.5280321304
100
AcDbArc
 50
266.4170107428
 51
314.771776675
  0
ARC
  5
394
100
AcDbEntity
  8
0
100
AcDbCircle
 62
6
  6
CONTINUOUS
 10
13.6227140465
 20
5.7283973144
 40
0.5280321304
100
AcDbArc
 50
45.228223325
 51
93.5829892572
  0
ARC
  5
395
100
AcDbEntity
  8
0
100
AcDbCircle
 62
6
  6
CONTINUOUS
 10
13.9418547457
 20
5.790853024
 40
0.282
100
AcDbArc
 50
22.9994017123
 51
62.4592100474
  0
ARC
  5
396
100
AcDbEntity
  8
0
100
AcDbCircle
 62
6
  6
CONTINUOUS
 10
13.8537420233
 20
5.9612731451
 40
0.2
100
AcDbArc
 50
19.1389190771
 51
45.228223325
  0
ARC
  5
397
100
AcDbEntity
  8
0
100
AcDbCircle
 62
6
  6
CONTINUOUS
 10
14.3409958989
 20
5.7283973144
 40
0.28125
100
AcDbArc
 50
325.4071660164
 51
34.5928339836
  0
ARC
  5
398
100
AcDbEntity
  8
0
100
AcDbCircle
 62
6
  6
CONTINUOUS
 10
14.4212881014
 20
5.7477723144
 40
0.234375
100
AcDbArc
 50
231.0271069131
 51
310.1858317956
  0
ARC
  5
399
100
AcDbEntity
  8
0
100
AcDbCircle
 62
6
  6
CONTINUOUS
 10
14.2152458989
 20
5.9068973144
 40
0.015
100
AcDbArc
 50
202.9994017123
 51
320.7035197608
  0
ARC
  5
39A
100
AcDbEntity
  8
0
100
AcDbCircle
 62
6
  6
CONTINUOUS
 10
14.2384622724
 20
5.8878973144
 40
0.015
100
AcDbArc
 50
30.0
 51
140.7035197608
  0
ARC
  5
39B
100
AcDbEntity
  8
0
100
AcDbCircle
 62
6
  6
CONTINUOUS
 10
14.2644430346
 20
5.9028973144
 40
0.015
100
AcDbArc
 50
210.0
 51
308.9728930869
  0
ARC
  5
39C
100
AcDbEntity
  8
0
100
AcDbCircle
 62
6
  6
CONTINUOUS
 10
13.7615116771
 20
7.9450239171
 40
2.749
100
AcDbArc
 50
253.1607658436
 51
266.4170107428
  0
LINE
  5
39D
100
AcDbEntity
  8
0
100
AcDbLine
 62
7
  6
CONTINUOUS
 10
10.1995994176
 20
5.3663675518
 11
9.8889760486
 21
5.3663675518
  0
LINE
  5
39E
100
AcDbEntity
  8
0
100
AcDbLine
 62
7
  6
CONTINUOUS
 10
9.8889760486
 20
6.090427077
 11
10.1995994176
 21
6.090427077
  0
SPLINE
  5
39F
100
AcDbEntity
  8
0
100
AcDbSpline
 62
7
  6
CONTINUOUS
 70
0
 71
3
 72
11
 73
7
 74
5
 42
0.0000001
 43
0.0000001
 44
0.0000000001
 12
-0.000237107
 22
-0.019465136
 32
0.0
 13
-0.0112526571
 23
-0.0158847552
 33
0.0
 40
0.0
 40
0.0
 40
0.0
 40
0.0
 40
0.2556800826
 40
0.5092932512
 40
0.758338097
 40
1.0
 40
1.0
 40
1.0
 40
1.0
 10
10.2450206522
 20
5.3591701911
 30
0.0
 10
10.2450004444
 20
5.3575112419
 30
0.0
 10
10.2447760539
 20
5.3542046472
 30
0.0
 10
10.2438018086
 20
5.3493658534
 30
0.0
 10
10.2421534216
 20
5.3448034128
 30
0.0
 10
10.2405420479
 20
5.3420330605
 30
0.0
 10
10.2396356017
 20
5.3407534804
 30
0.0
 11
10.2450206522
 21
5.3591701911
 31
0.0
 11
10.2446667931
 21
5.3542055692
 31
0.0
 11
10.2436769491
 21
5.3493688357
 31
0.0
 11
10.2420019337
 21
5.3448193384
 31
0.0
 11
10.2396356017
 21
5.3407534804
 31
0.0
  0
SPLINE
  5
3A0
100
AcDbEntity
  8
0
100
AcDbSpline
 62
7
  6
CONTINUOUS
 70
0
 71
3
 72
9
 73
5
 74
3
 42
0.0000001
 43
0.0000001
 44
0.0000000001
 12
0.0050556153
 22
-0.0071091727
 32
0.0
 13
0.0025748296
 23
-0.0083348566
 33
0.0
 40
0.0
 40
0.0
 40
0.0
 40
0.0
 40
0.4929548067
 40
1.0
 40
1.0
 40
1.0
 40
1.0
 10
10.2396353038
 20
6.1160415972
 30
0.0
 10
10.2404660338
 20
6.1148734303
 30
0.0
 10
10.2419505979
 20
6.1123551514
 30
0.0
 10
10.243007723
 20
6.1096327297
 30
0.0
 10
10.243442908
 20
6.1082240133
 30
0.0
 11
10.2396353038
 21
6.1160415972
 31
0.0
 11
10.2418258102
 21
6.1123410273
 31
0.0
 11
10.243442908
 21
6.1082240133
 31
0.0
  0
SPLINE
  5
3A1
100
AcDbEntity
  8
0
100
AcDbSpline
 62
7
  6
CONTINUOUS
 70
0
 71
3
 72
9
 73
5
 74
3
 42
0.0000001
 43
0.0000001
 44
0.0000000001
 12
0.0031711823
 22
-0.0102652813
 32
0.0
 13
0.0000645317
 23
-0.0107437532
 33
0.0
 40
0.0
 40
0.0
 40
0.0
 40
0.0
 40
0.4975777564
 40
1.0
 40
1.0
 40
1.0
 40
1.0
 10
10.243442908
 20
6.1082240133
 30
0.0
 10
10.2439688779
 20
6.1065214214
 30
0.0
 10
10.244733001
 20
6.1030064543
 30
0.0
 10
10.2450098449
 20
6.0994237628
 30
0.0
 10
10.2450206522
 20
6.0976244626
 30
0.0
 11
10.243442908
 21
6.1082240133
 31
0.0
 11
10.2446086569
 21
6.1030067151
 31
0.0
 11
10.2450206522
 21
6.0976244626
 31
0.0
  0
LINE
  5
3A2
100
AcDbEntity
  8
0
100
AcDbLine
 62
7
  6
CONTINUOUS
 10
9.9083929265
 20
6.3079326714
 11
9.9033700877
 21
6.3078947875
  0
LINE
  5
3A3
100
AcDbEntity
  8
0
100
AcDbLine
 62
7
  6
CONTINUOUS
 10
9.9489187422
 20
6.3487424731
 11
9.9489109243
 21
6.3477387988
  0
LINE
  5
3A4
100
AcDbEntity
  8
0
100
AcDbLine
 62
7
  6
CONTINUOUS
 10
10.119536524
 20
6.3479412007
 11
10.1195335051
 21
6.3489441296
  0
LINE
  5
3A5
100
AcDbEntity
  8
0
100
AcDbLine
 62
7
  6
CONTINUOUS
 10
10.2477336342
 20
6.2951541217
 11
10.2480204019
 21
6.2979850469
  0
LINE
  5
3A6
100
AcDbEntity
  8
0
100
AcDbLine
 62
7
  6
CONTINUOUS
 10
10.2477336342
 20
6.2951541217
 11
10.2473848135
 21
6.2955158906
  0
LINE
  5
3A7
100
AcDbEntity
  8
0
100
AcDbLine
 62
7
  6
CONTINUOUS
 10
9.9669150277
 20
6.3486078787
 11
9.9669071205
 21
6.3475927562
  0
LINE
  5
3A8
100
AcDbEntity
  8
0
100
AcDbLine
 62
7
  6
CONTINUOUS
 10
10.1015390443
 20
6.3478829151
 11
10.1015353096
 21
6.3491287826
  0
LINE
  5
3A9
100
AcDbEntity
  8
0
100
AcDbLine
 62
7
  6
CONTINUOUS
 10
10.1647565521
 20
6.2900475304
 11
10.1597906306
 21
6.2900475304
  0
LINE
  5
3AA
100
AcDbEntity
  8
0
100
AcDbLine
 62
7
  6
CONTINUOUS
 10
9.9033700877
 20
5.1488998413
 11
9.9083929265
 21
5.1488619574
  0
LINE
  5
3AB
100
AcDbEntity
  8
0
100
AcDbLine
 62
7
  6
CONTINUOUS
 10
9.9489109243
 20
5.10905583
 11
9.9489187422
 21
5.1080521557
  0
LINE
  5
3AC
100
AcDbEntity
  8
0
100
AcDbLine
 62
7
  6
CONTINUOUS
 10
10.1195335051
 20
5.1078504993
 11
10.119536524
 21
5.1088534281
  0
LINE
  5
3AD
100
AcDbEntity
  8
0
100
AcDbLine
 62
7
  6
CONTINUOUS
 10
10.2477342716
 20
5.1616401808
 11
10.247384816
 21
5.1612787354
  0
LINE
  5
3AE
100
AcDbEntity
  8
0
100
AcDbLine
 62
7
  6
CONTINUOUS
 10
10.2477342716
 20
5.1616401808
 11
10.2480203731
 21
5.1588099248
  0
LINE
  5
3AF
100
AcDbEntity
  8
0
100
AcDbLine
 62
7
  6
CONTINUOUS
 10
9.9689808221
 20
5.1058383499
 11
9.9707347529
 21
5.1058324782
  0
LINE
  5
3B0
100
AcDbEntity
  8
0
100
AcDbLine
 62
7
  6
CONTINUOUS
 10
9.9707347529
 20
5.1058324782
 11
9.9724867584
 21
5.1058305281
  0
LINE
  5
3B1
100
AcDbEntity
  8
0
100
AcDbLine
 62
7
  6
CONTINUOUS
 10
9.9669071205
 20
5.1092018726
 11
9.9669150277
 21
5.1081867501
  0
LINE
  5
3B2
100
AcDbEntity
  8
0
100
AcDbLine
 62
7
  6
CONTINUOUS
 10
10.1597906306
 20
5.1667470985
 11
10.1647565521
 21
5.1667470985
  0
LINE
  5
3B3
100
AcDbEntity
  8
0
100
AcDbLine
 62
7
  6
CONTINUOUS
 10
10.1015353096
 20
5.1076658469
 11
10.1015390443
 21
5.1089117137
  0
LINE
  5
3B4
100
AcDbEntity
  8
0
100
AcDbLine
 62
7
  6
CONTINUOUS
 10
10.2477361803
 20
5.1621369695
 11
10.2489408602
 21
5.167766844
  0
LINE
  5
3B5
100
AcDbEntity
  8
0
100
AcDbLine
 62
7
  6
CONTINUOUS
 10
10.2505950147
 20
5.316351784
 11
10.2460888974
 21
5.3152041953
  0
LINE
  5
3B6
100
AcDbEntity
  8
0
100
AcDbLine
 62
7
  6
CONTINUOUS
 10
10.2460888974
 20
5.3152041953
 11
10.2430825764
 21
5.3141675626
  0
SPLINE
  5
3B7
100
AcDbEntity
  8
0
100
AcDbSpline
 62
7
  6
CONTINUOUS
 70
0
 71
3
 72
10
 73
6
 74
4
 42
0.0000001
 43
0.0000001
 44
0.0000000001
 12
-0.0013641202
 22
-0.000602185
 32
0.0
 13
-0.0005360391
 23
-0.0013914428
 33
0.0
 40
0.0
 40
0.0
 40
0.0
 40
0.0
 40
0.639224596
 40
0.8515871459
 40
1.0
 40
1.0
 40
1.0
 40
1.0
 10
10.2430825764
 20
5.3141675626
 30
0.0
 10
10.2427919167
 20
5.3140392521
 30
0.0
 10
10.2424058388
 20
5.3138548522
 30
0.0
 10
10.2420095193
 20
5.3135551742
 30
0.0
 10
10.2418931677
 20
5.3134109172
 30
0.0
 10
10.2418666494
 20
5.3133420812
 30
0.0
 11
10.2430825764
 21
5.3141675626
 31
0.0
 11
10.242239686
 21
5.3137225281
 31
0.0
 11
10.2419934019
 21
5.3135234878
 31
0.0
 11
10.2418666494
 21
5.3133420812
 31
0.0
  0
SPLINE
  5
3B8
100
AcDbEntity
  8
0
100
AcDbSpline
 62
7
  6
CONTINUOUS
 70
0
 71
3
 72
11
 73
7
 74
5
 42
0.0000001
 43
0.0000001
 44
0.0000000001
 12
-0.0074888447
 22
-0.003661762
 32
0.0
 13
-0.0057645368
 23
-0.0060217449
 33
0.0
 40
0.0
 40
0.0
 40
0.0
 40
0.0
 40
0.3106569902
 40
0.5850174072
 40
0.815971351
 40
1.0
 40
1.0
 40
1.0
 40
1.0
 10
10.2483754159
 20
5.3250260732
 30
0.0
 10
10.2475999285
 20
5.3246468892
 30
0.0
 10
10.2461546361
 20
5.3239013741
 30
0.0
 10
10.2441968401
 20
5.3227542982
 30
0.0
 10
10.2426179588
 20
5.3216673886
 30
0.0
 10
10.2417371545
 20
5.3209155719
 30
0.0
 10
10.2413835412
 20
5.3205461807
 30
0.0
 11
10.2483754159
 21
5.3250260732
 31
0.0
 11
10.2460767052
 21
5.3238334378
 31
0.0
 11
10.2441089196
 21
5.3226678125
 31
0.0
 11
10.2425320622
 21
5.3215632007
 31
0.0
 11
10.2413835412
 21
5.3205461807
 31
0.0
  0
SPLINE
  5
3B9
100
AcDbEntity
  8
0
100
AcDbSpline
 62
7
  6
CONTINUOUS
 70
0
 71
3
 72
10
 73
6
 74
4
 42
0.0000001
 43
0.0000001
 44
0.0000000001
 12
-0.0013409779
 22
-0.0014008111
 32
0.0
 13
0.0000605707
 23
-0.001938253
 33
0.0
 40
0.0
 40
0.0
 40
0.0
 40
0.0
 40
0.3188450797
 40
0.5884892377
 40
1.0
 40
1.0
 40
1.0
 40
1.0
 10
10.2413835412
 20
5.3205461807
 30
0.0
 10
10.2412410198
 20
5.3203973001
 30
0.0
 10
10.2409888919
 20
5.3201097306
 30
0.0
 10
10.240627618
 20
5.3195778778
 30
0.0
 10
10.2404646279
 20
5.3191399737
 30
0.0
 10
10.2404729364
 20
5.3188741031
 30
0.0
 11
10.2413835412
 21
5.3205461807
 31
0.0
 11
10.2409794144
 21
5.3200782262
 31
0.0
 11
10.2406918921
 21
5.3196414782
 31
0.0
 11
10.2404729364
 21
5.3188741031
 31
0.0
  0
SPLINE
  5
3BA
100
AcDbEntity
  8
0
100
AcDbSpline
 62
7
  6
CONTINUOUS
 70
0
 71
3
 72
14
 73
10
 74
8
 42
0.0000001
 43
0.0000001
 44
0.0000000001
 12
0.0038645286
 22
-0.0086767419
 32
0.0
 13
-0.0071877165
 23
-0.0062094414
 33
0.0
 40
0.0
 40
0.0
 40
0.0
 40
0.0
 40
0.2544870729
 40
0.5078347379
 40
0.6337941533
 40
0.7584355578
 40
0.8197018251
 40
0.8805572915
 40
1.0
 40
1.0
 40
1.0
 40
1.0
 10
10.2281841101
 20
5.3596569766
 30
0.0
 10
10.2285119343
 20
5.3589209371
 30
0.0
 10
10.2291031758
 20
5.3574236245
 30
0.0
 10
10.2295985962
 20
5.3554659274
 30
0.0
 10
10.2297152766
 20
5.353870741
 30
0.0
 10
10.2296289514
 20
5.3528790015
 30
0.0
 10
10.2294094502
 20
5.3521258955
 30
0.0
 10
10.2290801927
 20
5.3514332675
 30
0.0
 10
10.2287121905
 20
5.3509789195
 30
0.0
 10
10.228426017
 20
5.3507316954
 30
0.0
 11
10.2281841101
 21
5.3596569766
 31
0.0
 11
10.2290557141
 21
5.3574023563
 31
0.0
 11
10.2296050793
 21
5.3550594949
 31
0.0
 11
10.2296833987
 21
5.3538656427
 31
0.0
 11
10.2295602067
 21
5.3526881702
 31
0.0
 11
10.2293945312
 21
5.3521303181
 31
0.0
 11
10.2291461209
 21
5.3516083856
 31
0.0
 11
10.228426017
 21
5.3507316954
 31
0.0
  0
SPLINE
  5
3BB
100
AcDbEntity
  8
0
100
AcDbSpline
 62
7
  6
CONTINUOUS
 70
0
 71
3
 72
11
 73
7
 74
5
 42
0.0000001
 43
0.0000001
 44
0.0000000001
 12
-0.0074888916
 22
0.0036615235
 32
0.0
 13
-0.005764419
 23
0.0060217709
 33
0.0
 40
0.0
 40
0.0
 40
0.0
 40
0.0
 40
0.3106554656
 40
0.5850150936
 40
0.8159694882
 40
1.0
 40
1.0
 40
1.0
 40
1.0
 10
10.2483754043
 20
6.1317685556
 30
0.0
 10
10.247599916
 20
6.1321477131
 30
0.0
 10
10.2461546227
 20
6.1328931867
 30
0.0
 10
10.2441968322
 20
6.134040229
 30
0.0
 10
10.2426179599
 20
6.135127135
 30
0.0
 10
10.2417371654
 20
6.1358789603
 30
0.0
 10
10.2413835557
 20
6.1362483568
 30
0.0
 11
10.2483754043
 21
6.1317685556
 31
0.0
 11
10.2460766952
 21
6.1329611242
 31
0.0
 11
10.2441089172
 21
6.1341267156
 31
0.0
 11
10.2425320695
 21
6.1352313227
 31
0.0
 11
10.2413835557
 21
6.1362483568
 31
0.0
  0
SPLINE
  5
3BC
100
AcDbEntity
  8
0
100
AcDbSpline
 62
7
  6
CONTINUOUS
 70
0
 71
3
 72
10
 73
6
 74
4
 42
0.0000001
 43
0.0000001
 44
0.0000000001
 12
-0.0013410179
 22
0.0014008875
 32
0.0
 13
0.0000606071
 23
0.0019383347
 33
0.0
 40
0.0
 40
0.0
 40
0.0
 40
0.0
 40
0.318842253
 40
0.58848525
 40
1.0
 40
1.0
 40
1.0
 40
1.0
 10
10.2413835557
 20
6.1362483568
 30
0.0
 10
10.2412410314
 20
6.1363972442
 30
0.0
 10
10.2409888984
 20
6.1366848275
 30
0.0
 10
10.2406276179
 20
6.1372167097
 30
0.0
 10
10.2404646321
 20
6.1376546383
 30
0.0
 10
10.2404729457
 20
6.1379205228
 30
0.0
 11
10.2413835557
 21
6.1362483568
 31
0.0
 11
10.2409794217
 21
6.1367163329
 31
0.0
 11
10.2406918961
 21
6.1371531027
 31
0.0
 11
10.2404729457
 21
6.1379205228
 31
0.0
  0
LINE
  5
3BD
100
AcDbEntity
  8
0
100
AcDbLine
 62
7
  6
CONTINUOUS
 10
10.2505950147
 20
6.1404428448
 11
10.2460889128
 21
6.1415904183
  0
LINE
  5
3BE
100
AcDbEntity
  8
0
100
AcDbLine
 62
7
  6
CONTINUOUS
 10
10.2460889128
 20
6.1415904183
 11
10.2430825862
 21
6.1426270567
  0
SPLINE
  5
3BF
100
AcDbEntity
  8
0
100
AcDbSpline
 62
7
  6
CONTINUOUS
 70
0
 71
3
 72
10
 73
6
 74
4
 42
0.0000001
 43
0.0000001
 44
0.0000000001
 12
-0.0013641286
 22
0.0006021921
 32
0.0
 13
-0.0005360353
 23
0.0013914555
 33
0.0
 40
0.0
 40
0.0
 40
0.0
 40
0.0
 40
0.6392243896
 40
0.8515869313
 40
1.0
 40
1.0
 40
1.0
 40
1.0
 10
10.2430825862
 20
6.1426270567
 30
0.0
 10
10.2427919248
 20
6.1427553686
 30
0.0
 10
10.2424058447
 20
6.1429397705
 30
0.0
 10
10.2420095232
 20
6.1432394517
 30
0.0
 10
10.2418931713
 20
6.1433837104
 30
0.0
 10
10.2418666531
 20
6.1434525471
 30
0.0
 11
10.2430825862
 21
6.1426270567
 31
0.0
 11
10.242239691
 21
6.143072096
 31
0.0
 11
10.2419934059
 21
6.1432711384
 31
0.0
 11
10.2418666531
 21
6.1434525471
 31
0.0
  0
LINE
  5
3C0
100
AcDbEntity
  8
0
100
AcDbLine
 62
7
  6
CONTINUOUS
 10
10.2487238655
 20
6.2900104038
 11
10.2477361803
 21
6.2946568742
  0
SPLINE
  5
3C1
100
AcDbEntity
  8
0
100
AcDbSpline
 62
7
  6
CONTINUOUS
 70
0
 71
3
 72
14
 73
10
 74
8
 42
0.0000001
 43
0.0000001
 44
0.0000000001
 12
0.0071753572
 22
-0.0060180462
 32
0.0
 13
-0.0038074398
 23
-0.0085560525
 33
0.0
 40
0.0
 40
0.0
 40
0.0
 40
0.0
 40
0.1194478948
 40
0.2414145787
 40
0.3659123865
 40
0.4918041833
 40
0.6184035592
 40
0.7455056791
 40
1.0
 40
1.0
 40
1.0
 40
1.0
 10
10.2284260212
 20
6.1060629113
 30
0.0
 10
10.2287117149
 20
6.1058232969
 30
0.0
 10
10.2291994034
 20
6.1052246242
 30
0.0
 10
10.2296059113
 20
6.1041400555
 30
0.0
 10
10.229716
 20
6.1029739833
 30
0.0
 10
10.2296384537
 20
6.1017965724
 30
0.0
 10
10.2294169937
 20
6.1006302221
 30
0.0
 10
10.228990296
 20
6.0991011028
 30
0.0
 10
10.2285558365
 20
6.097988223
 30
0.0
 10
10.2282328459
 20
6.0972624007
 30
0.0
 11
10.2284260212
 21
6.1060629113
 31
0.0
 11
10.2291405815
 21
6.1052022563
 31
0.0
 11
10.2295538909
 21
6.1041374424
 31
0.0
 11
10.2296845529
 21
6.1029788691
 31
0.0
 11
10.2296148903
 21
6.1018019563
 31
0.0
 11
10.2294011006
 21
6.1006357919
 31
0.0
 11
10.2290846047
 21
6.099488333
 31
0.0
 11
10.2282328459
 21
6.0972624007
 31
0.0
  0
SPLINE
  5
3C2
100
AcDbEntity
  8
0
100
AcDbSpline
 62
7
  6
CONTINUOUS
 70
0
 71
3
 72
9
 73
5
 74
3
 42
0.0000001
 43
0.0000001
 44
0.0000000001
 12
-0.0054401866
 22
-0.0056503475
 32
0.0
 13
-0.0060324275
 23
-0.0050131702
 33
0.0
 40
0.0
 40
0.0
 40
0.0
 40
0.0
 40
0.2438332291
 40
1.0
 40
1.0
 40
1.0
 40
1.0
 10
10.2382460061
 20
6.1145493693
 30
0.0
 10
10.23780384
 20
6.1140901218
 30
0.0
 10
10.2359621861
 20
6.1122340023
 30
0.0
 10
10.2340140566
 20
6.1104842201
 30
0.0
 10
10.2324935495
 20
6.1092206225
 30
0.0
 11
10.2382460061
 21
6.1145493693
 31
0.0
 11
10.2368993967
 21
6.1131912769
 31
0.0
 11
10.2324935495
 21
6.1092206225
 31
0.0
  0
SPLINE
  5
3C3
100
AcDbEntity
  8
0
100
AcDbSpline
 62
7
  6
CONTINUOUS
 70
0
 71
3
 72
13
 73
9
 74
7
 42
0.0000001
 43
0.0000001
 44
0.0000000001
 12
-0.0167073778
 22
-0.0011309788
 32
0.0
 13
-0.0167441774
 23
0.0002193373
 33
0.0
 40
0.0
 40
0.0
 40
0.0
 40
0.0
 40
0.2300557996
 40
0.351782894
 40
0.4770440275
 40
0.6052163711
 40
0.7356333604
 40
1.0
 40
1.0
 40
1.0
 40
1.0
 10
10.2450206522
 20
5.3594322561
 30
0.0
 10
10.2437394425
 20
5.3593455267
 30
0.0
 10
10.2417770447
 20
5.3592538642
 30
0.0
 10
10.239114085
 20
5.3592320044
 30
0.0
 10
10.2370201271
 20
5.3592643689
 30
0.0
 10
10.2348781484
 20
5.3593154921
 30
0.0
 10
10.2319595381
 20
5.3593690574
 30
0.0
 10
10.2297559883
 20
5.3593900211
 30
0.0
 10
10.2282804544
 20
5.3594093496
 30
0.0
 11
10.2450206522
 21
5.3594322561
 31
0.0
 11
10.2411721722
 21
5.3592579454
 31
0.0
 11
10.2391338554
 21
5.3592400909
 31
0.0
 11
10.2370364538
 21
5.3592670224
 31
0.0
 11
10.2348906268
 21
5.3593132391
 31
0.0
 11
10.2327070801
 21
5.3593532121
 31
0.0
 11
10.2282804544
 21
5.3594093496
 31
0.0
  0
SPLINE
  5
3C4
100
AcDbEntity
  8
0
100
AcDbSpline
 62
7
  6
CONTINUOUS
 70
0
 71
3
 72
9
 73
5
 74
3
 42
0.0000001
 43
0.0000001
 44
0.0000000001
 12
-0.0054413357
 22
0.0056516329
 32
0.0
 13
-0.0060339556
 23
0.0050140272
 33
0.0
 40
0.0
 40
0.0
 40
0.0
 40
0.0
 40
0.2438329554
 40
1.0
 40
1.0
 40
1.0
 40
1.0
 10
10.2382462392
 20
5.3422452806
 30
0.0
 10
10.2378039803
 20
5.342704632
 30
0.0
 10
10.2359619233
 20
5.3445611611
 30
0.0
 10
10.2340133139
 20
5.3463112751
 30
0.0
 10
10.2324924211
 20
5.3475750891
 30
0.0
 11
10.2382462392
 21
5.3422452806
 31
0.0
 11
10.2368993369
 21
5.3436036711
 31
0.0
 11
10.2324924211
 21
5.3475750891
 31
0.0
  0
SPLINE
  5
3C5
100
AcDbEntity
  8
0
100
AcDbSpline
 62
7
  6
CONTINUOUS
 70
0
 71
3
 72
15
 73
11
 74
9
 42
0.0000001
 43
0.0000001
 44
0.0000000001
 12
0.0096970352
 22
0.0087921331
 32
0.0
 13
-0.0070819368
 23
0.0110081909
 33
0.0
 40
0.0
 40
0.0
 40
0.0
 40
0.0
 40
0.1831293977
 40
0.3526766288
 40
0.505543159
 40
0.6396147572
 40
0.7543175626
 40
0.8502186738
 40
0.9301160381
 40
1.0
 40
1.0
 40
1.0
 40
1.0
 10
10.2569476445
 20
6.2593640852
 30
0.0
 10
10.2575395819
 20
6.2599007845
 30
0.0
 10
10.2586520187
 20
6.2609654384
 30
0.0
 10
10.2601492275
 20
6.2625873766
 30
0.0
 10
10.2613894005
 20
6.2641488644
 30
0.0
 10
10.2623458779
 20
6.2656211457
 30
0.0
 10
10.2630058152
 20
6.2669783176
 30
0.0
 10
10.263354816
 20
6.2682062532
 30
0.0
 10
10.263382126
 20
6.2692936616
 30
0.0
 10
10.2631542707
 20
6.269928996
 30
0.0
 10
10.2629892994
 20
6.270185428
 30
0.0
 11
10.2569476445
 21
6.2593640852
 31
0.0
 11
10.258676538
 21
6.2610244622
 31
0.0
 11
10.2601768027
 21
6.2626598279
 31
0.0
 11
10.2614131505
 21
6.2642331077
 31
0.0
 11
10.2623582774
 21
6.2657117892
 31
0.0
 11
10.262997254
 21
6.2670704304
 31
0.0
 11
10.2633170072
 21
6.2682843173
 31
0.0
 11
10.2633136667
 21
6.2693301257
 31
0.0
 11
10.2629892994
 21
6.270185428
 31
0.0
  0
SPLINE
  5
3C6
100
AcDbEntity
  8
0
100
AcDbSpline
 62
7
  6
CONTINUOUS
 70
0
 71
3
 72
15
 73
11
 74
9
 42
0.0000001
 43
0.0000001
 44
0.0000000001
 12
0.0096969962
 22
-0.0087921359
 32
0.0
 13
-0.0070819493
 23
-0.0110081507
 33
0.0
 40
0.0
 40
0.0
 40
0.0
 40
0.0
 40
0.1831295515
 40
0.352676899
 40
0.5055435004
 40
0.6396151067
 40
0.754317866
 40
0.8502188957
 40
0.9301161538
 40
1.0
 40
1.0
 40
1.0
 40
1.0
 10
10.2569476458
 20
5.1974305437
 30
0.0
 10
10.2575395813
 20
5.1968938437
 30
0.0
 10
10.2586520145
 20
5.1958291889
 30
0.0
 10
10.2601492185
 20
5.1942072504
 30
0.0
 10
10.2613893874
 20
5.1926457636
 30
0.0
 10
10.2623458615
 20
5.1911734843
 30
0.0
 10
10.2630057962
 20
5.1898163152
 30
0.0
 10
10.2633547951
 20
5.1885883829
 30
0.0
 10
10.2633821037
 20
5.1875009779
 30
0.0
 10
10.2631542479
 20
5.1868656462
 30
0.0
 10
10.2629892766
 20
5.1866092155
 30
0.0
 11
10.2569476458
 21
5.1974305437
 31
0.0
 11
10.2586765339
 21
5.1957701651
 31
0.0
 11
10.2601767937
 21
5.1941347992
 31
0.0
 11
10.2614131375
 21
5.1925615202
 31
0.0
 11
10.262358261
 21
5.1910828409
 31
0.0
 11
10.262997235
 21
5.1897242025
 31
0.0
 11
10.2633169862
 21
5.1885103188
 31
0.0
 11
10.2633136444
 21
5.1874645139
 31
0.0
 11
10.2629892766
 21
5.1866092155
 31
0.0
  0
SPLINE
  5
3C7
100
AcDbEntity
  8
0
100
AcDbSpline
 62
6
  6
CONTINUOUS
 70
0
 71
3
 72
15
 73
11
 74
9
 42
0.0000001
 43
0.0000001
 44
0.0000000001
 12
-0.0071979669
 22
0.0656347387
 32
0.0
 13
-0.0654765869
 23
0.0085174068
 33
0.0
 40
0.0
 40
0.0
 40
0.0
 40
0.0
 40
0.126985633
 40
0.2535308871
 40
0.3794739149
 40
0.504730249
 40
0.6293051456
 40
0.7532566226
 40
0.8768124438
 40
1.0
 40
1.0
 40
1.0
 40
1.0
 10
10.2510751619
 20
6.3054546429
 30
0.0
 10
10.2507704824
 20
6.3082328659
 30
0.0
 10
10.2496881606
 20
6.3137394095
 30
0.0
 10
10.2466999011
 20
6.3215796496
 30
0.0
 10
10.2424493864
 20
6.3287716765
 30
0.0
 10
10.2370823561
 20
6.3351151659
 30
0.0
 10
10.2307703335
 20
6.340450061
 30
0.0
 10
10.2236995951
 20
6.3446551152
 30
0.0
 10
10.2160711864
 20
6.347643233
 30
0.0
 10
10.2107339668
 20
6.348790142
 30
0.0
 10
10.2080453332
 20
6.3491398882
 30
0.0
 11
10.2510751619
 21
6.3054546429
 31
0.0
 11
10.2494569438
 21
6.3136816437
 31
0.0
 11
10.2464809389
 21
6.3214892556
 31
0.0
 11
10.242250319
 21
6.3286484695
 31
0.0
 11
10.2369090769
 21
6.3349628644
 31
0.0
 11
10.2306276572
 21
6.3402734195
 31
0.0
 11
10.2235942768
 21
6.3444584297
 31
0.0
 11
10.2159985222
 21
6.3474350592
 31
0.0
 11
10.2080453332
 21
6.3491398882
 31
0.0
  0
LINE
  5
3C8
100
AcDbEntity
  8
0
100
AcDbLine
 62
6
  6
CONTINUOUS
 10
10.2008962621
 20
6.3495495401
 11
10.1990243799
 21
6.3495132434
  0
LINE
  5
3C9
100
AcDbEntity
  8
0
100
AcDbLine
 62
6
  6
CONTINUOUS
 10
10.1990243799
 20
6.3495132434
 11
10.1970876461
 21
6.3494773268
  0
LINE
  5
3CA
100
AcDbEntity
  8
0
100
AcDbLine
 62
6
  6
CONTINUOUS
 10
10.1970876461
 20
6.3494773268
 11
10.1951426323
 21
6.3494428875
  0
SPLINE
  5
3CB
100
AcDbEntity
  8
0
100
AcDbSpline
 62
6
  6
CONTINUOUS
 70
0
 71
3
 72
9
 73
5
 74
3
 42
0.0000001
 43
0.0000001
 44
0.0000000001
 12
-0.0121721892
 22
0.0002216387
 32
0.0
 13
-0.0115043544
 23
0.0039826052
 33
0.0
 40
0.0
 40
0.0
 40
0.0
 40
0.0
 40
0.4923228484
 40
1.0
 40
1.0
 40
1.0
 40
1.0
 10
10.1757326991
 20
6.3494918355
 30
0.0
 10
10.1737351501
 20
6.349528208
 30
0.0
 10
10.1696779166
 20
6.3499278271
 30
0.0
 10
10.1657329752
 20
6.3509571546
 30
0.0
 10
10.1637861426
 20
6.3516311138
 30
0.0
 11
10.1757326991
 21
6.3494918355
 31
0.0
 11
10.1697674301
 21
6.3500743211
 31
0.0
 11
10.1637861426
 21
6.3516311138
 31
0.0
  0
SPLINE
  5
3CC
100
AcDbEntity
  8
0
100
AcDbSpline
 62
6
  6
CONTINUOUS
 70
0
 71
3
 72
10
 73
6
 74
4
 42
0.0000001
 43
0.0000001
 44
0.0000000001
 12
-0.0143965249
 22
0.0095566211
 32
0.0
 13
-0.0089763845
 23
0.0147652788
 33
0.0
 40
0.0
 40
0.0
 40
0.0
 40
0.0
 40
0.2501313682
 40
0.50031021
 40
1.0
 40
1.0
 40
1.0
 40
1.0
 10
10.1549023663
 20
6.3560244997
 30
0.0
 10
10.1537020254
 20
6.3568213033
 30
0.0
 10
10.1513860085
 20
6.3585489347
 30
0.0
 10
10.1471800183
 20
6.3624959002
 30
0.0
 10
10.1445328614
 20
6.3659649317
 30
0.0
 10
10.1430377255
 20
6.3684242847
 30
0.0
 11
10.1549023663
 21
6.3560244997
 31
0.0
 11
10.1514391475
 21
6.358610528
 31
0.0
 11
10.1482858685
 21
6.3615677817
 31
0.0
 11
10.1430377255
 21
6.3684242847
 31
0.0
  0
SPLINE
  5
3CD
100
AcDbEntity
  8
0
100
AcDbSpline
 62
6
  6
CONTINUOUS
 70
0
 71
3
 72
9
 73
5
 74
3
 42
0.0000001
 43
0.0000001
 44
0.0000000001
 12
-0.0076671809
 22
0.0126117663
 32
0.0
 13
-0.0025762777
 23
0.0145328973
 33
0.0
 40
0.0
 40
0.0
 40
0.0
 40
0.0
 40
0.4999576831
 40
1.0
 40
1.0
 40
1.0
 40
1.0
 10
10.1430377255
 20
6.3684242847
 30
0.0
 10
10.1417599702
 20
6.3705260678
 30
0.0
 10
10.1395805073
 20
6.3749706113
 30
0.0
 10
10.1382516846
 20
6.3797418335
 30
0.0
 10
10.1378222686
 20
6.3821641881
 30
0.0
 11
10.1430377255
 21
6.3684242847
 31
0.0
 11
10.1397933158
 21
6.375051891
 31
0.0
 11
10.1378222686
 21
6.3821641881
 31
0.0
  0
SPLINE
  5
3CE
100
AcDbEntity
  8
0
100
AcDbSpline
 62
6
  6
CONTINUOUS
 70
0
 71
3
 72
11
 73
7
 74
5
 42
0.0000001
 43
0.0000001
 44
0.0000000001
 12
-0.0104304084
 22
0.0167301645
 32
0.0
 13
-0.0197117927
 23
0.0003702027
 33
0.0
 40
0.0
 40
0.0
 40
0.0
 40
0.0
 40
0.2500060854
 40
0.5000246083
 40
0.7500273237
 40
1.0
 40
1.0
 40
1.0
 40
1.0
 10
10.1342953331
 20
6.3951972745
 30
0.0
 10
10.1334261112
 20
6.3965914888
 30
0.0
 10
10.1313363918
 20
6.3991807384
 30
0.0
 10
10.1273252085
 20
6.4021320273
 30
0.0
 10
10.1227264473
 20
6.4040275075
 30
0.0
 10
10.119436541
 20
6.4045185706
 30
0.0
 10
10.1177940711
 20
6.4045494175
 30
0.0
 11
10.1342953331
 21
6.3951972745
 31
0.0
 11
10.1311903418
 21
6.3990252571
 31
0.0
 11
10.1272271534
 21
6.4019561233
 31
0.0
 11
10.1226702085
 21
6.4038344256
 31
0.0
 11
10.1177940711
 21
6.4045494175
 31
0.0
  0
SPLINE
  5
3CF
100
AcDbEntity
  8
0
100
AcDbSpline
 62
6
  6
CONTINUOUS
 70
0
 71
3
 72
11
 73
7
 74
5
 42
0.0000001
 43
0.0000001
 44
0.0000000001
 12
-0.0125034167
 22
-0.0104835477
 32
0.0
 13
-0.0006625719
 23
-0.0163034107
 33
0.0
 40
0.0
 40
0.0
 40
0.0
 40
0.0
 40
0.2500605434
 40
0.5000971735
 40
0.750061625
 40
1.0
 40
1.0
 40
1.0
 40
1.0
 10
9.9384641498
 20
6.3999119708
 30
0.0
 10
9.9374219461
 20
6.3990381302
 30
0.0
 10
9.9355127556
 20
6.3970676065
 30
0.0
 10
9.9333383326
 20
6.3935818695
 30
0.0
 10
9.9319178836
 20
6.3897297245
 30
0.0
 10
9.9315118887
 20
6.3870173587
 30
0.0
 10
9.931456688
 20
6.385659076
 30
0.0
 11
9.9384641498
 21
6.3999119708
 31
0.0
 11
9.9356275284
 21
6.3969791134
 31
0.0
 11
9.9334637734
 21
6.3935203487
 31
0.0
 11
9.9320530642
 21
6.3896934466
 31
0.0
 11
9.931456688
 21
6.385659076
 31
0.0
  0
SPLINE
  5
3D0
100
AcDbEntity
  8
0
100
AcDbSpline
 62
6
  6
CONTINUOUS
 70
0
 71
3
 72
9
 73
5
 74
3
 42
0.0000001
 43
0.0000001
 44
0.0000000001
 12
-0.0034199805
 22
-0.0080063142
 32
0.0
 13
-0.0050979101
 23
-0.0070575241
 33
0.0
 40
0.0
 40
0.0
 40
0.0
 40
0.0
 40
0.7496036987
 40
1.0
 40
1.0
 40
1.0
 40
1.0
 10
9.9277821778
 20
6.3692829938
 30
0.0
 10
9.9269276345
 20
6.3672824729
 30
0.0
 10
9.9255552457
 20
6.3647043808
 30
0.0
 10
9.9239202956
 20
6.3623061621
 30
0.0
 10
9.9234947963
 20
6.3617171028
 30
0.0
 11
9.9277821778
 21
6.3692829938
 31
0.0
 11
9.9247226044
 21
6.36351845
 31
0.0
 11
9.9234947963
 21
6.3617171028
 31
0.0
  0
SPLINE
  5
3D1
100
AcDbEntity
  8
0
100
AcDbSpline
 62
6
  6
CONTINUOUS
 70
0
 71
3
 72
11
 73
7
 74
5
 42
0.0000001
 43
0.0000001
 44
0.0000000001
 12
-0.020492873
 22
-0.0283702424
 32
0.0
 13
-0.0349569163
 23
-0.0016859711
 33
0.0
 40
0.0
 40
0.0
 40
0.0
 40
0.0
 40
0.2500095562
 40
0.5000225579
 40
0.7500217923
 40
1.0
 40
1.0
 40
1.0
 40
1.0
 10
9.9234947963
 20
6.3617171028
 30
0.0
 10
9.9217869916
 20
6.3593528255
 30
0.0
 10
9.9178387965
 20
6.3549823843
 30
0.0
 10
9.9106088449
 20
6.3499252644
 30
0.0
 10
9.902434435
 20
6.3466165193
 30
0.0
 10
9.8966226666
 20
6.3456550486
 30
0.0
 10
9.8937098442
 20
6.3455145632
 30
0.0
 11
9.9234947963
 21
6.3617171028
 31
0.0
 11
9.9176208642
 21
6.3552321544
 31
0.0
 11
9.9104512376
 21
6.350216559
 31
0.0
 11
9.9023436137
 21
6.3469275247
 31
0.0
 11
9.8937098442
 21
6.3455145632
 31
0.0
  0
SPLINE
  5
3D2
100
AcDbEntity
  8
0
100
AcDbSpline
 62
6
  6
CONTINUOUS
 70
0
 71
3
 72
13
 73
9
 74
7
 42
0.0000001
 43
0.0000001
 44
0.0000000001
 12
0.0436454965
 22
-0.0021050348
 32
0.0
 13
0.0171648627
 23
-0.0401836786
 33
0.0
 40
0.0
 40
0.0
 40
0.0
 40
0.0
 40
0.2496973015
 40
0.374834504
 40
0.4999901095
 40
0.6251442751
 40
0.7502836082
 40
1.0
 40
1.0
 40
1.0
 40
1.0
 10
9.8937098442
 20
5.1112800662
 30
0.0
 10
9.8973425651
 20
5.111104859
 30
0.0
 10
9.9027942947
 20
5.1100435069
 30
0.0
 10
9.9095205546
 20
5.1072116615
 30
0.0
 10
9.9142293841
 20
5.1043930474
 30
0.0
 10
9.9184959727
 20
5.1009415392
 30
0.0
 10
9.9234719977
 20
5.0956025422
 30
0.0
 10
9.9263533947
 20
5.0908564759
 30
0.0
 10
9.9277821772
 20
5.0875116348
 30
0.0
 11
9.8937098442
 21
5.1112800662
 31
0.0
 11
9.9044243726
 21
5.1092196999
 31
0.0
 11
9.9094633202
 21
5.1070964257
 31
0.0
 11
9.914155687
 21
5.1042875513
 31
0.0
 11
9.9184077705
 21
5.1008484847
 31
0.0
 11
9.9221375961
 21
5.0968498967
 31
0.0
 11
9.9277821772
 21
5.0875116348
 31
0.0
  0
SPLINE
  5
3D3
100
AcDbEntity
  8
0
100
AcDbSpline
 62
6
  6
CONTINUOUS
 70
0
 71
3
 72
11
 73
7
 74
5
 42
0.0000001
 43
0.0000001
 44
0.0000000001
 12
0.0010425257
 22
-0.0256536169
 32
0.0
 13
0.0250375037
 23
-0.0056849212
 33
0.0
 40
0.0
 40
0.0
 40
0.0
 40
0.0
 40
0.2499286272
 40
0.4999401992
 40
0.749981957
 40
1.0
 40
1.0
 40
1.0
 40
1.0
 10
9.9314566897
 20
5.0711355528
 30
0.0
 10
9.931543542
 20
5.0689983617
 30
0.0
 10
9.9324500415
 20
5.0647254328
 30
0.0
 10
9.9357498469
 20
5.0590898868
 30
0.0
 10
9.9407122743
 20
5.0548443925
 30
0.0
 10
9.9447524479
 20
5.0531866503
 30
0.0
 10
9.9468390571
 20
5.0527128727
 30
0.0
 11
9.9314566897
 21
5.0711355528
 31
0.0
 11
9.932773074
 21
5.0648551632
 31
0.0
 11
9.936026722
 21
5.0593218756
 31
0.0
 11
9.9408954005
 21
5.0551374502
 31
0.0
 11
9.9468390571
 21
5.0527128727
 31
0.0
  0
SPLINE
  5
3D4
100
AcDbEntity
  8
0
100
AcDbSpline
 62
6
  6
CONTINUOUS
 70
0
 71
3
 72
11
 73
7
 74
5
 42
0.0000001
 43
0.0000001
 44
0.0000000001
 12
0.0173481554
 22
0.0092768761
 32
0.0
 13
0.0017163112
 23
0.0195977856
 33
0.0
 40
0.0
 40
0.0
 40
0.0
 40
0.0
 40
0.25004857
 40
0.5000866857
 40
0.7500688749
 40
1.0
 40
1.0
 40
1.0
 40
1.0
 10
10.1268535586
 20
5.05463367
 30
0.0
 10
10.1282995191
 20
5.0554068932
 30
0.0
 10
10.1310164351
 20
5.0573156955
 30
0.0
 10
10.134223305
 20
5.0611117745
 30
0.0
 10
10.1364192144
 20
5.0655624616
 30
0.0
 10
10.1371313757
 20
5.0688036302
 30
0.0
 10
10.1372743623
 20
5.0704363291
 30
0.0
 11
10.1268535586
 21
5.05463367
 31
0.0
 11
10.1308717787
 21
5.0574712728
 31
0.0
 11
10.134055079
 21
5.0612212939
 31
0.0
 11
10.1362314207
 21
5.0656313702
 31
0.0
 11
10.1372743623
 21
5.0704363291
 31
0.0
  0
SPLINE
  5
3D5
100
AcDbEntity
  8
0
100
AcDbSpline
 62
6
  6
CONTINUOUS
 70
0
 71
3
 72
10
 73
6
 74
4
 42
0.0000001
 43
0.0000001
 44
0.0000000001
 12
0.0089763828
 22
0.0147652964
 32
0.0
 13
0.014396532
 23
0.009556636
 33
0.0
 40
0.0
 40
0.0
 40
0.0
 40
0.0
 40
0.4996897947
 40
0.7498686305
 40
1.0
 40
1.0
 40
1.0
 40
1.0
 10
10.1430377171
 20
5.0883703327
 30
0.0
 10
10.1445328527
 20
5.0908296887
 30
0.0
 10
10.1471800137
 20
5.0942987216
 30
0.0
 10
10.1513860056
 20
5.0982456922
 30
0.0
 10
10.1537020244
 20
5.0999733249
 30
0.0
 10
10.1549023659
 20
5.1007701297
 30
0.0
 11
10.1430377171
 21
5.0883703327
 31
0.0
 11
10.148285864
 21
5.0952268417
 31
0.0
 11
10.1514391448
 21
5.0981840986
 31
0.0
 11
10.1549023659
 21
5.1007701297
 31
0.0
  0
SPLINE
  5
3D6
100
AcDbEntity
  8
0
100
AcDbSpline
 62
6
  6
CONTINUOUS
 70
0
 71
3
 72
9
 73
5
 74
3
 42
0.0000001
 43
0.0000001
 44
0.0000000001
 12
0.0115043564
 22
0.0039826063
 32
0.0
 13
0.0121721915
 23
0.0002216368
 33
0.0
 40
0.0
 40
0.0
 40
0.0
 40
0.0
 40
0.5076771438
 40
1.0
 40
1.0
 40
1.0
 40
1.0
 10
10.1637861406
 20
5.105163514
 30
0.0
 10
10.1657329735
 20
5.1058374734
 30
0.0
 10
10.1696779152
 20
5.1068668028
 30
0.0
 10
10.1737351497
 20
5.1072664208
 30
0.0
 10
10.1757326991
 20
5.107302793
 30
0.0
 11
10.1637861406
 21
5.105163514
 31
0.0
 11
10.1697674289
 21
5.1067203081
 31
0.0
 11
10.1757326991
 21
5.107302793
 31
0.0
  0
SPLINE
  5
3D7
100
AcDbEntity
  8
0
100
AcDbSpline
 62
6
  6
CONTINUOUS
 70
0
 71
3
 72
15
 73
11
 74
9
 42
0.0000001
 43
0.0000001
 44
0.0000000001
 12
0.0707329105
 22
0.0093827463
 32
0.0
 13
0.0000317783
 23
0.071352502
 33
0.0
 40
0.0
 40
0.0
 40
0.0
 40
0.0
 40
0.1228680965
 40
0.2460737138
 40
0.3698819032
 40
0.4944673681
 40
0.6198662889
 40
0.7460115902
 40
0.8728472983
 40
1.0
 40
1.0
 40
1.0
 40
1.0
 10
10.2080646099
 20
5.1076584565
 30
0.0
 10
10.2109615492
 20
5.1080427366
 30
0.0
 10
10.2167089697
 20
5.1093199154
 30
0.0
 10
10.2248749044
 20
5.1127045981
 30
0.0
 10
10.2323670047
 20
5.1174811058
 30
0.0
 10
10.2389200672
 20
5.1235613161
 30
0.0
 10
10.244301466
 20
5.1307687977
 30
0.0
 10
10.2483197302
 20
5.1388777676
 30
0.0
 10
10.2508035184
 20
5.1476218696
 30
0.0
 10
10.251364719
 20
5.1536773113
 30
0.0
 10
10.2513660659
 20
5.1567015324
 30
0.0
 11
10.2080646099
 21
5.1076584565
 31
0.0
 11
10.216622598
 21
5.1095611384
 31
0.0
 11
10.2247438972
 21
5.1129266557
 31
0.0
 11
10.2321890048
 21
5.117681692
 31
0.0
 11
10.238705629
 21
5.1237278942
 31
0.0
 11
10.2440602602
 21
5.1308963093
 31
0.0
 11
10.2480554076
 21
5.1389618475
 31
0.0
 11
10.2505275432
 21
5.1476677006
 31
0.0
 11
10.2513660659
 21
5.1567015324
 31
0.0
  0
SPLINE
  5
3D8
100
AcDbEntity
  8
0
100
AcDbSpline
 62
6
  6
CONTINUOUS
 70
0
 71
3
 72
9
 73
5
 74
3
 42
0.0000001
 43
0.0000001
 44
0.0000000001
 12
-0.0127654354
 22
0.0
 32
0.0
 13
-0.0121692991
 23
-0.0038554508
 33
0.0
 40
0.0
 40
0.0
 40
0.0
 40
0.0
 40
0.5054524785
 40
1.0
 40
1.0
 40
1.0
 40
1.0
 10
10.7005307234
 20
6.3533973144
 30
0.0
 10
10.6983799498
 20
6.3533973144
 30
0.0
 10
10.6941177548
 20
6.3530857706
 30
0.0
 10
10.6899542685
 20
6.3521170276
 30
0.0
 10
10.6879481696
 20
6.3514814598
 30
0.0
 11
10.7005307234
 21
6.3533973144
 31
0.0
 11
10.6940964941
 21
6.3529144706
 31
0.0
 11
10.6879481696
 21
6.3514814598
 31
0.0
  0
LINE
  5
3D9
100
AcDbEntity
  8
0
100
AcDbLine
 62
9
  6
CONTINUOUS
 10
10.196768524
 20
5.1987561241
 11
10.196768524
 21
5.2729510284
  0
SPLINE
  5
3DA
100
AcDbEntity
  8
0
100
AcDbSpline
 62
9
  6
CONTINUOUS
 70
0
 71
3
 72
15
 73
11
 74
9
 42
0.0000001
 43
0.0000001
 44
0.0000000001
 12
0.0501196874
 22
0.0000126403
 32
0.0
 13
-0.0000016128
 23
0.050119689
 33
0.0
 40
0.0
 40
0.0
 40
0.0
 40
0.0
 40
0.1250644138
 40
0.2501533252
 40
0.3751806584
 40
0.5001611636
 40
0.6251258239
 40
0.7501200723
 40
0.8750863294
 40
1.0
 40
1.0
 40
1.0
 40
1.0
 10
10.1647565521
 20
5.1667470985
 30
0.0
 10
10.1668459485
 20
5.1667476254
 30
0.0
 10
10.1710340637
 20
5.1672233632
 30
0.0
 10
10.1770458318
 20
5.1691054572
 30
0.0
 10
10.1826294549
 20
5.1720249191
 30
0.0
 10
10.1875617735
 20
5.1759636964
 30
0.0
 10
10.1915000558
 20
5.1808955563
 30
0.0
 10
10.1944178636
 20
5.1864772739
 30
0.0
 10
10.1962912141
 20
5.1924861308
 30
0.0
 10
10.1967685911
 20
5.196669246
 30
0.0
 10
10.196768524
 20
5.1987561241
 30
0.0
 11
10.1647565521
 21
5.1667470985
 31
0.0
 11
10.1709887267
 21
5.1674180676
 31
0.0
 11
10.1769756354
 21
5.1692788519
 31
0.0
 11
10.1825218576
 21
5.1721954122
 31
0.0
 11
10.1873963703
 21
5.176129446
 31
0.0
 11
10.1913297252
 21
5.1810034861
 31
0.0
 11
10.1942440015
 21
5.1865490357
 31
0.0
 11
10.1960985601
 21
5.1925314401
 31
0.0
 11
10.196768524
 21
5.1987561241
 31
0.0
  0
SPLINE
  5
3DB
100
AcDbEntity
  8
0
100
AcDbSpline
 62
9
  6
CONTINUOUS
 70
0
 71
3
 72
15
 73
11
 74
9
 42
0.0000001
 43
0.0000001
 44
0.0000000001
 12
0.078321838
 22
0.0000341488
 32
0.0
 13
0.0000307884
 23
0.0783218394
 33
0.0
 40
0.0
 40
0.0
 40
0.0
 40
0.0
 40
0.1250722986
 40
0.2501567617
 40
0.3751777385
 40
0.5001661986
 40
0.6251418447
 40
0.7501309879
 40
0.8750848098
 40
1.0
 40
1.0
 40
1.0
 40
1.0
 10
10.1647565519
 20
5.1487574837
 30
0.0
 10
10.1680218494
 20
5.1487589074
 30
0.0
 10
10.1745680725
 20
5.1494704828
 30
0.0
 10
10.1839738135
 20
5.1523871321
 30
0.0
 10
10.1926877458
 20
5.1569801868
 30
0.0
 10
10.20035683
 20
5.1631761785
 30
0.0
 10
10.2065535988
 20
5.1708441146
 30
0.0
 10
10.2111386044
 20
5.1795574144
 30
0.0
 10
10.2140479163
 20
5.1889563119
 30
0.0
 10
10.2147581434
 20
5.1954949283
 30
0.0
 10
10.2147594253
 20
5.1987561241
 30
0.0
 11
10.1647565519
 21
5.1487574837
 31
0.0
 11
10.1744990684
 21
5.149778707
 31
0.0
 11
10.1838603759
 21
5.152667325
 31
0.0
 11
10.1925147225
 21
5.1572480535
 31
0.0
 11
10.2001117941
 21
5.1634218225
 31
0.0
 11
10.2062848524
 21
5.1710181784
 31
0.0
 11
10.2108597564
 21
5.1796727853
 31
0.0
 11
10.2137408632
 21
5.1890257012
 31
0.0
 11
10.2147594253
 21
5.1987561241
 31
0.0
  0
SPLINE
  5
3DC
100
AcDbEntity
  8
0
100
AcDbSpline
 62
6
  6
CONTINUOUS
 70
0
 71
3
 72
13
 73
9
 74
7
 42
0.0000001
 43
0.0000001
 44
0.0000000001
 12
-0.0011774613
 22
-0.0024190142
 32
0.0
 13
-0.002684378
 23
0.0001793314
 33
0.0
 40
0.0
 40
0.0
 40
0.0
 40
0.0
 40
0.0464708248
 40
0.1109828629
 40
0.1980650919
 40
0.3092713559
 40
0.60563889
 40
1.0
 40
1.0
 40
1.0
 40
1.0
 10
10.2513618151
 20
5.1659374351
 30
0.0
 10
10.2513435759
 20
5.1658999639
 30
0.0
 10
10.2512673801
 20
5.1658281796
 30
0.0
 10
10.2511031396
 20
5.1657585065
 30
0.0
 10
10.2508731727
 20
5.1657032136
 30
0.0
 10
10.2504327188
 20
5.1656469225
 30
0.0
 10
10.2497121567
 20
5.1656323599
 30
0.0
 10
10.249093322
 20
5.1656615924
 30
0.0
 10
10.2487404506
 20
5.1656851662
 30
0.0
 11
10.2513618151
 21
5.1659374351
 31
0.0
 11
10.2512769903
 21
5.1658455897
 31
0.0
 11
10.251120597
 21
5.1657703271
 31
0.0
 11
10.2508936952
 21
5.1657119836
 31
0.0
 11
10.250597345
 21
5.1656708955
 31
0.0
 11
10.2498005391
 21
5.1656418302
 31
0.0
 11
10.2487404506
 21
5.1656851662
 31
0.0
  0
SPLINE
  5
3DD
100
AcDbEntity
  8
0
100
AcDbSpline
 62
9
  6
CONTINUOUS
 70
0
 71
3
 72
12
 73
8
 74
6
 42
0.0000001
 43
0.0000001
 44
0.0000000001
 12
0.0074276329
 22
0.0378342078
 32
0.0
 13
0.0353453597
 23
0.0154046278
 33
0.0
 40
0.0
 40
0.0
 40
0.0
 40
0.0
 40
0.2498664486
 40
0.3750254838
 40
0.5001839758
 40
0.7500739151
 40
1.0
 40
1.0
 40
1.0
 40
1.0
 10
10.1202852007
 20
5.116392347
 30
0.0
 10
10.1209038394
 20
5.1195435134
 30
0.0
 10
10.1224057343
 20
5.1241867359
 30
0.0
 10
10.1254532273
 20
5.1298601153
 30
0.0
 10
10.1291788523
 20
5.1351180738
 30
0.0
 10
10.1349864036
 20
5.1407804524
 30
0.0
 10
10.1405762955
 20
5.1440904147
 30
0.0
 10
10.1435208713
 20
5.1453737541
 30
0.0
 11
10.1202852007
 21
5.116392347
 31
0.0
 11
10.1232527587
 21
5.1255578623
 31
0.0
 11
10.1255380521
 21
5.1298081159
 31
0.0
 11
10.1283268635
 21
5.1337463325
 31
0.0
 11
10.1352223763
 21
5.1404755544
 31
0.0
 11
10.1435208713
 21
5.1453737541
 31
0.0
  0
SPLINE
  5
3DE
100
AcDbEntity
  8
0
100
AcDbSpline
 62
9
  6
CONTINUOUS
 70
0
 71
3
 72
11
 73
7
 74
5
 42
0.0000001
 43
0.0000001
 44
0.0000000001
 12
0.002617232
 22
0.0006224757
 32
0.0
 13
0.0003253179
 23
0.0026704957
 33
0.0
 40
0.0
 40
0.0
 40
0.0
 40
0.0
 40
0.2503342474
 40
0.5002138539
 40
0.7499255979
 40
1.0
 40
1.0
 40
1.0
 40
1.0
 10
10.0998043203
 20
5.1058305281
 30
0.0
 10
10.1000227145
 20
5.1058824704
 30
0.0
 10
10.1004476388
 20
5.1060367945
 30
0.0
 10
10.1010146813
 20
5.1064250529
 30
0.0
 10
10.1013766312
 20
5.1070080529
 30
0.0
 10
10.1015081917
 20
5.1074432393
 30
0.0
 10
10.1015353096
 20
5.1076658469
 30
0.0
 11
10.0998043203
 21
5.1058305281
 31
0.0
 11
10.1004363296
 21
5.1060631452
 31
0.0
 11
10.1009806486
 21
5.1064576289
 31
0.0
 11
10.10134906
 21
5.1070193822
 31
0.0
 11
10.1015353096
 21
5.1076658469
 31
0.0
  0
SPLINE
  5
3DF
100
AcDbEntity
  8
0
100
AcDbSpline
 62
9
  6
CONTINUOUS
 70
0
 71
3
 72
11
 73
7
 74
5
 42
0.0000001
 43
0.0000001
 44
0.0000000001
 12
0.0109107765
 22
0.0095187021
 32
0.0
 13
0.0018245102
 23
0.0143639096
 33
0.0
 40
0.0
 40
0.0
 40
0.0
 40
0.0
 40
0.2500188983
 40
0.5000316001
 40
0.7500186095
 40
1.0
 40
1.0
 40
1.0
 40
1.0
 10
10.1127006919
 20
5.0928021845
 30
0.0
 10
10.1136099921
 20
5.0935954696
 30
0.0
 10
10.1152879286
 20
5.0953525571
 30
0.0
 10
10.1172738092
 20
5.0984021798
 30
0.0
 10
10.1186881493
 20
5.1017539251
 30
0.0
 10
10.1192176211
 20
5.1041245466
 30
0.0
 10
10.1193696523
 20
5.1053214499
 30
0.0
 11
10.1127006919
 21
5.0928021845
 31
0.0
 11
10.1151994559
 21
5.0954215987
 31
0.0
 11
10.1171786249
 21
5.0984526699
 31
0.0
 11
10.1185848111
 21
5.1017880034
 31
0.0
 11
10.1193696523
 21
5.1053214499
 31
0.0
  0
LINE
  5
3E0
100
AcDbEntity
  8
0
100
AcDbLine
 62
9
  6
CONTINUOUS
 10
10.196768524
 20
6.1838436004
 11
10.196768524
 21
6.2580385048
  0
SPLINE
  5
3E1
100
AcDbEntity
  8
0
100
AcDbSpline
 62
9
  6
CONTINUOUS
 70
0
 71
3
 72
9
 73
5
 74
3
 42
0.0000001
 43
0.0000001
 44
0.0000000001
 12
0.007118866
 22
0.00105493
 32
0.0
 13
0.0063890832
 23
0.0033122117
 33
0.0
 40
0.0
 40
0.0
 40
0.0
 40
0.0
 40
0.2503258442
 40
1.0
 40
1.0
 40
1.0
 40
1.0
 10
10.1777849832
 20
6.1615306829
 30
0.0
 10
10.1783789952
 20
6.1616187083
 30
0.0
 10
10.1807353895
 20
6.1620771774
 30
0.0
 10
10.1830095482
 20
6.1629375408
 30
0.0
 10
10.1846061251
 20
6.1637652339
 30
0.0
 11
10.1777849832
 21
6.1615306829
 31
0.0
 11
10.1795535749
 21
6.1618734255
 31
0.0
 11
10.1846061251
 21
6.1637652339
 31
0.0
  0
SPLINE
  5
3E2
100
AcDbEntity
  8
0
100
AcDbSpline
 62
9
  6
CONTINUOUS
 70
0
 71
3
 72
13
 73
9
 74
7
 42
0.0000001
 43
0.0000001
 44
0.0000000001
 12
0.0218691212
 22
0.0113373323
 32
0.0
 13
-0.0000016606
 23
0.0246331801
 33
0.0
 40
0.0
 40
0.0
 40
0.0
 40
0.0
 40
0.2496923793
 40
0.3748032261
 40
0.4999293458
 40
0.625075187
 40
0.7502381413
 40
1.0
 40
1.0
 40
1.0
 40
1.0
 10
10.1846061251
 20
6.1637652339
 30
0.0
 10
10.1864263094
 20
6.1647088491
 30
0.0
 10
10.1889889091
 20
6.1665021698
 30
0.0
 10
10.1917928412
 20
6.1695148276
 30
0.0
 10
10.1935492534
 20
6.1720607843
 30
0.0
 10
10.1949490455
 20
6.1748179902
 30
0.0
 10
10.1963196146
 20
6.178696026
 30
0.0
 10
10.1967686622
 20
6.1817927908
 30
0.0
 10
10.196768524
 20
6.1838436004
 30
0.0
 11
10.1846061251
 21
6.1637652339
 31
0.0
 11
10.1896363376
 21
6.1673047658
 31
0.0
 11
10.1917346033
 21
6.1695620325
 31
0.0
 11
10.1934896974
 21
6.1720957918
 31
0.0
 11
10.1948871824
 21
6.1748435767
 31
0.0
 11
10.1959136456
 21
6.1777508536
 31
0.0
 11
10.196768524
 21
6.1838436004
 31
0.0
  0
SPLINE
  5
3E3
100
AcDbEntity
  8
0
100
AcDbSpline
 62
9
  6
CONTINUOUS
 70
0
 71
3
 72
14
 73
10
 74
8
 42
0.0000001
 43
0.0000001
 44
0.0000000001
 12
0.0477672996
 22
0.0161553848
 32
0.0
 13
-0.0000213322
 23
0.0504253004
 33
0.0
 40
0.0
 40
0.0
 40
0.0
 40
0.0
 40
0.249454895
 40
0.3745226104
 40
0.499589124
 40
0.6246673869
 40
0.7497702561
 40
0.8748870288
 40
1.0
 40
1.0
 40
1.0
 40
1.0
 10
10.187216344
 20
6.1453704769
 30
0.0
 10
10.1911882729
 20
6.1467138235
 30
0.0
 10
10.196882334
 20
6.1496960406
 30
0.0
 10
10.2032478597
 20
6.155209074
 30
0.0
 10
10.2073158966
 20
6.1600669641
 30
0.0
 10
10.210561448
 20
6.1655039251
 30
0.0
 10
10.2129485466
 20
6.1713693072
 30
0.0
 10
10.2144219934
 20
6.1775274948
 30
0.0
 10
10.2147601215
 20
6.1817406473
 30
0.0
 10
10.2147592318
 20
6.1838436004
 30
0.0
 11
10.187216344
 21
6.1453704769
 31
0.0
 11
10.1983643907
 21
6.1511969894
 31
0.0
 11
10.2031290872
 21
6.1553286465
 31
0.0
 11
10.2071786488
 21
6.160163231
 31
0.0
 11
10.2104181255
 21
6.1655748317
 31
0.0
 11
10.2127961643
 21
6.1714177946
 31
0.0
 11
10.2142609531
 21
6.1775544487
 31
0.0
 11
10.2147592318
 21
6.1838436004
 31
0.0
  0
SPLINE
  5
3E4
100
AcDbEntity
  8
0
100
AcDbSpline
 62
9
  6
CONTINUOUS
 70
0
 71
3
 72
9
 73
5
 74
3
 42
0.0000001
 43
0.0000001
 44
0.0000000001
 12
0.0430634083
 22
-0.0000009087
 32
0.0
 13
0.0430561534
 23
0.0007904319
 33
0.0
 40
0.0
 40
0.0
 40
0.0
 40
0.0
 40
0.4999994265
 40
1.0
 40
1.0
 40
1.0
 40
1.0
 10
10.1319479866
 20
6.1608305281
 30
0.0
 10
10.1391252131
 20
6.1608303766
 30
0.0
 10
10.1534797602
 20
6.160929585
 30
0.0
 10
10.167832331
 20
6.1611681696
 30
0.0
 10
10.1750083649
 20
6.1612999084
 30
0.0
 11
10.1319479866
 21
6.1608305281
 31
0.0
 11
10.1534792497
 21
6.1609644289
 31
0.0
 11
10.1750083649
 21
6.1612999084
 31
0.0
  0
SPLINE
  5
3E5
100
AcDbEntity
  8
0
100
AcDbSpline
 62
9
  6
CONTINUOUS
 70
0
 71
3
 72
9
 73
5
 74
3
 42
0.0000001
 43
0.0000001
 44
0.0000000001
 12
0.0433935403
 22
0.0000005851
 32
0.0
 13
0.0433863273
 23
0.0007911648
 33
0.0
 40
0.0
 40
0.0
 40
0.0
 40
0.0
 40
0.5000249545
 40
1.0
 40
1.0
 40
1.0
 40
1.0
 10
10.1319479866
 20
6.1428396086
 30
0.0
 10
10.1391806043
 20
6.1428397061
 30
0.0
 10
10.1536451954
 20
6.1429360654
 30
0.0
 10
10.1681078886
 20
6.1431714628
 30
0.0
 10
10.1753385823
 20
6.143303317
 30
0.0
 11
10.1319479866
 21
6.1428396086
 31
0.0
 11
10.1536454428
 21
6.1429708332
 31
0.0
 11
10.1753385823
 21
6.143303317
 31
0.0
  0
LINE
  5
3E6
100
AcDbEntity
  8
0
100
AcDbLine
 62
9
  6
CONTINUOUS
 10
9.8941576448
 20
6.1608305281
 11
10.1319479866
 21
6.1608305281
  0
SPLINE
  5
3E7
100
AcDbEntity
  8
0
100
AcDbSpline
 62
9
  6
CONTINUOUS
 70
0
 71
3
 72
9
 73
5
 74
3
 42
0.0000001
 43
0.0000001
 44
0.0000000001
 12
0.011073227
 22
-0.0072205308
 32
0.0
 13
0.0132193954
 23
-0.0000026303
 33
0.0
 40
0.0
 40
0.0
 40
0.0
 40
0.0
 40
0.4999965152
 40
1.0
 40
1.0
 40
1.0
 40
1.0
 10
9.8816140014
 20
6.1645499972
 30
0.0
 10
9.8834595263
 20
6.1633465838
 30
0.0
 10
9.8875271347
 20
6.1614790119
 30
0.0
 10
9.8919543969
 20
6.1608309664
 30
0.0
 10
9.8941576448
 20
6.1608305281
 30
0.0
 11
9.8816140014
 21
6.1645499972
 31
0.0
 11
9.8876170185
 21
6.1617839023
 31
0.0
 11
9.8941576448
 21
6.1608305281
 31
0.0
  0
SPLINE
  5
3E8
100
AcDbEntity
  8
0
100
AcDbSpline
 62
9
  6
CONTINUOUS
 70
0
 71
3
 72
12
 73
8
 74
6
 42
0.0000001
 43
0.0000001
 44
0.0000000001
 12
0.0031536363
 22
-0.0175566917
 32
0.0
 13
0.0149434086
 23
-0.0097405024
 33
0.0
 40
0.0
 40
0.0
 40
0.0
 40
0.0
 40
0.2500097028
 40
0.3751479287
 40
0.5002731876
 40
0.7501661142
 40
1.0
 40
1.0
 40
1.0
 40
1.0
 10
9.8720320338
 20
6.1790392503
 30
0.0
 10
9.8722948471
 20
6.1775761359
 30
0.0
 10
9.8729116305
 20
6.1754120245
 30
0.0
 10
9.8741514585
 20
6.1727038749
 30
0.0
 10
9.8756700482
 20
6.1701409347
 30
0.0
 10
9.8780462115
 20
6.1672515771
 30
0.0
 10
9.8803695447
 20
6.1653611664
 30
0.0
 10
9.8816140014
 20
6.1645499972
 30
0.0
 11
9.8720320338
 21
6.1790392503
 31
0.0
 11
9.873255921
 21
6.1747508856
 31
0.0
 11
9.8741864015
 21
6.1727218922
 31
0.0
 11
9.8753232262
 21
6.1708011618
 31
0.0
 11
9.8781522089
 21
6.1673564188
 31
0.0
 11
9.8816140014
 21
6.1645499972
 31
0.0
  0
LINE
  5
3E9
100
AcDbEntity
  8
0
100
AcDbLine
 62
9
  6
CONTINUOUS
 10
9.8716782242
 20
6.2571891347
 11
9.8716798463
 21
6.187405365
  0
SPLINE
  5
3EA
100
AcDbEntity
  8
0
100
AcDbSpline
 62
9
  6
CONTINUOUS
 70
0
 71
3
 72
9
 73
5
 74
3
 42
0.0000001
 43
0.0000001
 44
0.0000000001
 12
-0.0177680907
 22
-0.0181951382
 32
0.0
 13
-0.000003683
 23
-0.0254316356
 33
0.0
 40
0.0
 40
0.0
 40
0.0
 40
0.0
 40
0.4999716701
 40
1.0
 40
1.0
 40
1.0
 40
1.0
 10
9.8810701112
 20
6.280332299
 30
0.0
 10
9.8781089305
 20
6.2772999477
 30
0.0
 10
9.8734151871
 20
6.269959534
 30
0.0
 10
9.8716788381
 20
6.2614279808
 30
0.0
 10
9.8716782242
 20
6.2571891347
 30
0.0
 11
9.8810701112
 21
6.280332299
 31
0.0
 11
9.8741547178
 21
6.2696621988
 31
0.0
 11
9.8716782242
 21
6.2571891347
 31
0.0
  0
SPLINE
  5
3EB
100
AcDbEntity
  8
0
100
AcDbSpline
 62
9
  6
CONTINUOUS
 70
0
 71
3
 72
11
 73
7
 74
5
 42
0.0000001
 43
0.0000001
 44
0.0000000001
 12
-0.0275592995
 22
-0.0282188332
 32
0.0
 13
0.0000038587
 23
-0.0394438528
 33
0.0
 40
0.0
 40
0.0
 40
0.0
 40
0.0
 40
0.2499871386
 40
0.4999952164
 40
0.7500089784
 40
1.0
 40
1.0
 40
1.0
 40
1.0
 10
9.8681994059
 20
6.2928989278
 30
0.0
 10
9.8659029158
 20
6.2905474793
 30
0.0
 10
9.8617756137
 20
6.2853652967
 30
0.0
 10
9.8572061183
 20
6.2765632248
 30
0.0
 10
9.8543493592
 20
6.2670665869
 30
0.0
 10
9.8536877135
 20
6.2604755861
 30
0.0
 10
9.8536880351
 20
6.2571887164
 30
0.0
 11
9.8681994059
 21
6.2928989278
 31
0.0
 11
9.8620460233
 21
6.2851940934
 31
0.0
 11
9.857491614
 21
6.2764475377
 31
0.0
 11
9.8546600123
 21
6.2670013038
 31
0.0
 11
9.8536880351
 21
6.2571887164
 31
0.0
  0
SPLINE
  5
3EC
100
AcDbEntity
  8
0
100
AcDbSpline
 62
6
  6
CONTINUOUS
 70
0
 71
3
 72
11
 73
7
 74
5
 42
0.0000001
 43
0.0000001
 44
0.0000000001
 12
-0.0098004705
 22
-0.0095935419
 32
0.0
 13
-0.0028736557
 23
-0.0134099728
 33
0.0
 40
0.0
 40
0.0
 40
0.0
 40
0.0
 40
0.1583358516
 40
0.3525272123
 40
0.6116946719
 40
1.0
 40
1.0
 40
1.0
 40
1.0
 10
9.8242557613
 20
5.1934557725
 30
0.0
 10
9.823738506
 20
5.1929494386
 30
0.0
 10
9.8226735141
 20
5.1917305748
 30
0.0
 10
9.8211786973
 20
5.1893541242
 30
0.0
 10
9.8196617914
 20
5.1858024143
 30
0.0
 10
9.8189080803
 20
5.1829292004
 30
0.0
 10
9.8185361284
 20
5.1811934791
 30
0.0
 11
9.8242557613
 21
5.1934557725
 31
0.0
 11
9.8228228888
 21
5.1918241416
 31
0.0
 11
9.8213908379
 21
5.1895787063
 31
0.0
 11
9.8199607373
 21
5.1863247732
 31
0.0
 11
9.8185361284
 21
5.1811934791
 31
0.0
  0
SPLINE
  5
3ED
100
AcDbEntity
  8
0
100
AcDbSpline
 62
9
  6
CONTINUOUS
 70
0
 71
3
 72
9
 73
5
 74
3
 42
0.0000001
 43
0.0000001
 44
0.0000000001
 12
-0.0008414102
 22
-0.0012917288
 32
0.0
 13
-0.000012871
 23
-0.0015415475
 33
0.0
 40
0.0
 40
0.0
 40
0.0
 40
0.0
 40
0.4999546207
 40
1.0
 40
1.0
 40
1.0
 40
1.0
 10
9.9673520013
 20
6.3500718403
 30
0.0
 10
9.967211779
 20
6.3498565717
 30
0.0
 10
9.9670052442
 20
6.3493779633
 30
0.0
 10
9.9669171731
 20
6.3488648266
 30
0.0
 10
9.9669150277
 20
6.3486078787
 30
0.0
 11
9.9673520013
 21
6.3500718403
 31
0.0
 11
9.9670348735
 21
6.3493693762
 31
0.0
 11
9.9669150277
 21
6.3486078787
 31
0.0
  0
SPLINE
  5
3EE
100
AcDbEntity
  8
0
100
AcDbSpline
 62
9
  6
CONTINUOUS
 70
0
 71
3
 72
9
 73
5
 74
3
 42
0.0000001
 43
0.0000001
 44
0.0000000001
 12
-0.0064109162
 22
-0.009845914
 32
0.0
 13
-0.0000897649
 23
-0.0117487791
 33
0.0
 40
0.0
 40
0.0
 40
0.0
 40
0.0
 40
0.4999625337
 40
1.0
 40
1.0
 40
1.0
 40
1.0
 10
9.9522686068
 20
6.3598816574
 30
0.0
 10
9.9512002008
 20
6.3582407947
 30
0.0
 10
9.9495359593
 20
6.3546301546
 30
0.0
 10
9.9489334875
 20
6.3507007513
 30
0.0
 10
9.9489185256
 20
6.3487424747
 30
0.0
 11
9.9522686068
 21
6.3598816574
 31
0.0
 11
9.9498014867
 21
6.3545507463
 31
0.0
 11
9.9489185256
 21
6.3487424747
 31
0.0
  0
SPLINE
  5
3EF
100
AcDbEntity
  8
0
100
AcDbSpline
 62
9
  6
CONTINUOUS
 70
0
 71
3
 72
18
 73
14
 74
12
 42
0.0000001
 43
0.0000001
 44
0.0000000001
 12
0.002165066
 22
0.0000049348
 32
0.0
 13
-0.001181123
 23
-0.0018145202
 33
0.0
 40
0.0
 40
0.0
 40
0.0
 40
0.0
 40
0.0545392789
 40
0.0918533721
 40
0.1833777789
 40
0.2681788049
 40
0.3304178851
 40
0.3837342629
 40
0.5029403168
 40
0.6291028744
 40
0.7522823064
 40
0.8762249636
 40
1.0
 40
1.0
 40
1.0
 40
1.0
 10
9.9689808221
 20
6.3509562789
 30
0.0
 10
9.9690201825
 20
6.3509563687
 30
0.0
 10
9.9691584205
 20
6.3509513906
 30
0.0
 10
9.9689500295
 20
6.350947346
 30
0.0
 10
9.9688344369
 20
6.3509455176
 30
0.0
 10
9.9686510237
 20
6.3509336219
 30
0.0
 10
9.9685107143
 20
6.3509054634
 30
0.0
 10
9.9683507076
 20
6.3508475685
 30
0.0
 10
9.968149703
 20
6.3507705277
 30
0.0
 10
9.9679131958
 20
6.3506455088
 30
0.0
 10
9.9677023199
 20
6.3504762323
 30
0.0
 10
9.9675109968
 20
6.3502885289
 30
0.0
 10
9.9674007324
 20
6.3501467044
 30
0.0
 10
9.9673520013
 20
6.3500718403
 30
0.0
 11
9.9689808221
 21
6.3509562789
 31
0.0
 11
9.9690988067
 21
6.3509514978
 31
0.0
 11
9.969018068
 21
6.3509486875
 31
0.0
 11
9.968819979
 21
6.3509434978
 31
0.0
 11
9.9686370287
 21
6.3509280621
 31
0.0
 11
9.9685050935
 21
6.3509006537
 31
0.0
 11
9.9683957579
 21
6.3508636311
 31
0.0
 11
9.9681561936
 21
6.3507676144
 31
0.0
 11
9.9679161845
 21
6.3506372031
 31
0.0
 11
9.9677057646
 21
6.3504733487
 31
0.0
 11
9.9675152958
 21
6.3502843236
 31
0.0
 11
9.9673520013
 21
6.3500718403
 31
0.0
  0
LINE
  5
3F0
100
AcDbEntity
  8
0
100
AcDbLine
 62
9
  6
CONTINUOUS
 10
10.09980432
 20
6.3509641008
 11
9.9724867584
 21
6.3509641008
  0
SPLINE
  5
3F1
100
AcDbEntity
  8
0
100
AcDbSpline
 62
9
  6
CONTINUOUS
 70
0
 71
3
 72
11
 73
7
 74
5
 42
0.0000001
 43
0.0000001
 44
0.0000000001
 12
-0.0003253652
 22
0.0026704896
 32
0.0
 13
-0.0026172321
 23
0.0006224735
 33
0.0
 40
0.0
 40
0.0
 40
0.0
 40
0.0
 40
0.2500744032
 40
0.4997861641
 40
0.7496657665
 40
1.0
 40
1.0
 40
1.0
 40
1.0
 10
10.1015353096
 20
6.3491287826
 30
0.0
 10
10.1015081877
 20
6.3493513896
 30
0.0
 10
10.101376633
 20
6.3497865767
 30
0.0
 10
10.1010146804
 20
6.3503695762
 30
0.0
 10
10.1004476387
 20
6.3507578345
 30
0.0
 10
10.1000227143
 20
6.3509121586
 30
0.0
 10
10.09980432
 20
6.3509641008
 30
0.0
 11
10.1015353096
 21
6.3491287826
 31
0.0
 11
10.1013490599
 21
6.3497752472
 31
0.0
 11
10.1009806483
 21
6.3503370003
 31
0.0
 11
10.1004363293
 21
6.3507314839
 31
0.0
 11
10.09980432
 21
6.3509641008
 31
0.0
  0
SPLINE
  5
3F2
100
AcDbEntity
  8
0
100
AcDbSpline
 62
9
  6
CONTINUOUS
 70
0
 71
3
 72
9
 73
5
 74
3
 42
0.0000001
 43
0.0000001
 44
0.0000000001
 12
-0.0076666852
 22
0.0096244535
 32
0.0
 13
-0.0118229705
 23
0.0034096241
 33
0.0
 40
0.0
 40
0.0
 40
0.0
 40
0.0
 40
0.4999938987
 40
1.0
 40
1.0
 40
1.0
 40
1.0
 10
10.1151640676
 20
6.3614175884
 30
0.0
 10
10.1138863024
 20
6.3630216444
 30
0.0
 10
10.11080435
 20
6.3658391767
 30
0.0
 10
10.1070195878
 20
6.3675988588
 30
0.0
 10
10.1050490687
 20
6.3681671364
 30
0.0
 11
10.1151640676
 21
6.3614175884
 31
0.0
 11
10.1106286894
 21
6.3655746862
 31
0.0
 11
10.1050490687
 21
6.3681671364
 31
0.0
  0
SPLINE
  5
3F3
100
AcDbEntity
  8
0
100
AcDbSpline
 62
9
  6
CONTINUOUS
 70
0
 71
3
 72
11
 73
7
 74
5
 42
0.0000001
 43
0.0000001
 44
0.0000000001
 12
-0.000000007
 22
0.0685116987
 32
0.0
 13
-0.010991932
 23
0.0676241842
 33
0.0
 40
0.0
 40
0.0
 40
0.0
 40
0.0
 40
0.2504875343
 40
0.5007531129
 40
0.750615155
 40
1.0
 40
1.0
 40
1.0
 40
1.0
 10
10.2569476644
 20
5.2465848144
 30
0.0
 10
10.2569476638
 20
5.2523052565
 30
0.0
 10
10.2566529226
 20
5.2637425849
 30
0.0
 10
10.2554290523
 20
5.2808461654
 30
0.0
 10
10.2534698062
 20
5.2978550768
 30
0.0
 10
10.2517705072
 20
5.3091309256
 30
0.0
 10
10.2508567668
 20
5.3147524079
 30
0.0
 11
10.2569476644
 21
5.2465848144
 31
0.0
 11
10.2565222434
 21
5.263740867
 31
0.0
 11
10.2553052222
 21
5.2808437407
 31
0.0
 11
10.2533698068
 21
5.2978524527
 31
0.0
 11
10.2508567668
 21
5.3147524079
 31
0.0
  0
LINE
  5
3F4
100
AcDbEntity
  8
0
100
AcDbLine
 62
9
  6
CONTINUOUS
 10
10.2508567668
 20
5.3147524079
 11
10.2505950158
 21
5.316351784
  0
SPLINE
  5
3F5
100
AcDbEntity
  8
0
100
AcDbSpline
 62
9
  6
CONTINUOUS
 70
0
 71
3
 72
11
 73
7
 74
5
 42
0.0000001
 43
0.0000001
 44
0.0000000001
 12
-0.0000033183
 22
0.0670821785
 32
0.0
 13
-0.0104629852
 23
0.0662611849
 33
0.0
 40
0.0
 40
0.0
 40
0.0
 40
0.0
 40
0.2503657527
 40
0.5005513389
 40
0.7504335763
 40
1.0
 40
1.0
 40
1.0
 40
1.0
 10
10.2477361801
 20
5.2465848144
 30
0.0
 10
10.2477359031
 20
5.2521831744
 30
0.0
 10
10.247447886
 20
5.2633772807
 30
0.0
 10
10.2462596044
 20
5.2801204841
 30
0.0
 10
10.2443642985
 20
5.2967795863
 30
0.0
 10
10.2427370526
 20
5.3078298922
 30
0.0
 10
10.2418666494
 20
5.3133420812
 30
0.0
 11
10.2477361801
 21
5.2465848144
 31
0.0
 11
10.247321545
 21
5.2633747755
 31
0.0
 11
10.2461408587
 21
5.2801161874
 31
0.0
 11
10.2442722632
 21
5.296774357
 31
0.0
 11
10.2418666494
 21
5.3133420812
 31
0.0
  0
SPLINE
  5
3F6
100
AcDbEntity
  8
0
100
AcDbSpline
 62
9
  6
CONTINUOUS
 70
0
 71
3
 72
9
 73
5
 74
3
 42
0.0000001
 43
0.0000001
 44
0.0000000001
 12
-0.0053399411
 22
0.0096496709
 32
0.0
 13
-0.0079037202
 23
0.007691705
 33
0.0
 40
0.0
 40
0.0
 40
0.0
 40
0.0
 40
0.2613267289
 40
1.0
 40
1.0
 40
1.0
 40
1.0
 10
10.2380845725
 20
5.3242110066
 30
0.0
 10
10.2376194161
 20
5.3250515789
 30
0.0
 10
10.2357095802
 20
5.3281954185
 30
0.0
 10
10.2333275933
 20
5.3310456582
 30
0.0
 10
10.2313815043
 20
5.3329395438
 30
0.0
 11
10.2380845725
 21
5.3242110066
 31
0.0
 11
10.2365889898
 21
5.3266746671
 31
0.0
 11
10.2313815043
 21
5.3329395438
 31
0.0
  0
SPLINE
  5
3F7
100
AcDbEntity
  8
0
100
AcDbSpline
 62
9
  6
CONTINUOUS
 70
0
 71
3
 72
9
 73
5
 74
3
 42
0.0000001
 43
0.0000001
 44
0.0000000001
 12
-0.0207204135
 22
0.0127722405
 32
0.0
 13
-0.0243406027
 23
-0.0000268967
 33
0.0
 40
0.0
 40
0.0
 40
0.0
 40
0.0
 40
0.5000149066
 40
1.0
 40
1.0
 40
1.0
 40
1.0
 10
10.2228068276
 20
5.3398327384
 30
0.0
 10
10.2193533224
 20
5.3419615086
 30
0.0
 10
10.2118033917
 20
5.3452372826
 30
0.0
 10
10.2036560638
 20
5.3463822162
 30
0.0
 10
10.1995994176
 20
5.3463777336
 30
0.0
 11
10.2228068276
 21
5.3398327384
 31
0.0
 11
10.2116538084
 21
5.3447046384
 31
0.0
 11
10.1995994176
 21
5.3463777336
 31
0.0
  0
SPLINE
  5
3F8
100
AcDbEntity
  8
0
100
AcDbSpline
 62
9
  6
CONTINUOUS
 70
0
 71
3
 72
9
 73
5
 74
3
 42
0.0000001
 43
0.0000001
 44
0.0000000001
 12
-0.0264955373
 22
0.0131455562
 32
0.0
 13
-0.0295773408
 23
-0.0000073878
 33
0.0
 40
0.0
 40
0.0
 40
0.0
 40
0.0
 40
0.5000054287
 40
1.0
 40
1.0
 40
1.0
 40
1.0
 10
10.2282048886
 20
5.3596500504
 30
0.0
 10
10.2237889178
 20
5.3618410002
 30
0.0
 10
10.2144178924
 20
5.3652027835
 30
0.0
 10
10.2045289209
 20
5.3663687831
 30
0.0
 10
10.1995994176
 20
5.3663675518
 30
0.0
 11
10.2282048886
 21
5.3596500504
 31
0.0
 11
10.2142883013
 21
5.3646538621
 31
0.0
 11
10.1995994176
 21
5.3663675518
 31
0.0
  0
SPLINE
  5
3F9
100
AcDbEntity
  8
0
100
AcDbSpline
 62
9
  6
CONTINUOUS
 70
0
 71
3
 72
12
 73
8
 74
6
 42
0.0000001
 43
0.0000001
 44
0.0000000001
 12
-0.038336044
 22
-0.002818933
 32
0.0
 13
-0.0286995792
 23
-0.0255721099
 33
0.0
 40
0.0
 40
0.0
 40
0.0
 40
0.0
 40
0.249922165
 40
0.4998665485
 40
0.6249476076
 40
0.750028613
 40
1.0
 40
1.0
 40
1.0
 40
1.0
 10
9.8559008905
 20
5.3651327258
 30
0.0
 10
9.8527072148
 20
5.3648978879
 30
0.0
 10
9.84634802
 20
5.3638870608
 30
0.0
 10
9.838715769
 20
5.3613477938
 30
0.0
 10
9.8329181128
 20
5.3586034575
 30
0.0
 10
9.8273598089
 20
5.3554043277
 30
0.0
 10
9.8234976742
 20
5.3524968234
 30
0.0
 10
9.8211063163
 20
5.3503660582
 30
0.0
 11
9.8559008905
 21
5.3651327258
 31
0.0
 11
9.846411925
 21
5.3636320747
 31
0.0
 11
9.8372941039
 21
5.3606031855
 31
0.0
 11
9.8329480818
 21
5.3585466049
 31
0.0
 11
9.8287818375
 21
5.3561466423
 31
0.0
 11
9.8211063163
 21
5.3503660582
 31
0.0
  0
SPLINE
  5
3FA
100
AcDbEntity
  8
0
100
AcDbSpline
 62
9
  6
CONTINUOUS
 70
0
 71
3
 72
11
 73
7
 74
5
 42
0.0000001
 43
0.0000001
 44
0.0000000001
 12
-0.0523707207
 22
-0.0038237848
 32
0.0
 13
-0.0075237827
 23
-0.0519683212
 33
0.0
 40
0.0
 40
0.0
 40
0.0
 40
0.0
 40
0.2499468604
 40
0.4999512129
 40
0.7499826117
 40
1.0
 40
1.0
 40
1.0
 40
1.0
 10
9.8573664994
 20
5.3452012011
 30
0.0
 10
9.8530032003
 20
5.3448826201
 30
0.0
 10
9.84433069
 20
5.3426815418
 30
0.0
 10
9.8331444238
 20
5.3353506003
 30
0.0
 10
9.8251199385
 20
5.3246524909
 30
0.0
 10
9.8223415032
 20
5.3161526462
 30
0.0
 10
9.8217144776
 20
5.3118216515
 30
0.0
 11
9.8573664994
 21
5.3452012011
 31
0.0
 11
9.844635506
 21
5.3420104862
 31
0.0
 11
9.8336719094
 21
5.3347898453
 31
0.0
 11
9.8257626657
 21
5.3243103766
 31
0.0
 11
9.8217144776
 21
5.3118216515
 31
0.0
  0
LINE
  5
3FB
100
AcDbEntity
  8
0
100
AcDbLine
 62
6
  6
CONTINUOUS
 10
9.8217144774
 20
5.3118216496
 11
9.821672485
 21
5.3121701341
  0
LINE
  5
3FC
100
AcDbEntity
  8
0
100
AcDbLine
 62
6
  6
CONTINUOUS
 10
9.821672485
 20
5.3121701341
 11
9.8215118839
 21
5.3171240219
  0
SPLINE
  5
3FD
100
AcDbEntity
  8
0
100
AcDbSpline
 62
9
  6
CONTINUOUS
 70
0
 71
3
 72
9
 73
5
 74
3
 42
0.0000001
 43
0.0000001
 44
0.0000000001
 12
0.0103534195
 22
0.0100757477
 32
0.0
 13
0.0057161716
 23
0.0132679829
 33
0.0
 40
0.0
 40
0.0
 40
0.0
 40
0.0
 40
0.4813134787
 40
1.0
 40
1.0
 40
1.0
 40
1.0
 10
10.2313816186
 20
6.1238551943
 30
0.0
 10
10.2330426988
 20
6.1254717254
 30
0.0
 10
10.2362049328
 20
6.1291404985
 30
0.0
 10
10.2386058592
 20
6.1333631622
 30
0.0
 10
10.2395941596
 20
6.1356571368
 30
0.0
 11
10.2313816186
 21
6.1238551943
 31
0.0
 11
10.2359103839
 21
6.129131701
 31
0.0
 11
10.2395941596
 21
6.1356571368
 31
0.0
  0
LINE
  5
3FE
100
AcDbEntity
  8
0
100
AcDbLine
 62
9
  6
CONTINUOUS
 10
10.2505950158
 20
6.1404428448
 11
10.2508566628
 21
6.1420415831
  0
SPLINE
  5
3FF
100
AcDbEntity
  8
0
100
AcDbSpline
 62
9
  6
CONTINUOUS
 70
0
 71
3
 72
11
 73
7
 74
5
 42
0.0000001
 43
0.0000001
 44
0.0000000001
 12
0.010992079
 22
0.0676248146
 32
0.0
 13
-0.0000000509
 23
0.0685123445
 33
0.0
 40
0.0
 40
0.0
 40
0.0
 40
0.0
 40
0.2493847512
 40
0.4992468536
 40
0.7495125055
 40
1.0
 40
1.0
 40
1.0
 40
1.0
 10
10.2508566628
 20
6.1420415831
 30
0.0
 10
10.2517704151
 20
6.1476631157
 30
0.0
 10
10.2534697604
 20
6.1589390657
 30
0.0
 10
10.2554289995
 20
6.1759481413
 30
0.0
 10
10.2566529237
 20
6.1930518816
 30
0.0
 10
10.2569476686
 20
6.2044893193
 30
0.0
 10
10.2569476644
 20
6.2102098145
 30
0.0
 11
10.2508566628
 21
6.1420415831
 31
0.0
 11
10.2533697477
 21
6.158941688
 31
0.0
 11
10.2553051795
 21
6.1759505647
 31
0.0
 11
10.2565222366
 21
6.1930536029
 31
0.0
 11
10.2569476644
 21
6.2102098145
 31
0.0
  0
SPLINE
  5
400
100
AcDbEntity
  8
0
100
AcDbSpline
 62
9
  6
CONTINUOUS
 70
0
 71
3
 72
9
 73
5
 74
3
 42
0.0000001
 43
0.0000001
 44
0.0000000001
 12
0.0111989524
 22
0.0141611566
 32
0.0
 13
0.0059747071
 23
0.017036953
 33
0.0
 40
0.0
 40
0.0
 40
0.0
 40
0.0
 40
0.4922797319
 40
1.0
 40
1.0
 40
1.0
 40
1.0
 10
10.2396353038
 20
6.1160415972
 30
0.0
 10
10.2414729762
 20
6.1183653474
 30
0.0
 10
10.244854648
 20
6.1233760601
 30
0.0
 10
10.2473636568
 20
6.1288852208
 30
0.0
 10
10.2483748168
 20
6.1317685563
 30
0.0
 11
10.2396353038
 21
6.1160415972
 31
0.0
 11
10.2445909526
 21
6.1234194856
 31
0.0
 11
10.2483748168
 21
6.1317685563
 31
0.0
  0
SPLINE
  5
401
100
AcDbEntity
  8
0
100
AcDbSpline
 62
9
  6
CONTINUOUS
 70
0
 71
3
 72
11
 73
7
 74
5
 42
0.0000001
 43
0.0000001
 44
0.0000000001
 12
0.0104629783
 22
0.0662611856
 32
0.0
 13
0.0000033002
 23
0.0670821781
 33
0.0
 40
0.0
 40
0.0
 40
0.0
 40
0.0
 40
0.2495663562
 40
0.4994486371
 40
0.7496342834
 40
1.0
 40
1.0
 40
1.0
 40
1.0
 10
10.2418666531
 20
6.1434525471
 30
0.0
 10
10.2427370555
 20
6.1489647347
 30
0.0
 10
10.2443643082
 20
6.1600150393
 30
0.0
 10
10.2462595817
 20
6.1766741456
 30
0.0
 10
10.2474478943
 20
6.1934173479
 30
0.0
 10
10.2477359047
 20
6.2046114553
 30
0.0
 10
10.2477361801
 20
6.2102098145
 30
0.0
 11
10.2418666531
 21
6.1434525471
 31
0.0
 11
10.2442722655
 21
6.1600202669
 31
0.0
 11
10.2461408465
 21
6.1766784409
 31
0.0
 11
10.2473215466
 21
6.1934198558
 31
0.0
 11
10.2477361801
 21
6.2102098145
 31
0.0
  0
SPLINE
  5
402
100
AcDbEntity
  8
0
100
AcDbSpline
 62
9
  6
CONTINUOUS
 70
0
 71
3
 72
13
 73
9
 74
7
 42
0.0000001
 43
0.0000001
 44
0.0000000001
 12
0.0127176303
 22
-0.0460953623
 32
0.0
 13
0.0476906258
 23
-0.0034820623
 33
0.0
 40
0.0
 40
0.0
 40
0.0
 40
0.0
 40
0.1251882186
 40
0.2503855502
 40
0.3755853438
 40
0.500776359
 40
0.7504245472
 40
1.0
 40
1.0
 40
1.0
 40
1.0
 10
9.8227048673
 20
6.1402536853
 30
0.0
 10
9.8232355664
 20
6.1383301532
 30
0.0
 10
9.824593954
 20
6.1345582512
 30
0.0
 10
9.8274498237
 20
6.1292732436
 30
0.0
 10
9.8310641302
 20
6.1244702834
 30
0.0
 10
9.8368107899
 20
6.1189051287
 30
0.0
 10
9.8455144168
 20
6.1137541666
 30
0.0
 10
9.8533990297
 20
6.1118831071
 30
0.0
 10
9.8573664996
 20
6.111593428
 30
0.0
 11
9.8227048673
 21
6.1402536853
 31
0.0
 11
9.8247302672
 21
6.1346205413
 31
0.0
 11
9.8275762076
 21
6.129353626
 31
0.0
 11
9.8311812408
 21
6.1245739902
 31
0.0
 11
9.8354827658
 21
6.1204106935
 31
0.0
 11
9.8457469996
 21
6.1143155225
 31
0.0
 11
9.8573664996
 21
6.111593428
 31
0.0
  0
SPLINE
  5
403
100
AcDbEntity
  8
0
100
AcDbSpline
 62
9
  6
CONTINUOUS
 70
0
 71
3
 72
12
 73
8
 74
6
 42
0.0000001
 43
0.0000001
 44
0.0000000001
 12
0.0286985601
 22
-0.0255727539
 32
0.0
 13
0.0383357135
 23
-0.0028188951
 33
0.0
 40
0.0
 40
0.0
 40
0.0
 40
0.0
 40
0.2499718373
 40
0.375052696
 40
0.5001338548
 40
0.75007833
 40
1.0
 40
1.0
 40
1.0
 40
1.0
 10
9.8211063163
 20
6.1064280272
 30
0.0
 10
9.8234975936
 20
6.1042972045
 30
0.0
 10
9.8273601578
 20
6.1013903219
 30
0.0
 10
9.8329182908
 20
6.0981910391
 30
0.0
 10
9.8387159369
 20
6.0954467863
 30
0.0
 10
9.8463481103
 20
6.0929075468
 30
0.0
 10
9.8527072487
 20
6.0918967374
 30
0.0
 10
9.8559008905
 20
6.091661903
 30
0.0
 11
9.8211063163
 21
6.1064280272
 31
0.0
 11
9.828782087
 21
6.1006478838
 31
0.0
 11
9.8329482776
 21
6.0982479225
 31
0.0
 11
9.8372942705
 21
6.0961913685
 31
0.0
 11
9.8464120245
 21
6.0931625298
 31
0.0
 11
9.8559008905
 21
6.091661903
 31
0.0
  0
SPLINE
  5
404
100
AcDbEntity
  8
0
100
AcDbSpline
 62
6
  6
CONTINUOUS
 70
0
 71
3
 72
31
 73
27
 74
25
 42
0.0000001
 43
0.0000001
 44
0.0000000001
 12
0.0000001318
 22
0.0385589951
 32
0.0
 13
0.024914959
 23
0.0294285733
 33
0.0
 40
0.0
 40
0.0
 40
0.0
 40
0.0
 40
0.1446940937
 40
0.2866855082
 40
0.424426271
 40
0.4914598976
 40
0.5572075377
 40
0.6216404494
 40
0.6847354162
 40
0.7464439637
 40
0.8066475416
 40
0.8361067371
 40
0.8650534302
 40
0.8933675621
 40
0.9208349977
 40
0.9341262456
 40
0.9470246764
 40
0.9593899969
 40
0.9710640824
 40
0.9816695311
 40
0.9863804098
 40
0.9905923598
 40
0.9942033086
 40
0.997069755
 40
0.9990461476
 40
1.0
 40
1.0
 40
1.0
 40
1.0
 10
9.8211063163
 20
6.1064232878
 30
0.0
 10
9.8211063227
 20
6.1082830407
 30
0.0
 10
9.8211153457
 20
6.1119678134
 30
0.0
 10
9.8211516836
 20
6.1174228557
 30
0.0
 10
9.8211984101
 20
6.1218796019
 30
0.0
 10
9.8212438898
 20
6.1253563248
 30
0.0
 10
9.8212812368
 20
6.1278908444
 30
0.0
 10
9.821321827
 20
6.1303746837
 30
0.0
 10
9.82136539
 20
6.1328065501
 30
0.0
 10
9.8214117472
 20
6.135183995
 30
0.0
 10
9.8214529364
 20
6.1371291354
 30
0.0
 10
9.8214874721
 20
6.1386532317
 30
0.0
 10
9.8215139932
 20
6.1397675288
 30
0.0
 10
9.8215414444
 20
6.1408561953
 30
0.0
 10
9.8215654459
 20
6.1417436644
 30
0.0
 10
9.8215856263
 20
6.1424330245
 30
0.0
 10
9.8216010322
 20
6.1429283317
 30
0.0
 10
9.8216170454
 20
6.1434028279
 30
0.0
 10
9.8216336159
 20
6.1438477983
 30
0.0
 10
9.8216483761
 20
6.1441944296
 30
0.0
 10
9.821661383
 20
6.1444450339
 30
0.0
 10
9.8216708671
 20
6.1446059947
 30
0.0
 10
9.8216812416
 20
6.1447425875
 30
0.0
 10
9.8216899162
 20
6.144851968
 30
0.0
 10
9.8217021495
 20
6.1449234092
 30
0.0
 10
9.8217065557
 20
6.1449636224
 30
0.0
 10
9.8217144774
 20
6.1449729792
 30
0.0
 11
9.8211063163
 21
6.1064232878
 31
0.0
 11
9.8211193848
 21
6.1120025313
 31
0.0
 11
9.8211555887
 21
6.1174774579
 31
0.0
 11
9.8212110295
 21
6.1227883139
 31
0.0
 11
9.8212448252
 21
6.1253728423
 31
0.0
 11
9.8212821711
 21
6.1279077301
 31
0.0
 11
9.8213227653
 21
6.1303918668
 31
0.0
 11
9.8213663588
 21
6.1328243547
 31
0.0
 11
9.821412797
 21
6.1352033211
 31
0.0
 11
9.8214620728
 21
6.1375241875
 31
0.0
 11
9.821487839
 21
6.1386598122
 31
0.0
 11
9.8215144525
 21
6.1397756503
 31
0.0
 11
9.8215420563
 21
6.1408670657
 31
0.0
 11
9.8215709016
 21
6.1419257896
 31
0.0
 11
9.8215859324
 21
6.1424380663
 31
0.0
 11
9.8216014687
 21
6.1429351741
 31
0.0
 11
9.8216176299
 21
6.1434116944
 31
0.0
 11
9.8216345465
 21
6.1438615175
 31
0.0
 11
9.8216524749
 21
6.1442700597
 31
0.0
 11
9.8216619407
 21
6.1444514597
 31
0.0
 11
9.8216718069
 21
6.1446135683
 31
0.0
 11
9.821682076
 21
6.1447524236
 31
0.0
 11
9.8216926691
 21
6.1448624421
 31
0.0
 11
9.8217034987
 21
6.1449378764
 31
0.0
 11
9.8217144774
 21
6.1449729792
 31
0.0
  0
SPLINE
  5
405
100
AcDbEntity
  8
0
100
AcDbSpline
 62
9
  6
CONTINUOUS
 70
0
 71
3
 72
13
 73
9
 74
7
 42
0.0000001
 43
0.0000001
 44
0.0000000001
 12
0.0296731832
 22
-0.0000074121
 32
0.0
 13
0.0265606097
 23
0.013229961
 33
0.0
 40
0.0
 40
0.0
 40
0.0
 40
0.0
 40
0.2498902454
 40
0.3749907789
 40
0.5000608188
 40
0.6250584959
 40
0.7500419825
 40
1.0
 40
1.0
 40
1.0
 40
1.0
 10
10.1995994176
 20
6.090427077
 30
0.0
 10
10.2020710973
 20
6.0904264596
 30
0.0
 10
10.2057843601
 20
6.0906518019
 30
0.0
 10
10.2106807045
 20
6.0913621998
 30
0.0
 10
10.2143200163
 20
6.092098234
 30
0.0
 10
10.2179076568
 20
6.0930520228
 30
0.0
 10
10.2225947479
 20
6.0946374799
 30
0.0
 10
10.2259918762
 20
6.0961480202
 30
0.0
 10
10.2282048886
 20
6.0972503318
 30
0.0
 11
10.1995994176
 21
6.090427077
 31
0.0
 11
10.2070016149
 21
6.0908632908
 31
0.0
 11
10.2106753091
 21
6.0913961028
 31
0.0
 11
10.2143122896
 21
6.0921347326
 31
0.0
 11
10.2178958913
 21
6.0930913236
 31
0.0
 11
10.2214099519
 21
6.0942768708
 31
0.0
 11
10.2282048886
 21
6.0972503318
 31
0.0
  0
SPLINE
  5
406
100
AcDbEntity
  8
0
100
AcDbSpline
 62
9
  6
CONTINUOUS
 70
0
 71
3
 72
9
 73
5
 74
3
 42
0.0000001
 43
0.0000001
 44
0.0000000001
 12
0.0243405964
 22
-0.0000268958
 32
0.0
 13
0.0207204045
 23
0.012772243
 33
0.0
 40
0.0
 40
0.0
 40
0.0
 40
0.0
 40
0.499985092
 40
1.0
 40
1.0
 40
1.0
 40
1.0
 10
10.1995994176
 20
6.1104168952
 30
0.0
 10
10.2036560627
 20
6.1104124127
 30
0.0
 10
10.211803388
 20
6.1115573463
 30
0.0
 10
10.2193533184
 20
6.1148331166
 30
0.0
 10
10.2228068221
 20
6.1169618872
 30
0.0
 11
10.1995994176
 21
6.1104168952
 31
0.0
 11
10.2116538053
 21
6.1120899896
 31
0.0
 11
10.2228068221
 21
6.1169618872
 31
0.0
  0
SPLINE
  5
407
100
AcDbEntity
  8
0
100
AcDbSpline
 62
9
  6
CONTINUOUS
 70
0
 71
3
 72
16
 73
12
 74
10
 42
0.0000001
 43
0.0000001
 44
0.0000000001
 12
0.0056697312
 22
0.0044332914
 32
0.0
 13
0.0039810629
 23
-0.0059959205
 33
0.0
 40
0.0
 40
0.0
 40
0.0
 40
0.0
 40
0.1388272104
 40
0.2663834468
 40
0.3860494779
 40
0.4956709396
 40
0.5960358847
 40
0.7012455453
 40
0.7629331351
 40
0.8331122018
 40
1.0
 40
1.0
 40
1.0
 40
1.0
 10
10.2299714014
 20
6.1225481556
 30
0.0
 10
10.2302337724
 20
6.1227533094
 30
0.0
 10
10.2307422728
 20
6.1231407345
 30
0.0
 10
10.2315080184
 20
6.1236626615
 30
0.0
 10
10.2322492456
 20
6.1240932052
 30
0.0
 10
10.2329889031
 20
6.1243886956
 30
0.0
 10
10.2337636224
 20
6.1244439405
 30
0.0
 10
10.2343761387
 20
6.1241875326
 30
0.0
 10
10.2348185349
 20
6.123827937
 30
0.0
 10
10.2353107602
 20
6.1233046395
 30
0.0
 10
10.2356404395
 20
6.1228386046
 30
0.0
 10
10.2358619031
 20
6.1225050559
 30
0.0
 11
10.2299714014
 21
6.1225481556
 31
0.0
 11
10.2307691882
 21
6.1231497167
 31
0.0
 11
10.2315298313
 21
6.1236637571
 31
0.0
 11
10.2322805131
 21
6.1240859533
 31
0.0
 11
10.2330219273
 21
6.1243557267
 31
0.0
 11
10.2337435767
 21
6.1243874933
 31
0.0
 11
10.2344476453
 21
6.1241088094
 31
0.0
 11
10.2347963852
 21
6.1238340409
 31
0.0
 11
10.2351460859
 21
6.1234695833
 31
0.0
 11
10.2358619031
 21
6.1225050559
 31
0.0
  0
LINE
  5
408
100
AcDbEntity
  8
0
100
AcDbLine
 62
9
  6
CONTINUOUS
 10
10.2358619031
 20
6.1225050559
 11
10.2396323584
 21
6.1160375549
  0
SPLINE
  5
409
100
AcDbEntity
  8
0
100
AcDbSpline
 62
9
  6
CONTINUOUS
 70
0
 71
3
 72
22
 73
18
 74
16
 42
0.0000001
 43
0.0000001
 44
0.0000000001
 12
-0.014718408
 22
-0.0152872808
 32
0.0
 13
0.0161749383
 23
-0.0137369523
 33
0.0
 40
0.0
 40
0.0
 40
0.0
 40
0.0
 40
0.1426435344
 40
0.2115420382
 40
0.2788533221
 40
0.3437094464
 40
0.4049858935
 40
0.4618501448
 40
0.5137748575
 40
0.5382991596
 40
0.5624397301
 40
0.6116535208
 40
0.6647393087
 40
0.7230042388
 40
0.7864293212
 40
0.8542334921
 40
1.0
 40
1.0
 40
1.0
 40
1.0
 10
10.2299714014
 20
6.1225481556
 30
0.0
 10
10.2292715728
 20
6.1218212783
 30
0.0
 10
10.2282189138
 20
6.1207576362
 30
0.0
 10
10.2268282551
 20
6.1193587793
 30
0.0
 10
10.225829077
 20
6.1183465546
 30
0.0
 10
10.2248943796
 20
6.1173467013
 30
0.0
 10
10.224069361
 20
6.116347319
 30
0.0
 10
10.2234001861
 20
6.1153444447
 30
0.0
 10
10.2230182833
 20
6.1144715833
 30
0.0
 10
10.2228807348
 20
6.1137704063
 30
0.0
 10
10.2228610682
 20
6.1130754226
 30
0.0
 10
10.2230462166
 20
6.1121874052
 30
0.0
 10
10.2235400762
 20
6.1111567459
 30
0.0
 10
10.2242507913
 20
6.1101408373
 30
0.0
 10
10.2251308773
 20
6.1091279812
 30
0.0
 10
10.2265071833
 20
6.1077322489
 30
0.0
 10
10.227640082
 20
6.1067304039
 30
0.0
 10
10.2284260034
 20
6.1060629413
 30
0.0
 11
10.2299714014
 21
6.1225481556
 31
0.0
 11
10.2278508973
 21
6.120387957
 31
0.0
 11
10.2268209549
 21
6.1193501957
 31
0.0
 11
10.2258215908
 21
6.118329587
 31
0.0
 11
10.2248878713
 21
6.1173184446
 31
0.0
 11
10.2240676985
 21
6.1163093726
 31
0.0
 11
10.2234125568
 21
6.1152959828
 31
0.0
 11
10.2229925948
 21
6.1142772544
 31
0.0
 11
10.2228946266
 21
6.1137661274
 31
0.0
 11
10.2228793357
 21
6.1132540677
 31
0.0
 11
10.2230786988
 21
6.1122289051
 31
0.0
 11
10.2235492185
 21
6.111205336
 31
0.0
 11
10.2242459312
 21
6.1101838757
 31
0.0
 11
10.2251204801
 21
6.1091607749
 31
0.0
 11
10.2261270427
 21
6.1081325761
 31
0.0
 11
10.2284260034
 21
6.1060629413
 31
0.0
  0
SPLINE
  5
40A
100
AcDbEntity
  8
0
100
AcDbSpline
 62
9
  6
CONTINUOUS
 70
0
 71
3
 72
22
 73
18
 74
16
 42
0.0000001
 43
0.0000001
 44
0.0000000001
 12
-0.0161748405
 22
-0.0137369868
 32
0.0
 13
0.0147197534
 23
-0.0152859128
 33
0.0
 40
0.0
 40
0.0
 40
0.0
 40
0.0
 40
0.1457672354
 40
0.2135713289
 40
0.2769956609
 40
0.3352604093
 40
0.3883471804
 40
0.4375606184
 40
0.4617010653
 40
0.4862263575
 40
0.5381533935
 40
0.5950169051
 40
0.6562913268
 40
0.7211427566
 40
0.7884418669
 40
0.8573253729
 40
1.0
 40
1.0
 40
1.0
 40
1.0
 10
10.2284259993
 20
5.3507316654
 30
0.0
 10
10.2276400787
 20
5.3500641979
 30
0.0
 10
10.2265071757
 20
5.3490623572
 30
0.0
 10
10.2251308629
 20
5.347666639
 30
0.0
 10
10.2242508
 20
5.3466537752
 30
0.0
 10
10.2235401124
 20
5.3456378524
 30
0.0
 10
10.223046194
 20
5.3446072315
 30
0.0
 10
10.2228609531
 20
5.3437192218
 30
0.0
 10
10.2228806828
 20
5.3430242312
 30
0.0
 10
10.223018376
 20
5.3423230627
 30
0.0
 10
10.2234002796
 20
5.3414502031
 30
0.0
 10
10.224069369
 20
5.3404472763
 30
0.0
 10
10.2248943066
 20
5.3394478983
 30
0.0
 10
10.2258288906
 20
5.3384481265
 30
0.0
 10
10.2268278716
 20
5.337436029
 30
0.0
 10
10.2282185369
 20
5.3360371461
 30
0.0
 10
10.229271317
 20
5.3349734701
 30
0.0
 10
10.2299713621
 20
5.3342464995
 30
0.0
 11
10.2284259993
 21
5.3507316654
 31
0.0
 11
10.2261270286
 21
5.3486620301
 31
0.0
 11
10.2251204666
 21
5.3476338379
 31
0.0
 11
10.2242459448
 21
5.3466107393
 31
0.0
 11
10.2235492441
 21
5.3455892792
 31
0.0
 11
10.2230786619
 21
5.344565719
 31
0.0
 11
10.2228792476
 21
5.3435405766
 31
0.0
 11
10.2228945827
 21
5.3430285221
 31
0.0
 11
10.2229926365
 21
5.3425173914
 31
0.0
 11
10.2234126503
 21
5.341498634
 31
0.0
 11
10.2240677201
 21
5.3404852199
 31
0.0
 11
10.2248878155
 21
5.3394761445
 31
0.0
 11
10.2258214383
 21
5.338465053
 31
0.0
 11
10.2268205905
 21
5.3374446034
 31
0.0
 11
10.2278502995
 21
5.3364070638
 31
0.0
 11
10.2299713621
 21
5.3342464995
 31
0.0
  0
SPLINE
  5
40B
100
AcDbEntity
  8
0
100
AcDbSpline
 62
9
  6
CONTINUOUS
 70
0
 71
3
 72
18
 73
14
 74
12
 42
0.0000001
 43
0.0000001
 44
0.0000000001
 12
-0.0063860515
 22
-0.0108354242
 32
0.0
 13
-0.010772886
 23
0.0064909935
 33
0.0
 40
0.0
 40
0.0
 40
0.0
 40
0.0
 40
0.1940506613
 40
0.3739278778
 40
0.533319152
 40
0.6030552585
 40
0.6650708924
 40
0.7189125883
 40
0.7647498475
 40
0.8042649042
 40
0.8407385621
 40
0.9155208392
 40
1.0
 40
1.0
 40
1.0
 40
1.0
 10
10.2396324848
 20
5.3407571753
 30
0.0
 10
10.2392194123
 20
5.3400563016
 30
0.0
 10
10.2384356191
 20
5.3386985227
 30
0.0
 10
10.2373351913
 20
5.336752351
 30
0.0
 10
10.2364849334
 20
5.3352627914
 30
0.0
 10
10.2358317479
 20
5.334231329
 30
0.0
 10
10.2353814252
 20
5.3335960485
 30
0.0
 10
10.23494112
 20
5.3330789825
 30
0.0
 10
10.2344982012
 20
5.3326931548
 30
0.0
 10
10.234038129
 20
5.3324576077
 30
0.0
 10
10.23340844
 20
5.3323369798
 30
0.0
 10
10.2325817934
 20
5.332525637
 30
0.0
 10
10.2319958908
 20
5.332847907
 30
0.0
 10
10.2316925294
 20
5.3330306916
 30
0.0
 11
10.2396324848
 21
5.3407571753
 31
0.0
 11
10.2384092081
 21
5.3386452401
 31
0.0
 11
10.2372914442
 21
5.3366782862
 31
0.0
 11
10.236280295
 21
5.3349472644
 31
0.0
 11
10.2358076768
 21
5.3342084002
 31
0.0
 11
10.2353517438
 21
5.3335755442
 31
0.0
 11
10.2349059757
 21
5.333065773
 31
0.0
 11
10.2344634508
 21
5.3326962687
 31
0.0
 11
10.2340184242
 21
5.3324750167
 31
0.0
 11
10.2335678744
 21
5.3323887213
 31
0.0
 11
10.2326418632
 21
5.3325535013
 31
0.0
 11
10.2316925294
 21
5.3330306916
 31
0.0
  0
LINE
  5
40C
100
AcDbEntity
  8
0
100
AcDbLine
 62
9
  6
CONTINUOUS
 10
10.2316925294
 20
5.3330306916
 11
10.2299713621
 21
5.3342464995
  0
SPLINE
  5
40D
100
AcDbEntity
  8
0
100
AcDbSpline
 62
9
  6
CONTINUOUS
 70
0
 71
3
 72
23
 73
19
 74
17
 42
0.0000001
 43
0.0000001
 44
0.0000000001
 12
-0.2791278267
 22
-0.1954288797
 32
0.0
 13
-0.1797175896
 23
0.2894933137
 33
0.0
 40
0.0
 40
0.0
 40
0.0
 40
0.0
 40
0.0649389943
 40
0.1298157444
 40
0.1945417851
 40
0.2590055826
 40
0.3230889756
 40
0.3866844824
 40
0.4497123106
 40
0.5121365683
 40
0.573972704
 40
0.6352796005
 40
0.6961674771
 40
0.7567750578
 40
0.8172669756
 40
0.8778413524
 40
0.9387103111
 40
1.0
 40
1.0
 40
1.0
 40
1.0
 10
10.5543519324
 20
6.1961060108
 30
0.0
 10
10.5483098389
 20
6.1918756925
 30
0.0
 10
10.5357796035
 20
6.1840437796
 30
0.0
 10
10.5158786134
 20
6.174351959
 30
0.0
 10
10.4951109763
 20
6.1668403583
 30
0.0
 10
10.473750241
 20
6.1616022267
 30
0.0
 10
10.4520809878
 20
6.158683287
 30
0.0
 10
10.4303882872
 20
6.1580816087
 30
0.0
 10
10.4089415831
 20
6.1597500666
 30
0.0
 10
10.3879826475
 20
6.1636039086
 30
0.0
 10
10.3677186522
 20
6.1695325684
 30
0.0
 10
10.3483215584
 20
6.1774150689
 30
0.0
 10
10.3299304055
 20
6.187124405
 30
0.0
 10
10.3126608272
 20
6.1985428436
 30
0.0
 10
10.2966066958
 20
6.2115571509
 30
0.0
 10
10.2818566728
 20
6.2260752646
 30
0.0
 10
10.2685006957
 20
6.2420007691
 30
0.0
 10
10.2606192761
 20
6.2534497668
 30
0.0
 10
10.2569476644
 20
6.2593640852
 30
0.0
 11
10.5543519324
 21
6.1961060108
 31
0.0
 11
10.5355860428
 21
6.1843815166
 31
0.0
 11
10.5157100324
 21
6.1747053384
 31
0.0
 11
10.4949691537
 21
6.1672065138
 31
0.0
 11
10.4736352694
 21
6.1619769571
 31
0.0
 11
10.4519946979
 21
6.1590630198
 31
0.0
 11
10.4303333906
 21
6.1584624814
 31
0.0
 11
10.4089218332
 21
6.16012751
 31
0.0
 11
10.3880017276
 21
6.1639726277
 31
0.0
 11
10.3677788208
 21
6.1698874243
 31
0.0
 11
10.3484248657
 21
6.1777492566
 31
0.0
 11
10.3300765146
 21
6.187433119
 31
0.0
 11
10.3128478185
 21
6.1988198351
 31
0.0
 11
10.2968344746
 21
6.2117979643
 31
0.0
 11
10.2821217459
 21
6.2262739345
 31
0.0
 11
10.2687914391
 21
6.2421633861
 31
0.0
 11
10.2569476644
 21
6.2593640852
 31
0.0
  0
SPLINE
  5
40E
100
AcDbEntity
  8
0
100
AcDbSpline
 62
9
  6
CONTINUOUS
 70
0
 71
3
 72
15
 73
11
 74
9
 42
0.0000001
 43
0.0000001
 44
0.0000000001
 12
0.0904577635
 22
0.1457123937
 32
0.0
 13
0.1678158766
 23
0.035391245
 33
0.0
 40
0.0
 40
0.0
 40
0.0
 40
0.0
 40
0.1255505039
 40
0.2502090813
 40
0.3742688051
 40
0.4981992394
 40
0.6224124503
 40
0.7472689716
 40
0.8730581789
 40
1.0
 40
1.0
 40
1.0
 40
1.0
 10
10.2569476644
 20
5.1974305437
 30
0.0
 10
10.260733337
 20
5.2035286318
 30
0.0
 10
10.2688769151
 20
5.2153212936
 30
0.0
 10
10.282719747
 20
5.2316794963
 30
0.0
 10
10.2980395854
 20
5.2465341361
 30
0.0
 10
10.3147362943
 20
5.2597814898
 30
0.0
 10
10.3327138744
 20
5.2713167935
 30
0.0
 10
10.3518662712
 20
5.2810160247
 30
0.0
 10
10.3720604792
 20
5.2887464545
 30
0.0
 10
10.3860511051
 20
5.292480094
 30
0.0
 10
10.3931520561
 20
5.293977637
 30
0.0
 11
10.2569476644
 21
5.1974305437
 31
0.0
 11
10.2691856127
 21
5.2151476141
 31
0.0
 11
10.282999582
 21
5.2314654508
 31
0.0
 11
10.2982775366
 21
5.2462742469
 31
0.0
 11
10.3149302222
 21
5.2594826266
 31
0.0
 11
10.3328622048
 21
5.2709839847
 31
0.0
 11
10.3519672608
 21
5.2806559631
 31
0.0
 11
10.3721162609
 21
5.2883659902
 31
0.0
 11
10.3931520561
 21
5.293977637
 31
0.0
  0
SPLINE
  5
40F
100
AcDbEntity
  8
0
100
AcDbSpline
 62
9
  6
CONTINUOUS
 70
0
 71
3
 72
15
 73
11
 74
9
 42
0.0000001
 43
0.0000001
 44
0.0000000001
 12
0.1655924412
 22
0.0349223374
 32
0.0
 13
0.1386332706
 23
-0.0970630853
 33
0.0
 40
0.0
 40
0.0
 40
0.0
 40
0.0
 40
0.1220512062
 40
0.2452365814
 40
0.3694728689
 40
0.4946047463
 40
0.6204304068
 40
0.7467327497
 40
0.8733096551
 40
1.0
 40
1.0
 40
1.0
 40
1.0
 10
10.3931520561
 20
5.293977637
 30
0.0
 10
10.3998889752
 20
5.2953984081
 30
0.0
 10
10.413578827
 20
5.2975746682
 30
0.0
 10
10.4344225379
 20
5.2987513741
 30
0.0
 10
10.4554541732
 20
5.2977868711
 30
0.0
 10
10.4764227139
 20
5.2946437058
 30
0.0
 10
10.4970686103
 20
5.2893262782
 30
0.0
 10
10.5171334806
 20
5.2818809124
 30
0.0
 10
10.5363697734
 20
5.2723952523
 30
0.0
 10
10.5484974334
 20
5.2647876033
 30
0.0
 10
10.5543519324
 20
5.260688618
 30
0.0
 11
10.3931520561
 21
5.293977637
 31
0.0
 11
10.4135514552
 21
5.2972190161
 31
0.0
 11
10.434365577
 21
5.2983939186
 31
0.0
 11
10.4553686175
 21
5.2974309073
 31
0.0
 11
10.4763114836
 21
5.294292791
 31
0.0
 11
10.4969330697
 21
5.2889835361
 31
0.0
 11
10.516973614
 21
5.2815500487
 31
0.0
 11
10.5361872509
 21
5.2720787844
 31
0.0
 11
10.5543519324
 21
5.260688618
 31
0.0
  0
SPLINE
  5
410
100
AcDbEntity
  8
0
100
AcDbSpline
 62
6
  6
CONTINUOUS
 70
0
 71
3
 72
11
 73
7
 74
5
 42
0.0000001
 43
0.0000001
 44
0.0000000001
 12
0.0028736233
 22
-0.0134096552
 32
0.0
 13
0.0098002437
 23
-0.0095933199
 33
0.0
 40
0.0
 40
0.0
 40
0.0
 40
0.0
 40
0.388289971
 40
0.6474651693
 40
0.841660443
 40
1.0
 40
1.0
 40
1.0
 40
1.0
 10
9.8185361284
 20
6.275600821
 30
0.0
 10
9.8189080614
 20
6.2738652095
 30
0.0
 10
9.8196618698
 20
6.2709921323
 30
0.0
 10
9.8211786841
 20
6.267440502
 30
0.0
 10
9.822673519
 20
6.2650640544
 30
0.0
 10
9.8237385059
 20
6.2638451904
 30
0.0
 10
9.8242557613
 20
6.2633388564
 30
0.0
 11
9.8185361284
 21
6.275600821
 31
0.0
 11
9.8199607383
 21
6.2704698736
 31
0.0
 11
9.8213908385
 21
6.2672159143
 31
0.0
 11
9.8228228891
 21
6.2649704883
 31
0.0
 11
9.8242557613
 21
6.2633388564
 31
0.0
  0
SPLINE
  5
411
100
AcDbEntity
  8
0
100
AcDbSpline
 62
9
  6
CONTINUOUS
 70
0
 71
3
 72
9
 73
5
 74
3
 42
0.0000001
 43
0.0000001
 44
0.0000000001
 12
-0.0059746059
 22
0.0170372044
 32
0.0
 13
-0.0111991147
 23
0.0141612881
 33
0.0
 40
0.0
 40
0.0
 40
0.0
 40
0.0
 40
0.507725697
 40
1.0
 40
1.0
 40
1.0
 40
1.0
 10
10.2483748168
 20
5.3250260725
 30
0.0
 10
10.2473636631
 20
5.3279094814
 30
0.0
 10
10.2448543261
 20
5.3334185255
 30
0.0
 10
10.2414732805
 20
5.3384297343
 30
0.0
 10
10.2396356017
 20
5.3407534804
 30
0.0
 11
10.2483748168
 21
5.3250260725
 31
0.0
 11
10.2445908396
 21
5.3333753133
 31
0.0
 11
10.2396356017
 21
5.3407534804
 31
0.0
  0
LINE
  5
412
100
AcDbEntity
  8
0
100
AcDbLine
 62
9
  6
CONTINUOUS
 10
9.9724867584
 20
5.1058305281
 11
10.0998043203
 21
5.1058305281
  0
SPLINE
  5
413
100
AcDbEntity
  8
0
100
AcDbSpline
 62
9
  6
CONTINUOUS
 70
0
 71
3
 72
11
 73
7
 74
5
 42
0.0000001
 43
0.0000001
 44
0.0000000001
 12
0.001049854
 22
-0.0016129773
 32
0.0
 13
0.0019245442
 23
-0.0000043239
 33
0.0
 40
0.0
 40
0.0
 40
0.0
 40
0.0
 40
0.2499514659
 40
0.4999123181
 40
0.7498325867
 40
1.0
 40
1.0
 40
1.0
 40
1.0
 10
9.9673520013
 20
5.1067227886
 30
0.0
 10
9.9674394721
 20
5.1065883999
 30
0.0
 10
9.967653565
 20
5.106345078
 30
0.0
 10
9.968043567
 20
5.1060548324
 30
0.0
 10
9.9684998301
 20
5.1058874395
 30
0.0
 10
9.9688203361
 20
5.1058387105
 30
0.0
 10
9.9689808221
 20
5.1058383499
 30
0.0
 11
9.9673520013
 21
5.1067227886
 31
0.0
 11
9.9676650408
 21
5.106357536
 31
0.0
 11
9.9680546114
 21
5.1060753032
 31
0.0
 11
9.96850375
 21
5.1059031988
 31
0.0
 11
9.9689808221
 21
5.1058383499
 31
0.0
  0
SPLINE
  5
414
100
AcDbEntity
  8
0
100
AcDbSpline
 62
6
  6
CONTINUOUS
 70
0
 71
3
 72
13
 73
9
 74
7
 42
0.0000001
 43
0.0000001
 44
0.0000000001
 12
-0.0011777183
 22
0.002419111
 32
0.0
 13
-0.0026845767
 23
-0.0001793501
 33
0.0
 40
0.0
 40
0.0
 40
0.0
 40
0.0
 40
0.0464613954
 40
0.1109693274
 40
0.198050478
 40
0.3092574952
 40
0.6056301931
 40
1.0
 40
1.0
 40
1.0
 40
1.0
 10
10.2513618203
 20
6.2908569956
 30
0.0
 10
10.2513435808
 20
6.2908944607
 30
0.0
 10
10.2512673765
 20
6.2909662299
 30
0.0
 10
10.2511031317
 20
6.2910358877
 30
0.0
 10
10.250873149
 20
6.2910911743
 30
0.0
 10
10.2504326576
 20
6.2911474622
 30
0.0
 10
10.249712029
 20
6.2911620258
 30
0.0
 10
10.2490931362
 20
6.2911327877
 30
0.0
 10
10.2487402308
 20
6.291109211
 30
0.0
 11
10.2513618203
 21
6.2908569956
 31
0.0
 11
10.2512769955
 21
6.2909488192
 31
0.0
 11
10.2511205938
 21
6.2910240684
 31
0.0
 11
10.2508936753
 21
6.2910824049
 31
0.0
 11
10.2505973002
 21
6.2911234904
 31
0.0
 11
10.2498004212
 21
6.2911525542
 31
0.0
 11
10.2487402308
 21
6.291109211
 31
0.0
  0
SPLINE
  5
415
100
AcDbEntity
  8
0
100
AcDbSpline
 62
9
  6
CONTINUOUS
 70
0
 71
3
 72
9
 73
5
 74
3
 42
0.0000001
 43
0.0000001
 44
0.0000000001
 12
0.00001287
 22
-0.0015415475
 32
0.0
 13
0.0008414158
 23
-0.0012917251
 33
0.0
 40
0.0
 40
0.0
 40
0.0
 40
0.0
 40
0.5000453856
 40
1.0
 40
1.0
 40
1.0
 40
1.0
 10
9.9669150277
 20
5.1081867501
 30
0.0
 10
9.9669171729
 20
5.1079298022
 30
0.0
 10
9.9670052448
 20
5.1074166659
 30
0.0
 10
9.967211778
 20
5.1069380566
 30
0.0
 10
9.9673520013
 20
5.1067227886
 30
0.0
 11
9.9669150277
 21
5.1081867501
 31
0.0
 11
9.9670348735
 21
5.1074252526
 31
0.0
 11
9.9673520013
 21
5.1067227886
 31
0.0
  0
SPLINE
  5
416
100
AcDbEntity
  8
0
100
AcDbSpline
 62
9
  6
CONTINUOUS
 70
0
 71
3
 72
9
 73
5
 74
3
 42
0.0000001
 43
0.0000001
 44
0.0000000001
 12
0.0000674389
 22
-0.0088261188
 32
0.0
 13
0.003703261
 23
-0.0080119148
 33
0.0
 40
0.0
 40
0.0
 40
0.0
 40
0.0
 40
0.5000482342
 40
1.0
 40
1.0
 40
1.0
 40
1.0
 10
9.9489185285
 20
5.1080521542
 30
0.0
 10
9.9489297694
 20
5.1065809924
 30
0.0
 10
9.9492753404
 20
5.1036337159
 30
0.0
 10
9.9502284366
 20
5.1008245277
 30
0.0
 10
9.9508455872
 20
5.0994893374
 30
0.0
 11
9.9489185285
 21
5.1080521542
 31
0.0
 11
9.9494272844
 21
5.1036679603
 31
0.0
 11
9.9508455872
 21
5.0994893374
 31
0.0
  0
SPLINE
  5
417
100
AcDbEntity
  8
0
100
AcDbSpline
 62
9
  6
CONTINUOUS
 70
0
 71
3
 72
9
 73
5
 74
3
 42
0.0000001
 43
0.0000001
 44
0.0000000001
 12
0.0000037393
 22
-0.0254316363
 32
0.0
 13
0.0177681288
 23
-0.0181951019
 33
0.0
 40
0.0
 40
0.0
 40
0.0
 40
0.0
 40
0.5000283016
 40
1.0
 40
1.0
 40
1.0
 40
1.0
 10
9.8716782242
 20
5.1996054942
 30
0.0
 10
9.8716788475
 20
5.1953666482
 30
0.0
 10
9.873415182
 20
5.1868350968
 30
0.0
 10
9.878108924
 20
5.1794946752
 30
0.0
 10
9.8810701112
 20
5.1764623299
 30
0.0
 11
9.8716782242
 21
5.1996054942
 31
0.0
 11
9.8741547158
 21
5.18713243
 31
0.0
 11
9.8810701112
 21
5.1764623299
 31
0.0
  0
SPLINE
  5
418
100
AcDbEntity
  8
0
100
AcDbSpline
 62
9
  6
CONTINUOUS
 70
0
 71
3
 72
11
 73
7
 74
5
 42
0.0000001
 43
0.0000001
 44
0.0000000001
 12
-0.0000038123
 22
-0.0394438529
 32
0.0
 13
0.0275593051
 23
-0.0282188279
 33
0.0
 40
0.0
 40
0.0
 40
0.0
 40
0.0
 40
0.24999103
 40
0.5000047934
 40
0.7500128692
 40
1.0
 40
1.0
 40
1.0
 40
1.0
 10
9.8536880414
 20
5.1996059124
 30
0.0
 10
9.8536877237
 20
5.1963190426
 30
0.0
 10
9.8543493462
 20
5.1897280411
 30
0.0
 10
9.8572061082
 20
5.180231398
 30
0.0
 10
9.8617756424
 20
5.1714293517
 30
0.0
 10
9.865902905
 20
5.1662471388
 30
0.0
 10
9.8681993955
 20
5.1638956909
 30
0.0
 11
9.8536880414
 21
5.1996059124
 31
0.0
 11
9.8546600056
 21
5.1897933234
 31
0.0
 11
9.8574916099
 21
5.1803470902
 31
0.0
 11
9.8620460357
 21
5.1716005432
 31
0.0
 11
9.8681993955
 21
5.1638956909
 31
0.0
  0
LINE
  5
419
100
AcDbEntity
  8
0
100
AcDbLine
 62
9
  6
CONTINUOUS
 10
9.8716798463
 20
5.2693892639
 11
9.8716782242
 21
5.1996054942
  0
SPLINE
  5
41A
100
AcDbEntity
  8
0
100
AcDbSpline
 62
9
  6
CONTINUOUS
 70
0
 71
3
 72
9
 73
5
 74
3
 42
0.0000001
 43
0.0000001
 44
0.0000000001
 12
-0.013219395
 22
-0.000002642
 32
0.0
 13
-0.0110732134
 23
-0.007220551
 33
0.0
 40
0.0
 40
0.0
 40
0.0
 40
0.0
 40
0.5000034847
 40
1.0
 40
1.0
 40
1.0
 40
1.0
 10
9.8941576448
 20
5.2959641008
 30
0.0
 10
9.8919543969
 20
5.2959636604
 30
0.0
 10
9.8875271365
 20
5.2953156136
 30
0.0
 10
9.8834595241
 20
5.2934480484
 30
0.0
 10
9.8816140014
 20
5.2922446316
 30
0.0
 11
9.8941576448
 21
5.2959641008
 31
0.0
 11
9.8876170189
 21
5.2950107253
 31
0.0
 11
9.8816140014
 21
5.2922446316
 31
0.0
  0
LINE
  5
41B
100
AcDbEntity
  8
0
100
AcDbLine
 62
9
  6
CONTINUOUS
 10
10.1319479866
 20
5.2959641008
 11
9.8941576448
 21
5.2959641008
  0
SPLINE
  5
41C
100
AcDbEntity
  8
0
100
AcDbSpline
 62
9
  6
CONTINUOUS
 70
0
 71
3
 72
9
 73
5
 74
3
 42
0.0000001
 43
0.0000001
 44
0.0000000001
 12
-0.0430561536
 22
0.0007904231
 32
0.0
 13
-0.0430634083
 23
-0.0000009019
 33
0.0
 40
0.0
 40
0.0
 40
0.0
 40
0.0
 40
0.5000005754
 40
1.0
 40
1.0
 40
1.0
 40
1.0
 10
10.1750083649
 20
5.2954947204
 30
0.0
 10
10.167832331
 20
5.2956264577
 30
0.0
 10
10.1534797603
 20
5.2958650499
 30
0.0
 10
10.1391252131
 20
5.2959642511
 30
0.0
 10
10.1319479866
 20
5.2959641008
 30
0.0
 11
10.1750083649
 21
5.2954947204
 31
0.0
 11
10.1534792496
 21
5.2958302024
 31
0.0
 11
10.1319479866
 21
5.2959641008
 31
0.0
  0
SPLINE
  5
41D
100
AcDbEntity
  8
0
100
AcDbSpline
 62
9
  6
CONTINUOUS
 70
0
 71
3
 72
9
 73
5
 74
3
 42
0.0000001
 43
0.0000001
 44
0.0000000001
 12
-0.0433863274
 22
0.0007911604
 32
0.0
 13
-0.0433935403
 23
0.0000005885
 33
0.0
 40
0.0
 40
0.0
 40
0.0
 40
0.0
 40
0.4999750494
 40
1.0
 40
1.0
 40
1.0
 40
1.0
 10
10.1753385823
 20
5.3134913095
 30
0.0
 10
10.1681078885
 20
5.3136231629
 30
0.0
 10
10.1536451955
 20
5.3138585732
 30
0.0
 10
10.1391806042
 20
5.3139549188
 30
0.0
 10
10.1319479866
 20
5.3139550169
 30
0.0
 11
10.1753385823
 21
5.3134913095
 31
0.0
 11
10.1536454427
 21
5.3138237988
 31
0.0
 11
10.1319479866
 21
5.3139550169
 31
0.0
  0
SPLINE
  5
41E
100
AcDbEntity
  8
0
100
AcDbSpline
 62
9
  6
CONTINUOUS
 70
0
 71
3
 72
13
 73
9
 74
7
 42
0.0000001
 43
0.0000001
 44
0.0000000001
 12
0.000002044
 22
0.0317850373
 32
0.0
 13
-0.0314417203
 23
0.0046590581
 33
0.0
 40
0.0
 40
0.0
 40
0.0
 40
0.0
 40
0.1252689385
 40
0.2505401274
 40
0.37579678
 40
0.501019859
 40
0.7504734181
 40
1.0
 40
1.0
 40
1.0
 40
1.0
 10
10.196768524
 20
5.2729510284
 30
0.0
 10
10.1967686093
 20
5.2742782544
 30
0.0
 10
10.1965190315
 20
5.2769381189
 30
0.0
 10
10.1954650793
 20
5.2807960872
 30
0.0
 10
10.1937821715
 20
5.2844251695
 30
0.0
 10
10.1907489464
 20
5.2888005036
 30
0.0
 10
10.1855073771
 20
5.2930670931
 30
0.0
 10
10.1804001649
 20
5.2948764263
 30
0.0
 10
10.1777849832
 20
5.2952639459
 30
0.0
 11
10.196768524
 21
5.2729510284
 31
0.0
 11
10.1964057653
 21
5.276916147
 31
0.0
 11
10.1953601676
 21
5.2807581587
 31
0.0
 11
10.1936825243
 21
5.2843687213
 31
0.0
 11
10.1914051726
 21
5.2876330469
 31
0.0
 11
10.1852787654
 21
5.2926663801
 31
0.0
 11
10.1777849832
 21
5.2952639459
 31
0.0
  0
SPLINE
  5
41F
100
AcDbEntity
  8
0
100
AcDbSpline
 62
9
  6
CONTINUOUS
 70
0
 71
3
 72
15
 73
11
 74
9
 42
0.0000001
 43
0.0000001
 44
0.0000000001
 12
0.0000242769
 22
0.0574312471
 32
0.0
 13
-0.0568087921
 23
0.0084326667
 33
0.0
 40
0.0
 40
0.0
 40
0.0
 40
0.0
 40
0.1250135563
 40
0.2500226718
 40
0.3750223149
 40
0.4999917993
 40
0.6249560277
 40
0.7499436824
 40
0.8749527179
 40
1.0
 40
1.0
 40
1.0
 40
1.0
 10
10.2147592383
 20
5.2729510284
 30
0.0
 10
10.2147602499
 20
5.2753442566
 30
0.0
 10
10.2143221323
 20
5.2801411703
 30
0.0
 10
10.2124206535
 20
5.2870991568
 30
0.0
 10
10.2093591283
 20
5.2936319456
 30
0.0
 10
10.2052000817
 20
5.2995296315
 30
0.0
 10
10.200036404
 20
5.3045717895
 30
0.0
 10
10.1940608925
 20
5.3086160503
 30
0.0
 10
10.187475739
 20
5.3115633645
 30
0.0
 10
10.1827965774
 20
5.3127162684
 30
0.0
 10
10.1804286491
 20
5.3130677625
 30
0.0
 11
10.2147592383
 21
5.2729510284
 31
0.0
 11
10.2141147235
 21
5.2801017262
 31
0.0
 11
10.2122271945
 21
5.2870285906
 31
0.0
 11
10.2091758467
 21
5.2935267196
 31
0.0
 11
10.2050325649
 21
5.2993871595
 31
0.0
 11
10.1999015491
 21
5.3044051155
 31
0.0
 11
10.1939598774
 21
5.3084329011
 31
0.0
 11
10.1874042863
 21
5.3113600799
 31
0.0
 11
10.1804286491
 21
5.3130677625
 31
0.0
  0
ENDSEC
  0
SECTION
  2
OBJECTS
  0
DICTIONARY
  5
C
100
AcDbDictionary
280
0
281
1
  3
ACAD_GROUP
350
D
  3
ACAD_MLINESTYLE
350
17
  3
ACAD_LAYOUT
350
1A
  3
ACAD_PLOTSETTINGS
350
19
  3
ACAD_PLOTSTYLENAME
350
E
  0
DICTIONARY
  5
D
102
{ACAD_REACTORS
330
C
102
}
100
AcDbDictionary
280
0
281
1
  0
ACDBDICTIONARYWDFLT
  5
E
102
{ACAD_REACTORS
330
C
102
}
100
AcDbDictionary
281
1
  3
Normal
350
F
100
AcDbDictionaryWithDefault
340
F
  0
DICTIONARY
  5
17
102
{ACAD_REACTORS
330
C
102
}
100
AcDbDictionary
280
0
281
1
  3
Standard
350
18
  0
DICTIONARY
  5
19
102
{ACAD_REACTORS
330
C
102
}
100
AcDbDictionary
281
1
  0
DICTIONARY
  5
1A
102
{ACAD_REACTORS
330
C
102
}
100
AcDbDictionary
281
1
  3
Model
350
420
  3
Layout1
350
421
  0
ACDBPLACEHOLDER
  5
F
102
{ACAD_REACTORS
330
E
102
}
  0
MLINESTYLE
  5
18
102
{ACAD_REACTORS
330
17
102
}
100
AcDbMlineStyle
  2
STANDARD
 70
0
  3

 62
256
 51
90.0
 52
90.0
 71
2
 49
0.5
 62
256
  6
BYLAYER
 49
-0.5
 62
256
  6
BYLAYER
  0
LAYOUT
  5
420
102
{ACAD_REACTORS
330
1A
102
}
100
AcDbPlotSettings
  1

  2
none_device
  4
ISO_A3_(420.00_x_297.00_MM)
  6

 40
0.0
 41
0.0
 42
0.0
 43
0.0
 44
420.0
 45
297.0
 46
0.0
 47
0.0
 48
0.0
 49
0.0
140
0.0
141
0.0
142
1.0
143
1.0
 70
1024
 72
0
 73
0
 74
0
  7

 75
0
147
1.0
148
0.0
149
0.0
100
AcDbLayout
  1
Model
 70
0
 71
0
 10
0.0
 20
0.0
 11
16.5354330709
 21
11.6929133858
 12
0.0
 22
0.0
 32
0.0
 14
0.0
 24
0.0
 34
0.0
 15
0.0
 25
0.0
 35
0.0
146
0.0
 13
0.0
 23
0.0
 33
0.0
 16
1.0
 26
0.0
 36
0.0
 17
0.0
 27
1.0
 37
0.0
 76
0
330
203
345
0
346
0
  0
LAYOUT
  5
421
102
{ACAD_REACTORS
330
1A
102
}
100
AcDbPlotSettings
  1

  2
none_device
  4
ISO_A3_(420.00_x_297.00_MM)
  6

 40
0.0
 41
0.0
 42
0.0
 43
0.0
 44
420.0
 45
297.0
 46
0.0
 47
0.0
 48
0.0
 49
0.0
140
0.0
141
0.0
142
1.0
143
1.0
 70
0
 72
0
 73
0
 74
0
  7

 75
0
147
1.0
148
0.0
149
0.0
100
AcDbLayout
  1
Layout1
 70
0
 71
1
 10
0.0
 20
0.0
 11
16.5354330709
 21
11.6929133858
 12
0.0
 22
0.0
 32
0.0
 14
0.0
 24
0.0
 34
0.0
 15
0.0
 25
0.0
 35
0.0
146
0.0
 13
0.0
 23
0.0
 33
0.0
 16
1.0
 26
0.0
 36
0.0
 17
0.0
 27
1.0
 37
0.0
 76
0
330
204
345
0
346
0
  0
ENDSEC
  0
EOF
