999
DXF file: 5080sq_front.dxf
999
Pro/ENGINEER 2019352 by Parametric Technology Corporation
  0
SECTION
  2
HEADER
  9
$ACADVER
  1
AC1032
  9
$DWGCODEPAGE
  3
ANSI_1252
  9
$EXTMAX
 10
11.0
 20
8.5
 30
0.0
  9
$EXTMIN
 10
0.0
 20
0.0
 30
0.0
  9
$LIMMIN
 10
0.0
 20
0.0
  9
$LIMMAX
 10
11.0
 20
8.5
  9
$VIEWCTR
 10
5.5
 20
4.25
  9
$VIEWSIZE
 40
8.5
  9
$CLAYER
  8
0
  9
$LTSCALE
 40
0.605
  9
$CELTYPE
  6
BYLAYER
  9
$DIMSCALE
 40
1.0
  9
$DIMASZ
 40
0.1
  9
$DIMEXO
 40
0.0625
  9
$DIMDLI
 40
0.418
  9
$DIMEXE
 40
0.125
  9
$DIMCEN
 40
0.099
  9
$DIMLFAC
 40
1.0
  9
$DIMBLK
  1
_FILLED
  9
$DIMALT
 70
1
  9
$DIMALTD
 70
2
  9
$DIMALTTD
 70
2
  9
$DIMALTF
 40
25.4
  9
$DIMTXT
 40
0.08
  9
$DIMTOL
 70
1
  9
$DIMLIM
 70
0
  9
$DIMTFAC
 40
1.0
  9
$DIMTP
 40
0.001
  9
$DIMTM
 40
0.001
  9
$DIMGAP
 40
0.09
  9
$DIMDSEP
 70
46
  9
$AUNITS
 70
0
  9
$PDMODE
 70
3
  9
$PDSIZE
 40
0.3125
  9
$HANDSEED
  5
22F
  9
$TILEMODE
 70
1
  9
$MEASUREMENT
 70
0
  9
$INSUNITS
 70
1
  0
ENDSEC
  0
SECTION
  2
CLASSES
  0
CLASS
  1
ACDBDICTIONARYWDFLT
  2
AcDbDictionaryWithDefault
  3
AutoCAD 2000
 90
0
 91
1
280
0
281
0
  0
CLASS
  1
ACDBPLACEHOLDER
  2
AcDbPlaceHolder
  3
AutoCAD 2000
 90
0
 91
1
280
0
281
0
  0
CLASS
  1
LAYOUT
  2
AcDbLayout
  3
AutoCAD 2000
 90
0
 91
0
280
0
281
0
  0
ENDSEC
  0
SECTION
  2
TABLES
  0
TABLE
  2
VPORT
  5
8
100
AcDbSymbolTable
 70
2
  0
VPORT
  5
1F4
100
AcDbSymbolTableRecord
100
AcDbViewportTableRecord
  2
*ACTIVE
 70
0
 10
0.0
 20
0.0
 11
1.0
 21
1.0
 12
5.5
 22
4.25
 13
0.0
 23
0.0
 14
1.0
 24
1.0
 15
0.0
 25
0.0
 16
0.0
 26
0.0
 36
1.0
 17
0.0
 27
0.0
 37
0.0
 40
8.5
 41
1.2941176471
 42
50.0
 43
0.0
 44
0.0
 50
0.0
 51
0.0
 71
0
 72
100
 73
1
 74
1
 75
0
 76
0
 77
0
 78
0
  0
ENDTAB
  0
TABLE
  2
LTYPE
  5
5
100
AcDbSymbolTable
 70
6
  0
LTYPE
  5
14
100
AcDbSymbolTableRecord
100
AcDbLinetypeTableRecord
  2
BYBLOCK
 70
0
  3

 72
65
 73
0
 40
0.0
  0
LTYPE
  5
15
100
AcDbSymbolTableRecord
100
AcDbLinetypeTableRecord
  2
BYLAYER
 70
0
  3

 72
65
 73
0
 40
0.0
  0
LTYPE
  5
16
100
AcDbSymbolTableRecord
100
AcDbLinetypeTableRecord
  2
CONTINUOUS
 70
64
  3
Solid line
 72
65
 73
0
 40
0.0
  0
LTYPE
  5
1F5
100
AcDbSymbolTableRecord
100
AcDbLinetypeTableRecord
  2
CENTER
 70
64
  3
____ _ ____ _ ____ _ ____ _ ____ _ ____ _ ____
 72
65
 73
4
 40
0.6
 49
0.375
 74
0
 49
-0.075
 74
0
 49
0.075
 74
0
 49
-0.075
 74
0
  0
LTYPE
  5
1F6
100
AcDbSymbolTableRecord
100
AcDbLinetypeTableRecord
  2
HIDDEN
 70
64
  3
- - - - - - - - - - - - - - - - - - - -
 72
65
 73
2
 40
0.2
 49
0.1
 74
0
 49
-0.1
 74
0
  0
LTYPE
  5
1F7
100
AcDbSymbolTableRecord
100
AcDbLinetypeTableRecord
  2
PHANTOM
 70
64
  3
_____ _ _ _____ _ _ _____ _ _ _____
 72
65
 73
6
 40
0.8
 49
0.45
 74
0
 49
-0.05
 74
0
 49
0.1
 74
0
 49
-0.05
 74
0
 49
0.1
 74
0
 49
-0.05
 74
0
  0
LTYPE
  5
1F8
100
AcDbSymbolTableRecord
100
AcDbLinetypeTableRecord
  2
DOT
 70
64
  3
. . . . . . . . . . . . . . . . . . . .
 72
65
 73
2
 40
0.2
 49
0.1
 74
0
 49
-0.1
 74
0
  0
LTYPE
  5
1F9
100
AcDbSymbolTableRecord
100
AcDbLinetypeTableRecord
  2
DASHED
 70
64
  3
- - - - - - - - - - - - - - - - - - - -
 72
65
 73
2
 40
0.2
 49
0.1
 74
0
 49
-0.1
 74
0
  0
ENDTAB
  0
TABLE
  2
LAYER
  5
2
100
AcDbSymbolTable
 70
36
  0
LAYER
  5
10
100
AcDbSymbolTableRecord
100
AcDbLayerTableRecord
  2
0
 70
0
 62
7
  6
CONTINUOUS
370
-3
390
F
  0
LAYER
  5
1FA
100
AcDbSymbolTableRecord
100
AcDbLayerTableRecord
  2
DEFAULT_1
 70
0
 62
7
  6
CENTER
370
-3
390
F
  0
LAYER
  5
1FB
100
AcDbSymbolTableRecord
100
AcDbLayerTableRecord
  2
DEFAULT_2
 70
0
 62
8
  6
HIDDEN
370
-3
390
F
  0
LAYER
  5
1FC
100
AcDbSymbolTableRecord
100
AcDbLayerTableRecord
  2
DEFAULT_3
 70
0
 62
7
  6
PHANTOM
370
-3
390
F
  0
LAYER
  5
1FD
100
AcDbSymbolTableRecord
100
AcDbLayerTableRecord
  2
ALL_FEATURES
 70
0
 62
7
  6
CONTINUOUS
370
-3
390
F
  0
LAYER
  5
1FE
100
AcDbSymbolTableRecord
100
AcDbLayerTableRecord
  2
AXES_FEATURES
 70
0
 62
7
  6
CONTINUOUS
370
-3
390
F
  0
LAYER
  5
1FF
100
AcDbSymbolTableRecord
100
AcDbLayerTableRecord
  2
DEFAULT_COORDINATE_SYSTEM
 70
0
 62
7
  6
CONTINUOUS
370
-3
390
F
  0
LAYER
  5
200
100
AcDbSymbolTableRecord
100
AcDbLayerTableRecord
  2
DEFAULT_DATUM_AXES
 70
0
 62
7
  6
CONTINUOUS
370
-3
390
F
  0
LAYER
  5
201
100
AcDbSymbolTableRecord
100
AcDbLayerTableRecord
  2
DEFAULT_DATUM_CURVES
 70
0
 62
7
  6
CONTINUOUS
370
-3
390
F
  0
LAYER
  5
202
100
AcDbSymbolTableRecord
100
AcDbLayerTableRecord
  2
DEFAULT_DATUM_PLANES
 70
0
 62
7
  6
CONTINUOUS
370
-3
390
F
  0
LAYER
  5
203
100
AcDbSymbolTableRecord
100
AcDbLayerTableRecord
  2
DEFAULT_SURFACES
 70
0
 62
7
  6
CONTINUOUS
370
-3
390
F
  0
LAYER
  5
204
100
AcDbSymbolTableRecord
100
AcDbLayerTableRecord
  2
DIMENSIONS
 70
0
 62
7
  6
CONTINUOUS
370
-3
390
F
  0
ENDTAB
  0
TABLE
  2
STYLE
  5
3
100
AcDbSymbolTable
 70
1
  0
STYLE
  5
11
100
AcDbSymbolTableRecord
100
AcDbTextStyleTableRecord
  2
STANDARD
 70
0
 40
0.0
 41
0.8
 50
0.0
 71
0
 42
0.2
  3
txt
  4

  0
STYLE
  5
205
100
AcDbSymbolTableRecord
100
AcDbTextStyleTableRecord
  2
TEXTSTYLE_1
 70
0
 40
0.0
 41
0.8
 50
0.0
 71
0
 42
0.2
  3
gdt
  4

  0
ENDTAB
  0
TABLE
  2
VIEW
  5
6
100
AcDbSymbolTable
 70
0
  0
ENDTAB
  0
TABLE
  2
UCS
  5
7
100
AcDbSymbolTable
 70
0
  0
ENDTAB
  0
TABLE
  2
APPID
  5
9
100
AcDbSymbolTable
 70
1
  0
APPID
  5
206
100
AcDbSymbolTableRecord
100
AcDbRegAppTableRecord
  2
ACAD
 70
0
  0
ENDTAB
  0
TABLE
  2
BLOCK_RECORD
  5
1
100
AcDbSymbolTable
 70
0
  0
BLOCK_RECORD
  5
207
100
AcDbSymbolTableRecord
100
AcDbBlockTableRecord
  2
*Model_Space
  0
BLOCK_RECORD
  5
208
100
AcDbSymbolTableRecord
100
AcDbBlockTableRecord
  2
*Paper_Space
  0
BLOCK_RECORD
  5
209
100
AcDbSymbolTableRecord
100
AcDbBlockTableRecord
  2
_FILLED
  0
ENDTAB
  0
TABLE
  2
DIMSTYLE
  5
A
100
AcDbSymbolTable
 70
1
100
AcDbDimStyleTable
 71
0
  0
DIMSTYLE
105
20A
100
AcDbSymbolTableRecord
100
AcDbDimStyleTableRecord
  2
STANDARD
 70
0
  3

  4

 40
1.0
 41
0.1
 42
0.0625
 43
0.38
 44
0.125
 45
0.0
 46
0.0
 47
0.001
 48
0.001
140
0.08
141
0.09
142
0.0
143
25.4
144
1.0
145
0.0
146
1.0
147
0.09
 71
1.0
 72
0.0
 73
1
 74
1
 75
0
 76
0
 77
0
 78
4
 79
1
170
1
171
2
172
0
173
0
174
0
175
0
176
0
177
0
178
0
270
2
179
3
271
3
272
3
273
2
274
2
275
0
280
0
281
0
282
0
283
1
284
4
285
0
286
0
287
3
288
0
340
11
278
46
341
209
342
209
343
209
344
209
  0
ENDTAB
  0
ENDSEC
  0
SECTION
  2
BLOCKS
  0
BLOCK
  5
20
100
AcDbEntity
  8
0
100
AcDbBlockBegin
  2
*Model_Space
 70
0
 10
0.0
 20
0.0
 30
0.0
  3
*Model_Space
  1

  0
ENDBLK
  5
21
100
AcDbEntity
  8
0
100
AcDbBlockEnd
  0
BLOCK
  5
1C
100
AcDbEntity
  8
0
100
AcDbBlockBegin
  2
*Paper_Space
 70
0
 10
0.0
 20
0.0
 30
0.0
  3
*Paper_Space
  1

  0
ENDBLK
  5
1D
100
AcDbEntity
  8
0
100
AcDbBlockEnd
  0
BLOCK
  5
20B
100
AcDbEntity
  8
0
100
AcDbBlockBegin
  2
_FILLED
 70
64
 10
0.0
 20
0.0
  3
_FILLED
  1

  0
SOLID
  5
20C
100
AcDbEntity
  8
0
  6
BYBLOCK
 62
0
100
AcDbTrace
 10
0.0
 20
0.0
 11
-1.0
 21
0.2
 12
-1.0
 22
-0.2
 13
-1.0
 23
-0.2
  0
ENDBLK
  5
20D
100
AcDbEntity
  8
0
  6
BYBLOCK
 62
0
100
AcDbBlockEnd
  0
ENDSEC
  0
SECTION
  2
ENTITIES
  0
MTEXT
  5
20E
100
AcDbEntity
  8
0
100
AcDbMText
 62
2
  6
CONTINUOUS
  7
STANDARD
 71
3
 72
1
 10
5.0050776349
 20
2.8235421895
 30
0.0
 11
1.0
 21
0.0
 31
0.0
 73
2
 44
0.9
  1
SCALE 0.500
 40
0.08
 41
0.704
  0
LINE
  5
20F
100
AcDbEntity
  8
0
100
AcDbLine
 62
7
  6
CONTINUOUS
 10
0.0
 20
0.0
 11
0.0
 21
8.5
  0
LINE
  5
210
100
AcDbEntity
  8
0
100
AcDbLine
 62
7
  6
CONTINUOUS
 10
0.0
 20
0.0
 11
11.0
 21
0.0
  0
LINE
  5
211
100
AcDbEntity
  8
0
100
AcDbLine
 62
7
  6
CONTINUOUS
 10
0.0
 20
8.5
 11
11.0
 21
8.5
  0
LINE
  5
212
100
AcDbEntity
  8
0
100
AcDbLine
 62
7
  6
CONTINUOUS
 10
11.0
 20
0.0
 11
11.0
 21
8.5
  0
LINE
  5
213
100
AcDbEntity
  8
0
100
AcDbLine
 62
7
  6
CONTINUOUS
 10
2.3130277604
 20
4.0597749373
 11
2.3130277604
 21
4.6847749373
  0
LINE
  5
214
100
AcDbEntity
  8
0
100
AcDbLine
 62
7
  6
CONTINUOUS
 10
2.3230277604
 20
4.0697802244
 11
2.3230277604
 21
4.6747696501
  0
LINE
  5
215
100
AcDbEntity
  8
0
100
AcDbLine
 62
7
  6
CONTINUOUS
 10
2.3330277604
 20
4.0597749373
 11
2.3330277604
 21
4.6847749373
  0
LINE
  5
216
100
AcDbEntity
  8
0
100
AcDbLine
 62
7
  6
CONTINUOUS
 10
2.3230277604
 20
4.6747749373
 11
2.3330277604
 21
4.6847749373
  0
LINE
  5
217
100
AcDbEntity
  8
0
100
AcDbLine
 62
7
  6
CONTINUOUS
 10
2.3230277604
 20
4.0697749373
 11
2.3330277604
 21
4.0597749373
  0
LINE
  5
218
100
AcDbEntity
  8
0
100
AcDbLine
 62
7
  6
CONTINUOUS
 10
2.3230277604
 20
4.0697749373
 11
2.3130277604
 21
4.0597749373
  0
LINE
  5
219
100
AcDbEntity
  8
0
100
AcDbLine
 62
7
  6
CONTINUOUS
 10
2.3230277604
 20
4.6747749373
 11
2.3130277604
 21
4.6847749373
  0
LINE
  5
21A
100
AcDbEntity
  8
0
100
AcDbLine
 62
7
  6
CONTINUOUS
 10
2.3130277604
 20
4.0597749373
 11
1.7605320299
 21
4.0597749373
  0
LINE
  5
21B
100
AcDbEntity
  8
0
100
AcDbLine
 62
7
  6
CONTINUOUS
 10
2.3330277604
 20
4.0597749373
 11
7.1880277604
 21
4.0597749373
  0
LINE
  5
21C
100
AcDbEntity
  8
0
100
AcDbLine
 62
7
  6
CONTINUOUS
 10
7.2080277604
 20
4.0597749373
 11
7.7605229142
 21
4.0597749373
  0
LINE
  5
21D
100
AcDbEntity
  8
0
100
AcDbLine
 62
7
  6
CONTINUOUS
 10
2.3130277604
 20
4.6847749373
 11
1.7605326065
 21
4.6847749373
  0
LINE
  5
21E
100
AcDbEntity
  8
0
100
AcDbLine
 62
7
  6
CONTINUOUS
 10
2.3330277604
 20
4.6847749373
 11
7.1880277604
 21
4.6847749373
  0
LINE
  5
21F
100
AcDbEntity
  8
0
100
AcDbLine
 62
7
  6
CONTINUOUS
 10
7.2080277604
 20
4.6847749373
 11
7.7605234908
 21
4.6847749373
  0
LINE
  5
220
100
AcDbEntity
  8
0
100
AcDbLine
 62
7
  6
CONTINUOUS
 10
7.1980277604
 20
4.6747749373
 11
7.2080277604
 21
4.6847749373
  0
LINE
  5
221
100
AcDbEntity
  8
0
100
AcDbLine
 62
7
  6
CONTINUOUS
 10
7.1980277604
 20
4.0697749373
 11
7.2080277604
 21
4.0597749373
  0
LINE
  5
222
100
AcDbEntity
  8
0
100
AcDbLine
 62
7
  6
CONTINUOUS
 10
7.1980277604
 20
4.0697749373
 11
7.1880277604
 21
4.0597749373
  0
LINE
  5
223
100
AcDbEntity
  8
0
100
AcDbLine
 62
7
  6
CONTINUOUS
 10
7.1980277604
 20
4.6747749373
 11
7.1880277604
 21
4.6847749373
  0
LINE
  5
224
100
AcDbEntity
  8
0
100
AcDbLine
 62
7
  6
CONTINUOUS
 10
7.1880277604
 20
4.6847749373
 11
7.1880277604
 21
4.0597749373
  0
LINE
  5
225
100
AcDbEntity
  8
0
100
AcDbLine
 62
7
  6
CONTINUOUS
 10
7.1980277604
 20
4.6747696501
 11
7.1980277604
 21
4.0697802244
  0
LINE
  5
226
100
AcDbEntity
  8
0
100
AcDbLine
 62
7
  6
CONTINUOUS
 10
7.2080277604
 20
4.6847749373
 11
7.2080277604
 21
4.0597749373
  0
ARC
  5
227
100
AcDbEntity
  8
0
100
AcDbCircle
 62
7
  6
CONTINUOUS
 10
1.7605277604
 20
4.3722749373
 40
0.3125
100
AcDbArc
 50
90.0
 51
270.0
  0
ARC
  5
228
100
AcDbEntity
  8
0
100
AcDbCircle
 62
7
  6
CONTINUOUS
 10
7.7605277604
 20
4.3722749373
 40
0.3125
100
AcDbArc
 50
270.0
 51
90.0
  0
SPLINE
  5
229
100
AcDbEntity
  8
0
100
AcDbSpline
 62
7
  6
CONTINUOUS
 70
0
 71
3
 72
30
 73
26
 74
0
 42
0.0000001
 43
0.0000001
 44
0.0000000001
 40
0.0
 40
0.0
 40
0.0
 40
0.0
 40
0.0884832198
 40
0.1760891187
 40
0.2618725406
 40
0.3450468754
 40
0.424879746
 40
0.5007413593
 40
0.5721208229
 40
0.6386376937
 40
0.6699910275
 40
0.7000457251
 40
0.7287893125
 40
0.756220959
 40
0.7823508515
 40
0.8071960966
 40
0.8307870496
 40
0.8531741829
 40
0.8945791168
 40
0.9137966487
 40
0.9321480494
 40
0.9497558257
 40
0.966786305
 40
0.9834564518
 40
1.0
 40
1.0
 40
1.0
 40
1.0
 10
1.6355277604
 20
4.3722749373
 30
0.0
 10
1.6355272343
 20
4.382878649
 30
0.0
 10
1.6359570036
 20
4.4039835012
 30
0.0
 10
1.6378792644
 20
4.4353155625
 30
0.0
 10
1.6410493523
 20
4.4659075022
 30
0.0
 10
1.6454173828
 20
4.495410603
 30
0.0
 10
1.6509106308
 20
4.5235152557
 30
0.0
 10
1.6574496684
 20
4.549942929
 30
0.0
 10
1.6649513325
 20
4.5744502655
 30
0.0
 10
1.6720552132
 20
4.5934651758
 30
0.0
 10
1.6781723574
 20
4.6075254398
 30
0.0
 10
1.6828494384
 20
4.6172672713
 30
0.0
 10
1.6876950021
 20
4.6263978724
 30
0.0
 10
1.6926963858
 20
4.634903059
 30
0.0
 10
1.6978396965
 20
4.6427711917
 30
0.0
 10
1.7031118217
 20
4.6499912083
 30
0.0
 10
1.7085023656
 20
4.6565545772
 30
0.0
 10
1.7156455048
 20
4.6642169606
 30
0.0
 10
1.7231654496
 20
4.6708011532
 30
0.0
 10
1.7310388305
 20
4.6760723816
 30
0.0
 10
1.7368564183
 20
4.6792369593
 30
0.0
 10
1.7427189746
 20
4.6817064268
 30
0.0
 10
1.7486211801
 20
4.683475262
 30
0.0
 10
1.7545609922
 20
4.6845380044
 30
0.0
 10
1.7585452036
 20
4.6847741344
 30
0.0
 10
1.7605277604
 20
4.6847749373
 30
0.0
  0
SPLINE
  5
22A
100
AcDbEntity
  8
0
100
AcDbSpline
 62
7
  6
CONTINUOUS
 70
0
 71
3
 72
30
 73
26
 74
0
 42
0.0000001
 43
0.0000001
 44
0.0000000001
 40
0.0
 40
0.0
 40
0.0
 40
0.0
 40
0.0165468411
 40
0.033218364
 40
0.0502483794
 40
0.0678544423
 40
0.0862050472
 40
0.1054226284
 40
0.1468284181
 40
0.1692156356
 40
0.1928064376
 40
0.217651489
 40
0.2437814774
 40
0.271213228
 40
0.2999566758
 40
0.330011228
 40
0.361364455
 40
0.4278812603
 40
0.4992607525
 40
0.5751215838
 40
0.6549538384
 40
0.7381279569
 40
0.8239109129
 40
0.9115166568
 40
1.0
 40
1.0
 40
1.0
 40
1.0
 10
1.7605277604
 20
4.0597749373
 30
0.0
 10
1.7585448084
 20
4.0597757854
 30
0.0
 10
1.7545600402
 20
4.060011962
 30
0.0
 10
1.7486197247
 20
4.061074773
 30
0.0
 10
1.7427176214
 20
4.0628436485
 30
0.0
 10
1.7368555169
 20
4.0653132827
 30
0.0
 10
1.7310383129
 20
4.0684779424
 30
0.0
 10
1.7231650087
 20
4.0737492951
 30
0.0
 10
1.7156447959
 20
4.0803333663
 30
0.0
 10
1.7085017145
 20
4.0879959487
 30
0.0
 10
1.7031113224
 20
4.0945594032
 30
0.0
 10
1.6978393412
 20
4.1017794907
 30
0.0
 10
1.692696099
 20
4.109647671
 30
0.0
 10
1.6876947377
 20
4.1181528814
 30
0.0
 10
1.6828491677
 20
4.1272834591
 30
0.0
 10
1.6781722231
 20
4.1370253094
 30
0.0
 10
1.6720552932
 20
4.1510856296
 30
0.0
 10
1.664951494
 20
4.1701005498
 30
0.0
 10
1.6574495879
 20
4.1946077155
 30
0.0
 10
1.6509103907
 20
4.2210351895
 30
0.0
 10
1.6454167912
 20
4.2491395804
 30
0.0
 10
1.6410481987
 20
4.2786424511
 30
0.0
 10
1.6378779157
 20
4.3092342885
 30
0.0
 10
1.6359561782
 20
4.3405663413
 30
0.0
 10
1.6355270153
 20
4.3616712075
 30
0.0
 10
1.6355277604
 20
4.3722749373
 30
0.0
  0
SPLINE
  5
22B
100
AcDbEntity
  8
0
100
AcDbSpline
 62
7
  6
CONTINUOUS
 70
0
 71
3
 72
30
 73
26
 74
0
 42
0.0000001
 43
0.0000001
 44
0.0000000001
 40
0.0
 40
0.0
 40
0.0
 40
0.0
 40
0.0884832198
 40
0.1760891187
 40
0.2618725406
 40
0.3450468754
 40
0.424879746
 40
0.5007413593
 40
0.5721208229
 40
0.6386376937
 40
0.6699910275
 40
0.7000457251
 40
0.7287893125
 40
0.756220959
 40
0.7823508515
 40
0.8071960966
 40
0.8307870496
 40
0.8531741829
 40
0.8945791168
 40
0.9137966487
 40
0.9321480494
 40
0.9497558257
 40
0.966786305
 40
0.9834564518
 40
1.0
 40
1.0
 40
1.0
 40
1.0
 10
7.8855277604
 20
4.3722749373
 30
0.0
 10
7.8855282864
 20
4.3616712256
 30
0.0
 10
7.8850985171
 20
4.3405663733
 30
0.0
 10
7.8831762563
 20
4.309234312
 30
0.0
 10
7.8800061684
 20
4.2786423723
 30
0.0
 10
7.8756381379
 20
4.2491392716
 30
0.0
 10
7.8701448899
 20
4.2210346188
 30
0.0
 10
7.8636058523
 20
4.1946069455
 30
0.0
 10
7.8561041882
 20
4.170099609
 30
0.0
 10
7.8490003075
 20
4.1510846988
 30
0.0
 10
7.8428831633
 20
4.1370244348
 30
0.0
 10
7.8382060823
 20
4.1272826032
 30
0.0
 10
7.8333605186
 20
4.1181520021
 30
0.0
 10
7.8283591349
 20
4.1096468155
 30
0.0
 10
7.8232158242
 20
4.1017786828
 30
0.0
 10
7.817943699
 20
4.0945586662
 30
0.0
 10
7.8125531551
 20
4.0879952973
 30
0.0
 10
7.8054100159
 20
4.0803329139
 30
0.0
 10
7.7978900711
 20
4.0737487213
 30
0.0
 10
7.7900166902
 20
4.0684774929
 30
0.0
 10
7.7841991024
 20
4.0653129153
 30
0.0
 10
7.7783365461
 20
4.0628434477
 30
0.0
 10
7.7724343406
 20
4.0610746126
 30
0.0
 10
7.7664945285
 20
4.0600118701
 30
0.0
 10
7.7625103171
 20
4.0597757402
 30
0.0
 10
7.7605277604
 20
4.0597749373
 30
0.0
  0
SPLINE
  5
22C
100
AcDbEntity
  8
0
100
AcDbSpline
 62
7
  6
CONTINUOUS
 70
0
 71
3
 72
30
 73
26
 74
0
 42
0.0000001
 43
0.0000001
 44
0.0000000001
 40
0.0
 40
0.0
 40
0.0
 40
0.0
 40
0.0165468411
 40
0.033218364
 40
0.0502483794
 40
0.0678544423
 40
0.0862050472
 40
0.1054226284
 40
0.1468284181
 40
0.1692156356
 40
0.1928064376
 40
0.217651489
 40
0.2437814774
 40
0.271213228
 40
0.2999566758
 40
0.330011228
 40
0.361364455
 40
0.4278812603
 40
0.4992607525
 40
0.5751215838
 40
0.6549538384
 40
0.7381279569
 40
0.8239109129
 40
0.9115166568
 40
1.0
 40
1.0
 40
1.0
 40
1.0
 10
7.7605277604
 20
4.6847749373
 30
0.0
 10
7.7625107123
 20
4.6847740891
 30
0.0
 10
7.7664954805
 20
4.6845379125
 30
0.0
 10
7.772435796
 20
4.6834751015
 30
0.0
 10
7.7783378993
 20
4.6817062261
 30
0.0
 10
7.7842000038
 20
4.6792365919
 30
0.0
 10
7.7900172078
 20
4.6760719321
 30
0.0
 10
7.797890512
 20
4.6708005794
 30
0.0
 10
7.8054107248
 20
4.6642165083
 30
0.0
 10
7.8125538062
 20
4.6565539258
 30
0.0
 10
7.8179441983
 20
4.6499904713
 30
0.0
 10
7.8232161795
 20
4.6427703839
 30
0.0
 10
7.8283594217
 20
4.6349022035
 30
0.0
 10
7.833360783
 20
4.6263969931
 30
0.0
 10
7.838206353
 20
4.6172664154
 30
0.0
 10
7.8428832976
 20
4.6075245651
 30
0.0
 10
7.8490002275
 20
4.5934642449
 30
0.0
 10
7.8561040267
 20
4.5744493247
 30
0.0
 10
7.8636059328
 20
4.549942159
 30
0.0
 10
7.87014513
 20
4.523514685
 30
0.0
 10
7.8756387295
 20
4.4954102941
 30
0.0
 10
7.880007322
 20
4.4659074234
 30
0.0
 10
7.883177605
 20
4.435315586
 30
0.0
 10
7.8850993425
 20
4.4039835332
 30
0.0
 10
7.8855285054
 20
4.382878667
 30
0.0
 10
7.8855277604
 20
4.3722749373
 30
0.0
  0
ENDSEC
  0
SECTION
  2
OBJECTS
  0
DICTIONARY
  5
C
100
AcDbDictionary
280
0
281
1
  3
ACAD_GROUP
350
D
  3
ACAD_MLINESTYLE
350
17
  3
ACAD_LAYOUT
350
1A
  3
ACAD_PLOTSETTINGS
350
19
  3
ACAD_PLOTSTYLENAME
350
E
  0
DICTIONARY
  5
D
102
{ACAD_REACTORS
330
C
102
}
100
AcDbDictionary
280
0
281
1
  0
ACDBDICTIONARYWDFLT
  5
E
102
{ACAD_REACTORS
330
C
102
}
100
AcDbDictionary
281
1
  3
Normal
350
F
100
AcDbDictionaryWithDefault
340
F
  0
DICTIONARY
  5
17
102
{ACAD_REACTORS
330
C
102
}
100
AcDbDictionary
280
0
281
1
  3
Standard
350
18
  0
DICTIONARY
  5
19
102
{ACAD_REACTORS
330
C
102
}
100
AcDbDictionary
281
1
  0
DICTIONARY
  5
1A
102
{ACAD_REACTORS
330
C
102
}
100
AcDbDictionary
281
1
  3
Model
350
22D
  3
Layout1
350
22E
  0
ACDBPLACEHOLDER
  5
F
102
{ACAD_REACTORS
330
E
102
}
  0
MLINESTYLE
  5
18
102
{ACAD_REACTORS
330
17
102
}
100
AcDbMlineStyle
  2
STANDARD
 70
0
  3

 62
256
 51
90.0
 52
90.0
 71
2
 49
0.5
 62
256
  6
BYLAYER
 49
-0.5
 62
256
  6
BYLAYER
  0
LAYOUT
  5
22D
102
{ACAD_REACTORS
330
1A
102
}
100
AcDbPlotSettings
  1

  2
none_device
  4
ANSI_A_(11.00_x_8.50_Inches)
  6

 40
0.0
 41
0.0
 42
0.0
 43
0.0
 44
279.4
 45
215.9
 46
0.0
 47
0.0
 48
0.0
 49
0.0
140
0.0
141
0.0
142
1.0
143
1.0
 70
1024
 72
0
 73
0
 74
0
  7

 75
0
147
1.0
148
0.0
149
0.0
100
AcDbLayout
  1
Model
 70
0
 71
0
 10
0.0
 20
0.0
 11
11.0
 21
8.5
 12
0.0
 22
0.0
 32
0.0
 14
0.0
 24
0.0
 34
0.0
 15
0.0
 25
0.0
 35
0.0
146
0.0
 13
0.0
 23
0.0
 33
0.0
 16
1.0
 26
0.0
 36
0.0
 17
0.0
 27
1.0
 37
0.0
 76
0
330
207
345
0
346
0
  0
LAYOUT
  5
22E
102
{ACAD_REACTORS
330
1A
102
}
100
AcDbPlotSettings
  1

  2
none_device
  4
ANSI_A_(11.00_x_8.50_Inches)
  6

 40
0.0
 41
0.0
 42
0.0
 43
0.0
 44
279.4
 45
215.9
 46
0.0
 47
0.0
 48
0.0
 49
0.0
140
0.0
141
0.0
142
1.0
143
1.0
 70
0
 72
0
 73
0
 74
0
  7

 75
0
147
1.0
148
0.0
149
0.0
100
AcDbLayout
  1
Layout1
 70
0
 71
1
 10
0.0
 20
0.0
 11
11.0
 21
8.5
 12
0.0
 22
0.0
 32
0.0
 14
0.0
 24
0.0
 34
0.0
 15
0.0
 25
0.0
 35
0.0
146
0.0
 13
0.0
 23
0.0
 33
0.0
 16
1.0
 26
0.0
 36
0.0
 17
0.0
 27
1.0
 37
0.0
 76
0
330
208
345
0
346
0
  0
ENDSEC
  0
EOF
