999
DXF file: 5080sq_right.dxf
999
Pro/ENGINEER 2019352 by Parametric Technology Corporation
  0
SECTION
  2
HEADER
  9
$ACADVER
  1
AC1032
  9
$DWGCODEPAGE
  3
ANSI_1252
  9
$EXTMAX
 10
11.0
 20
8.5
 30
0.0
  9
$EXTMIN
 10
0.0
 20
0.0
 30
0.0
  9
$LIMMIN
 10
0.0
 20
0.0
  9
$LIMMAX
 10
11.0
 20
8.5
  9
$VIEWCTR
 10
5.5
 20
4.25
  9
$VIEWSIZE
 40
8.5
  9
$CLAYER
  8
0
  9
$LTSCALE
 40
0.605
  9
$CELTYPE
  6
BYLAYER
  9
$DIMSCALE
 40
1.0
  9
$DIMASZ
 40
0.1
  9
$DIMEXO
 40
0.0625
  9
$DIMDLI
 40
0.418
  9
$DIMEXE
 40
0.125
  9
$DIMCEN
 40
0.099
  9
$DIMLFAC
 40
1.0
  9
$DIMBLK
  1
_FILLED
  9
$DIMALT
 70
1
  9
$DIMALTD
 70
2
  9
$DIMALTTD
 70
2
  9
$DIMALTF
 40
25.4
  9
$DIMTXT
 40
0.08
  9
$DIMTOL
 70
1
  9
$DIMLIM
 70
0
  9
$DIMTFAC
 40
1.0
  9
$DIMTP
 40
0.001
  9
$DIMTM
 40
0.001
  9
$DIMGAP
 40
0.09
  9
$DIMDSEP
 70
46
  9
$AUNITS
 70
0
  9
$PDMODE
 70
3
  9
$PDSIZE
 40
0.3125
  9
$HANDSEED
  5
2A9
  9
$TILEMODE
 70
1
  9
$MEASUREMENT
 70
0
  9
$INSUNITS
 70
1
  0
ENDSEC
  0
SECTION
  2
CLASSES
  0
CLASS
  1
ACDBDICTIONARYWDFLT
  2
AcDbDictionaryWithDefault
  3
AutoCAD 2000
 90
0
 91
1
280
0
281
0
  0
CLASS
  1
ACDBPLACEHOLDER
  2
AcDbPlaceHolder
  3
AutoCAD 2000
 90
0
 91
1
280
0
281
0
  0
CLASS
  1
LAYOUT
  2
AcDbLayout
  3
AutoCAD 2000
 90
0
 91
0
280
0
281
0
  0
ENDSEC
  0
SECTION
  2
TABLES
  0
TABLE
  2
VPORT
  5
8
100
AcDbSymbolTable
 70
2
  0
VPORT
  5
1F4
100
AcDbSymbolTableRecord
100
AcDbViewportTableRecord
  2
*ACTIVE
 70
0
 10
0.0
 20
0.0
 11
1.0
 21
1.0
 12
5.5
 22
4.25
 13
0.0
 23
0.0
 14
1.0
 24
1.0
 15
0.0
 25
0.0
 16
0.0
 26
0.0
 36
1.0
 17
0.0
 27
0.0
 37
0.0
 40
8.5
 41
1.2941176471
 42
50.0
 43
0.0
 44
0.0
 50
0.0
 51
0.0
 71
0
 72
100
 73
1
 74
1
 75
0
 76
0
 77
0
 78
0
  0
ENDTAB
  0
TABLE
  2
LTYPE
  5
5
100
AcDbSymbolTable
 70
6
  0
LTYPE
  5
14
100
AcDbSymbolTableRecord
100
AcDbLinetypeTableRecord
  2
BYBLOCK
 70
0
  3

 72
65
 73
0
 40
0.0
  0
LTYPE
  5
15
100
AcDbSymbolTableRecord
100
AcDbLinetypeTableRecord
  2
BYLAYER
 70
0
  3

 72
65
 73
0
 40
0.0
  0
LTYPE
  5
16
100
AcDbSymbolTableRecord
100
AcDbLinetypeTableRecord
  2
CONTINUOUS
 70
64
  3
Solid line
 72
65
 73
0
 40
0.0
  0
LTYPE
  5
1F5
100
AcDbSymbolTableRecord
100
AcDbLinetypeTableRecord
  2
CENTER
 70
64
  3
____ _ ____ _ ____ _ ____ _ ____ _ ____ _ ____
 72
65
 73
4
 40
0.6
 49
0.375
 74
0
 49
-0.075
 74
0
 49
0.075
 74
0
 49
-0.075
 74
0
  0
LTYPE
  5
1F6
100
AcDbSymbolTableRecord
100
AcDbLinetypeTableRecord
  2
HIDDEN
 70
64
  3
- - - - - - - - - - - - - - - - - - - -
 72
65
 73
2
 40
0.2
 49
0.1
 74
0
 49
-0.1
 74
0
  0
LTYPE
  5
1F7
100
AcDbSymbolTableRecord
100
AcDbLinetypeTableRecord
  2
PHANTOM
 70
64
  3
_____ _ _ _____ _ _ _____ _ _ _____
 72
65
 73
6
 40
0.8
 49
0.45
 74
0
 49
-0.05
 74
0
 49
0.1
 74
0
 49
-0.05
 74
0
 49
0.1
 74
0
 49
-0.05
 74
0
  0
LTYPE
  5
1F8
100
AcDbSymbolTableRecord
100
AcDbLinetypeTableRecord
  2
DOT
 70
64
  3
. . . . . . . . . . . . . . . . . . . .
 72
65
 73
2
 40
0.2
 49
0.1
 74
0
 49
-0.1
 74
0
  0
LTYPE
  5
1F9
100
AcDbSymbolTableRecord
100
AcDbLinetypeTableRecord
  2
DASHED
 70
64
  3
- - - - - - - - - - - - - - - - - - - -
 72
65
 73
2
 40
0.2
 49
0.1
 74
0
 49
-0.1
 74
0
  0
ENDTAB
  0
TABLE
  2
LAYER
  5
2
100
AcDbSymbolTable
 70
36
  0
LAYER
  5
10
100
AcDbSymbolTableRecord
100
AcDbLayerTableRecord
  2
0
 70
0
 62
7
  6
CONTINUOUS
370
-3
390
F
  0
LAYER
  5
1FA
100
AcDbSymbolTableRecord
100
AcDbLayerTableRecord
  2
DEFAULT_1
 70
0
 62
7
  6
CENTER
370
-3
390
F
  0
LAYER
  5
1FB
100
AcDbSymbolTableRecord
100
AcDbLayerTableRecord
  2
DEFAULT_2
 70
0
 62
8
  6
HIDDEN
370
-3
390
F
  0
LAYER
  5
1FC
100
AcDbSymbolTableRecord
100
AcDbLayerTableRecord
  2
DEFAULT_3
 70
0
 62
7
  6
PHANTOM
370
-3
390
F
  0
LAYER
  5
1FD
100
AcDbSymbolTableRecord
100
AcDbLayerTableRecord
  2
ALL_FEATURES
 70
0
 62
7
  6
CONTINUOUS
370
-3
390
F
  0
LAYER
  5
1FE
100
AcDbSymbolTableRecord
100
AcDbLayerTableRecord
  2
AXES_FEATURES
 70
0
 62
7
  6
CONTINUOUS
370
-3
390
F
  0
LAYER
  5
1FF
100
AcDbSymbolTableRecord
100
AcDbLayerTableRecord
  2
DEFAULT_COORDINATE_SYSTEM
 70
0
 62
7
  6
CONTINUOUS
370
-3
390
F
  0
LAYER
  5
200
100
AcDbSymbolTableRecord
100
AcDbLayerTableRecord
  2
DEFAULT_DATUM_AXES
 70
0
 62
7
  6
CONTINUOUS
370
-3
390
F
  0
LAYER
  5
201
100
AcDbSymbolTableRecord
100
AcDbLayerTableRecord
  2
DEFAULT_DATUM_CURVES
 70
0
 62
7
  6
CONTINUOUS
370
-3
390
F
  0
LAYER
  5
202
100
AcDbSymbolTableRecord
100
AcDbLayerTableRecord
  2
DEFAULT_DATUM_PLANES
 70
0
 62
7
  6
CONTINUOUS
370
-3
390
F
  0
LAYER
  5
203
100
AcDbSymbolTableRecord
100
AcDbLayerTableRecord
  2
DEFAULT_SURFACES
 70
0
 62
7
  6
CONTINUOUS
370
-3
390
F
  0
LAYER
  5
204
100
AcDbSymbolTableRecord
100
AcDbLayerTableRecord
  2
DIMENSIONS
 70
0
 62
7
  6
CONTINUOUS
370
-3
390
F
  0
ENDTAB
  0
TABLE
  2
STYLE
  5
3
100
AcDbSymbolTable
 70
1
  0
STYLE
  5
11
100
AcDbSymbolTableRecord
100
AcDbTextStyleTableRecord
  2
STANDARD
 70
0
 40
0.0
 41
0.8
 50
0.0
 71
0
 42
0.2
  3
txt
  4

  0
STYLE
  5
205
100
AcDbSymbolTableRecord
100
AcDbTextStyleTableRecord
  2
TEXTSTYLE_1
 70
0
 40
0.0
 41
0.8
 50
0.0
 71
0
 42
0.2
  3
gdt
  4

  0
ENDTAB
  0
TABLE
  2
VIEW
  5
6
100
AcDbSymbolTable
 70
0
  0
ENDTAB
  0
TABLE
  2
UCS
  5
7
100
AcDbSymbolTable
 70
0
  0
ENDTAB
  0
TABLE
  2
APPID
  5
9
100
AcDbSymbolTable
 70
1
  0
APPID
  5
206
100
AcDbSymbolTableRecord
100
AcDbRegAppTableRecord
  2
ACAD
 70
0
  0
ENDTAB
  0
TABLE
  2
BLOCK_RECORD
  5
1
100
AcDbSymbolTable
 70
0
  0
BLOCK_RECORD
  5
207
100
AcDbSymbolTableRecord
100
AcDbBlockTableRecord
  2
*Model_Space
  0
BLOCK_RECORD
  5
208
100
AcDbSymbolTableRecord
100
AcDbBlockTableRecord
  2
*Paper_Space
  0
BLOCK_RECORD
  5
209
100
AcDbSymbolTableRecord
100
AcDbBlockTableRecord
  2
_FILLED
  0
ENDTAB
  0
TABLE
  2
DIMSTYLE
  5
A
100
AcDbSymbolTable
 70
1
100
AcDbDimStyleTable
 71
0
  0
DIMSTYLE
105
20A
100
AcDbSymbolTableRecord
100
AcDbDimStyleTableRecord
  2
STANDARD
 70
0
  3

  4

 40
1.0
 41
0.1
 42
0.0625
 43
0.38
 44
0.125
 45
0.0
 46
0.0
 47
0.001
 48
0.001
140
0.08
141
0.09
142
0.0
143
25.4
144
1.0
145
0.0
146
1.0
147
0.09
 71
1.0
 72
0.0
 73
1
 74
1
 75
0
 76
0
 77
0
 78
4
 79
1
170
1
171
2
172
0
173
0
174
0
175
0
176
0
177
0
178
0
270
2
179
3
271
3
272
3
273
2
274
2
275
0
280
0
281
0
282
0
283
1
284
4
285
0
286
0
287
3
288
0
340
11
278
46
341
209
342
209
343
209
344
209
  0
ENDTAB
  0
ENDSEC
  0
SECTION
  2
BLOCKS
  0
BLOCK
  5
20
100
AcDbEntity
  8
0
100
AcDbBlockBegin
  2
*Model_Space
 70
0
 10
0.0
 20
0.0
 30
0.0
  3
*Model_Space
  1

  0
ENDBLK
  5
21
100
AcDbEntity
  8
0
100
AcDbBlockEnd
  0
BLOCK
  5
1C
100
AcDbEntity
  8
0
100
AcDbBlockBegin
  2
*Paper_Space
 70
0
 10
0.0
 20
0.0
 30
0.0
  3
*Paper_Space
  1

  0
ENDBLK
  5
1D
100
AcDbEntity
  8
0
100
AcDbBlockEnd
  0
BLOCK
  5
20B
100
AcDbEntity
  8
0
100
AcDbBlockBegin
  2
_FILLED
 70
64
 10
0.0
 20
0.0
  3
_FILLED
  1

  0
SOLID
  5
20C
100
AcDbEntity
  8
0
  6
BYBLOCK
 62
0
100
AcDbTrace
 10
0.0
 20
0.0
 11
-1.0
 21
0.2
 12
-1.0
 22
-0.2
 13
-1.0
 23
-0.2
  0
ENDBLK
  5
20D
100
AcDbEntity
  8
0
  6
BYBLOCK
 62
0
100
AcDbBlockEnd
  0
ENDSEC
  0
SECTION
  2
ENTITIES
  0
MTEXT
  5
20E
100
AcDbEntity
  8
0
100
AcDbMText
 62
2
  6
CONTINUOUS
  7
STANDARD
 71
3
 72
1
 10
4.8113756777
 20
2.8235421895
 30
0.0
 11
1.0
 21
0.0
 31
0.0
 73
2
 44
0.9
  1
SCALE 0.500
 40
0.08
 41
0.704
  0
LINE
  5
20F
100
AcDbEntity
  8
0
100
AcDbLine
 62
7
  6
CONTINUOUS
 10
0.0
 20
0.0
 11
0.0
 21
8.5
  0
LINE
  5
210
100
AcDbEntity
  8
0
100
AcDbLine
 62
7
  6
CONTINUOUS
 10
0.0
 20
0.0
 11
11.0
 21
0.0
  0
LINE
  5
211
100
AcDbEntity
  8
0
100
AcDbLine
 62
7
  6
CONTINUOUS
 10
0.0
 20
8.5
 11
11.0
 21
8.5
  0
LINE
  5
212
100
AcDbEntity
  8
0
100
AcDbLine
 62
7
  6
CONTINUOUS
 10
11.0
 20
0.0
 11
11.0
 21
8.5
  0
LINE
  5
213
100
AcDbEntity
  8
0
100
AcDbLine
 62
7
  6
CONTINUOUS
 10
4.3842826065
 20
4.0597749373
 11
5.294852711
 21
4.0597749373
  0
LINE
  5
214
100
AcDbEntity
  8
0
100
AcDbLine
 62
7
  6
CONTINUOUS
 10
5.3087228097
 20
4.0597749373
 11
5.315685211
 21
4.0597749373
  0
LINE
  5
215
100
AcDbEntity
  8
0
100
AcDbLine
 62
7
  6
CONTINUOUS
 10
5.3295553097
 20
4.0597749373
 11
5.336517711
 21
4.0597749373
  0
LINE
  5
216
100
AcDbEntity
  8
0
100
AcDbLine
 62
7
  6
CONTINUOUS
 10
5.3503878097
 20
4.0597749373
 11
5.357350211
 21
4.0597749373
  0
LINE
  5
217
100
AcDbEntity
  8
0
100
AcDbLine
 62
7
  6
CONTINUOUS
 10
5.3712203097
 20
4.0597749373
 11
5.378182711
 21
4.0597749373
  0
LINE
  5
218
100
AcDbEntity
  8
0
100
AcDbLine
 62
7
  6
CONTINUOUS
 10
5.3920528097
 20
4.0597749373
 11
5.399015211
 21
4.0597749373
  0
LINE
  5
219
100
AcDbEntity
  8
0
100
AcDbLine
 62
7
  6
CONTINUOUS
 10
5.4128853097
 20
4.0597749373
 11
5.419847711
 21
4.0597749373
  0
LINE
  5
21A
100
AcDbEntity
  8
0
100
AcDbLine
 62
7
  6
CONTINUOUS
 10
5.4337178097
 20
4.0597749373
 11
5.440680211
 21
4.0597749373
  0
LINE
  5
21B
100
AcDbEntity
  8
0
100
AcDbLine
 62
7
  6
CONTINUOUS
 10
5.3096040104
 20
4.0853249373
 11
5.3148040104
 21
4.0853249373
  0
LINE
  5
21C
100
AcDbEntity
  8
0
100
AcDbLine
 62
7
  6
CONTINUOUS
 10
5.3512690104
 20
4.0853249373
 11
5.3562037297
 21
4.0853249373
  0
LINE
  5
21D
100
AcDbEntity
  8
0
100
AcDbLine
 62
7
  6
CONTINUOUS
 10
5.3929340104
 20
4.0853249373
 11
5.3981340104
 21
4.0853249373
  0
LINE
  5
21E
100
AcDbEntity
  8
0
100
AcDbLine
 62
7
  6
CONTINUOUS
 10
5.4345990104
 20
4.0853249373
 11
5.4397990104
 21
4.0853249373
  0
LINE
  5
21F
100
AcDbEntity
  8
0
100
AcDbLine
 62
7
  6
CONTINUOUS
 10
5.4126416981
 20
4.6845640821
 11
5.4128853097
 21
4.6847749373
  0
LINE
  5
220
100
AcDbEntity
  8
0
100
AcDbLine
 62
7
  6
CONTINUOUS
 10
5.4126416981
 20
4.0599857924
 11
5.4128853097
 21
4.0597749373
  0
LINE
  5
221
100
AcDbEntity
  8
0
100
AcDbLine
 62
7
  6
CONTINUOUS
 10
5.4189665104
 20
4.6592249373
 11
5.4137665104
 21
4.6592249373
  0
LINE
  5
222
100
AcDbEntity
  8
0
100
AcDbLine
 62
7
  6
CONTINUOUS
 10
5.3773015104
 20
4.6592249373
 11
5.3721015104
 21
4.6592249373
  0
LINE
  5
223
100
AcDbEntity
  8
0
100
AcDbLine
 62
7
  6
CONTINUOUS
 10
5.3356365104
 20
4.6592249373
 11
5.3304365104
 21
4.6592249373
  0
LINE
  5
224
100
AcDbEntity
  8
0
100
AcDbLine
 62
7
  6
CONTINUOUS
 10
5.2939715104
 20
4.6592249373
 11
5.2887715104
 21
4.6592249373
  0
LINE
  5
225
100
AcDbEntity
  8
0
100
AcDbLine
 62
7
  6
CONTINUOUS
 10
5.3084791981
 20
4.6845640821
 11
5.2938720829
 21
4.6592823876
  0
LINE
  5
226
100
AcDbEntity
  8
0
100
AcDbLine
 62
7
  6
CONTINUOUS
 10
5.3293116981
 20
4.6845640821
 11
5.3226202599
 21
4.6729822935
  0
LINE
  5
227
100
AcDbEntity
  8
0
100
AcDbLine
 62
7
  6
CONTINUOUS
 10
5.3501441981
 20
4.6845640821
 11
5.3355370829
 21
4.6592823876
  0
LINE
  5
228
100
AcDbEntity
  8
0
100
AcDbLine
 62
7
  6
CONTINUOUS
 10
4.3842777604
 20
4.6847749373
 11
5.274020211
 21
4.6847749373
  0
LINE
  5
229
100
AcDbEntity
  8
0
100
AcDbLine
 62
7
  6
CONTINUOUS
 10
5.2742638226
 20
4.6847749373
 11
5.294852711
 21
4.6847749373
  0
LINE
  5
22A
100
AcDbEntity
  8
0
100
AcDbLine
 62
7
  6
CONTINUOUS
 10
5.3087228097
 20
4.6847749373
 11
5.315685211
 21
4.6847749373
  0
LINE
  5
22B
100
AcDbEntity
  8
0
100
AcDbLine
 62
7
  6
CONTINUOUS
 10
5.3295553097
 20
4.6847749373
 11
5.336517711
 21
4.6847749373
  0
LINE
  5
22C
100
AcDbEntity
  8
0
100
AcDbLine
 62
7
  6
CONTINUOUS
 10
5.3503878097
 20
4.6847749373
 11
5.357350211
 21
4.6847749373
  0
LINE
  5
22D
100
AcDbEntity
  8
0
100
AcDbLine
 62
7
  6
CONTINUOUS
 10
5.3712203097
 20
4.6847749373
 11
5.378182711
 21
4.6847749373
  0
LINE
  5
22E
100
AcDbEntity
  8
0
100
AcDbLine
 62
7
  6
CONTINUOUS
 10
5.3920528097
 20
4.6847749373
 11
5.399015211
 21
4.6847749373
  0
LINE
  5
22F
100
AcDbEntity
  8
0
100
AcDbLine
 62
7
  6
CONTINUOUS
 10
5.4128853097
 20
4.6847749373
 11
5.419847711
 21
4.6847749373
  0
LINE
  5
230
100
AcDbEntity
  8
0
100
AcDbLine
 62
7
  6
CONTINUOUS
 10
5.4337178097
 20
4.6847749373
 11
5.440680211
 21
4.6847749373
  0
LINE
  5
231
100
AcDbEntity
  8
0
100
AcDbLine
 62
7
  6
CONTINUOUS
 10
5.3017877599
 20
4.071567581
 11
5.3084791981
 21
4.0599857924
  0
LINE
  5
232
100
AcDbEntity
  8
0
100
AcDbLine
 62
7
  6
CONTINUOUS
 10
5.3145387297
 20
4.0855545238
 11
5.3293116981
 21
4.0599857924
  0
LINE
  5
233
100
AcDbEntity
  8
0
100
AcDbLine
 62
7
  6
CONTINUOUS
 10
5.3434527599
 20
4.071567581
 11
5.3501441981
 21
4.0599857924
  0
LINE
  5
234
100
AcDbEntity
  8
0
100
AcDbLine
 62
7
  6
CONTINUOUS
 10
5.3709766981
 20
4.6845640821
 11
5.3642852599
 21
4.6729822935
  0
LINE
  5
235
100
AcDbEntity
  8
0
100
AcDbLine
 62
7
  6
CONTINUOUS
 10
5.3918091981
 20
4.6845640821
 11
5.3772020829
 21
4.6592823876
  0
LINE
  5
236
100
AcDbEntity
  8
0
100
AcDbLine
 62
7
  6
CONTINUOUS
 10
5.4126416981
 20
4.6845640821
 11
5.4059502599
 21
4.6729822935
  0
LINE
  5
237
100
AcDbEntity
  8
0
100
AcDbLine
 62
7
  6
CONTINUOUS
 10
5.3562037297
 20
4.0855545238
 11
5.3709766981
 21
4.0599857924
  0
LINE
  5
238
100
AcDbEntity
  8
0
100
AcDbLine
 62
7
  6
CONTINUOUS
 10
5.3851177599
 20
4.071567581
 11
5.3918091981
 21
4.0599857924
  0
LINE
  5
239
100
AcDbEntity
  8
0
100
AcDbLine
 62
7
  6
CONTINUOUS
 10
5.3978687297
 20
4.0855545238
 11
5.4126416981
 21
4.0599857924
  0
LINE
  5
23A
100
AcDbEntity
  8
0
100
AcDbLine
 62
7
  6
CONTINUOUS
 10
5.4334741981
 20
4.6845640821
 11
5.4188670829
 21
4.6592823876
  0
LINE
  5
23B
100
AcDbEntity
  8
0
100
AcDbLine
 62
7
  6
CONTINUOUS
 10
5.4492777604
 20
4.6758597518
 11
5.4476152598
 21
4.6729822935
  0
LINE
  5
23C
100
AcDbEntity
  8
0
100
AcDbLine
 62
7
  6
CONTINUOUS
 10
5.4267827599
 20
4.071567581
 11
5.4334741981
 21
4.0599857924
  0
LINE
  5
23D
100
AcDbEntity
  8
0
100
AcDbLine
 62
7
  6
CONTINUOUS
 10
5.4395337297
 20
4.0855545238
 11
5.4492777604
 21
4.0686901228
  0
LINE
  5
23E
100
AcDbEntity
  8
0
100
AcDbLine
 62
7
  6
CONTINUOUS
 10
5.3129929162
 20
4.0852225244
 11
5.312987125
 21
4.0853249373
  0
LINE
  5
23F
100
AcDbEntity
  8
0
100
AcDbLine
 62
7
  6
CONTINUOUS
 10
5.3546590329
 20
4.0851585439
 11
5.3546533577
 21
4.0852642302
  0
LINE
  5
240
100
AcDbEntity
  8
0
100
AcDbLine
 62
7
  6
CONTINUOUS
 10
5.3322459359
 20
4.6594015788
 11
5.3322515287
 21
4.6592249373
  0
LINE
  5
241
100
AcDbEntity
  8
0
100
AcDbLine
 62
7
  6
CONTINUOUS
 10
5.2950963226
 20
4.0599857924
 11
5.294852711
 21
4.0597749373
  0
LINE
  5
242
100
AcDbEntity
  8
0
100
AcDbLine
 62
7
  6
CONTINUOUS
 10
5.2742638226
 20
4.6845640821
 11
5.274020211
 21
4.6847749373
  0
LINE
  5
243
100
AcDbEntity
  8
0
100
AcDbLine
 62
7
  6
CONTINUOUS
 10
5.2950963226
 20
4.6845640821
 11
5.294852711
 21
4.6847749373
  0
LINE
  5
244
100
AcDbEntity
  8
0
100
AcDbLine
 62
7
  6
CONTINUOUS
 10
5.289036791
 20
4.6589953508
 11
5.2742638226
 21
4.6845640821
  0
LINE
  5
245
100
AcDbEntity
  8
0
100
AcDbLine
 62
7
  6
CONTINUOUS
 10
5.4379863107
 20
4.0852216384
 11
5.4379804241
 21
4.0853249373
  0
LINE
  5
246
100
AcDbEntity
  8
0
100
AcDbLine
 62
7
  6
CONTINUOUS
 10
5.3739117752
 20
4.6593265939
 11
5.3739174838
 21
4.6592249373
  0
LINE
  5
247
100
AcDbEntity
  8
0
100
AcDbLine
 62
7
  6
CONTINUOUS
 10
5.2950963226
 20
4.0599857924
 11
5.3097034378
 21
4.0852674869
  0
LINE
  5
248
100
AcDbEntity
  8
0
100
AcDbLine
 62
7
  6
CONTINUOUS
 10
5.3159288226
 20
4.0599857924
 11
5.3226202599
 21
4.071567581
  0
LINE
  5
249
100
AcDbEntity
  8
0
100
AcDbLine
 62
7
  6
CONTINUOUS
 10
5.3367613226
 20
4.0599857924
 11
5.3513684378
 21
4.0852674869
  0
LINE
  5
24A
100
AcDbEntity
  8
0
100
AcDbLine
 62
7
  6
CONTINUOUS
 10
5.3017877599
 20
4.6729822935
 11
5.2950963226
 21
4.6845640821
  0
LINE
  5
24B
100
AcDbEntity
  8
0
100
AcDbLine
 62
7
  6
CONTINUOUS
 10
5.330701791
 20
4.6589953508
 11
5.3159288226
 21
4.6845640821
  0
LINE
  5
24C
100
AcDbEntity
  8
0
100
AcDbLine
 62
7
  6
CONTINUOUS
 10
5.3434527599
 20
4.6729822935
 11
5.3367613226
 21
4.6845640821
  0
LINE
  5
24D
100
AcDbEntity
  8
0
100
AcDbLine
 62
7
  6
CONTINUOUS
 10
5.4155779489
 20
4.6593276412
 11
5.4155837719
 21
4.6592249373
  0
LINE
  5
24E
100
AcDbEntity
  8
0
100
AcDbLine
 62
7
  6
CONTINUOUS
 10
5.4492777604
 20
4.6758712079
 11
5.4492777604
 21
4.0686786666
  0
LINE
  5
24F
100
AcDbEntity
  8
0
100
AcDbLine
 62
7
  6
CONTINUOUS
 10
5.3575938226
 20
4.0599857924
 11
5.3642852599
 21
4.071567581
  0
LINE
  5
250
100
AcDbEntity
  8
0
100
AcDbLine
 62
7
  6
CONTINUOUS
 10
5.3784263226
 20
4.0599857924
 11
5.3930334378
 21
4.0852674869
  0
LINE
  5
251
100
AcDbEntity
  8
0
100
AcDbLine
 62
7
  6
CONTINUOUS
 10
5.3992588226
 20
4.0599857924
 11
5.4059502599
 21
4.071567581
  0
LINE
  5
252
100
AcDbEntity
  8
0
100
AcDbLine
 62
7
  6
CONTINUOUS
 10
5.4200913226
 20
4.0599857924
 11
5.4346984378
 21
4.0852674869
  0
LINE
  5
253
100
AcDbEntity
  8
0
100
AcDbLine
 62
7
  6
CONTINUOUS
 10
5.4409238226
 20
4.0599857924
 11
5.4476115298
 21
4.0715611251
  0
LINE
  5
254
100
AcDbEntity
  8
0
100
AcDbLine
 62
7
  6
CONTINUOUS
 10
5.372366791
 20
4.6589953508
 11
5.3575938226
 21
4.6845640821
  0
LINE
  5
255
100
AcDbEntity
  8
0
100
AcDbLine
 62
7
  6
CONTINUOUS
 10
5.3851177599
 20
4.6729822935
 11
5.3784263226
 21
4.6845640821
  0
LINE
  5
256
100
AcDbEntity
  8
0
100
AcDbLine
 62
7
  6
CONTINUOUS
 10
5.414031791
 20
4.6589953508
 11
5.3992588226
 21
4.6845640821
  0
LINE
  5
257
100
AcDbEntity
  8
0
100
AcDbLine
 62
7
  6
CONTINUOUS
 10
5.4267827599
 20
4.6729822935
 11
5.4200913226
 21
4.6845640821
  0
LINE
  5
258
100
AcDbEntity
  8
0
100
AcDbLine
 62
7
  6
CONTINUOUS
 10
5.4492777604
 20
4.6701048734
 11
5.4409238226
 21
4.6845640821
  0
ARC
  5
259
100
AcDbEntity
  8
0
100
AcDbCircle
 62
7
  6
CONTINUOUS
 10
4.3842777604
 20
4.3722749373
 40
0.3125
100
AcDbArc
 50
90.0
 51
270.0
  0
ARC
  5
25A
100
AcDbEntity
  8
0
100
AcDbCircle
 62
7
  6
CONTINUOUS
 10
5.327010139
 20
4.0897420195
 40
0.0132105792
100
AcDbArc
 50
192.3115811994
 51
193.6563908352
  0
LINE
  5
25B
100
AcDbEntity
  8
0
100
AcDbLine
 62
7
  6
CONTINUOUS
 10
5.3084791988
 20
4.0599861598
 11
5.3087228099
 21
4.0597755809
  0
LINE
  5
25C
100
AcDbEntity
  8
0
100
AcDbLine
 62
7
  6
CONTINUOUS
 10
5.3501441988
 20
4.0599861855
 11
5.3503878098
 21
4.0597755842
  0
LINE
  5
25D
100
AcDbEntity
  8
0
100
AcDbLine
 62
7
  6
CONTINUOUS
 10
5.3918091988
 20
4.0599862321
 11
5.3920528097
 21
4.0597755839
  0
LINE
  5
25E
100
AcDbEntity
  8
0
100
AcDbLine
 62
7
  6
CONTINUOUS
 10
5.3293116988
 20
4.6845637066
 11
5.3295553099
 21
4.6847742911
  0
LINE
  5
25F
100
AcDbEntity
  8
0
100
AcDbLine
 62
7
  6
CONTINUOUS
 10
5.3709766988
 20
4.6845636665
 11
5.3712203097
 21
4.684774291
  0
LINE
  5
260
100
AcDbEntity
  8
0
100
AcDbLine
 62
7
  6
CONTINUOUS
 10
5.3159288219
 20
4.0599862431
 11
5.3156852111
 21
4.0597755842
  0
LINE
  5
261
100
AcDbEntity
  8
0
100
AcDbLine
 62
7
  6
CONTINUOUS
 10
5.3575938219
 20
4.0599861953
 11
5.3573502109
 21
4.0597755839
  0
LINE
  5
262
100
AcDbEntity
  8
0
100
AcDbLine
 62
7
  6
CONTINUOUS
 10
5.3367613219
 20
4.6845636561
 11
5.336517711
 21
4.684774291
  0
LINE
  5
263
100
AcDbEntity
  8
0
100
AcDbLine
 62
7
  6
CONTINUOUS
 10
5.3784263219
 20
4.6845637015
 11
5.3781827109
 21
4.6847742902
  0
LINE
  5
264
100
AcDbEntity
  8
0
100
AcDbLine
 62
7
  6
CONTINUOUS
 10
5.3992588236
 20
4.0599862097
 11
5.3990152119
 21
4.059775045
  0
LINE
  5
265
100
AcDbEntity
  8
0
100
AcDbLine
 62
7
  6
CONTINUOUS
 10
5.4409238231
 20
4.0599858882
 11
5.4406802106
 21
4.0597750183
  0
LINE
  5
266
100
AcDbEntity
  8
0
100
AcDbLine
 62
7
  6
CONTINUOUS
 10
5.4200913219
 20
4.6845637243
 11
5.4198477109
 21
4.6847742974
  0
LINE
  5
267
100
AcDbEntity
  8
0
100
AcDbLine
 62
7
  6
CONTINUOUS
 10
5.4337178106
 20
4.0597750552
 11
5.4334741978
 21
4.0599858376
  0
SPLINE
  5
268
100
AcDbEntity
  8
0
100
AcDbSpline
 62
7
  6
CONTINUOUS
 70
0
 71
3
 72
18
 73
14
 74
0
 42
0.0000001
 43
0.0000001
 44
0.0000000001
 40
0.0
 40
0.0
 40
0.0
 40
0.0
 40
0.2109130865
 40
0.3976909089
 40
0.5600233318
 40
0.6976599446
 40
0.8104674379
 40
0.8575340343
 40
0.8983690878
 40
0.932979366
 40
0.9613900918
 40
0.9836707681
 40
1.0
 40
1.0
 40
1.0
 40
1.0
 10
5.3805494487
 20
4.6650810642
 30
0.0
 10
5.3804657352
 20
4.6664592947
 30
0.0
 10
5.3803000452
 20
4.6690575804
 30
0.0
 10
5.3800370548
 20
4.6727144479
 30
0.0
 10
5.3797748849
 20
4.6758902896
 30
0.0
 10
5.379513598
 20
4.6785800155
 30
0.0
 10
5.379286024
 20
4.6805146439
 30
0.0
 10
5.3790991419
 20
4.6818153225
 30
0.0
 10
5.3789679226
 20
4.6826066585
 30
0.0
 10
5.3788372288
 20
4.68327396
 30
0.0
 10
5.378707399
 20
4.6838174886
 30
0.0
 10
5.378578665
 20
4.6842369794
 30
0.0
 10
5.3784798399
 20
4.6844711609
 30
0.0
 10
5.3784263219
 20
4.6845637015
 30
0.0
  0
SPLINE
  5
269
100
AcDbEntity
  8
0
100
AcDbSpline
 62
7
  6
CONTINUOUS
 70
0
 71
3
 72
18
 73
14
 74
0
 42
0.0000001
 43
0.0000001
 44
0.0000000001
 40
0.0
 40
0.0
 40
0.0
 40
0.0
 40
0.2109068583
 40
0.3976793826
 40
0.5600040394
 40
0.6976387235
 40
0.8104502114
 40
0.8575196973
 40
0.8983575348
 40
0.9329699804
 40
0.9613819454
 40
0.9836655516
 40
1.0
 40
1.0
 40
1.0
 40
1.0
 10
5.3388833451
 20
4.6650992008
 30
0.0
 10
5.3387996753
 20
4.6664761103
 30
0.0
 10
5.3386340723
 20
4.6690719068
 30
0.0
 10
5.3383712241
 20
4.6727252496
 30
0.0
 10
5.3381091821
 20
4.6758980384
 30
0.0
 10
5.3378480286
 20
4.678585222
 30
0.0
 10
5.337620576
 20
4.6805180786
 30
0.0
 10
5.3374337933
 20
4.6818176045
 30
0.0
 10
5.3373026421
 20
4.6826082497
 30
0.0
 10
5.3371720184
 20
4.6832749639
 30
0.0
 10
5.3370422482
 20
4.6838180165
 30
0.0
 10
5.3369135752
 20
4.6842371653
 30
0.0
 10
5.3368148052
 20
4.6844711706
 30
0.0
 10
5.3367613219
 20
4.6845636561
 30
0.0
  0
SPLINE
  5
26A
100
AcDbEntity
  8
0
100
AcDbSpline
 62
7
  6
CONTINUOUS
 70
0
 71
3
 72
18
 73
14
 74
0
 42
0.0000001
 43
0.0000001
 44
0.0000000001
 40
0.0
 40
0.0
 40
0.0
 40
0.0
 40
0.2109043746
 40
0.397674839
 40
0.5599969153
 40
0.6976308593
 40
0.8104433526
 40
0.857513671
 40
0.8983523906
 40
0.9329656447
 40
0.961378333
 40
0.9836633687
 40
1.0
 40
1.0
 40
1.0
 40
1.0
 10
5.3896876389
 20
4.0794430633
 30
0.0
 10
5.3897712905
 20
4.0780667068
 30
0.0
 10
5.3899368575
 20
4.0754719523
 30
0.0
 10
5.3901996472
 20
4.0718200813
 30
0.0
 10
5.3904616347
 20
4.0686485665
 30
0.0
 10
5.3907227317
 20
4.0659624484
 30
0.0
 10
5.3909501337
 20
4.0640303413
 30
0.0
 10
5.3911368748
 20
4.0627313078
 30
0.0
 10
5.3912679972
 20
4.0619409572
 30
0.0
 10
5.3913985919
 20
4.0612744906
 30
0.0
 10
5.3915283363
 20
4.0607316354
 30
0.0
 10
5.3916569828
 20
4.0603126272
 30
0.0
 10
5.3917557299
 20
4.0600786944
 30
0.0
 10
5.3918091988
 20
4.0599862321
 30
0.0
  0
SPLINE
  5
26B
100
AcDbEntity
  8
0
100
AcDbSpline
 62
7
  6
CONTINUOUS
 70
0
 71
3
 72
18
 73
14
 74
0
 42
0.0000001
 43
0.0000001
 44
0.0000000001
 40
0.0
 40
0.0
 40
0.0
 40
0.0
 40
0.2109003371
 40
0.3976672641
 40
0.5599845553
 40
0.6976172312
 40
0.8104315405
 40
0.8575032844
 40
0.8983434398
 40
0.9329578978
 40
0.9613716554
 40
0.9836592852
 40
1.0
 40
1.0
 40
1.0
 40
1.0
 10
5.2972170248
 20
4.6651208826
 30
0.0
 10
5.2971334065
 20
4.6664962199
 30
0.0
 10
5.296967906
 20
4.669089053
 30
0.0
 10
5.296705224
 20
4.6727382075
 30
0.0
 10
5.2964433368
 20
4.6759073683
 30
0.0
 10
5.2961823448
 20
4.6785915163
 30
0.0
 10
5.2959550366
 20
4.6805222369
 30
0.0
 10
5.2957683727
 20
4.6818203577
 30
0.0
 10
5.2956373036
 20
4.6826101592
 30
0.0
 10
5.2955067628
 20
4.683276163
 30
0.0
 10
5.2953770654
 20
4.6838186487
 30
0.0
 10
5.2952484685
 20
4.6842373954
 30
0.0
 10
5.2951497641
 20
4.6844711941
 30
0.0
 10
5.295096322
 20
4.6845636138
 30
0.0
  0
SPLINE
  5
26C
100
AcDbEntity
  8
0
100
AcDbSpline
 62
7
  6
CONTINUOUS
 70
0
 71
3
 72
18
 73
14
 74
0
 42
0.0000001
 43
0.0000001
 44
0.0000000001
 40
0.0
 40
0.0
 40
0.0
 40
0.0
 40
0.0163662319
 40
0.0386797486
 40
0.0671059357
 40
0.1017147071
 40
0.1425374872
 40
0.1895874164
 40
0.3023738039
 40
0.4400088991
 40
0.6023043022
 40
0.7890437108
 40
1.0
 40
1.0
 40
1.0
 40
1.0
 10
5.4334741978
 20
4.0599858376
 30
0.0
 10
5.4334207803
 20
4.0600783592
 30
0.0
 10
5.4333221567
 20
4.0603123194
 30
0.0
 10
5.4331936385
 20
4.0607311338
 30
0.0
 10
5.4330639945
 20
4.0612733623
 30
0.0
 10
5.4329334945
 20
4.0619387153
 30
0.0
 10
5.4328024788
 20
4.0627275391
 30
0.0
 10
5.4326158834
 20
4.0640241015
 30
0.0
 10
5.4323886934
 20
4.0659528629
 30
0.0
 10
5.4321279247
 20
4.0686344191
 30
0.0
 10
5.4318661518
 20
4.0718005697
 30
0.0
 10
5.431603523
 20
4.0754466539
 30
0.0
 10
5.4314380961
 20
4.0780374656
 30
0.0
 10
5.4313545107
 20
4.0794119977
 30
0.0
  0
SPLINE
  5
26D
100
AcDbEntity
  8
0
100
AcDbSpline
 62
7
  6
CONTINUOUS
 70
0
 71
3
 72
18
 73
14
 74
0
 42
0.0000001
 43
0.0000001
 44
0.0000000001
 40
0.0
 40
0.0
 40
0.0
 40
0.0
 40
0.2109143978
 40
0.3976931596
 40
0.5600250948
 40
0.6976619338
 40
0.810470387
 40
0.8575373198
 40
0.898372392
 40
0.9329822066
 40
0.9613918518
 40
0.9836714998
 40
1.0
 40
1.0
 40
1.0
 40
1.0
 10
5.3480209118
 20
4.0794714527
 30
0.0
 10
5.3481046315
 20
4.0780930284
 30
0.0
 10
5.3482703334
 20
4.0754943786
 30
0.0
 10
5.3485333417
 20
4.0718370075
 30
0.0
 10
5.3487955332
 20
4.0686607341
 30
0.0
 10
5.3490568404
 20
4.0659706413
 30
0.0
 10
5.3492844306
 20
4.0640357416
 30
0.0
 10
5.3494713267
 20
4.0627348782
 30
0.0
 10
5.3496025558
 20
4.0619434354
 30
0.0
 10
5.3497332586
 20
4.0612760529
 30
0.0
 10
5.3498630996
 20
4.0607324672
 30
0.0
 10
5.3499918443
 20
4.0603129375
 30
0.0
 10
5.3500906766
 20
4.0600787346
 30
0.0
 10
5.3501441988
 20
4.0599861855
 30
0.0
  0
SPLINE
  5
26E
100
AcDbEntity
  8
0
100
AcDbSpline
 62
7
  6
CONTINUOUS
 70
0
 71
3
 72
18
 73
14
 74
0
 42
0.0000001
 43
0.0000001
 44
0.0000000001
 40
0.0
 40
0.0
 40
0.0
 40
0.0
 40
0.2109064581
 40
0.3976789768
 40
0.5600098999
 40
0.6976454518
 40
0.8104518676
 40
0.8575186207
 40
0.8983546692
 40
0.932967062
 40
0.9613812861
 40
0.9836661998
 40
1.0
 40
1.0
 40
1.0
 40
1.0
 10
5.3063570394
 20
4.07945287
 30
0.0
 10
5.3064407153
 20
4.0780758045
 30
0.0
 10
5.3066063314
 20
4.0754797119
 30
0.0
 10
5.3068692063
 20
4.0718259104
 30
0.0
 10
5.3071312545
 20
4.068652708
 30
0.0
 10
5.3073924209
 20
4.0659652002
 30
0.0
 10
5.3076198922
 20
4.0640321661
 30
0.0
 10
5.3078066884
 20
4.0627325531
 30
0.0
 10
5.3079378482
 20
4.0619418462
 30
0.0
 10
5.3080684838
 20
4.0612750522
 30
0.0
 10
5.3081982544
 20
4.0607319101
 30
0.0
 10
5.30832693
 20
4.0603126897
 30
0.0
 10
5.308425709
 20
4.0600786508
 30
0.0
 10
5.3084791988
 20
4.0599861598
 30
0.0
  0
SPLINE
  5
26F
100
AcDbEntity
  8
0
100
AcDbSpline
 62
7
  6
CONTINUOUS
 70
0
 71
3
 72
24
 73
20
 74
0
 42
0.0000001
 43
0.0000001
 44
0.0000000001
 40
0.0
 40
0.0
 40
0.0
 40
0.0
 40
0.0034168262
 40
0.0078124834
 40
0.0136963418
 40
0.0212838172
 40
0.03067386
 40
0.0419179815
 40
0.0700693309
 40
0.0870044931
 40
0.1058519856
 40
0.1492897767
 40
0.2003846737
 40
0.2591239106
 40
0.3254877767
 40
0.3994523903
 40
0.5700146937
 40
0.7703610805
 40
1.0
 40
1.0
 40
1.0
 40
1.0
 10
5.4128853096
 20
4.6847742902
 30
0.0
 10
5.4129145813
 20
4.6847742964
 30
0.0
 10
5.4129814391
 20
4.6847510013
 30
0.0
 10
5.4130656051
 20
4.6846666887
 30
0.0
 10
5.4131482578
 20
4.6845372071
 30
0.0
 10
5.4132306624
 20
4.6843590868
 30
0.0
 10
5.4133135302
 20
4.684131789
 30
0.0
 10
5.4134334937
 20
4.6837312535
 30
0.0
 10
5.4135417274
 20
4.6832605366
 30
0.0
 10
5.4136471458
 20
4.6827230793
 30
0.0
 10
5.4137643465
 20
4.6820545445
 30
0.0
 10
5.4139085126
 20
4.6810938612
 30
0.0
 10
5.4140749739
 20
4.6797913186
 30
0.0
 10
5.4142418334
 20
4.6782910428
 30
0.0
 10
5.4144090216
 20
4.6765938267
 30
0.0
 10
5.4146434789
 20
4.673940756
 30
0.0
 10
5.4149313967
 20
4.6701403194
 30
0.0
 10
5.4152641039
 20
4.6650061889
 30
0.0
 10
5.4154724237
 20
4.6613283973
 30
0.0
 10
5.4155779612
 20
4.6593639329
 30
0.0
  0
SPLINE
  5
270
100
AcDbEntity
  8
0
100
AcDbSpline
 62
7
  6
CONTINUOUS
 70
0
 71
3
 72
18
 73
14
 74
0
 42
0.0000001
 43
0.0000001
 44
0.0000000001
 40
0.0
 40
0.0
 40
0.0
 40
0.0
 40
0.2109022734
 40
0.3976715234
 40
0.5600018671
 40
0.6976368449
 40
0.8104421098
 40
0.8575086725
 40
0.8983451085
 40
0.9329587073
 40
0.9613751902
 40
0.9836630128
 40
1.0
 40
1.0
 40
1.0
 40
1.0
 10
5.4222128027
 20
4.6651081773
 30
0.0
 10
5.4221291529
 20
4.6664844293
 30
0.0
 10
5.4219635879
 20
4.6690789908
 30
0.0
 10
5.421700793
 20
4.6727306523
 30
0.0
 10
5.42143883
 20
4.675902012
 30
0.0
 10
5.4211777485
 20
4.678587967
 30
0.0
 10
5.4209503493
 20
4.6805198801
 30
0.0
 10
5.4207636136
 20
4.6818187396
 30
0.0
 10
5.4206324958
 20
4.6826089998
 30
0.0
 10
5.4205019013
 20
4.683275433
 30
0.0
 10
5.4203721724
 20
4.6838183005
 30
0.0
 10
5.4202435382
 20
4.6842373297
 30
0.0
 10
5.4201447918
 20
4.684471268
 30
0.0
 10
5.4200913219
 20
4.6845637243
 30
0.0
  0
SPLINE
  5
271
100
AcDbEntity
  8
0
100
AcDbSpline
 62
7
  6
CONTINUOUS
 70
0
 71
3
 72
24
 73
20
 74
0
 42
0.0000001
 43
0.0000001
 44
0.0000000001
 40
0.0
 40
0.0
 40
0.0
 40
0.0
 40
0.0034183482
 40
0.0078154258
 40
0.0137003383
 40
0.0212883995
 40
0.0306784785
 40
0.0419220008
 40
0.0700714787
 40
0.0870063872
 40
0.1058540132
 40
0.1492928413
 40
0.20038913
 40
0.2591292882
 40
0.3254927702
 40
0.3994549676
 40
0.570015448
 40
0.7703631899
 40
1.0
 40
1.0
 40
1.0
 40
1.0
 10
5.3712203097
 20
4.684774291
 30
0.0
 10
5.3712495696
 20
4.6847742903
 30
0.0
 10
5.3713163908
 20
4.6847510029
 30
0.0
 10
5.371400522
 20
4.6846667512
 30
0.0
 10
5.3714831404
 20
4.6845373706
 30
0.0
 10
5.3715655106
 20
4.6843594021
 30
0.0
 10
5.3716483432
 20
4.6841323095
 30
0.0
 10
5.3717682569
 20
4.683732151
 30
0.0
 10
5.371876448
 20
4.683261868
 30
0.0
 10
5.3719818182
 20
4.682724892
 30
0.0
 10
5.3720989688
 20
4.6820569249
 30
0.0
 10
5.3722430717
 20
4.6810970429
 30
0.0
 10
5.3724094602
 20
4.6797955848
 30
0.0
 10
5.372576247
 20
4.6782965725
 30
0.0
 10
5.3727433622
 20
4.6766008188
 30
0.0
 10
5.3729777249
 20
4.6739500473
 30
0.0
 10
5.3732655156
 20
4.6701528674
 30
0.0
 10
5.3735980711
 20
4.665023122
 30
0.0
 10
5.3738062997
 20
4.661348461
 30
0.0
 10
5.3739117917
 20
4.6593856832
 30
0.0
  0
SPLINE
  5
272
100
AcDbEntity
  8
0
100
AcDbSpline
 62
7
  6
CONTINUOUS
 70
0
 71
3
 72
24
 73
20
 74
0
 42
0.0000001
 43
0.0000001
 44
0.0000000001
 40
0.0
 40
0.0
 40
0.0
 40
0.0
 40
0.00341727
 40
0.007813337
 40
0.0136974982
 40
0.0212851428
 40
0.0306751997
 40
0.0419191574
 40
0.0700700689
 40
0.0870052169
 40
0.1058528034
 40
0.149290989
 40
0.2003863549
 40
0.2591258885
 40
0.3254896293
 40
0.399453498
 40
0.5700151897
 40
0.7703618006
 40
1.0
 40
1.0
 40
1.0
 40
1.0
 10
5.3156852111
 20
4.0597755842
 30
0.0
 10
5.3156559429
 20
4.0597755799
 30
0.0
 10
5.3155890957
 20
4.0597988725
 30
0.0
 10
5.3155049399
 20
4.059883167
 30
0.0
 10
5.3154222972
 20
4.0600126188
 30
0.0
 10
5.3153399026
 20
4.0601906945
 30
0.0
 10
5.3152570451
 20
4.0604179323
 30
0.0
 10
5.3151370959
 20
4.0608183583
 30
0.0
 10
5.3150288749
 20
4.0612889496
 30
0.0
 10
5.3149234705
 20
4.0618262677
 30
0.0
 10
5.3148062844
 20
4.0624946377
 30
0.0
 10
5.3146621367
 20
4.0634550879
 30
0.0
 10
5.3144956967
 20
4.064757314
 30
0.0
 10
5.3143288584
 20
4.0662572199
 30
0.0
 10
5.3141616916
 20
4.067954007
 30
0.0
 10
5.313927262
 20
4.0706064024
 30
0.0
 10
5.3136393818
 20
4.0744058816
 30
0.0
 10
5.3133067192
 20
4.0795387232
 30
0.0
 10
5.3130984264
 20
4.0832155945
 30
0.0
 10
5.3129929023
 20
4.0851795635
 30
0.0
  0
SPLINE
  5
273
100
AcDbEntity
  8
0
100
AcDbSpline
 62
7
  6
CONTINUOUS
 70
0
 71
3
 72
24
 73
20
 74
0
 42
0.0000001
 43
0.0000001
 44
0.0000000001
 40
0.0
 40
0.0
 40
0.0
 40
0.0
 40
0.0034194815
 40
0.0078176536
 40
0.013703386
 40
0.0212918907
 40
0.0306819573
 40
0.0419249311
 40
0.0700722281
 40
0.0870065077
 40
0.1058538468
 40
0.1492928381
 40
0.2003897751
 40
0.2591304544
 40
0.3254937099
 40
0.3994543164
 40
0.5700138608
 40
0.7703639016
 40
1.0
 40
1.0
 40
1.0
 40
1.0
 10
5.3295553099
 20
4.6847742911
 30
0.0
 10
5.3295845613
 20
4.6847742842
 30
0.0
 10
5.3296513554
 20
4.6847509999
 30
0.0
 10
5.3297354603
 20
4.6846667909
 30
0.0
 10
5.3298180532
 20
4.6845374826
 30
0.0
 10
5.3299003981
 20
4.6843596248
 30
0.0
 10
5.3299832045
 20
4.6841326833
 30
0.0
 10
5.3301030799
 20
4.6837328084
 30
0.0
 10
5.3302112414
 20
4.683262855
 30
0.0
 10
5.3303165755
 20
4.6827262449
 30
0.0
 10
5.3304336892
 20
4.6820587051
 30
0.0
 10
5.3305777452
 20
4.6810994205
 30
0.0
 10
5.3307440796
 20
4.6797987648
 30
0.0
 10
5.3309108126
 20
4.67830068
 30
0.0
 10
5.331077874
 20
4.6766059946
 30
0.0
 10
5.3313121676
 20
4.6739568984
 30
0.0
 10
5.3315998679
 20
4.6701620832
 30
0.0
 10
5.3319323132
 20
4.6650355216
 30
0.0
 10
5.3321404765
 20
4.6613631308
 30
0.0
 10
5.3322459359
 20
4.6594015788
 30
0.0
  0
SPLINE
  5
274
100
AcDbEntity
  8
0
100
AcDbSpline
 62
7
  6
CONTINUOUS
 70
0
 71
3
 72
24
 73
20
 74
0
 42
0.0000001
 43
0.0000001
 44
0.0000000001
 40
0.0
 40
0.0
 40
0.0
 40
0.0
 40
0.0034187457
 40
0.0078161989
 40
0.0137013902
 40
0.021289603
 40
0.0306796825
 40
0.041923029
 40
0.0700718458
 40
0.0870065874
 40
0.1058541562
 40
0.1492931011
 40
0.2003896476
 40
0.2591299977
 40
0.3254933968
 40
0.3994550318
 40
0.5700151895
 40
0.7703636005
 40
1.0
 40
1.0
 40
1.0
 40
1.0
 10
5.3573502109
 20
4.0597755839
 30
0.0
 10
5.3573209541
 20
4.0597755866
 30
0.0
 10
5.3572541425
 20
4.0597988724
 30
0.0
 10
5.3571700205
 20
4.0598831085
 30
0.0
 10
5.3570874111
 20
4.060012463
 30
0.0
 10
5.3570050498
 20
4.0601903921
 30
0.0
 10
5.3569222265
 20
4.0604174312
 30
0.0
 10
5.3568023262
 20
4.0608174901
 30
0.0
 10
5.3566941458
 20
4.0612876576
 30
0.0
 10
5.3565887884
 20
4.0618245055
 30
0.0
 10
5.3564716508
 20
4.0624923222
 30
0.0
 10
5.3563275645
 20
4.0634519931
 30
0.0
 10
5.3561611951
 20
4.0647531669
 30
0.0
 10
5.3559944274
 20
4.0662518499
 30
0.0
 10
5.3558273312
 20
4.0679472242
 30
0.0
 10
5.3555929931
 20
4.0705974006
 30
0.0
 10
5.3553052348
 20
4.0743937393
 30
0.0
 10
5.3549727185
 20
4.0795223511
 30
0.0
 10
5.3547645132
 20
4.083196203
 30
0.0
 10
5.3546590329
 20
4.0851585439
 30
0.0
  0
SPLINE
  5
275
100
AcDbEntity
  8
0
100
AcDbSpline
 62
7
  6
CONTINUOUS
 70
0
 71
3
 72
24
 73
20
 74
0
 42
0.0000001
 43
0.0000001
 44
0.0000000001
 40
0.0
 40
0.0
 40
0.0
 40
0.0
 40
0.0034742852
 40
0.0079152457
 40
0.0138357575
 40
0.0214538377
 40
0.0308682995
 40
0.042129332
 40
0.0552647446
 40
0.070290868
 40
0.1060491779
 40
0.1494477814
 40
0.200498501
 40
0.2591993188
 40
0.325529436
 40
0.3994519033
 40
0.5699105233
 40
0.7702376677
 40
1.0
 40
1.0
 40
1.0
 40
1.0
 10
5.3990152119
 20
4.059775045
 30
0.0
 10
5.3989865521
 20
4.059775008
 30
0.0
 10
5.3989212431
 20
4.0597971969
 30
0.0
 10
5.3988385112
 20
4.0598783669
 30
0.0
 10
5.3987574091
 20
4.060003198
 30
0.0
 10
5.3986765494
 20
4.0601748468
 30
0.0
 10
5.398595284
 20
4.0603938086
 30
0.0
 10
5.3985137635
 20
4.0606606661
 30
0.0
 10
5.3984320004
 20
4.060975492
 30
0.0
 10
5.3983159484
 20
4.0614899158
 30
0.0
 10
5.3981743215
 20
4.0622540762
 30
0.0
 10
5.3980116449
 20
4.0633158769
 30
0.0
 10
5.3978484297
 20
4.0645687305
 30
0.0
 10
5.3976847846
 20
4.0660120485
 30
0.0
 10
5.3975208556
 20
4.0676450681
 30
0.0
 10
5.3972909292
 20
4.0701978623
 30
0.0
 10
5.3970084613
 20
4.0738555586
 30
0.0
 10
5.3966820809
 20
4.0787988477
 30
0.0
 10
5.3964777917
 20
4.0823408597
 30
0.0
 10
5.3963742515
 20
4.0842333664
 30
0.0
  0
LINE
  5
276
100
AcDbEntity
  8
0
100
AcDbLine
 62
7
  6
CONTINUOUS
 10
5.3963742515
 20
4.0842333664
 11
5.3963227901
 21
4.0851826277
  0
SPLINE
  5
277
100
AcDbEntity
  8
0
100
AcDbSpline
 62
7
  6
CONTINUOUS
 70
0
 71
3
 72
24
 73
20
 74
0
 42
0.0000001
 43
0.0000001
 44
0.0000000001
 40
0.0
 40
0.0
 40
0.0
 40
0.0
 40
0.0034171668
 40
0.0078175571
 40
0.0137084692
 40
0.0213029961
 40
0.0306980483
 40
0.0419432674
 40
0.0700812944
 40
0.087005294
 40
0.1058418857
 40
0.1492683609
 40
0.2003702645
 40
0.2591248284
 40
0.3255008958
 40
0.3994632224
 40
0.569992887
 40
0.7703508416
 40
1.0
 40
1.0
 40
1.0
 40
1.0
 10
5.4406802106
 20
4.0597750183
 30
0.0
 10
5.4406509087
 20
4.0597750548
 30
0.0
 10
5.4405839941
 20
4.0597985469
 30
0.0
 10
5.4404998366
 20
4.0598831536
 30
0.0
 10
5.4404171548
 20
4.0600129761
 30
0.0
 10
5.4403347191
 20
4.0601914623
 30
0.0
 10
5.4402518146
 20
4.0604191067
 30
0.0
 10
5.4401318198
 20
4.0608199753
 30
0.0
 10
5.4400235035
 20
4.0612909289
 30
0.0
 10
5.4399180253
 20
4.061828588
 30
0.0
 10
5.4398007503
 20
4.0624974637
 30
0.0
 10
5.439656508
 20
4.0634589236
 30
0.0
 10
5.4394899952
 20
4.0647627935
 30
0.0
 10
5.4393230729
 20
4.0662647811
 30
0.0
 10
5.4391558188
 20
4.0679638114
 30
0.0
 10
5.4389212527
 20
4.0706191781
 30
0.0
 10
5.4386331178
 20
4.0744229735
 30
0.0
 10
5.4383003193
 20
4.079561829
 30
0.0
 10
5.4380919045
 20
4.0832432541
 30
0.0
 10
5.4379863064
 20
4.0852096464
 30
0.0
  0
LINE
  5
278
100
AcDbEntity
  8
0
100
AcDbLine
 62
7
  6
CONTINUOUS
 10
5.3293116988
 20
4.0599861679
 11
5.3295553099
 21
4.0597755834
  0
LINE
  5
279
100
AcDbEntity
  8
0
100
AcDbLine
 62
7
  6
CONTINUOUS
 10
5.3709766988
 20
4.059986208
 11
5.3712203097
 21
4.0597755835
  0
LINE
  5
27A
100
AcDbEntity
  8
0
100
AcDbLine
 62
7
  6
CONTINUOUS
 10
5.3084791988
 20
4.6845637148
 11
5.3087228099
 21
4.6847742936
  0
LINE
  5
27B
100
AcDbEntity
  8
0
100
AcDbLine
 62
7
  6
CONTINUOUS
 10
5.3501441988
 20
4.6845636891
 11
5.3503878098
 21
4.6847742903
  0
LINE
  5
27C
100
AcDbEntity
  8
0
100
AcDbLine
 62
7
  6
CONTINUOUS
 10
5.3918091988
 20
4.6845636424
 11
5.3920528097
 21
4.6847742906
  0
LINE
  5
27D
100
AcDbEntity
  8
0
100
AcDbLine
 62
7
  6
CONTINUOUS
 10
5.3367613219
 20
4.0599862185
 11
5.336517711
 21
4.0597755835
  0
LINE
  5
27E
100
AcDbEntity
  8
0
100
AcDbLine
 62
7
  6
CONTINUOUS
 10
5.3784263219
 20
4.0599861731
 11
5.3781827109
 21
4.0597755844
  0
LINE
  5
27F
100
AcDbEntity
  8
0
100
AcDbLine
 62
7
  6
CONTINUOUS
 10
5.3159288219
 20
4.6845636315
 11
5.3156852111
 21
4.6847742903
  0
LINE
  5
280
100
AcDbEntity
  8
0
100
AcDbLine
 62
7
  6
CONTINUOUS
 10
5.3575938219
 20
4.6845636792
 11
5.3573502109
 21
4.6847742906
  0
LINE
  5
281
100
AcDbEntity
  8
0
100
AcDbLine
 62
7
  6
CONTINUOUS
 10
5.4200913219
 20
4.0599861502
 11
5.4198477109
 21
4.0597755771
  0
LINE
  5
282
100
AcDbEntity
  8
0
100
AcDbLine
 62
7
  6
CONTINUOUS
 10
5.3992588236
 20
4.6845636648
 11
5.3990152119
 21
4.6847748295
  0
LINE
  5
283
100
AcDbEntity
  8
0
100
AcDbLine
 62
7
  6
CONTINUOUS
 10
5.4409238231
 20
4.6845639863
 11
5.4406802106
 21
4.6847748562
  0
LINE
  5
284
100
AcDbEntity
  8
0
100
AcDbLine
 62
7
  6
CONTINUOUS
 10
5.4337178106
 20
4.6847748193
 11
5.4334741978
 21
4.684564037
  0
LINE
  5
285
100
AcDbEntity
  8
0
100
AcDbLine
 62
7
  6
CONTINUOUS
 10
5.3562037304
 20
4.085555003
 11
5.355841175
 21
4.0866101064
  0
SPLINE
  5
286
100
AcDbEntity
  8
0
100
AcDbSpline
 62
7
  6
CONTINUOUS
 70
0
 71
3
 72
59
 73
55
 74
0
 42
0.0000001
 43
0.0000001
 44
0.0000000001
 40
0.0
 40
0.0
 40
0.0
 40
0.0
 40
0.0012972761
 40
0.0028710937
 40
0.0047218517
 40
0.0068493151
 40
0.0119317699
 40
0.0181119058
 40
0.0253777606
 40
0.0337120775
 40
0.0430969644
 40
0.0535134615
 40
0.0773412044
 40
0.1049815688
 40
0.1361840936
 40
0.1706690657
 40
0.2081221404
 40
0.2482070674
 40
0.2905588662
 40
0.3347958407
 40
0.4273073931
 40
0.5223990699
 40
0.5698387365
 40
0.6166346126
 40
0.6623624137
 40
0.7066087258
 40
0.7489726784
 40
0.7890706336
 40
0.8265406365
 40
0.861041962
 40
0.8922652058
 40
0.906556645
 40
0.9199252339
 40
0.9323414627
 40
0.9437759504
 40
0.9542027345
 40
0.9636002757
 40
0.9719474504
 40
0.9792241678
 40
0.9854162484
 40
0.988102037
 40
0.9905125521
 40
0.9926466206
 40
0.9945032935
 40
0.9960825069
 40
0.9973853465
 40
0.9979338581
 40
0.9984143753
 40
0.9988277103
 40
0.9991751825
 40
0.9994590757
 40
0.9996836776
 40
0.9998577868
 40
1.0
 40
1.0
 40
1.0
 40
1.0
 10
5.355841175
 20
4.0866101064
 30
0.0
 10
5.3557823101
 20
4.0868509164
 30
0.0
 10
5.3556684102
 20
4.0873878546
 30
0.0
 10
5.3555128685
 20
4.0882767554
 30
0.0
 10
5.3553567388
 20
4.0893262568
 30
0.0
 10
5.3551346491
 20
4.0910434568
 30
0.0
 10
5.3548640134
 20
4.0935881308
 30
0.0
 10
5.3545531962
 20
4.0971152121
 30
0.0
 10
5.3542413038
 20
4.1012656647
 30
0.0
 10
5.3539284195
 20
4.106029916
 30
0.0
 10
5.3536149243
 20
4.1113973379
 30
0.0
 10
5.3531765765
 20
4.119723055
 30
0.0
 10
5.352638228
 20
4.1315366329
 30
0.0
 10
5.3520149922
 20
4.1473221567
 30
0.0
 10
5.351390152
 20
4.1651455402
 30
0.0
 10
5.3507641665
 20
4.184845047
 30
0.0
 10
5.3501373202
 20
4.206242673
 30
0.0
 10
5.3495099667
 20
4.2291441754
 30
0.0
 10
5.348882136
 20
4.2533424764
 30
0.0
 10
5.3480320065
 20
4.2875567125
 30
0.0
 10
5.3469846144
 20
4.3318473452
 30
0.0
 10
5.3459503884
 20
4.3767504509
 30
0.0
 10
5.3451117407
 20
4.4129198072
 30
0.0
 10
5.3444833062
 20
4.4396584177
 30
0.0
 10
5.3438549991
 20
4.4657866328
 30
0.0
 10
5.3432269072
 20
4.491067693
 30
0.0
 10
5.3425991137
 20
4.5152725937
 30
0.0
 10
5.3419717075
 20
4.5381821444
 30
0.0
 10
5.3413449304
 20
4.5595886263
 30
0.0
 10
5.3407188308
 20
4.579298452
 30
0.0
 10
5.3401835888
 20
4.5945796117
 30
0.0
 10
5.3397510892
 20
4.6058234792
 30
0.0
 10
5.3394364964
 20
4.6134753115
 30
0.0
 10
5.3391221248
 20
4.6205807171
 30
0.0
 10
5.3388079676
 20
4.6271233827
 30
0.0
 10
5.338494078
 20
4.6330884915
 30
0.0
 10
5.3381806199
 20
4.6384627644
 30
0.0
 10
5.3378678294
 20
4.6432339972
 30
0.0
 10
5.3375557208
 20
4.647391241
 30
0.0
 10
5.3372855468
 20
4.6504665693
 30
0.0
 10
5.3370656361
 20
4.6526124973
 30
0.0
 10
5.3369088311
 20
4.6539852828
 30
0.0
 10
5.3367523164
 20
4.6551985139
 30
0.0
 10
5.3365962113
 20
4.6562514775
 30
0.0
 10
5.3364405862
 20
4.6571436427
 30
0.0
 10
5.3363051098
 20
4.6577853192
 30
0.0
 10
5.3361941651
 20
4.658216966
 30
0.0
 10
5.3361159307
 20
4.6584813332
 30
0.0
 10
5.3360378888
 20
4.6587054651
 30
0.0
 10
5.3359600436
 20
4.6588894919
 30
0.0
 10
5.3358823976
 20
4.6590338819
 30
0.0
 10
5.335804392
 20
4.6591391756
 30
0.0
 10
5.335724355
 20
4.6592070791
 30
0.0
 10
5.3356636867
 20
4.659224839
 30
0.0
 10
5.3356365108
 20
4.6592248713
 30
0.0
  0
SPLINE
  5
287
100
AcDbEntity
  8
0
100
AcDbSpline
 62
7
  6
CONTINUOUS
 70
0
 71
3
 72
32
 73
28
 74
0
 42
0.0000001
 43
0.0000001
 44
0.0000000001
 40
0.0
 40
0.0
 40
0.0
 40
0.0
 40
0.1905916165
 40
0.2836945209
 40
0.3741866647
 40
0.4612516212
 40
0.5440792627
 40
0.6219130923
 40
0.6940380483
 40
0.7597945917
 40
0.8185777346
 40
0.8451835107
 40
0.86984746
 40
0.8925166162
 40
0.9131389507
 40
0.9316642942
 40
0.9480535196
 40
0.9622721139
 40
0.9742864775
 40
0.984071763
 40
0.9881243942
 40
0.991615478
 40
0.9945447612
 40
0.9969134627
 40
0.9987263686
 40
0.9994288672
 40
1.0
 40
1.0
 40
1.0
 40
1.0
 10
5.367766461
 20
4.3722749373
 30
0.0
 10
5.367345183
 20
4.3921279882
 30
0.0
 10
5.366718258
 20
4.4216791444
 30
0.0
 10
5.3658680641
 20
4.4606559506
 30
0.0
 10
5.3652355379
 20
4.4888486113
 30
0.0
 10
5.3646033051
 20
4.5159704331
 30
0.0
 10
5.3639713869
 20
4.5417730342
 30
0.0
 10
5.3633400085
 20
4.5660185756
 30
0.0
 10
5.3627093131
 20
4.5884848765
 30
0.0
 10
5.3620795689
 20
4.6089654863
 30
0.0
 10
5.3615396412
 20
4.6247039535
 30
0.0
 10
5.3611026881
 20
4.6361619195
 30
0.0
 10
5.3607861119
 20
4.6438590322
 30
0.0
 10
5.360469826
 20
4.6509321812
 30
0.0
 10
5.3601539027
 20
4.6573650777
 30
0.0
 10
5.3598383894
 20
4.6631428328
 30
0.0
 10
5.3595234854
 20
4.6682523141
 30
0.0
 10
5.3592096889
 20
4.6726820654
 30
0.0
 10
5.3588971203
 20
4.6764218249
 30
0.0
 10
5.3586245607
 20
4.6791018133
 30
0.0
 10
5.3584003121
 20
4.6808934187
 30
0.0
 10
5.3582433075
 20
4.6819733038
 30
0.0
 10
5.358087214
 20
4.6828758495
 30
0.0
 10
5.3579320366
 20
4.6836003946
 30
0.0
 10
5.3577956729
 20
4.6840915357
 30
0.0
 10
5.3576813952
 20
4.6843923311
 30
0.0
 10
5.3576236116
 20
4.6845121671
 30
0.0
 10
5.3575938219
 20
4.6845636792
 30
0.0
  0
LINE
  5
288
100
AcDbEntity
  8
0
100
AcDbLine
 62
7
  6
CONTINUOUS
 10
5.4395337304
 20
4.0855549791
 11
5.4391827604
 21
4.0865631478
  0
SPLINE
  5
289
100
AcDbEntity
  8
0
100
AcDbSpline
 62
7
  6
CONTINUOUS
 70
0
 71
3
 72
59
 73
55
 74
0
 42
0.0000001
 43
0.0000001
 44
0.0000000001
 40
0.0
 40
0.0
 40
0.0
 40
0.0
 40
0.0012777555
 40
0.0028322439
 40
0.0046639444
 40
0.0067726694
 40
0.011818724
 40
0.0179640263
 40
0.0251966187
 40
0.0334993622
 40
0.042854507
 40
0.0532430917
 40
0.0770204273
 40
0.104618193
 40
0.1357857204
 40
0.1702435426
 40
0.2076770932
 40
0.2477498449
 40
0.2900967293
 40
0.3343353447
 40
0.4268686024
 40
0.5220023308
 40
0.5694690177
 40
0.6162947758
 40
0.6620549071
 40
0.7063347294
 40
0.7487332758
 40
0.7888653677
 40
0.8263691101
 40
0.8609024471
 40
0.8921555666
 40
0.9064609329
 40
0.9198431149
 40
0.9322718495
 40
0.943717444
 40
0.9541550907
 40
0.9635626483
 40
0.9719181373
 40
0.9792021447
 40
0.9854010947
 40
0.9880898755
 40
0.9905029353
 40
0.9926389905
 40
0.9944973177
 40
0.9960781955
 40
0.9973825933
 40
0.9979318008
 40
0.9984129356
 40
0.9988267931
 40
0.9991746769
 40
0.9994588571
 40
0.9996836153
 40
0.9998577682
 40
1.0
 40
1.0
 40
1.0
 40
1.0
 10
5.4391827604
 20
4.0865631478
 30
0.0
 10
5.4391237523
 20
4.0868001016
 30
0.0
 10
5.4390096894
 20
4.087329473
 30
0.0
 10
5.4388541133
 20
4.088207211
 30
0.0
 10
5.4386979313
 20
4.0892457605
 30
0.0
 10
5.4384756149
 20
4.0909487821
 30
0.0
 10
5.4382048148
 20
4.093476372
 30
0.0
 10
5.4378938816
 20
4.096983697
 30
0.0
 10
5.437581851
 20
4.1011153928
 30
0.0
 10
5.4372688121
 20
4.1058619258
 30
0.0
 10
5.4369551571
 20
4.1112127134
 30
0.0
 10
5.4365164895
 20
4.1195184404
 30
0.0
 10
5.4359778027
 20
4.1313098738
 30
0.0
 10
5.4353542558
 20
4.1470722423
 30
0.0
 10
5.4347290813
 20
4.1648770947
 30
0.0
 10
5.4341027583
 20
4.1845626441
 30
0.0
 10
5.4334755674
 20
4.2059508214
 30
0.0
 10
5.4328478626
 20
4.2288472544
 30
0.0
 10
5.4322196837
 20
4.2530446427
 30
0.0
 10
5.4313690152
 20
4.2872652868
 30
0.0
 10
5.4303209943
 20
4.3315721573
 30
0.0
 10
5.4292862395
 20
4.3764964067
 30
0.0
 10
5.4284471527
 20
4.412687732
 30
0.0
 10
5.4278183564
 20
4.4394456563
 30
0.0
 10
5.4271896972
 20
4.4655943745
 30
0.0
 10
5.4265612391
 20
4.4908967667
 30
0.0
 10
5.4259330971
 20
4.5151232542
 30
0.0
 10
5.4253053229
 20
4.5380543257
 30
0.0
 10
5.4246781963
 20
4.5594817085
 30
0.0
 10
5.4240517346
 20
4.579211477
 30
0.0
 10
5.4235161937
 20
4.5945084189
 30
0.0
 10
5.4230834406
 20
4.6057642068
 30
0.0
 10
5.4227686763
 20
4.6134243366
 30
0.0
 10
5.4224541318
 20
4.6205374546
 30
0.0
 10
5.4221397731
 20
4.6270872617
 30
0.0
 10
5.4218257116
 20
4.6330589889
 30
0.0
 10
5.4215120918
 20
4.6384392974
 30
0.0
 10
5.4211991102
 20
4.6432158302
 30
0.0
 10
5.4208868002
 20
4.6473777196
 30
0.0
 10
5.4206164902
 20
4.6504565886
 30
0.0
 10
5.4203964584
 20
4.6526050711
 30
0.0
 10
5.4202395703
 20
4.6539794121
 30
0.0
 10
5.4200829615
 20
4.6551939275
 30
0.0
 10
5.419926749
 20
4.6562479912
 30
0.0
 10
5.4197710389
 20
4.6571411651
 30
0.0
 10
5.4196354919
 20
4.6577836485
 30
0.0
 10
5.4195244884
 20
4.6582158857
 30
0.0
 10
5.4194462107
 20
4.6584806302
 30
0.0
 10
5.4193681261
 20
4.6587050827
 30
0.0
 10
5.4192902395
 20
4.6588893634
 30
0.0
 10
5.4192125534
 20
4.6590339347
 30
0.0
 10
5.4191345085
 20
4.6591393284
 30
0.0
 10
5.4190544175
 20
4.6592072633
 30
0.0
 10
5.4189936919
 20
4.6592249434
 30
0.0
 10
5.4189665102
 20
4.6592249191
 30
0.0
  0
SPLINE
  5
28A
100
AcDbEntity
  8
0
100
AcDbSpline
 62
7
  6
CONTINUOUS
 70
0
 71
3
 72
43
 73
39
 74
0
 42
0.0000001
 43
0.0000001
 44
0.0000000001
 40
0.0
 40
0.0
 40
0.0
 40
0.0
 40
0.0657498712
 40
0.1389240785
 40
0.2179454507
 40
0.3011238755
 40
0.3866720995
 40
0.4727552733
 40
0.5575258278
 40
0.6391648222
 40
0.6782592531
 40
0.7159205292
 40
0.7519477149
 40
0.7861462869
 40
0.8183333395
 40
0.8483359781
 40
0.8759927944
 40
0.9011566961
 40
0.9236911192
 40
0.9434781915
 40
0.960409632
 40
0.9677773961
 40
0.9743996744
 40
0.980266956
 40
0.9853727864
 40
0.9897121318
 40
0.9915929984
 40
0.9932806922
 40
0.9947748898
 40
0.9960755782
 40
0.9971834355
 40
0.9980998062
 40
0.9988272517
 40
0.9993712151
 40
0.9995784518
 40
0.999746761
 40
0.9998830339
 40
1.0
 40
1.0
 40
1.0
 40
1.0
 10
5.4492777604
 20
4.1534612734
 30
0.0
 10
5.448931511
 20
4.1651108752
 30
0.0
 10
5.4482542141
 20
4.1897271413
 30
0.0
 10
5.4472958638
 20
4.2283480342
 30
0.0
 10
5.4463356584
 20
4.2700591238
 30
0.0
 10
5.4453742577
 20
4.3139641313
 30
0.0
 10
5.4444122778
 20
4.3591211816
 30
0.0
 10
5.4434501743
 20
4.4045605112
 30
0.0
 10
5.4424883579
 20
4.4493067451
 30
0.0
 10
5.4416762809
 20
4.485725099
 30
0.0
 10
5.4410205918
 20
4.5137943064
 30
0.0
 10
5.4405360275
 20
4.5337802015
 30
0.0
 10
5.4400516516
 20
4.552898002
 30
0.0
 10
5.4395674573
 20
4.5710451267
 30
0.0
 10
5.4390835333
 20
4.5881239539
 30
0.0
 10
5.4385999613
 20
4.6040427124
 30
0.0
 10
5.4381168287
 20
4.6187159534
 30
0.0
 10
5.4376343713
 20
4.6320646306
 30
0.0
 10
5.4371527868
 20
4.6440173644
 30
0.0
 10
5.4366724991
 20
4.6545095413
 30
0.0
 10
5.4362570454
 20
4.6623133017
 30
0.0
 10
5.4359188155
 20
4.6677839965
 30
0.0
 10
5.4356773793
 20
4.671295626
 30
0.0
 10
5.4354363973
 20
4.6744052956
 30
0.0
 10
5.4351959747
 20
4.6771089578
 30
0.0
 10
5.4349878292
 20
4.6791059172
 30
0.0
 10
5.4348184158
 20
4.6804974226
 30
0.0
 10
5.4346976415
 20
4.6813867142
 30
0.0
 10
5.4345770817
 20
4.682172138
 30
0.0
 10
5.4344568035
 20
4.6828534873
 30
0.0
 10
5.4343369178
 20
4.6834306188
 30
0.0
 10
5.4342177642
 20
4.6839039127
 30
0.0
 10
5.4340993696
 20
4.6842733282
 30
0.0
 10
5.433994686
 20
4.6845149472
 30
0.0
 10
5.4339064513
 20
4.6846524929
 30
0.0
 10
5.4338458751
 20
4.6847207178
 30
0.0
 10
5.4337836999
 20
4.684764058
 30
0.0
 10
5.4337385438
 20
4.6847747932
 30
0.0
 10
5.4337178106
 20
4.6847748193
 30
0.0
  0
SPLINE
  5
28B
100
AcDbEntity
  8
0
100
AcDbSpline
 62
7
  6
CONTINUOUS
 70
0
 71
3
 72
32
 73
28
 74
0
 42
0.0000001
 43
0.0000001
 44
0.0000000001
 40
0.0
 40
0.0
 40
0.0
 40
0.0
 40
0.1905918892
 40
0.2836941586
 40
0.3741862294
 40
0.4612516461
 40
0.544079923
 40
0.6219142768
 40
0.6940393359
 40
0.7597955251
 40
0.8185783222
 40
0.845183664
 40
0.8698473525
 40
0.8925163543
 40
0.9131383912
 40
0.9316635527
 40
0.9480530776
 40
0.962271953
 40
0.9742862361
 40
0.9840717282
 40
0.9881245126
 40
0.9916157099
 40
0.9945450128
 40
0.9969135878
 40
0.9987263625
 40
0.9994288511
 40
1.0
 40
1.0
 40
1.0
 40
1.0
 10
5.326101461
 20
4.3722749373
 30
0.0
 10
5.3256801825
 20
4.3921280137
 30
0.0
 10
5.3250532583
 20
4.4216791279
 30
0.0
 10
5.3242030658
 20
4.4606558831
 30
0.0
 10
5.3235705399
 20
4.4888485139
 30
0.0
 10
5.3229383053
 20
4.5159704383
 30
0.0
 10
5.3223063826
 20
4.5417732044
 30
0.0
 10
5.3216749999
 20
4.5660188737
 30
0.0
 10
5.321044305
 20
4.5884851999
 30
0.0
 10
5.3204145585
 20
4.6089657444
 30
0.0
 10
5.3198746382
 20
4.6247040913
 30
0.0
 10
5.3194376857
 20
4.6361619471
 30
0.0
 10
5.3191211148
 20
4.6438589704
 30
0.0
 10
5.318804836
 20
4.6509320443
 30
0.0
 10
5.3184889147
 20
4.6573648738
 30
0.0
 10
5.3181733978
 20
4.6631426091
 30
0.0
 10
5.3178584967
 20
4.6682521314
 30
0.0
 10
5.3175447049
 20
4.6726819347
 30
0.0
 10
5.3172321228
 20
4.6764217351
 30
0.0
 10
5.3169595639
 20
4.6791017524
 30
0.0
 10
5.316735317
 20
4.6808934074
 30
0.0
 10
5.3165783127
 20
4.6819733225
 30
0.0
 10
5.3164222216
 20
4.6828758693
 30
0.0
 10
5.3162670415
 20
4.6836003887
 30
0.0
 10
5.31613067
 20
4.6840914983
 30
0.0
 10
5.3160163942
 20
4.6843922803
 30
0.0
 10
5.3159586111
 20
4.6845121171
 30
0.0
 10
5.3159288219
 20
4.6845636315
 30
0.0
  0
LINE
  5
28C
100
AcDbEntity
  8
0
100
AcDbLine
 62
7
  6
CONTINUOUS
 10
5.3145387302
 20
4.0855550897
 11
5.3141730347
 21
4.0866230201
  0
SPLINE
  5
28D
100
AcDbEntity
  8
0
100
AcDbSpline
 62
7
  6
CONTINUOUS
 70
0
 71
3
 72
57
 73
53
 74
0
 42
0.0000001
 43
0.0000001
 44
0.0000000001
 40
0.0
 40
0.0
 40
0.0
 40
0.0
 40
0.0014197435
 40
0.0031146517
 40
0.0073292863
 40
0.0126395601
 40
0.0190378194
 40
0.0265115593
 40
0.0350430736
 40
0.0552051465
 40
0.0793472876
 40
0.1072540856
 40
0.1386746476
 40
0.173329088
 40
0.2109039158
 40
0.2510641507
 40
0.2934467045
 40
0.3376724627
 40
0.4300477254
 40
0.5248761433
 40
0.5721470511
 40
0.6187555752
 40
0.6642819828
 40
0.7083179192
 40
0.7504668943
 40
0.7903504659
 40
0.8276106378
 40
0.8619116049
 40
0.8929475207
 40
0.9071516328
 40
0.9204372335
 40
0.9327755985
 40
0.9441380669
 40
0.9544983519
 40
0.9638352972
 40
0.9721285388
 40
0.979358267
 40
0.9855097795
 40
0.9881778851
 40
0.9905725683
 40
0.9926927431
 40
0.9945375222
 40
0.9961065864
 40
0.9974009742
 40
0.9979459214
 40
0.9984233282
 40
0.9988340166
 40
0.999179315
 40
0.9994615139
 40
0.9996849004
 40
0.9998582426
 40
1.0
 40
1.0
 40
1.0
 40
1.0
 10
5.3141033701
 20
4.0869251558
 30
0.0
 10
5.3140453315
 20
4.0871900212
 30
0.0
 10
5.3139323884
 20
4.0877742332
 30
0.0
 10
5.3137087856
 20
4.0891561625
 30
0.0
 10
5.3134392413
 20
4.0912824803
 30
0.0
 10
5.3131308729
 20
4.0943080044
 30
0.0
 10
5.3128210862
 20
4.0979585602
 30
0.0
 10
5.3125099445
 20
4.1022260295
 30
0.0
 10
5.312069143
 20
4.1091194398
 30
0.0
 10
5.311531707
 20
4.1191961859
 30
0.0
 10
5.3109128484
 20
4.1329735966
 30
0.0
 10
5.3102918334
 20
4.1489029933
 30
0.0
 10
5.3096690024
 20
4.1668413349
 30
0.0
 10
5.309045173
 20
4.1866270922
 30
0.0
 10
5.3084204916
 20
4.2080827255
 30
0.0
 10
5.3077953341
 20
4.2310148794
 30
0.0
 10
5.3071697126
 20
4.2552176923
 30
0.0
 10
5.3063229444
 20
4.2893903866
 30
0.0
 10
5.3052795196
 20
4.3335776314
 30
0.0
 10
5.304248609
 20
4.3783468926
 30
0.0
 10
5.3034127382
 20
4.4143775683
 30
0.0
 10
5.3027865547
 20
4.4409946293
 30
0.0
 10
5.3021604945
 20
4.4669936885
 30
0.0
 10
5.3015346583
 20
4.4921407927
 30
0.0
 10
5.3009091093
 20
4.5162098615
 30
0.0
 10
5.3002839611
 20
4.5389844137
 30
0.0
 10
5.2996594245
 20
4.5602595351
 30
0.0
 10
5.2990355805
 20
4.5798441238
 30
0.0
 10
5.2985022305
 20
4.5950259393
 30
0.0
 10
5.2980712793
 20
4.6061951566
 30
0.0
 10
5.2977578144
 20
4.6137952711
 30
0.0
 10
5.2974445677
 20
4.6208521903
 30
0.0
 10
5.2971315531
 20
4.6273498366
 30
0.0
 10
5.296818793
 20
4.6332735486
 30
0.0
 10
5.2965064554
 20
4.6386102111
 30
0.0
 10
5.2961947857
 20
4.6433478993
 30
0.0
 10
5.2958838225
 20
4.6474757712
 30
0.0
 10
5.2956146095
 20
4.6505292583
 30
0.0
 10
5.2953954854
 20
4.6526598202
 30
0.0
 10
5.295239243
 20
4.6540227718
 30
0.0
 10
5.2950832861
 20
4.655227364
 30
0.0
 10
5.2949277552
 20
4.6562728669
 30
0.0
 10
5.2947726943
 20
4.6571586997
 30
0.0
 10
5.2946377018
 20
4.6577957737
 30
0.0
 10
5.294527155
 20
4.6582242801
 30
0.0
 10
5.2944492009
 20
4.6584867113
 30
0.0
 10
5.2943714373
 20
4.6587091942
 30
0.0
 10
5.2942938678
 20
4.6588918644
 30
0.0
 10
5.2942164915
 20
4.6590351903
 30
0.0
 10
5.294138752
 20
4.6591397152
 30
0.0
 10
5.2940589818
 20
4.6592071064
 30
0.0
 10
5.2939985845
 20
4.6592247239
 30
0.0
 10
5.293971511
 20
4.6592247674
 30
0.0
  0
SPLINE
  5
28E
100
AcDbEntity
  8
0
100
AcDbSpline
 62
7
  6
CONTINUOUS
 70
0
 71
3
 72
32
 73
28
 74
0
 42
0.0000001
 43
0.0000001
 44
0.0000000001
 40
0.0
 40
0.0
 40
0.0
 40
0.0
 40
0.1905917605
 40
0.2836933415
 40
0.3741858496
 40
0.4612525294
 40
0.5440815078
 40
0.6219159964
 40
0.6940409099
 40
0.7597966649
 40
0.8185788816
 40
0.8451838798
 40
0.86984739
 40
0.8925163127
 40
0.9131382288
 40
0.9316633565
 40
0.9480530589
 40
0.9622720844
 40
0.9742863392
 40
0.9840718885
 40
0.9881247067
 40
0.9916159135
 40
0.9945451812
 40
0.9969136575
 40
0.9987263617
 40
0.9994288438
 40
1.0
 40
1.0
 40
1.0
 40
1.0
 10
5.284436461
 20
4.3722749373
 30
0.0
 10
5.2840151828
 20
4.392127999
 30
0.0
 10
5.2833882603
 20
4.421679026
 30
0.0
 10
5.2825380694
 20
4.460655739
 30
0.0
 10
5.2819055404
 20
4.4888484732
 30
0.0
 10
5.2812733005
 20
4.515970646
 30
0.0
 10
5.280641372
 20
4.541773629
 30
0.0
 10
5.2800099866
 20
4.5660193685
 30
0.0
 10
5.279379292
 20
4.5884856468
 30
0.0
 10
5.2787495476
 20
4.608966069
 30
0.0
 10
5.2782096327
 20
4.6247042734
 30
0.0
 10
5.2777726824
 20
4.6361620136
 30
0.0
 10
5.2774561149
 20
4.6438589738
 30
0.0
 10
5.2771398396
 20
4.650932008
 30
0.0
 10
5.2768239184
 20
4.6573648126
 30
0.0
 10
5.2765083988
 20
4.6631425498
 30
0.0
 10
5.2761934977
 20
4.6682521024
 30
0.0
 10
5.2758797068
 20
4.6726819368
 30
0.0
 10
5.2755671188
 20
4.6764217551
 30
0.0
 10
5.2752945609
 20
4.6791017788
 30
0.0
 10
5.2750703151
 20
4.6808934444
 30
0.0
 10
5.2749133116
 20
4.6819733604
 30
0.0
 10
5.2747572227
 20
4.6828758943
 30
0.0
 10
5.2746020406
 20
4.6836003917
 30
0.0
 10
5.2744656672
 20
4.6840914816
 30
0.0
 10
5.274351393
 20
4.6843922564
 30
0.0
 10
5.2742936107
 20
4.6845120935
 30
0.0
 10
5.274263822
 20
4.684563609
 30
0.0
  0
SPLINE
  5
28F
100
AcDbEntity
  8
0
100
AcDbSpline
 62
7
  6
CONTINUOUS
 70
0
 71
3
 72
30
 73
26
 74
0
 42
0.0000001
 43
0.0000001
 44
0.0000000001
 40
0.0
 40
0.0
 40
0.0
 40
0.0
 40
0.0165468323
 40
0.0332183528
 40
0.0502483138
 40
0.0678542256
 40
0.0862046319
 40
0.1054220802
 40
0.1468281014
 40
0.1692155798
 40
0.1928065932
 40
0.217651736
 40
0.243781756
 40
0.2712135777
 40
0.2999572004
 40
0.3300120102
 40
0.3613654896
 40
0.427882569
 40
0.4992621239
 40
0.5751228872
 40
0.6549547942
 40
0.7381285997
 40
0.823911317
 40
0.9115168518
 40
1.0
 40
1.0
 40
1.0
 40
1.0
 10
4.3842777604
 20
4.6847749373
 30
0.0
 10
4.3822948029
 20
4.6847740891
 30
0.0
 10
4.3783100227
 20
4.6845379127
 30
0.0
 10
4.3723696945
 20
4.6834751034
 30
0.0
 10
4.3664675954
 20
4.6817062271
 30
0.0
 10
4.3606055264
 20
4.6792365764
 30
0.0
 10
4.3547883791
 20
4.6760718866
 30
0.0
 10
4.3469150958
 20
4.6708004703
 30
0.0
 10
4.3393947783
 20
4.6642164202
 30
0.0
 10
4.3322514617
 20
4.6565538939
 30
0.0
 10
4.3268608893
 20
4.6499904619
 30
0.0
 10
4.3215888037
 20
4.6427703624
 30
0.0
 10
4.3164454928
 20
4.6349021621
 30
0.0
 10
4.3114440021
 20
4.626396953
 30
0.0
 10
4.3065981379
 20
4.6172664272
 30
0.0
 10
4.301920709
 20
4.6075246803
 30
0.0
 10
4.2958029979
 20
4.5934645421
 30
0.0
 10
4.288698288
 20
4.5744498074
 30
0.0
 10
4.2811954434
 20
4.5499428123
 30
0.0
 10
4.2746549113
 20
4.5235156066
 30
0.0
 10
4.2691619865
 20
4.495411031
 30
0.0
 10
4.2647962032
 20
4.4659077399
 30
0.0
 10
4.2616284501
 20
4.4353156462
 30
0.0
 10
4.2597077965
 20
4.4039835242
 30
0.0
 10
4.2592778384
 20
4.382878679
 30
0.0
 10
4.2592777604
 20
4.3722749373
 30
0.0
  0
SPLINE
  5
290
100
AcDbEntity
  8
0
100
AcDbSpline
 62
7
  6
CONTINUOUS
 70
0
 71
3
 72
30
 73
26
 74
0
 42
0.0000001
 43
0.0000001
 44
0.0000000001
 40
0.0
 40
0.0
 40
0.0
 40
0.0
 40
0.2024527405
 40
0.2986656215
 40
0.3907090425
 40
0.4780361412
 40
0.5601121448
 40
0.6364162714
 40
0.7064825843
 40
0.7698724212
 40
0.8262012989
 40
0.8751143663
 40
0.8966967897
 40
0.9163189923
 40
0.9339484936
 40
0.9495594797
 40
0.963132203
 40
0.9746479425
 40
0.9840898954
 40
0.9880306216
 40
0.9914515493
 40
0.9943540059
 40
0.9967408565
 40
0.9986181862
 40
1.0
 40
1.0
 40
1.0
 40
1.0
 10
5.4492777604
 20
4.4569121437
 30
0.0
 10
5.4489388033
 20
4.472288738
 30
0.0
 10
5.448428336
 20
4.4949726243
 30
0.0
 10
5.4477228302
 20
4.5246463991
 30
0.0
 10
5.4472029334
 20
4.5455760121
 30
0.0
 10
5.4466832637
 20
4.5654313059
 30
0.0
 10
5.4461639565
 20
4.5840904635
 30
0.0
 10
5.4456449958
 20
4.6014377892
 30
0.0
 10
5.4451266878
 20
4.6173648632
 30
0.0
 10
5.4446091433
 20
4.631773573
 30
0.0
 10
5.444092771
 20
4.6445741602
 30
0.0
 10
5.4436473983
 20
4.6541988027
 30
0.0
 10
5.4432856883
 20
4.6610355046
 30
0.0
 10
5.443026138
 20
4.665497614
 30
0.0
 10
5.4427669438
 20
4.6695052548
 30
0.0
 10
5.4425081896
 20
4.6730522743
 30
0.0
 10
5.4422502453
 20
4.6761335226
 30
0.0
 10
5.4419932779
 20
4.6787442717
 30
0.0
 10
5.4417694404
 20
4.6806227872
 30
0.0
 10
5.4415856082
 20
4.6818861185
 30
0.0
 10
5.4414565058
 20
4.6826552209
 30
0.0
 10
5.441327905
 20
4.6833043959
 30
0.0
 10
5.4412001248
 20
4.6838340128
 30
0.0
 10
5.4410734307
 20
4.6842438549
 30
0.0
 10
5.4409763088
 20
4.6844730727
 30
0.0
 10
5.4409238231
 20
4.6845639863
 30
0.0
  0
SPLINE
  5
291
100
AcDbEntity
  8
0
100
AcDbSpline
 62
7
  6
CONTINUOUS
 70
0
 71
3
 72
32
 73
28
 74
0
 42
0.0000001
 43
0.0000001
 44
0.0000000001
 40
0.0
 40
0.0
 40
0.0
 40
0.0
 40
0.1905918618
 40
0.283693883
 40
0.3741860286
 40
0.461251746
 40
0.5440802148
 40
0.6219146353
 40
0.6940396883
 40
0.7597957541
 40
0.818578424
 40
0.8451836381
 40
0.8698472659
 40
0.8925162442
 40
0.9131382161
 40
0.9316633521
 40
0.9480529736
 40
0.9622719293
 40
0.974286193
 40
0.9840717419
 40
0.9881245642
 40
0.9916157863
 40
0.9945450867
 40
0.9969136182
 40
0.9987263592
 40
0.999428846
 40
1.0
 40
1.0
 40
1.0
 40
1.0
 10
5.4024690597
 20
4.3722749373
 30
0.0
 10
5.4028903382
 20
4.3524218645
 30
0.0
 10
5.4035172618
 20
4.3228707802
 30
0.0
 10
5.4043674535
 20
4.2838940476
 30
0.0
 10
5.4049999799
 20
4.2557014047
 30
0.0
 10
5.4056322157
 20
4.2285794223
 30
0.0
 10
5.4062641398
 20
4.202776599
 30
0.0
 10
5.4068955235
 20
4.1785309045
 30
0.0
 10
5.4075262179
 20
4.1560645858
 30
0.0
 10
5.4081559647
 20
4.1355840689
 30
0.0
 10
5.4086958826
 20
4.119845762
 30
0.0
 10
5.4091328349
 20
4.1083879395
 30
0.0
 10
5.4094494044
 20
4.1006909387
 30
0.0
 10
5.4097656813
 20
4.0936178805
 30
0.0
 10
5.4100816025
 20
4.0871850631
 30
0.0
 10
5.4103971206
 20
4.0814073275
 30
0.0
 10
5.4107120212
 20
4.0762977896
 30
0.0
 10
5.4110258119
 20
4.07186797
 30
0.0
 10
5.4113383978
 20
4.0681281577
 30
0.0
 10
5.4116109562
 20
4.0654481327
 30
0.0
 10
5.4118352027
 20
4.0636564651
 30
0.0
 10
5.4119922068
 20
4.0625765437
 30
0.0
 10
5.412148297
 20
4.061673999
 30
0.0
 10
5.4123034785
 20
4.0609494884
 30
0.0
 10
5.4124398516
 20
4.0604583878
 30
0.0
 10
5.4125541268
 20
4.060157609
 30
0.0
 10
5.4126119097
 20
4.0600377718
 30
0.0
 10
5.4126416987
 20
4.0599862567
 30
0.0
  0
SPLINE
  5
292
100
AcDbEntity
  8
0
100
AcDbSpline
 62
7
  6
CONTINUOUS
 70
0
 71
3
 72
60
 73
56
 74
0
 42
0.0000001
 43
0.0000001
 44
0.0000000001
 40
0.0
 40
0.0
 40
0.0
 40
0.0
 40
0.0001423696
 40
0.0003166927
 40
0.000541592
 40
0.0008258909
 40
0.0011739001
 40
0.001587925
 40
0.0020693064
 40
0.002618877
 40
0.0039245007
 40
0.0055074909
 40
0.0073685179
 40
0.0095071299
 40
0.0119225192
 40
0.0146136807
 40
0.0208186795
 40
0.0281117069
 40
0.0364762605
 40
0.0458928307
 40
0.0563416609
 40
0.0678003091
 40
0.080241296
 40
0.0936365174
 40
0.1079573356
 40
0.139240928
 40
0.1738084452
 40
0.2113459556
 40
0.25151455
 40
0.29394805
 40
0.3382632475
 40
0.3840565929
 40
0.4309134979
 40
0.4784081506
 40
0.5735854453
 40
0.620404456
 40
0.6661413452
 40
0.7103817738
 40
0.7527238775
 40
0.7927834035
 40
0.8301978821
 40
0.8646262899
 40
0.8957591153
 40
0.9233116165
 40
0.9470375647
 40
0.9573961282
 40
0.9667215984
 40
0.9749924426
 40
0.9821891664
 40
0.9882983087
 40
0.9933082037
 40
0.9953977371
 40
0.9972091729
 40
0.9987428705
 40
1.0
 40
1.0
 40
1.0
 40
1.0
 10
5.4345990096
 20
4.0853252229
 30
0.0
 10
5.4345717993
 20
4.0853252673
 30
0.0
 10
5.4345110582
 20
4.0853430752
 30
0.0
 10
5.4344309291
 20
4.0854110965
 30
0.0
 10
5.4343528321
 20
4.085516569
 30
0.0
 10
5.4342750951
 20
4.0856612112
 30
0.0
 10
5.4341971589
 20
4.0858455752
 30
0.0
 10
5.4341190258
 20
4.0860701413
 30
0.0
 10
5.4340407
 20
4.0863350509
 30
0.0
 10
5.4339296176
 20
4.0867676691
 30
0.0
 10
5.4337939759
 20
4.087410913
 30
0.0
 10
5.4336381967
 20
4.0883053241
 30
0.0
 10
5.4334819216
 20
4.0893608926
 30
0.0
 10
5.4333252133
 20
4.0905769607
 30
0.0
 10
5.4331682199
 20
4.0919528046
 30
0.0
 10
5.432948039
 20
4.0941035215
 30
0.0
 10
5.4326775332
 20
4.0971859827
 30
0.0
 10
5.432365124
 20
4.1013528423
 30
0.0
 10
5.4320519406
 20
4.1061349552
 30
0.0
 10
5.4317380943
 20
4.1115213067
 30
0.0
 10
5.4314238564
 20
4.1174998922
 30
0.0
 10
5.4311093542
 20
4.1240572268
 30
0.0
 10
5.4307945927
 20
4.1311782706
 30
0.0
 10
5.4304796215
 20
4.1388468311
 30
0.0
 10
5.4300466719
 20
4.1501148377
 30
0.0
 10
5.4295107546
 20
4.1654283743
 30
0.0
 10
5.4288839831
 20
4.1851786149
 30
0.0
 10
5.428256431
 20
4.206627761
 30
0.0
 10
5.4276283342
 20
4.2295808729
 30
0.0
 10
5.4269997867
 20
4.2538298145
 30
0.0
 10
5.4263709817
 20
4.2791541238
 30
0.0
 10
5.4257419398
 20
4.3053241015
 30
0.0
 10
5.4251127822
 20
4.3321019207
 30
0.0
 10
5.4242732197
 20
4.3683159109
 30
0.0
 10
5.4234393288
 20
4.4045227883
 30
0.0
 10
5.4225958632
 20
4.4403933996
 30
0.0
 10
5.4219668319
 20
4.4665310454
 30
0.0
 10
5.4213380249
 20
4.4918127931
 30
0.0
 10
5.4207095169
 20
4.5160091141
 30
0.0
 10
5.4200814068
 20
4.5389003744
 30
0.0
 10
5.4194539236
 20
4.5602785445
 30
0.0
 10
5.4188271679
 20
4.5799498306
 30
0.0
 10
5.4182017465
 20
4.5977352565
 30
0.0
 10
5.4175777742
 20
4.6134738117
 30
0.0
 10
5.4170388509
 20
4.6252419946
 30
0.0
 10
5.4165997491
 20
4.6335271394
 30
0.0
 10
5.4162859716
 20
4.6388608355
 30
0.0
 10
5.4159728328
 20
4.6435890995
 30
0.0
 10
5.4156605749
 20
4.6477012101
 30
0.0
 10
5.415349484
 20
4.6511880595
 30
0.0
 10
5.415078602
 20
4.6536982728
 30
0.0
 10
5.414856062
 20
4.6553868376
 30
0.0
 10
5.4146998135
 20
4.6564138252
 30
0.0
 10
5.4145441783
 20
4.657279657
 30
0.0
 10
5.414429937
 20
4.657800949
 30
0.0
 10
5.4143707948
 20
4.6580338254
 30
0.0
  0
LINE
  5
293
100
AcDbEntity
  8
0
100
AcDbLine
 62
7
  6
CONTINUOUS
 10
5.4143707948
 20
4.6580338254
 11
5.4140317923
 21
4.658995109
  0
SPLINE
  5
294
100
AcDbEntity
  8
0
100
AcDbSpline
 62
7
  6
CONTINUOUS
 70
0
 71
3
 72
32
 73
28
 74
0
 42
0.0000001
 43
0.0000001
 44
0.0000000001
 40
0.0
 40
0.0
 40
0.0
 40
0.0
 40
0.1905922204
 40
0.2836944533
 40
0.3741894555
 40
0.4612559175
 40
0.5440831189
 40
0.6219157752
 40
0.6940415441
 40
0.7597965942
 40
0.8185805697
 40
0.8451847684
 40
0.8698497587
 40
0.8925198798
 40
0.9131403244
 40
0.931665531
 40
0.9480562413
 40
0.9622738088
 40
0.9742864946
 40
0.9840733103
 40
0.9881265563
 40
0.9916173279
 40
0.9945451857
 40
0.9969125626
 40
0.9987254416
 40
0.9994283392
 40
1.0
 40
1.0
 40
1.0
 40
1.0
 10
5.409431461
 20
4.3722749373
 30
0.0
 10
5.4090101817
 20
4.3921280491
 30
0.0
 10
5.4083832562
 20
4.4216791952
 30
0.0
 10
5.4075330577
 20
4.4606562881
 30
0.0
 10
5.4069005213
 20
4.4888493305
 30
0.0
 10
5.4062682777
 20
4.5159715583
 30
0.0
 10
5.4056363655
 20
4.5417741456
 30
0.0
 10
5.4050049686
 20
4.5660196005
 30
0.0
 10
5.4043743075
 20
4.588485707
 30
0.0
 10
5.4037445203
 20
4.6089663291
 30
0.0
 10
5.4032046462
 20
4.6247045632
 30
0.0
 10
5.4027676427
 20
4.6361625571
 30
0.0
 10
5.4024510822
 20
4.6438597143
 30
0.0
 10
5.4021348247
 20
4.650932876
 30
0.0
 10
5.4018188588
 20
4.657365659
 30
0.0
 10
5.4015033375
 20
4.6631433564
 30
0.0
 10
5.4011884797
 20
4.6682528734
 30
0.0
 10
5.4008746766
 20
4.672682497
 30
0.0
 10
5.4005620312
 20
4.6764221264
 30
0.0
 10
5.4002895327
 20
4.6791021691
 30
0.0
 10
5.4000653097
 20
4.68089397
 30
0.0
 10
5.399908326
 20
4.6819737403
 30
0.0
 10
5.3997522151
 20
4.6828759598
 30
0.0
 10
5.3995969909
 20
4.6836001999
 30
0.0
 10
5.3994606303
 20
4.6840912341
 30
0.0
 10
5.3993463812
 20
4.6843921396
 30
0.0
 10
5.399288608
 20
4.6845120861
 30
0.0
 10
5.3992588236
 20
4.6845636648
 30
0.0
  0
SPLINE
  5
295
100
AcDbEntity
  8
0
100
AcDbSpline
 62
7
  6
CONTINUOUS
 70
0
 71
3
 72
32
 73
28
 74
0
 42
0.0000001
 43
0.0000001
 44
0.0000000001
 40
0.0
 40
0.0
 40
0.0
 40
0.0
 40
0.1905917533
 40
0.2836945103
 40
0.3741865716
 40
0.4612515559
 40
0.54407937
 40
0.6219134019
 40
0.6940384158
 40
0.7597948735
 40
0.8185779295
 40
0.8451835888
 40
0.8698474643
 40
0.892516574
 40
0.9131388208
 40
0.9316640982
 40
0.9480533913
 40
0.9622720521
 40
0.9742863839
 40
0.9840717276
 40
0.9881244065
 40
0.9916155287
 40
0.9945448249
 40
0.9969134981
 40
0.9987263672
 40
0.9994288629
 40
1.0
 40
1.0
 40
1.0
 40
1.0
 10
5.3608040597
 20
4.3722749373
 30
0.0
 10
5.361225338
 20
4.3524218728
 30
0.0
 10
5.3618522629
 20
4.3228707189
 30
0.0
 10
5.3627024565
 20
4.2838939239
 30
0.0
 10
5.3633349823
 20
4.2557012853
 30
0.0
 10
5.3639672153
 20
4.2285794522
 30
0.0
 10
5.3645991346
 20
4.2027768102
 30
0.0
 10
5.3652305143
 20
4.1785312247
 30
0.0
 10
5.3658612099
 20
4.1560649065
 30
0.0
 10
5.3664909549
 20
4.1355843094
 30
0.0
 10
5.3670308807
 20
4.119845873
 30
0.0
 10
5.3674678337
 20
4.1083879363
 30
0.0
 10
5.3677844085
 20
4.1006908486
 30
0.0
 10
5.3681006925
 20
4.0936177215
 30
0.0
 10
5.368416615
 20
4.0871848461
 30
0.0
 10
5.3687321291
 20
4.0814071002
 30
0.0
 10
5.369047032
 20
4.076297612
 30
0.0
 10
5.3693608268
 20
4.07186785
 30
0.0
 10
5.3696733992
 20
4.0681280813
 30
0.0
 10
5.3699459587
 20
4.0654480852
 30
0.0
 10
5.3701702069
 20
4.0636564647
 30
0.0
 10
5.3703272115
 20
4.0625765692
 30
0.0
 10
5.3704833045
 20
4.061674021
 30
0.0
 10
5.3706384823
 20
4.0609494814
 30
0.0
 10
5.3707748486
 20
4.0604583485
 30
0.0
 10
5.3708891257
 20
4.0601575569
 30
0.0
 10
5.3709469092
 20
4.0600377207
 30
0.0
 10
5.3709766988
 20
4.059986208
 30
0.0
  0
LINE
  5
296
100
AcDbEntity
  8
0
100
AcDbLine
 62
7
  6
CONTINUOUS
 10
5.3978687305
 20
4.0855548907
 11
5.3975789799
 21
4.0863294913
  0
SPLINE
  5
297
100
AcDbEntity
  8
0
100
AcDbSpline
 62
7
  6
CONTINUOUS
 70
0
 71
3
 72
61
 73
57
 74
0
 42
0.0000001
 43
0.0000001
 44
0.0000000001
 40
0.0
 40
0.0
 40
0.0
 40
0.0
 40
0.0011745441
 40
0.0026267258
 40
0.004357499
 40
0.0063669364
 40
0.0112199355
 40
0.0171802431
 40
0.0242364864
 40
0.0323718851
 40
0.0415689855
 40
0.0518091449
 40
0.063068061
 40
0.0753193646
 40
0.1026903857
 40
0.1336722888
 40
0.167985567
 40
0.20531508
 40
0.2453232988
 40
0.2876434005
 40
0.3318910784
 40
0.3776620159
 40
0.4245392068
 40
0.5198959939
 40
0.5675058524
 40
0.6144907774
 40
0.6604219071
 40
0.704880691
 40
0.7474618271
 40
0.7877764468
 40
0.8254585057
 40
0.8601624411
 40
0.8915750066
 40
0.9059548386
 40
0.9194073729
 40
0.9319022934
 40
0.9434096101
 40
0.9539037346
 40
0.9633625541
 40
0.9717641739
 40
0.9790885197
 40
0.9853216881
 40
0.9880253473
 40
0.9904518323
 40
0.992599881
 40
0.9944685922
 40
0.9960581543
 40
0.9973695942
 40
0.9979217251
 40
0.9984053946
 40
0.998821405
 40
0.9991710671
 40
0.9994566584
 40
0.9996824695
 40
0.9998573346
 40
1.0
 40
1.0
 40
1.0
 40
1.0
 10
5.3975789799
 20
4.0863294913
 30
0.0
 10
5.3975191505
 20
4.086545935
 30
0.0
 10
5.3974041965
 20
4.0870351499
 30
0.0
 10
5.3972484721
 20
4.0878536871
 30
0.0
 10
5.3970920356
 20
4.0888341398
 30
0.0
 10
5.3968684975
 20
4.0904618785
 30
0.0
 10
5.3965968458
 20
4.0928986928
 30
0.0
 10
5.3962853006
 20
4.0963010328
 30
0.0
 10
5.3959725654
 20
4.1003330604
 30
0.0
 10
5.3956587174
 20
4.10498541
 30
0.0
 10
5.3953442401
 20
4.110247666
 30
0.0
 10
5.3950293712
 20
4.1161080269
 30
0.0
 10
5.3947141389
 20
4.1225530606
 30
0.0
 10
5.3942771477
 20
4.1322712192
 30
0.0
 10
5.3937382852
 20
4.1457593252
 30
0.0
 10
5.3931112341
 20
4.1634650672
 30
0.0
 10
5.3924831622
 20
4.1830758054
 30
0.0
 10
5.3918541356
 20
4.2044130524
 30
0.0
 10
5.3912245905
 20
4.2272817207
 30
0.0
 10
5.390594564
 20
4.2514735261
 30
0.0
 10
5.3899642633
 20
4.2767674505
 30
0.0
 10
5.3893337251
 20
4.3029328964
 30
0.0
 10
5.3884880454
 20
4.3388675129
 30
0.0
 10
5.3876521781
 20
4.3751540351
 30
0.0
 10
5.3868107384
 20
4.411461031
 30
0.0
 10
5.3861800566
 20
4.4383207068
 30
0.0
 10
5.3855495021
 20
4.4645777646
 30
0.0
 10
5.384919155
 20
4.4899926202
 30
0.0
 10
5.3842891167
 20
4.5143333242
 30
0.0
 10
5.3836594537
 20
4.5373779449
 30
0.0
 10
5.3830304339
 20
4.5589159525
 30
0.0
 10
5.382402083
 20
4.5787512196
 30
0.0
 10
5.3818649438
 20
4.5941319402
 30
0.0
 10
5.3814308998
 20
4.6054506401
 30
0.0
 10
5.3811151794
 20
4.6131543374
 30
0.0
 10
5.3807996812
 20
4.6203083566
 30
0.0
 10
5.3804843801
 20
4.626896176
 30
0.0
 10
5.3801693641
 20
4.6329028186
 30
0.0
 10
5.3798547872
 20
4.6383148129
 30
0.0
 10
5.3795408677
 20
4.6431196933
 30
0.0
 10
5.3792276198
 20
4.6473064137
 30
0.0
 10
5.3789564859
 20
4.6504036816
 30
0.0
 10
5.3787357875
 20
4.6525650259
 30
0.0
 10
5.378578421
 20
4.6539476528
 30
0.0
 10
5.3784213437
 20
4.6551695294
 30
0.0
 10
5.3782646629
 20
4.6562299808
 30
0.0
 10
5.3781084793
 20
4.657128527
 30
0.0
 10
5.3779725186
 20
4.6577748498
 30
0.0
 10
5.3778611757
 20
4.6582096612
 30
0.0
 10
5.3777826611
 20
4.6584759743
 30
0.0
 10
5.377704341
 20
4.6587017596
 30
0.0
 10
5.3776262204
 20
4.6588871417
 30
0.0
 10
5.377548305
 20
4.6590325891
 30
0.0
 10
5.3774700335
 20
4.6591386393
 30
0.0
 10
5.3773897271
 20
4.6592070391
 30
0.0
 10
5.3773287866
 20
4.6592249206
 30
0.0
 10
5.3773015105
 20
4.6592249316
 30
0.0
  0
SPLINE
  5
298
100
AcDbEntity
  8
0
100
AcDbSpline
 62
7
  6
CONTINUOUS
 70
0
 71
3
 72
39
 73
35
 74
0
 42
0.0000001
 43
0.0000001
 44
0.0000000001
 40
0.0
 40
0.0
 40
0.0
 40
0.0
 40
0.0002707318
 40
0.0006149086
 40
0.0010717995
 40
0.0016584525
 40
0.0023828049
 40
0.0032490116
 40
0.0042594749
 40
0.0054156731
 40
0.0081678709
 40
0.0115083802
 40
0.0154373516
 40
0.0199538729
 40
0.0250564618
 40
0.0307433035
 40
0.0438597977
 40
0.0592724119
 40
0.0769437371
 40
0.0968354545
 40
0.1189008638
 40
0.1430842049
 40
0.1693291159
 40
0.197575343
 40
0.2277519502
 40
0.2936038662
 40
0.366254257
 40
0.445003377
 40
0.5290941129
 40
0.6177216665
 40
0.7100193987
 40
0.8051105326
 40
0.9021120387
 40
1.0
 40
1.0
 40
1.0
 40
1.0
 10
5.4198477109
 20
4.0597755771
 30
0.0
 10
5.4198194734
 20
4.0597755857
 30
0.0
 10
5.4197553197
 20
4.0597970737
 30
0.0
 10
5.4196736169
 20
4.0598758813
 30
0.0
 10
5.4195935795
 20
4.0599971397
 30
0.0
 10
5.4195137978
 20
4.0601638132
 30
0.0
 10
5.4194336452
 20
4.0603764532
 30
0.0
 10
5.4193532482
 20
4.0606356803
 30
0.0
 10
5.4192726183
 20
4.0609416325
 30
0.0
 10
5.4191581769
 20
4.0614418158
 30
0.0
 10
5.4190185361
 20
4.0621851234
 30
0.0
 10
5.4188581367
 20
4.0632181001
 30
0.0
 10
5.4186971973
 20
4.0644368904
 30
0.0
 10
5.4185358074
 20
4.0658407601
 30
0.0
 10
5.4183741229
 20
4.067429004
 30
0.0
 10
5.4181473396
 20
4.0699120996
 30
0.0
 10
5.4178688582
 20
4.0734700889
 30
0.0
 10
5.417547113
 20
4.078278117
 30
0.0
 10
5.4172245373
 20
4.0837941248
 30
0.0
 10
5.4169013603
 20
4.0900050216
 30
0.0
 10
5.4165777918
 20
4.0968959259
 30
0.0
 10
5.4162538609
 20
4.1044501139
 30
0.0
 10
5.415929693
 20
4.1126494956
 30
0.0
 10
5.4156053724
 20
4.121474422
 30
0.0
 10
5.4151596317
 20
4.1344286634
 30
0.0
 10
5.414607948
 20
4.1520133184
 30
0.0
 10
5.4139625226
 20
4.1746635419
 30
0.0
 10
5.4133163412
 20
4.1992167677
 30
0.0
 10
5.4126695284
 20
4.2254369352
 30
0.0
 10
5.4120223549
 20
4.2530706236
 30
0.0
 10
5.4113748584
 20
4.2818519495
 30
0.0
 10
5.4107271211
 20
4.3115068893
 30
0.0
 10
5.4100792977
 20
4.3417450255
 30
0.0
 10
5.4096480611
 20
4.3620674878
 30
0.0
 10
5.409431461
 20
4.3722749373
 30
0.0
  0
SPLINE
  5
299
100
AcDbEntity
  8
0
100
AcDbSpline
 62
7
  6
CONTINUOUS
 70
0
 71
3
 72
61
 73
57
 74
0
 42
0.0000001
 43
0.0000001
 44
0.0000000001
 40
0.0
 40
0.0
 40
0.0
 40
0.0
 40
0.0001425052
 40
0.0003170021
 40
0.0005421797
 40
0.0008269033
 40
0.0011755142
 40
0.0015903436
 40
0.002072756
 40
0.0026236072
 40
0.0039325948
 40
0.0055195811
 40
0.0073848813
 40
0.0095281695
 40
0.0119487837
 40
0.0146458647
 40
0.0208653579
 40
0.0281753992
 40
0.0365584599
 40
0.0459959574
 40
0.0564687105
 40
0.0679526669
 40
0.0804205469
 40
0.0938449556
 40
0.1081968231
 40
0.1395456808
 40
0.1741838836
 40
0.2117947374
 40
0.2520386912
 40
0.294547524
 40
0.3389364669
 40
0.3848003973
 40
0.431722907
 40
0.479276637
 40
0.5745459478
 40
0.6213949416
 40
0.6671492525
 40
0.7113934763
 40
0.7537244949
 40
0.7937575124
 40
0.8311290089
 40
0.8654978984
 40
0.8965542178
 40
0.9240130917
 40
0.936316075
 40
0.9476292236
 40
0.9579264213
 40
0.9671864004
 40
0.9753884646
 40
0.9825127684
 40
0.9885452383
 40
0.9934752868
 40
0.9955240795
 40
0.9972941906
 40
0.9987856762
 40
1.0
 40
1.0
 40
1.0
 40
1.0
 10
5.3096040098
 20
4.0853254957
 30
0.0
 10
5.3095767688
 20
4.0853255235
 30
0.0
 10
5.3095159451
 20
4.0853433233
 30
0.0
 10
5.3094357093
 20
4.0854114301
 30
0.0
 10
5.309357515
 20
4.0855170692
 30
0.0
 10
5.3092796817
 20
4.0856619767
 30
0.0
 10
5.3092016489
 20
4.0858467183
 30
0.0
 10
5.3091234187
 20
4.0860717883
 30
0.0
 10
5.3090449955
 20
4.086337341
 30
0.0
 10
5.3089337648
 20
4.0867711222
 30
0.0
 10
5.3087979791
 20
4.087416142
 30
0.0
 10
5.3086420156
 20
4.0883129389
 30
0.0
 10
5.3084855338
 20
4.0893711674
 30
0.0
 10
5.308328624
 20
4.090590158
 30
0.0
 10
5.3081714299
 20
4.0919692672
 30
0.0
 10
5.3079509572
 20
4.0941252619
 30
0.0
 10
5.3076801376
 20
4.0972154223
 30
0.0
 10
5.3073673553
 20
4.1013925758
 30
0.0
 10
5.3070537553
 20
4.1061863168
 30
0.0
 10
5.3067395078
 20
4.1115857241
 30
0.0
 10
5.3064249071
 20
4.1175787711
 30
0.0
 10
5.306110002
 20
4.1241518068
 30
0.0
 10
5.3057948369
 20
4.1312896566
 30
0.0
 10
5.3054794778
 20
4.1389762172
 30
0.0
 10
5.3050460093
 20
4.1502701902
 30
0.0
 10
5.3045094062
 20
4.165618333
 30
0.0
 10
5.3038818772
 20
4.1854120432
 30
0.0
 10
5.3032535307
 20
4.2069068846
 30
0.0
 10
5.3026246601
 20
4.2299068436
 30
0.0
 10
5.3019953293
 20
4.2542029354
 30
0.0
 10
5.3013657427
 20
4.27957367
 30
0.0
 10
5.3007359212
 20
4.3057883609
 30
0.0
 10
5.3001059821
 20
4.3326081949
 30
0.0
 10
5.2992654572
 20
4.3688699483
 30
0.0
 10
5.2984305492
 20
4.4051177751
 30
0.0
 10
5.297585952
 20
4.4410213093
 30
0.0
 10
5.2969561451
 20
4.4671733103
 30
0.0
 10
5.2963265705
 20
4.4924614103
 30
0.0
 10
5.295697291
 20
4.5166554919
 30
0.0
 10
5.2950684287
 20
4.5395353387
 30
0.0
 10
5.2944401764
 20
4.5608925638
 30
0.0
 10
5.2938127237
 20
4.5805330469
 30
0.0
 10
5.2931864563
 20
4.5982776269
 30
0.0
 10
5.2926481803
 20
4.6118045019
 30
0.0
 10
5.2922118848
 20
4.6215581945
 30
0.0
 10
5.2918970076
 20
4.6280333876
 30
0.0
 10
5.2915824192
 20
4.6339261509
 30
0.0
 10
5.2912683007
 20
4.6392233032
 30
0.0
 10
5.290954831
 20
4.6439127808
 30
0.0
 10
5.2906423068
 20
4.6479838312
 30
0.0
 10
5.2903309425
 20
4.6514273351
 30
0.0
 10
5.2900596894
 20
4.6539000411
 30
0.0
 10
5.2898366572
 20
4.6555576216
 30
0.0
 10
5.2896803244
 20
4.6565607534
 30
0.0
 10
5.289524622
 20
4.657402186
 30
0.0
 10
5.2894100042
 20
4.6579068726
 30
0.0
 10
5.2893505239
 20
4.6581312511
 30
0.0
  0
LINE
  5
29A
100
AcDbEntity
  8
0
100
AcDbLine
 62
7
  6
CONTINUOUS
 10
5.2893505239
 20
4.6581312511
 11
5.2890367915
 21
4.658994782
  0
SPLINE
  5
29B
100
AcDbEntity
  8
0
100
AcDbSpline
 62
7
  6
CONTINUOUS
 70
0
 71
3
 72
39
 73
35
 74
0
 42
0.0000001
 43
0.0000001
 44
0.0000000001
 40
0.0
 40
0.0
 40
0.0
 40
0.0
 40
0.0002707288
 40
0.0006148965
 40
0.0010717812
 40
0.0016584361
 40
0.0023828022
 40
0.0032490379
 40
0.0042595483
 40
0.0054158037
 40
0.0081680877
 40
0.0115086517
 40
0.0154376564
 40
0.0199541996
 40
0.0250568095
 40
0.0307436815
 40
0.0438602046
 40
0.0592727363
 40
0.0769439936
 40
0.0968357476
 40
0.118901159
 40
0.1430845638
 40
0.1693297464
 40
0.1975764097
 40
0.2277534799
 40
0.2936061272
 40
0.3662569173
 40
0.4450060266
 40
0.5290960753
 40
0.6177220194
 40
0.7100188098
 40
0.8051103067
 40
0.9021122005
 40
1.0
 40
1.0
 40
1.0
 40
1.0
 10
5.3781827109
 20
4.0597755844
 30
0.0
 10
5.3781544738
 20
4.0597755904
 30
0.0
 10
5.378090319
 20
4.0597970724
 30
0.0
 10
5.3780086141
 20
4.059875876
 30
0.0
 10
5.3779285759
 20
4.0599971321
 30
0.0
 10
5.3778487934
 20
4.0601638065
 30
0.0
 10
5.3777686401
 20
4.0603764512
 30
0.0
 10
5.3776882425
 20
4.060635688
 30
0.0
 10
5.3776076123
 20
4.0609416544
 30
0.0
 10
5.3774931715
 20
4.0614418582
 30
0.0
 10
5.3773535293
 20
4.0621851866
 30
0.0
 10
5.3771931285
 20
4.0632181814
 30
0.0
 10
5.3770321878
 20
4.0644369831
 30
0.0
 10
5.3768707972
 20
4.0658408608
 30
0.0
 10
5.3767091122
 20
4.0674291123
 30
0.0
 10
5.3764823296
 20
4.0699122164
 30
0.0
 10
5.3762038503
 20
4.0734702034
 30
0.0
 10
5.3758821055
 20
4.0782782188
 30
0.0
 10
5.3755595312
 20
4.0837942148
 30
0.0
 10
5.3752363572
 20
4.0900051087
 30
0.0
 10
5.3749127877
 20
4.0968960237
 30
0.0
 10
5.3745888548
 20
4.1044502468
 30
0.0
 10
5.3742646849
 20
4.112649709
 30
0.0
 10
5.3739403612
 20
4.1214747576
 30
0.0
 10
5.3734946158
 20
4.134429169
 30
0.0
 10
5.3729429271
 20
4.1520139902
 30
0.0
 10
5.3722975015
 20
4.1746643306
 30
0.0
 10
5.3716513219
 20
4.1992175255
 30
0.0
 10
5.3710045163
 20
4.2254374524
 30
0.0
 10
5.3703573502
 20
4.2530708032
 30
0.0
 10
5.3697098599
 20
4.2818519011
 30
0.0
 10
5.3690621226
 20
4.311506821
 30
0.0
 10
5.3684142978
 20
4.3417450187
 30
0.0
 10
5.3679830608
 20
4.3620675046
 30
0.0
 10
5.367766461
 20
4.3722749373
 30
0.0
  0
SPLINE
  5
29C
100
AcDbEntity
  8
0
100
AcDbSpline
 62
7
  6
CONTINUOUS
 70
0
 71
3
 72
39
 73
35
 74
0
 42
0.0000001
 43
0.0000001
 44
0.0000000001
 40
0.0
 40
0.0
 40
0.0
 40
0.0
 40
0.0002707102
 40
0.0006148402
 40
0.0010716893
 40
0.0016583253
 40
0.0023826997
 40
0.00324898
 40
0.0042595794
 40
0.0054159219
 40
0.0081682553
 40
0.0115087463
 40
0.0154376113
 40
0.0199540047
 40
0.0250565115
 40
0.0307433843
 40
0.0438598791
 40
0.0592720306
 40
0.0769430875
 40
0.096835163
 40
0.1189007538
 40
0.1430843175
 40
0.1693299051
 40
0.1975769144
 40
0.2277541573
 40
0.2936072264
 40
0.3662580493
 40
0.4450068492
 40
0.5290962462
 40
0.6177214577
 40
0.7100180901
 40
0.8051103355
 40
0.9021126489
 40
1.0
 40
1.0
 40
1.0
 40
1.0
 10
5.336517711
 20
4.0597755835
 30
0.0
 10
5.3364894758
 20
4.0597755827
 30
0.0
 10
5.3364253208
 20
4.0597970477
 30
0.0
 10
5.3363436135
 20
4.0598758371
 30
0.0
 10
5.3362635756
 20
4.0599970819
 30
0.0
 10
5.3361837935
 20
4.0601637514
 30
0.0
 10
5.3361036408
 20
4.0603764002
 30
0.0
 10
5.3360232435
 20
4.0606356526
 30
0.0
 10
5.335942616
 20
4.0609416436
 30
0.0
 10
5.335828179
 20
4.0614418724
 30
0.0
 10
5.3356885359
 20
4.0621852072
 30
0.0
 10
5.3355281342
 20
4.0632181848
 30
0.0
 10
5.3353671929
 20
4.0644369483
 30
0.0
 10
5.3352058023
 20
4.0658407849
 30
0.0
 10
5.3350441174
 20
4.0674290101
 30
0.0
 10
5.334817339
 20
4.069912101
 30
0.0
 10
5.3345388658
 20
4.0734700461
 30
0.0
 10
5.3342171162
 20
4.0782779978
 30
0.0
 10
5.3338945409
 20
4.083793967
 30
0.0
 10
5.3335713723
 20
4.0900048931
 30
0.0
 10
5.3332477963
 20
4.0968958771
 30
0.0
 10
5.3329238565
 20
4.104450178
 30
0.0
 10
5.3325996842
 20
4.1126497356
 30
0.0
 10
5.3322753577
 20
4.121474881
 30
0.0
 10
5.3318296073
 20
4.1344293913
 30
0.0
 10
5.3312779198
 20
4.1520142791
 30
0.0
 10
5.3306324925
 20
4.1746646361
 30
0.0
 10
5.3299863168
 20
4.1992177358
 30
0.0
 10
5.3293395155
 20
4.2254374878
 30
0.0
 10
5.3286923529
 20
4.2530706796
 30
0.0
 10
5.3280448632
 20
4.2818517646
 30
0.0
 10
5.3273971233
 20
4.3115067918
 30
0.0
 10
5.3267492967
 20
4.3417450665
 30
0.0
 10
5.3263180598
 20
4.3620675507
 30
0.0
 10
5.326101461
 20
4.3722749373
 30
0.0
  0
SPLINE
  5
29D
100
AcDbEntity
  8
0
100
AcDbSpline
 62
7
  6
CONTINUOUS
 70
0
 71
3
 72
39
 73
35
 74
0
 42
0.0000001
 43
0.0000001
 44
0.0000000001
 40
0.0
 40
0.0
 40
0.0
 40
0.0
 40
0.0002706931
 40
0.0006147894
 40
0.001071607
 40
0.0016582262
 40
0.0023826077
 40
0.0032489269
 40
0.0042595979
 40
0.0054159834
 40
0.008168285
 40
0.0115086354
 40
0.0154373105
 40
0.0199535251
 40
0.0250559248
 40
0.030742823
 40
0.0438593061
 40
0.0592711515
 40
0.0769420947
 40
0.0968344846
 40
0.1189001835
 40
0.1430838215
 40
0.1693297068
 40
0.1975769071
 40
0.2277541816
 40
0.2936074951
 40
0.3662581239
 40
0.4450062095
 40
0.5290950131
 40
0.6177205506
 40
0.7100177737
 40
0.8051106101
 40
0.9021130821
 40
1.0
 40
1.0
 40
1.0
 40
1.0
 10
5.2948527111
 20
4.0597755834
 30
0.0
 10
5.2948244777
 20
4.0597755767
 30
0.0
 10
5.2947603227
 20
4.0597970269
 30
0.0
 10
5.2946786136
 20
4.0598758038
 30
0.0
 10
5.2945985763
 20
4.0599970388
 30
0.0
 10
5.2945187949
 20
4.0601637042
 30
0.0
 10
5.2944386431
 20
4.0603763566
 30
0.0
 10
5.2943582467
 20
4.0606356222
 30
0.0
 10
5.294277623
 20
4.0609416308
 30
0.0
 10
5.2941631885
 20
4.0614418689
 30
0.0
 10
5.294023546
 20
4.06218519
 30
0.0
 10
5.2938631442
 20
4.0632181294
 30
0.0
 10
5.2937022034
 20
4.0644368395
 30
0.0
 10
5.2935408138
 20
4.0658406263
 30
0.0
 10
5.2933791296
 20
4.0674288244
 30
0.0
 10
5.2931523568
 20
4.0699119062
 30
0.0
 10
5.2928738869
 20
4.0734698211
 30
0.0
 10
5.2925521312
 20
4.0782777276
 30
0.0
 10
5.2922295533
 20
4.0837936859
 30
0.0
 10
5.2919063885
 20
4.0900046447
 30
0.0
 10
5.2915828062
 20
4.0968956807
 30
0.0
 10
5.291258861
 20
4.1044500319
 30
0.0
 10
5.2909346883
 20
4.1126496487
 30
0.0
 10
5.2906103597
 20
4.1214748488
 30
0.0
 10
5.2901646054
 20
4.1344294084
 30
0.0
 10
5.2896129206
 20
4.1520143057
 30
0.0
 10
5.288967493
 20
4.1746645947
 30
0.0
 10
5.2883213218
 20
4.1992175391
 30
0.0
 10
5.2876745228
 20
4.2254371902
 30
0.0
 10
5.2870273592
 20
4.2530704171
 30
0.0
 10
5.2863798653
 20
4.2818516608
 30
0.0
 10
5.2857321225
 20
4.3115068294
 30
0.0
 10
5.2850842952
 20
4.3417451386
 30
0.0
 10
5.2846530588
 20
4.3620675953
 30
0.0
 10
5.284436461
 20
4.3722749373
 30
0.0
  0
SPLINE
  5
29E
100
AcDbEntity
  8
0
100
AcDbSpline
 62
7
  6
CONTINUOUS
 70
0
 71
3
 72
32
 73
28
 74
0
 42
0.0000001
 43
0.0000001
 44
0.0000000001
 40
0.0
 40
0.0
 40
0.0
 40
0.0
 40
0.1905914037
 40
0.2836947044
 40
0.3741873311
 40
0.4612526531
 40
0.5440800095
 40
0.6219132447
 40
0.694037975
 40
0.7597946616
 40
0.818577833
 40
0.8451838054
 40
0.8698478411
 40
0.892517008
 40
0.9131394679
 40
0.931664944
 40
0.9480539984
 40
0.9622724212
 40
0.9742868494
 40
0.9840719765
 40
0.9881244726
 40
0.9916154373
 40
0.9945446576
 40
0.9969133909
 40
0.9987263715
 40
0.9994288763
 40
1.0
 40
1.0
 40
1.0
 40
1.0
 10
5.3191390597
 20
4.3722749373
 30
0.0
 10
5.3195603373
 20
4.3524219068
 30
0.0
 10
5.3201872627
 20
4.3228707291
 30
0.0
 10
5.3210374581
 20
4.2838938502
 30
0.0
 10
5.3216699876
 20
4.2557010575
 30
0.0
 10
5.3223022223
 20
4.2285791748
 30
0.0
 10
5.322934139
 20
4.202776625
 30
0.0
 10
5.3235655146
 20
4.1785311968
 30
0.0
 10
5.3241962098
 20
4.1560649645
 30
0.0
 10
5.3248259512
 20
4.1355843586
 30
0.0
 10
5.3253658837
 20
4.1198458519
 30
0.0
 10
5.3258028358
 20
4.1083878524
 30
0.0
 10
5.3261194142
 20
4.1006907086
 30
0.0
 10
5.326435704
 20
4.0936175359
 30
0.0
 10
5.326751629
 20
4.087184611
 30
0.0
 10
5.3270671401
 20
4.0814068462
 30
0.0
 10
5.327382047
 20
4.0762973866
 30
0.0
 10
5.3276958479
 20
4.0718676642
 30
0.0
 10
5.3280084073
 20
4.0681279314
 30
0.0
 10
5.328280966
 20
4.0654479666
 30
0.0
 10
5.3285052151
 20
4.0636564044
 30
0.0
 10
5.3286622193
 20
4.0625765526
 30
0.0
 10
5.328818313
 20
4.0616740226
 30
0.0
 10
5.32897349
 20
4.0609494731
 30
0.0
 10
5.329109847
 20
4.0604583178
 30
0.0
 10
5.3292241251
 20
4.0601575145
 30
0.0
 10
5.3292819089
 20
4.0600376788
 30
0.0
 10
5.3293116988
 20
4.0599861679
 30
0.0
  0
SPLINE
  5
29F
100
AcDbEntity
  8
0
100
AcDbSpline
 62
7
  6
CONTINUOUS
 70
0
 71
3
 72
58
 73
54
 74
0
 42
0.0000001
 43
0.0000001
 44
0.0000000001
 40
0.0
 40
0.0
 40
0.0
 40
0.0
 40
0.0001420167
 40
0.0003156959
 40
0.000539622
 40
0.0008226426
 40
0.0011691024
 40
0.0015813407
 40
0.0020607315
 40
0.0026081402
 40
0.0039088579
 40
0.0054855257
 40
0.0073385269
 40
0.0094676207
 40
0.0118722305
 40
0.014551583
 40
0.0207306884
 40
0.0279930683
 40
0.0363215154
 40
0.0456981976
 40
0.0561042176
 40
0.0675151857
 40
0.0799045636
 40
0.0932457244
 40
0.1075094977
 40
0.1386694836
 40
0.1731058622
 40
0.2105054836
 40
0.2505333835
 40
0.2928259403
 40
0.3370029337
 40
0.3826643014
 40
0.4293982212
 40
0.4767822935
 40
0.5717871048
 40
0.6642539347
 40
0.7084871768
 40
0.7508496818
 40
0.7909588644
 40
0.8284533741
 40
0.8629932198
 40
0.8942692637
 40
0.9219965799
 40
0.9459291024
 40
0.9564021323
 40
0.9658493684
 40
0.9742497491
 40
0.9815830728
 40
0.987834844
 40
0.9929938078
 40
0.9970500607
 40
0.9986630109
 40
1.0
 40
1.0
 40
1.0
 40
1.0
 10
5.3512690101
 20
4.0853255515
 30
0.0
 10
5.3512418766
 20
4.0853255651
 30
0.0
 10
5.3511813193
 20
4.0853431729
 30
0.0
 10
5.351101344
 20
4.0854107367
 30
0.0
 10
5.3510234167
 20
4.0855155913
 30
0.0
 10
5.3509458543
 20
4.0856594379
 30
0.0
 10
5.3508680982
 20
4.0858428456
 30
0.0
 10
5.3507901471
 20
4.0860663096
 30
0.0
 10
5.3507120044
 20
4.0863299896
 30
0.0
 10
5.3506011795
 20
4.0867607261
 30
0.0
 10
5.3504658927
 20
4.0874011954
 30
0.0
 10
5.3503104798
 20
4.088291613
 30
0.0
 10
5.3501545568
 20
4.0893422468
 30
0.0
 10
5.3499982077
 20
4.0905524727
 30
0.0
 10
5.3498415768
 20
4.0919216966
 30
0.0
 10
5.3496218881
 20
4.0940623929
 30
0.0
 10
5.3493520619
 20
4.0971307191
 30
0.0
 10
5.3490403935
 20
4.101278418
 30
0.0
 10
5.3487279111
 20
4.1060384792
 30
0.0
 10
5.348414793
 20
4.1114002466
 30
0.0
 10
5.3481013343
 20
4.1173518327
 30
0.0
 10
5.347787552
 20
4.1238797234
 30
0.0
 10
5.3474735139
 20
4.1309689773
 30
0.0
 10
5.3471592953
 20
4.138603769
 30
0.0
 10
5.3467273645
 20
4.1498229925
 30
0.0
 10
5.3461926557
 20
4.1650716044
 30
0.0
 10
5.3455673815
 20
4.1847399267
 30
0.0
 10
5.34494128
 20
4.2061032954
 30
0.0
 10
5.3443146601
 20
4.2289682327
 30
0.0
 10
5.3436875818
 20
4.2531284875
 30
0.0
 10
5.343060243
 20
4.2783654008
 30
0.0
 10
5.3424326751
 20
4.3044511195
 30
0.0
 10
5.341804979
 20
4.3311497463
 30
0.0
 10
5.3409672499
 20
4.3672735114
 30
0.0
 10
5.3399341093
 20
4.4121327427
 30
0.0
 10
5.3388880339
 20
4.4563895282
 30
0.0
 10
5.338038998
 20
4.4905903837
 30
0.0
 10
5.3374119195
 20
4.5147902924
 30
0.0
 10
5.3367852461
 20
4.5377022689
 30
0.0
 10
5.3361591762
 20
4.5591190879
 30
0.0
 10
5.3355338145
 20
4.5788475101
 30
0.0
 10
5.3349097506
 20
4.5967088604
 30
0.0
 10
5.334287071
 20
4.6125422627
 30
0.0
 10
5.3337495225
 20
4.6244012138
 30
0.0
 10
5.3333117456
 20
4.6327682421
 30
0.0
 10
5.3329986038
 20
4.6381701012
 30
0.0
 10
5.3326861325
 20
4.6429710267
 30
0.0
 10
5.332374359
 20
4.6471600117
 30
0.0
 10
5.3320640412
 20
4.6507279175
 30
0.0
 10
5.3317553663
 20
4.6536669584
 30
0.0
 10
5.3314853389
 20
4.6557186768
 30
0.0
 10
5.3312605125
 20
4.6570383899
 30
0.0
 10
5.3311468957
 20
4.6575906508
 30
0.0
 10
5.3310883288
 20
4.657839289
 30
0.0
  0
LINE
  5
2A0
100
AcDbEntity
  8
0
100
AcDbLine
 62
7
  6
CONTINUOUS
 10
5.3310883288
 20
4.657839289
 11
5.3307017917
 21
4.6589948675
  0
SPLINE
  5
2A1
100
AcDbEntity
  8
0
100
AcDbSpline
 62
7
  6
CONTINUOUS
 70
0
 71
3
 72
39
 73
35
 74
0
 42
0.0000001
 43
0.0000001
 44
0.0000000001
 40
0.0
 40
0.0
 40
0.0
 40
0.0
 40
0.000270705
 40
0.0006148244
 40
0.0010716636
 40
0.0016582945
 40
0.0023826716
 40
0.0032489648
 40
0.0042595889
 40
0.0054159497
 40
0.0081682844
 40
0.0115087432
 40
0.0154375597
 40
0.0199539058
 40
0.0250563839
 40
0.0307432643
 40
0.043859762
 40
0.0592718269
 40
0.0769428544
 40
0.0968350389
 40
0.1189006907
 40
0.1430843064
 40
0.169330006
 40
0.1975771008
 40
0.2277543811
 40
0.2936075453
 40
0.3662583365
 40
0.4450069579
 40
0.529096158
 40
0.6177213376
 40
0.7100180497
 40
0.8051104527
 40
0.9021127968
 40
1.0
 40
1.0
 40
1.0
 40
1.0
 10
5.3920528097
 20
4.6847742906
 30
0.0
 10
5.3920810443
 20
4.6847742933
 30
0.0
 10
5.3921451993
 20
4.684752833
 30
0.0
 10
5.3922269073
 20
4.6846740477
 30
0.0
 10
5.3923069451
 20
4.6845528059
 30
0.0
 10
5.392386727
 20
4.6843861377
 30
0.0
 10
5.3924668795
 20
4.6841734876
 30
0.0
 10
5.3925472767
 20
4.6839142307
 30
0.0
 10
5.3926279031
 20
4.6836082334
 30
0.0
 10
5.3927423393
 20
4.6831079997
 30
0.0
 10
5.3928819824
 20
4.6823646663
 30
0.0
 10
5.3930423843
 20
4.6813316971
 30
0.0
 10
5.3932033257
 20
4.6801129471
 30
0.0
 10
5.3933647161
 20
4.6787091235
 30
0.0
 10
5.3935264009
 20
4.6771209055
 30
0.0
 10
5.3937531779
 20
4.6746378162
 30
0.0
 10
5.3940316499
 20
4.671079879
 30
0.0
 10
5.3943534012
 20
4.6662719391
 30
0.0
 10
5.3946759773
 20
4.6607559706
 30
0.0
 10
5.3949991449
 20
4.6545450297
 30
0.0
 10
5.3953227228
 20
4.6476540225
 30
0.0
 10
5.3956466645
 20
4.640099698
 30
0.0
 10
5.3959708373
 20
4.6319001143
 30
0.0
 10
5.3962951645
 20
4.6230749442
 30
0.0
 10
5.3967409161
 20
4.610120411
 30
0.0
 10
5.397292603
 20
4.5925355124
 30
0.0
 10
5.3979380303
 20
4.569885167
 30
0.0
 10
5.3985842046
 20
4.5453321094
 30
0.0
 10
5.3992310048
 20
4.5191123994
 30
0.0
 10
5.3998781672
 20
4.4914792227
 30
0.0
 10
5.4005256574
 20
4.4626981159
 30
0.0
 10
5.4011733979
 20
4.4330430603
 30
0.0
 10
5.4018212246
 20
4.4028047809
 30
0.0
 10
5.4022524612
 20
4.3824823086
 30
0.0
 10
5.4024690597
 20
4.3722749373
 30
0.0
  0
SPLINE
  5
2A2
100
AcDbEntity
  8
0
100
AcDbSpline
 62
7
  6
CONTINUOUS
 70
0
 71
3
 72
60
 73
56
 74
0
 42
0.0000001
 43
0.0000001
 44
0.0000000001
 40
0.0
 40
0.0
 40
0.0
 40
0.0
 40
0.0001422627
 40
0.000316333
 40
0.0005408903
 40
0.0008248192
 40
0.0011724828
 40
0.0015862332
 40
0.0020674551
 40
0.0026170024
 40
0.003922668
 40
0.0055051724
 40
0.0073649623
 40
0.0095018617
 40
0.0119153597
 40
0.014604749
 40
0.020807304
 40
0.0280965562
 40
0.0364555298
 40
0.045866842
 40
0.0563110366
 40
0.0677630252
 40
0.080196626
 40
0.093585407
 40
0.1078990865
 40
0.1391657462
 40
0.173716648
 40
0.2112359809
 40
0.2513861603
 40
0.2938014642
 40
0.3380983416
 40
0.3838746896
 40
0.4307153551
 40
0.4781957031
 40
0.5733505076
 40
0.6201620677
 40
0.6658948762
 40
0.7101341758
 40
0.7524792324
 40
0.7925450454
 40
0.8299701952
 40
0.8644130743
 40
0.8955646127
 40
0.9231400619
 40
0.9468928649
 40
0.9572664233
 40
0.9666079197
 40
0.9748956476
 40
0.9821101452
 40
0.9882379799
 40
0.9932673866
 40
0.9953669448
 40
0.9971885375
 40
0.9987325048
 40
1.0
 40
1.0
 40
1.0
 40
1.0
 10
5.3929340104
 20
4.0853255673
 30
0.0
 10
5.3929068216
 20
4.0853255653
 30
0.0
 10
5.3928461144
 20
4.0853432217
 30
0.0
 10
5.39276598
 20
4.0854110338
 30
0.0
 10
5.3926878994
 20
4.0855162844
 30
0.0
 10
5.3926101827
 20
4.0856607014
 30
0.0
 10
5.3925322699
 20
4.085844861
 30
0.0
 10
5.3924541605
 20
4.0860692669
 30
0.0
 10
5.3923758601
 20
4.0863340805
 30
0.0
 10
5.3922648203
 20
4.0867666615
 30
0.0
 10
5.3921292544
 20
4.0874097997
 30
0.0
 10
5.3919735191
 20
4.0883038505
 30
0.0
 10
5.3918172735
 20
4.0893587115
 30
0.0
 10
5.391660602
 20
4.0905737965
 30
0.0
 10
5.3915036487
 20
4.091948549
 30
0.0
 10
5.3912835071
 20
4.0940980001
 30
0.0
 10
5.3910131547
 20
4.0971788039
 30
0.0
 10
5.3907008314
 20
4.1013432217
 30
0.0
 10
5.3903876999
 20
4.1061223258
 30
0.0
 10
5.3900739503
 20
4.1115054805
 30
0.0
 10
5.3897598578
 20
4.117480639
 30
0.0
 10
5.3894454231
 20
4.1240341101
 30
0.0
 10
5.3891307369
 20
4.131150921
 30
0.0
 10
5.388815889
 20
4.1388151349
 30
0.0
 10
5.3883830776
 20
4.1500768093
 30
0.0
 10
5.3878472865
 20
4.1653818879
 30
0.0
 10
5.3872207402
 20
4.185121366
 30
0.0
 10
5.3865933631
 20
4.2065593895
 30
0.0
 10
5.3859654596
 20
4.2295010103
 30
0.0
 10
5.3853371107
 20
4.2537383763
 30
0.0
 10
5.3847084861
 20
4.2790513329
 30
0.0
 10
5.3840796463
 20
4.3052102949
 30
0.0
 10
5.3834506716
 20
4.3319778386
 30
0.0
 10
5.3826113512
 20
4.3681800848
 30
0.0
 10
5.3817777094
 20
4.4043768989
 30
0.0
 10
5.3809345156
 20
4.4402394169
 30
0.0
 10
5.3803056818
 20
4.4663734842
 30
0.0
 10
5.3796770535
 20
4.49165368
 30
0.0
 10
5.379048745
 20
4.5158504802
 30
0.0
 10
5.3784208103
 20
4.5387445334
 30
0.0
 10
5.3777935204
 20
4.5601277671
 30
0.0
 10
5.3771669413
 20
4.5798065689
 30
0.0
 10
5.3765416953
 20
4.5976019433
 30
0.0
 10
5.3759178977
 20
4.6133529091
 30
0.0
 10
5.375379147
 20
4.6251329716
 30
0.0
 10
5.3749402177
 20
4.6334288323
 30
0.0
 10
5.3746265293
 20
4.6387714666
 30
0.0
 10
5.3743134711
 20
4.6435092322
 30
0.0
 10
5.3740012845
 20
4.6476313885
 30
0.0
 10
5.3736902585
 20
4.6511288275
 30
0.0
 10
5.3734194635
 20
4.6536482035
 30
0.0
 10
5.3731970455
 20
4.6553443582
 30
0.0
 10
5.3730408233
 20
4.6563771873
 30
0.0
 10
5.3728852032
 20
4.6572489594
 30
0.0
 10
5.3727710484
 20
4.6577742751
 30
0.0
 10
5.3727119848
 20
4.6580092036
 30
0.0
  0
LINE
  5
2A3
100
AcDbEntity
  8
0
100
AcDbLine
 62
7
  6
CONTINUOUS
 10
5.3727119848
 20
4.6580092036
 11
5.3723667917
 21
4.6589949789
  0
SPLINE
  5
2A4
100
AcDbEntity
  8
0
100
AcDbSpline
 62
7
  6
CONTINUOUS
 70
0
 71
3
 72
39
 73
35
 74
0
 42
0.0000001
 43
0.0000001
 44
0.0000000001
 40
0.0
 40
0.0
 40
0.0
 40
0.0
 40
0.0002707237
 40
0.0006148809
 40
0.0010717554
 40
0.0016584047
 40
0.0023827726
 40
0.0032490198
 40
0.0042595541
 40
0.0054158359
 40
0.008168138
 40
0.0115086853
 40
0.0154376537
 40
0.0199541567
 40
0.0250567378
 40
0.0307436085
 40
0.0438601272
 40
0.0592725527
 40
0.0769437453
 40
0.0968355755
 40
0.1189010236
 40
0.143084461
 40
0.1693297535
 40
0.1975765216
 40
0.2277536505
 40
0.2936064316
 40
0.3662572455
 40
0.4450063088
 40
0.5290961791
 40
0.6177218247
 40
0.7100185096
 40
0.805110255
 40
0.9021123157
 40
1.0
 40
1.0
 40
1.0
 40
1.0
 10
5.3503878098
 20
4.6847742903
 30
0.0
 10
5.3504160464
 20
4.6847742862
 30
0.0
 10
5.3504802012
 20
4.6847528089
 30
0.0
 10
5.3505619068
 20
4.6846740094
 30
0.0
 10
5.3506419449
 20
4.6845527565
 30
0.0
 10
5.3507217273
 20
4.6843860836
 30
0.0
 10
5.3508018805
 20
4.6841734379
 30
0.0
 10
5.350882278
 20
4.6839141971
 30
0.0
 10
5.3509629076
 20
4.6836082237
 30
0.0
 10
5.3510773472
 20
4.6831080123
 30
0.0
 10
5.3512169897
 20
4.6823646812
 30
0.0
 10
5.3513773908
 20
4.68133169
 30
0.0
 10
5.3515383317
 20
4.6801128982
 30
0.0
 10
5.3516997223
 20
4.6787090315
 30
0.0
 10
5.3518614073
 20
4.6771207874
 30
0.0
 10
5.3520881889
 20
4.6746376867
 30
0.0
 10
5.3523666663
 20
4.6710797112
 30
0.0
 10
5.3526884124
 20
4.6662717141
 30
0.0
 10
5.3530109869
 20
4.6607557279
 30
0.0
 10
5.3533341592
 20
4.6545448287
 30
0.0
 10
5.3536577303
 20
4.6476538985
 30
0.0
 10
5.3539816651
 20
4.6400996566
 30
0.0
 10
5.3543058356
 20
4.6319001685
 30
0.0
 10
5.3546301601
 20
4.6230750913
 30
0.0
 10
5.3550759071
 20
4.6101206487
 30
0.0
 10
5.3556275956
 20
4.5925358046
 30
0.0
 10
5.3562730219
 20
4.5698854521
 30
0.0
 10
5.3569192005
 20
4.5453322777
 30
0.0
 10
5.3575660048
 20
4.5191124049
 30
0.0
 10
5.3582131696
 20
4.4914791143
 30
0.0
 10
5.3588606594
 20
4.4626980321
 30
0.0
 10
5.3595083975
 20
4.4330430793
 30
0.0
 10
5.3601562231
 20
4.4028048498
 30
0.0
 10
5.3605874602
 20
4.3824823581
 30
0.0
 10
5.3608040597
 20
4.3722749373
 30
0.0
  0
SPLINE
  5
2A5
100
AcDbEntity
  8
0
100
AcDbSpline
 62
7
  6
CONTINUOUS
 70
0
 71
3
 72
30
 73
26
 74
0
 42
0.0000001
 43
0.0000001
 44
0.0000000001
 40
0.0
 40
0.0
 40
0.0
 40
0.0
 40
0.0884830524
 40
0.1760887604
 40
0.2618719734
 40
0.3450460408
 40
0.4248786467
 40
0.5007402905
 40
0.5721198946
 40
0.6386370607
 40
0.6699906386
 40
0.7000455746
 40
0.7287893083
 40
0.7562209847
 40
0.7823508567
 40
0.8071961337
 40
0.8307872423
 40
0.853174591
 40
0.8945797039
 40
0.9137970875
 40
0.9321482772
 40
0.9497558914
 40
0.9667863116
 40
0.9834564568
 40
1.0
 40
1.0
 40
1.0
 40
1.0
 10
4.2592777604
 20
4.3722749373
 30
0.0
 10
4.2592778266
 20
4.3616712121
 30
0.0
 10
4.259707877
 20
4.3405663673
 30
0.0
 10
4.2616286898
 20
4.3092342031
 30
0.0
 10
4.2647964387
 20
4.2786420135
 30
0.0
 10
4.2691622071
 20
4.2491385565
 30
0.0
 10
4.2746553085
 20
4.2210338012
 30
0.0
 10
4.2811960211
 20
4.1946064572
 30
0.0
 10
4.2886987072
 20
4.1700993014
 30
0.0
 10
4.2958034316
 20
4.1510845457
 30
0.0
 10
4.3019212839
 20
4.1370244356
 30
0.0
 10
4.3065987888
 20
4.1272826882
 30
0.0
 10
4.3114445882
 20
4.1181521219
 30
0.0
 10
4.3164460395
 20
4.1096469194
 30
0.0
 10
4.3215893582
 20
4.1017787508
 30
0.0
 10
4.3268615296
 20
4.0945587062
 30
0.0
 10
4.3322522074
 20
4.0879953482
 30
0.0
 10
4.3393955392
 20
4.0803330086
 30
0.0
 10
4.3469155676
 20
4.0737488344
 30
0.0
 10
4.3547889133
 20
4.0684775413
 30
0.0
 10
4.3606064374
 20
4.0653129326
 30
0.0
 10
4.3664689527
 20
4.0628434471
 30
0.0
 10
4.372371151
 20
4.0610746107
 30
0.0
 10
4.3783109748
 20
4.0600118699
 30
0.0
 10
4.382295198
 20
4.0597757402
 30
0.0
 10
4.3842777604
 20
4.0597749373
 30
0.0
  0
SPLINE
  5
2A6
100
AcDbEntity
  8
0
100
AcDbSpline
 62
7
  6
CONTINUOUS
 70
0
 71
3
 72
39
 73
35
 74
0
 42
0.0000001
 43
0.0000001
 44
0.0000000001
 40
0.0
 40
0.0
 40
0.0
 40
0.0
 40
0.0002707311
 40
0.0006149051
 40
0.0010717944
 40
0.0016584492
 40
0.0023828081
 40
0.0032490273
 40
0.0042595102
 40
0.0054157325
 40
0.0081679693
 40
0.011508507
 40
0.0154374999
 40
0.019954039
 40
0.0250566457
 40
0.0307435086
 40
0.0438600395
 40
0.059272653
 40
0.0769439621
 40
0.0968356609
 40
0.1189010192
 40
0.1430843409
 40
0.1693293446
 40
0.1975757675
 40
0.2277526022
 40
0.2936048961
 40
0.366255508
 40
0.4450046564
 40
0.5290951458
 40
0.6177220738
 40
0.7100193304
 40
0.8051104109
 40
0.9021120504
 40
1.0
 40
1.0
 40
1.0
 40
1.0
 10
5.3087228099
 20
4.6847742936
 30
0.0
 10
5.3087510472
 20
4.684774286
 30
0.0
 10
5.3088152015
 20
4.6847528003
 30
0.0
 10
5.3088969052
 20
4.684673994
 30
0.0
 10
5.308976943
 20
4.6845527363
 30
0.0
 10
5.3090567251
 20
4.6843860621
 30
0.0
 10
5.3091368781
 20
4.6841734199
 30
0.0
 10
5.3092172754
 20
4.6839141887
 30
0.0
 10
5.3092979055
 20
4.6836082305
 30
0.0
 10
5.3094123468
 20
4.6831080383
 30
0.0
 10
5.3095519882
 20
4.6823647211
 30
0.0
 10
5.3097123883
 20
4.6813317352
 30
0.0
 10
5.3098733284
 20
4.6801129379
 30
0.0
 10
5.3100347186
 20
4.6787090622
 30
0.0
 10
5.3101964035
 20
4.6771208124
 30
0.0
 10
5.3104231867
 20
4.6746377088
 30
0.0
 10
5.3107016676
 20
4.6710797135
 30
0.0
 10
5.3110234125
 20
4.6662716833
 30
0.0
 10
5.3113459875
 20
4.6607556793
 30
0.0
 10
5.3116691632
 20
4.6545447913
 30
0.0
 10
5.3119927314
 20
4.6476538963
 30
0.0
 10
5.3123166625
 20
4.640099706
 30
0.0
 10
5.3126408308
 20
4.6319002963
 30
0.0
 10
5.3129651527
 20
4.623075316
 30
0.0
 10
5.3134108958
 20
4.6101209911
 30
0.0
 10
5.3139625824
 20
4.59253625
 30
0.0
 10
5.314608008
 20
4.5698859611
 30
0.0
 10
5.315254189
 20
4.545332735
 30
0.0
 10
5.315900999
 20
4.5191126555
 30
0.0
 10
5.3165481693
 20
4.4914791077
 30
0.0
 10
5.3171956626
 20
4.4626979022
 30
0.0
 10
5.3178433992
 20
4.4330430037
 30
0.0
 10
5.3184912228
 20
4.4028048605
 30
0.0
 10
5.3189224596
 20
4.3824823855
 30
0.0
 10
5.3191390597
 20
4.3722749373
 30
0.0
  0
ENDSEC
  0
SECTION
  2
OBJECTS
  0
DICTIONARY
  5
C
100
AcDbDictionary
280
0
281
1
  3
ACAD_GROUP
350
D
  3
ACAD_MLINESTYLE
350
17
  3
ACAD_LAYOUT
350
1A
  3
ACAD_PLOTSETTINGS
350
19
  3
ACAD_PLOTSTYLENAME
350
E
  0
DICTIONARY
  5
D
102
{ACAD_REACTORS
330
C
102
}
100
AcDbDictionary
280
0
281
1
  0
ACDBDICTIONARYWDFLT
  5
E
102
{ACAD_REACTORS
330
C
102
}
100
AcDbDictionary
281
1
  3
Normal
350
F
100
AcDbDictionaryWithDefault
340
F
  0
DICTIONARY
  5
17
102
{ACAD_REACTORS
330
C
102
}
100
AcDbDictionary
280
0
281
1
  3
Standard
350
18
  0
DICTIONARY
  5
19
102
{ACAD_REACTORS
330
C
102
}
100
AcDbDictionary
281
1
  0
DICTIONARY
  5
1A
102
{ACAD_REACTORS
330
C
102
}
100
AcDbDictionary
281
1
  3
Model
350
2A7
  3
Layout1
350
2A8
  0
ACDBPLACEHOLDER
  5
F
102
{ACAD_REACTORS
330
E
102
}
  0
MLINESTYLE
  5
18
102
{ACAD_REACTORS
330
17
102
}
100
AcDbMlineStyle
  2
STANDARD
 70
0
  3

 62
256
 51
90.0
 52
90.0
 71
2
 49
0.5
 62
256
  6
BYLAYER
 49
-0.5
 62
256
  6
BYLAYER
  0
LAYOUT
  5
2A7
102
{ACAD_REACTORS
330
1A
102
}
100
AcDbPlotSettings
  1

  2
none_device
  4
ANSI_A_(11.00_x_8.50_Inches)
  6

 40
0.0
 41
0.0
 42
0.0
 43
0.0
 44
279.4
 45
215.9
 46
0.0
 47
0.0
 48
0.0
 49
0.0
140
0.0
141
0.0
142
1.0
143
1.0
 70
1024
 72
0
 73
0
 74
0
  7

 75
0
147
1.0
148
0.0
149
0.0
100
AcDbLayout
  1
Model
 70
0
 71
0
 10
0.0
 20
0.0
 11
11.0
 21
8.5
 12
0.0
 22
0.0
 32
0.0
 14
0.0
 24
0.0
 34
0.0
 15
0.0
 25
0.0
 35
0.0
146
0.0
 13
0.0
 23
0.0
 33
0.0
 16
1.0
 26
0.0
 36
0.0
 17
0.0
 27
1.0
 37
0.0
 76
0
330
207
345
0
346
0
  0
LAYOUT
  5
2A8
102
{ACAD_REACTORS
330
1A
102
}
100
AcDbPlotSettings
  1

  2
none_device
  4
ANSI_A_(11.00_x_8.50_Inches)
  6

 40
0.0
 41
0.0
 42
0.0
 43
0.0
 44
279.4
 45
215.9
 46
0.0
 47
0.0
 48
0.0
 49
0.0
140
0.0
141
0.0
142
1.0
143
1.0
 70
0
 72
0
 73
0
 74
0
  7

 75
0
147
1.0
148
0.0
149
0.0
100
AcDbLayout
  1
Layout1
 70
0
 71
1
 10
0.0
 20
0.0
 11
11.0
 21
8.5
 12
0.0
 22
0.0
 32
0.0
 14
0.0
 24
0.0
 34
0.0
 15
0.0
 25
0.0
 35
0.0
146
0.0
 13
0.0
 23
0.0
 33
0.0
 16
1.0
 26
0.0
 36
0.0
 17
0.0
 27
1.0
 37
0.0
 76
0
330
208
345
0
346
0
  0
ENDSEC
  0
EOF
