999
DXF file: 5080sq_top.dxf
999
Pro/ENGINEER 2019352 by Parametric Technology Corporation
  0
SECTION
  2
HEADER
  9
$ACADVER
  1
AC1032
  9
$DWGCODEPAGE
  3
ANSI_1252
  9
$EXTMAX
 10
11.0
 20
8.5
 30
0.0
  9
$EXTMIN
 10
0.0
 20
0.0
 30
0.0
  9
$LIMMIN
 10
0.0
 20
0.0
  9
$LIMMAX
 10
11.0
 20
8.5
  9
$VIEWCTR
 10
5.5
 20
4.25
  9
$VIEWSIZE
 40
8.5
  9
$CLAYER
  8
0
  9
$LTSCALE
 40
0.605
  9
$CELTYPE
  6
BYLAYER
  9
$DIMSCALE
 40
1.0
  9
$DIMASZ
 40
0.1
  9
$DIMEXO
 40
0.0625
  9
$DIMDLI
 40
0.418
  9
$DIMEXE
 40
0.125
  9
$DIMCEN
 40
0.099
  9
$DIMLFAC
 40
1.0
  9
$DIMBLK
  1
_FILLED
  9
$DIMALT
 70
1
  9
$DIMALTD
 70
2
  9
$DIMALTTD
 70
2
  9
$DIMALTF
 40
25.4
  9
$DIMTXT
 40
0.08
  9
$DIMTOL
 70
1
  9
$DIMLIM
 70
0
  9
$DIMTFAC
 40
1.0
  9
$DIMTP
 40
0.001
  9
$DIMTM
 40
0.001
  9
$DIMGAP
 40
0.09
  9
$DIMDSEP
 70
46
  9
$AUNITS
 70
0
  9
$PDMODE
 70
3
  9
$PDSIZE
 40
0.3125
  9
$HANDSEED
  5
2F2
  9
$TILEMODE
 70
1
  9
$MEASUREMENT
 70
0
  9
$INSUNITS
 70
1
  0
ENDSEC
  0
SECTION
  2
CLASSES
  0
CLASS
  1
ACDBDICTIONARYWDFLT
  2
AcDbDictionaryWithDefault
  3
AutoCAD 2000
 90
0
 91
1
280
0
281
0
  0
CLASS
  1
ACDBPLACEHOLDER
  2
AcDbPlaceHolder
  3
AutoCAD 2000
 90
0
 91
1
280
0
281
0
  0
CLASS
  1
LAYOUT
  2
AcDbLayout
  3
AutoCAD 2000
 90
0
 91
0
280
0
281
0
  0
ENDSEC
  0
SECTION
  2
TABLES
  0
TABLE
  2
VPORT
  5
8
100
AcDbSymbolTable
 70
2
  0
VPORT
  5
1F4
100
AcDbSymbolTableRecord
100
AcDbViewportTableRecord
  2
*ACTIVE
 70
0
 10
0.0
 20
0.0
 11
1.0
 21
1.0
 12
5.5
 22
4.25
 13
0.0
 23
0.0
 14
1.0
 24
1.0
 15
0.0
 25
0.0
 16
0.0
 26
0.0
 36
1.0
 17
0.0
 27
0.0
 37
0.0
 40
8.5
 41
1.2941176471
 42
50.0
 43
0.0
 44
0.0
 50
0.0
 51
0.0
 71
0
 72
100
 73
1
 74
1
 75
0
 76
0
 77
0
 78
0
  0
ENDTAB
  0
TABLE
  2
LTYPE
  5
5
100
AcDbSymbolTable
 70
6
  0
LTYPE
  5
14
100
AcDbSymbolTableRecord
100
AcDbLinetypeTableRecord
  2
BYBLOCK
 70
0
  3

 72
65
 73
0
 40
0.0
  0
LTYPE
  5
15
100
AcDbSymbolTableRecord
100
AcDbLinetypeTableRecord
  2
BYLAYER
 70
0
  3

 72
65
 73
0
 40
0.0
  0
LTYPE
  5
16
100
AcDbSymbolTableRecord
100
AcDbLinetypeTableRecord
  2
CONTINUOUS
 70
64
  3
Solid line
 72
65
 73
0
 40
0.0
  0
LTYPE
  5
1F5
100
AcDbSymbolTableRecord
100
AcDbLinetypeTableRecord
  2
CENTER
 70
64
  3
____ _ ____ _ ____ _ ____ _ ____ _ ____ _ ____
 72
65
 73
4
 40
0.6
 49
0.375
 74
0
 49
-0.075
 74
0
 49
0.075
 74
0
 49
-0.075
 74
0
  0
LTYPE
  5
1F6
100
AcDbSymbolTableRecord
100
AcDbLinetypeTableRecord
  2
HIDDEN
 70
64
  3
- - - - - - - - - - - - - - - - - - - -
 72
65
 73
2
 40
0.2
 49
0.1
 74
0
 49
-0.1
 74
0
  0
LTYPE
  5
1F7
100
AcDbSymbolTableRecord
100
AcDbLinetypeTableRecord
  2
PHANTOM
 70
64
  3
_____ _ _ _____ _ _ _____ _ _ _____
 72
65
 73
6
 40
0.8
 49
0.45
 74
0
 49
-0.05
 74
0
 49
0.1
 74
0
 49
-0.05
 74
0
 49
0.1
 74
0
 49
-0.05
 74
0
  0
LTYPE
  5
1F8
100
AcDbSymbolTableRecord
100
AcDbLinetypeTableRecord
  2
DOT
 70
64
  3
. . . . . . . . . . . . . . . . . . . .
 72
65
 73
2
 40
0.2
 49
0.1
 74
0
 49
-0.1
 74
0
  0
LTYPE
  5
1F9
100
AcDbSymbolTableRecord
100
AcDbLinetypeTableRecord
  2
DASHED
 70
64
  3
- - - - - - - - - - - - - - - - - - - -
 72
65
 73
2
 40
0.2
 49
0.1
 74
0
 49
-0.1
 74
0
  0
ENDTAB
  0
TABLE
  2
LAYER
  5
2
100
AcDbSymbolTable
 70
36
  0
LAYER
  5
10
100
AcDbSymbolTableRecord
100
AcDbLayerTableRecord
  2
0
 70
0
 62
7
  6
CONTINUOUS
370
-3
390
F
  0
LAYER
  5
1FA
100
AcDbSymbolTableRecord
100
AcDbLayerTableRecord
  2
DEFAULT_1
 70
0
 62
7
  6
CENTER
370
-3
390
F
  0
LAYER
  5
1FB
100
AcDbSymbolTableRecord
100
AcDbLayerTableRecord
  2
DEFAULT_2
 70
0
 62
8
  6
HIDDEN
370
-3
390
F
  0
LAYER
  5
1FC
100
AcDbSymbolTableRecord
100
AcDbLayerTableRecord
  2
DEFAULT_3
 70
0
 62
7
  6
PHANTOM
370
-3
390
F
  0
LAYER
  5
1FD
100
AcDbSymbolTableRecord
100
AcDbLayerTableRecord
  2
ALL_FEATURES
 70
0
 62
7
  6
CONTINUOUS
370
-3
390
F
  0
LAYER
  5
1FE
100
AcDbSymbolTableRecord
100
AcDbLayerTableRecord
  2
AXES_FEATURES
 70
0
 62
7
  6
CONTINUOUS
370
-3
390
F
  0
LAYER
  5
1FF
100
AcDbSymbolTableRecord
100
AcDbLayerTableRecord
  2
DEFAULT_COORDINATE_SYSTEM
 70
0
 62
7
  6
CONTINUOUS
370
-3
390
F
  0
LAYER
  5
200
100
AcDbSymbolTableRecord
100
AcDbLayerTableRecord
  2
DEFAULT_DATUM_AXES
 70
0
 62
7
  6
CONTINUOUS
370
-3
390
F
  0
LAYER
  5
201
100
AcDbSymbolTableRecord
100
AcDbLayerTableRecord
  2
DEFAULT_DATUM_CURVES
 70
0
 62
7
  6
CONTINUOUS
370
-3
390
F
  0
LAYER
  5
202
100
AcDbSymbolTableRecord
100
AcDbLayerTableRecord
  2
DEFAULT_DATUM_PLANES
 70
0
 62
7
  6
CONTINUOUS
370
-3
390
F
  0
LAYER
  5
203
100
AcDbSymbolTableRecord
100
AcDbLayerTableRecord
  2
DEFAULT_SURFACES
 70
0
 62
7
  6
CONTINUOUS
370
-3
390
F
  0
LAYER
  5
204
100
AcDbSymbolTableRecord
100
AcDbLayerTableRecord
  2
DIMENSIONS
 70
0
 62
7
  6
CONTINUOUS
370
-3
390
F
  0
ENDTAB
  0
TABLE
  2
STYLE
  5
3
100
AcDbSymbolTable
 70
1
  0
STYLE
  5
11
100
AcDbSymbolTableRecord
100
AcDbTextStyleTableRecord
  2
STANDARD
 70
0
 40
0.0
 41
0.8
 50
0.0
 71
0
 42
0.2
  3
txt
  4

  0
STYLE
  5
205
100
AcDbSymbolTableRecord
100
AcDbTextStyleTableRecord
  2
TEXTSTYLE_1
 70
0
 40
0.0
 41
0.8
 50
0.0
 71
0
 42
0.2
  3
gdt
  4

  0
ENDTAB
  0
TABLE
  2
VIEW
  5
6
100
AcDbSymbolTable
 70
0
  0
ENDTAB
  0
TABLE
  2
UCS
  5
7
100
AcDbSymbolTable
 70
0
  0
ENDTAB
  0
TABLE
  2
APPID
  5
9
100
AcDbSymbolTable
 70
1
  0
APPID
  5
206
100
AcDbSymbolTableRecord
100
AcDbRegAppTableRecord
  2
ACAD
 70
0
  0
ENDTAB
  0
TABLE
  2
BLOCK_RECORD
  5
1
100
AcDbSymbolTable
 70
0
  0
BLOCK_RECORD
  5
207
100
AcDbSymbolTableRecord
100
AcDbBlockTableRecord
  2
*Model_Space
  0
BLOCK_RECORD
  5
208
100
AcDbSymbolTableRecord
100
AcDbBlockTableRecord
  2
*Paper_Space
  0
BLOCK_RECORD
  5
209
100
AcDbSymbolTableRecord
100
AcDbBlockTableRecord
  2
_FILLED
  0
ENDTAB
  0
TABLE
  2
DIMSTYLE
  5
A
100
AcDbSymbolTable
 70
1
100
AcDbDimStyleTable
 71
0
  0
DIMSTYLE
105
20A
100
AcDbSymbolTableRecord
100
AcDbDimStyleTableRecord
  2
STANDARD
 70
0
  3

  4

 40
1.0
 41
0.1
 42
0.0625
 43
0.38
 44
0.125
 45
0.0
 46
0.0
 47
0.001
 48
0.001
140
0.08
141
0.09
142
0.0
143
25.4
144
1.0
145
0.0
146
1.0
147
0.09
 71
1.0
 72
0.0
 73
1
 74
1
 75
0
 76
0
 77
0
 78
4
 79
1
170
1
171
2
172
0
173
0
174
0
175
0
176
0
177
0
178
0
270
2
179
3
271
3
272
3
273
2
274
2
275
0
280
0
281
0
282
0
283
1
284
4
285
0
286
0
287
3
288
0
340
11
278
46
341
209
342
209
343
209
344
209
  0
ENDTAB
  0
ENDSEC
  0
SECTION
  2
BLOCKS
  0
BLOCK
  5
20
100
AcDbEntity
  8
0
100
AcDbBlockBegin
  2
*Model_Space
 70
0
 10
0.0
 20
0.0
 30
0.0
  3
*Model_Space
  1

  0
ENDBLK
  5
21
100
AcDbEntity
  8
0
100
AcDbBlockEnd
  0
BLOCK
  5
1C
100
AcDbEntity
  8
0
100
AcDbBlockBegin
  2
*Paper_Space
 70
0
 10
0.0
 20
0.0
 30
0.0
  3
*Paper_Space
  1

  0
ENDBLK
  5
1D
100
AcDbEntity
  8
0
100
AcDbBlockEnd
  0
BLOCK
  5
20B
100
AcDbEntity
  8
0
100
AcDbBlockBegin
  2
_FILLED
 70
64
 10
0.0
 20
0.0
  3
_FILLED
  1

  0
SOLID
  5
20C
100
AcDbEntity
  8
0
  6
BYBLOCK
 62
0
100
AcDbTrace
 10
0.0
 20
0.0
 11
-1.0
 21
0.2
 12
-1.0
 22
-0.2
 13
-1.0
 23
-0.2
  0
ENDBLK
  5
20D
100
AcDbEntity
  8
0
  6
BYBLOCK
 62
0
100
AcDbBlockEnd
  0
ENDSEC
  0
SECTION
  2
ENTITIES
  0
MTEXT
  5
20E
100
AcDbEntity
  8
0
100
AcDbMText
 62
2
  6
CONTINUOUS
  7
STANDARD
 71
3
 72
1
 10
5.0050776349
 20
2.4472921895
 30
0.0
 11
1.0
 21
0.0
 31
0.0
 73
2
 44
0.9
  1
SCALE 0.500
 40
0.08
 41
0.704
  0
LINE
  5
20F
100
AcDbEntity
  8
0
100
AcDbLine
 62
7
  6
CONTINUOUS
 10
0.0
 20
0.0
 11
0.0
 21
8.5
  0
LINE
  5
210
100
AcDbEntity
  8
0
100
AcDbLine
 62
7
  6
CONTINUOUS
 10
0.0
 20
0.0
 11
11.0
 21
0.0
  0
LINE
  5
211
100
AcDbEntity
  8
0
100
AcDbLine
 62
7
  6
CONTINUOUS
 10
0.0
 20
8.5
 11
11.0
 21
8.5
  0
LINE
  5
212
100
AcDbEntity
  8
0
100
AcDbLine
 62
7
  6
CONTINUOUS
 10
11.0
 20
0.0
 11
11.0
 21
8.5
  0
LINE
  5
213
100
AcDbEntity
  8
0
100
AcDbLine
 62
7
  6
CONTINUOUS
 10
1.4480277604
 20
3.8710249373
 11
1.4480277604
 21
4.8961836379
  0
LINE
  5
214
100
AcDbEntity
  8
0
100
AcDbLine
 62
7
  6
CONTINUOUS
 10
1.4480277604
 20
4.9308862366
 11
1.4480277604
 21
4.9378486379
  0
LINE
  5
215
100
AcDbEntity
  8
0
100
AcDbLine
 62
7
  6
CONTINUOUS
 10
1.4480277604
 20
4.9725512366
 11
1.4480277604
 21
4.9795136379
  0
LINE
  5
216
100
AcDbEntity
  8
0
100
AcDbLine
 62
7
  6
CONTINUOUS
 10
1.4480277604
 20
5.0142162366
 11
1.4480277604
 21
5.0211786379
  0
LINE
  5
217
100
AcDbEntity
  8
0
100
AcDbLine
 62
7
  6
CONTINUOUS
 10
1.4480277604
 20
5.0558812366
 11
1.4480277604
 21
5.0610249373
  0
LINE
  5
218
100
AcDbEntity
  8
0
100
AcDbLine
 62
7
  6
CONTINUOUS
 10
1.4735777604
 20
5.0411299373
 11
1.4735777604
 21
5.0359299373
  0
LINE
  5
219
100
AcDbEntity
  8
0
100
AcDbLine
 62
7
  6
CONTINUOUS
 10
1.4735777604
 20
4.9994649373
 11
1.4735777604
 21
4.9942649373
  0
LINE
  5
21A
100
AcDbEntity
  8
0
100
AcDbLine
 62
7
  6
CONTINUOUS
 10
1.4735777604
 20
4.9577999373
 11
1.4735777604
 21
4.9525999373
  0
LINE
  5
21B
100
AcDbEntity
  8
0
100
AcDbLine
 62
7
  6
CONTINUOUS
 10
1.4735777604
 20
4.9161349373
 11
1.4735777604
 21
4.9109349373
  0
LINE
  5
21C
100
AcDbEntity
  8
0
100
AcDbLine
 62
7
  6
CONTINUOUS
 10
1.4482386155
 20
5.0214222495
 11
1.4480277604
 21
5.0211786379
  0
LINE
  5
21D
100
AcDbEntity
  8
0
100
AcDbLine
 62
7
  6
CONTINUOUS
 10
1.4482386155
 20
4.9797572495
 11
1.4480277604
 21
4.9795136379
  0
LINE
  5
21E
100
AcDbEntity
  8
0
100
AcDbLine
 62
7
  6
CONTINUOUS
 10
1.9275317348
 20
4.8686736379
 11
1.9275317348
 21
4.9033762366
  0
LINE
  5
21F
100
AcDbEntity
  8
0
100
AcDbLine
 62
7
  6
CONTINUOUS
 10
2.0474777604
 20
4.8901024373
 11
2.0474777604
 21
4.8953024373
  0
LINE
  5
220
100
AcDbEntity
  8
0
100
AcDbLine
 62
7
  6
CONTINUOUS
 10
2.0474777604
 20
4.9317674373
 11
2.0474777604
 21
4.9369674373
  0
LINE
  5
221
100
AcDbEntity
  8
0
100
AcDbLine
 62
7
  6
CONTINUOUS
 10
2.0474777604
 20
4.9734324373
 11
2.0474777604
 21
4.9786324373
  0
LINE
  5
222
100
AcDbEntity
  8
0
100
AcDbLine
 62
7
  6
CONTINUOUS
 10
2.0474777604
 20
5.0150974373
 11
2.0474777604
 21
5.0200321566
  0
LINE
  5
223
100
AcDbEntity
  8
0
100
AcDbLine
 62
7
  6
CONTINUOUS
 10
2.0474777604
 20
5.0567624373
 11
2.0474777604
 21
5.0610249373
  0
LINE
  5
224
100
AcDbEntity
  8
0
100
AcDbLine
 62
7
  6
CONTINUOUS
 10
2.0730277604
 20
4.3395249373
 11
2.0730277604
 21
4.8753511379
  0
LINE
  5
225
100
AcDbEntity
  8
0
100
AcDbLine
 62
7
  6
CONTINUOUS
 10
2.0730277604
 20
4.9100537366
 11
2.0730277604
 21
4.9170161379
  0
LINE
  5
226
100
AcDbEntity
  8
0
100
AcDbLine
 62
7
  6
CONTINUOUS
 10
2.0730277604
 20
4.9517187366
 11
2.0730277604
 21
4.9586811379
  0
LINE
  5
227
100
AcDbEntity
  8
0
100
AcDbLine
 62
7
  6
CONTINUOUS
 10
2.0730277604
 20
4.9933837366
 11
2.0730277604
 21
5.0003461379
  0
LINE
  5
228
100
AcDbEntity
  8
0
100
AcDbLine
 62
7
  6
CONTINUOUS
 10
2.0730277604
 20
5.0350487366
 11
2.0730277604
 21
5.0420111379
  0
LINE
  5
229
100
AcDbEntity
  8
0
100
AcDbLine
 62
7
  6
CONTINUOUS
 10
1.4482386155
 20
4.9380922495
 11
1.4480277604
 21
4.9378486379
  0
LINE
  5
22A
100
AcDbEntity
  8
0
100
AcDbLine
 62
7
  6
CONTINUOUS
 10
1.4482386155
 20
4.8964272495
 11
1.4480277604
 21
4.8961836379
  0
LINE
  5
22B
100
AcDbEntity
  8
0
100
AcDbLine
 62
7
  6
CONTINUOUS
 10
2.0728169052
 20
5.034805125
 11
2.0730277604
 21
5.0350487366
  0
LINE
  5
22C
100
AcDbEntity
  8
0
100
AcDbLine
 62
7
  6
CONTINUOUS
 10
2.3130277604
 20
3.6835249373
 11
2.3130277604
 21
4.3085249373
  0
LINE
  5
22D
100
AcDbEntity
  8
0
100
AcDbLine
 62
7
  6
CONTINUOUS
 10
2.3230277604
 20
3.6935249373
 11
2.3230277604
 21
4.2985249373
  0
LINE
  5
22E
100
AcDbEntity
  8
0
100
AcDbLine
 62
7
  6
CONTINUOUS
 10
2.3330277604
 20
3.6835249373
 11
2.3330277604
 21
4.3085249373
  0
LINE
  5
22F
100
AcDbEntity
  8
0
100
AcDbLine
 62
7
  6
CONTINUOUS
 10
2.0728169052
 20
4.993140125
 11
2.0730277604
 21
4.9933837366
  0
LINE
  5
230
100
AcDbEntity
  8
0
100
AcDbLine
 62
7
  6
CONTINUOUS
 10
2.0728169052
 20
4.951475125
 11
2.0730277604
 21
4.9517187366
  0
LINE
  5
231
100
AcDbEntity
  8
0
100
AcDbLine
 62
7
  6
CONTINUOUS
 10
2.0728169052
 20
4.909810125
 11
2.0730277604
 21
4.9100537366
  0
LWPOLYLINE
  5
232
100
AcDbEntity
  8
0
100
AcDbPolyline
 62
7
  6
CONTINUOUS
 90
6
 70
0
 10
2.0730277604
 20
4.3395249373
 10
2.0727813158
 20
4.3391581427
 10
2.0720789006
 20
4.3384059406
 10
2.0709747183
 20
4.3372683309
 10
2.0695205855
 20
4.3356908247
 10
2.0677673646
 20
4.3337279111
  0
LINE
  5
233
100
AcDbEntity
  8
0
100
AcDbLine
 62
7
  6
CONTINUOUS
 10
1.4738073469
 20
5.0361952179
 11
1.4482386155
 21
5.0214222495
  0
LINE
  5
234
100
AcDbEntity
  8
0
100
AcDbLine
 62
7
  6
CONTINUOUS
 10
1.4738073469
 20
4.9945302179
 11
1.4482386155
 21
4.9797572495
  0
LINE
  5
235
100
AcDbEntity
  8
0
100
AcDbLine
 62
7
  6
CONTINUOUS
 10
1.4738073469
 20
4.9528652179
 11
1.4482386155
 21
4.9380922495
  0
LINE
  5
236
100
AcDbEntity
  8
0
100
AcDbLine
 62
7
  6
CONTINUOUS
 10
1.4738073469
 20
4.9112002179
 11
1.4482386155
 21
4.8964272495
  0
LINE
  5
237
100
AcDbEntity
  8
0
100
AcDbLine
 62
7
  6
CONTINUOUS
 10
2.3230277601
 20
3.6935249375
 11
2.3330277601
 21
3.6835249376
  0
LINE
  5
238
100
AcDbEntity
  8
0
100
AcDbLine
 62
7
  6
CONTINUOUS
 10
1.4482386155
 20
4.930642625
 11
1.4480277604
 21
4.9308862366
  0
LINE
  5
239
100
AcDbEntity
  8
0
100
AcDbLine
 62
7
  6
CONTINUOUS
 10
1.4482386155
 20
4.972307625
 11
1.4480277604
 21
4.9725512366
  0
LINE
  5
23A
100
AcDbEntity
  8
0
100
AcDbLine
 62
7
  6
CONTINUOUS
 10
1.4482386155
 20
5.013972625
 11
1.4480277604
 21
5.0142162366
  0
LINE
  5
23B
100
AcDbEntity
  8
0
100
AcDbLine
 62
7
  6
CONTINUOUS
 10
2.0730277604
 20
4.3395249373
 11
1.7605277604
 21
3.9960249373
  0
LINE
  5
23C
100
AcDbEntity
  8
0
100
AcDbLine
 62
7
  6
CONTINUOUS
 10
1.9450338214
 20
4.1988321857
 11
1.9369125477
 21
4.1899070906
  0
LINE
  5
23D
100
AcDbEntity
  8
0
100
AcDbLine
 62
7
  6
CONTINUOUS
 10
1.9284673455
 20
4.1806236679
 11
1.9196626984
 21
4.170947725
  0
LINE
  5
23E
100
AcDbEntity
  8
0
100
AcDbLine
 62
7
  6
CONTINUOUS
 10
2.0657662275
 20
4.3315430565
 11
2.0635965664
 21
4.3291963546
  0
LINE
  5
23F
100
AcDbEntity
  8
0
100
AcDbLine
 62
7
  6
CONTINUOUS
 10
2.0472481738
 20
5.0200321566
 11
2.0728169052
 21
5.034805125
  0
LINE
  5
240
100
AcDbEntity
  8
0
100
AcDbLine
 62
7
  6
CONTINUOUS
 10
2.0472481738
 20
4.9783671566
 11
2.0728169052
 21
4.993140125
  0
LINE
  5
241
100
AcDbEntity
  8
0
100
AcDbLine
 62
7
  6
CONTINUOUS
 10
2.0472481738
 20
4.9367021566
 11
2.0728169052
 21
4.951475125
  0
LINE
  5
242
100
AcDbEntity
  8
0
100
AcDbLine
 62
7
  6
CONTINUOUS
 10
2.0472481738
 20
4.8950371566
 11
2.0728169052
 21
4.909810125
  0
LINE
  5
243
100
AcDbEntity
  8
0
100
AcDbLine
 62
7
  6
CONTINUOUS
 10
2.3130277604
 20
4.3085249373
 11
2.3230277604
 21
4.2985249373
  0
LINE
  5
244
100
AcDbEntity
  8
0
100
AcDbLine
 62
7
  6
CONTINUOUS
 10
2.3230277601
 20
4.298524937
 11
2.3330277601
 21
4.308524937
  0
LINE
  5
245
100
AcDbEntity
  8
0
100
AcDbLine
 62
7
  6
CONTINUOUS
 10
2.096045879
 20
4.3012634027
 11
2.0936991777
 21
4.2990937419
  0
LINE
  5
246
100
AcDbEntity
  8
0
100
AcDbLine
 62
7
  6
CONTINUOUS
 10
2.1040277604
 20
4.3085249373
 11
1.7605277604
 21
3.9960249373
  0
LINE
  5
247
100
AcDbEntity
  8
0
100
AcDbLine
 62
7
  6
CONTINUOUS
 10
1.879707979
 20
4.1044528399
 11
1.8668779249
 21
4.0927828601
  0
LINE
  5
248
100
AcDbEntity
  8
0
100
AcDbLine
 62
7
  6
CONTINUOUS
 10
2.085299779
 20
4.2914734076
 11
2.0820376635
 21
4.2885063084
  0
LINE
  5
249
100
AcDbEntity
  8
0
100
AcDbLine
 62
7
  6
CONTINUOUS
 10
1.8534416725
 20
4.0805535976
 11
1.8393706461
 21
4.0677553779
  0
LINE
  5
24A
100
AcDbEntity
  8
0
100
AcDbLine
 62
7
  6
CONTINUOUS
 10
2.0728169052
 20
4.8755947495
 11
2.0730277604
 21
4.8753511379
  0
LINE
  5
24B
100
AcDbEntity
  8
0
100
AcDbLine
 62
7
  6
CONTINUOUS
 10
2.0728169052
 20
4.9172597495
 11
2.0730277604
 21
4.9170161379
  0
LINE
  5
24C
100
AcDbEntity
  8
0
100
AcDbLine
 62
7
  6
CONTINUOUS
 10
2.0728169052
 20
4.9589247495
 11
2.0730277604
 21
4.9586811379
  0
LINE
  5
24D
100
AcDbEntity
  8
0
100
AcDbLine
 62
7
  6
CONTINUOUS
 10
2.0728169052
 20
5.0005897495
 11
2.0730277604
 21
5.0003461379
  0
LINE
  5
24E
100
AcDbEntity
  8
0
100
AcDbLine
 62
7
  6
CONTINUOUS
 10
2.0728169052
 20
5.0422547495
 11
2.0730277604
 21
5.0420111379
  0
LWPOLYLINE
  5
24F
100
AcDbEntity
  8
0
100
AcDbPolyline
 62
7
  6
CONTINUOUS
 90
6
 70
0
 10
2.1040277604
 20
4.3085249373
 10
2.1036609665
 20
4.3082784926
 10
2.1029087648
 20
4.3075760771
 10
2.1017711552
 20
4.3064718944
 10
2.1001936485
 20
4.3050177613
 10
2.098230734
 20
4.30326454
  0
LINE
  5
250
100
AcDbEntity
  8
0
100
AcDbLine
 62
7
  6
CONTINUOUS
 10
2.3130277604
 20
3.6835249373
 11
2.3230277604
 21
3.6935249373
  0
LINE
  5
251
100
AcDbEntity
  8
0
100
AcDbLine
 62
7
  6
CONTINUOUS
 10
1.4482386155
 20
4.930642625
 11
1.47352031
 21
4.9160355098
  0
LINE
  5
252
100
AcDbEntity
  8
0
100
AcDbLine
 62
7
  6
CONTINUOUS
 10
1.4482386155
 20
4.972307625
 11
1.47352031
 21
4.9577005098
  0
LINE
  5
253
100
AcDbEntity
  8
0
100
AcDbLine
 62
7
  6
CONTINUOUS
 10
1.4482386155
 20
5.013972625
 11
1.47352031
 21
4.9993655098
  0
LINE
  5
254
100
AcDbEntity
  8
0
100
AcDbLine
 62
7
  6
CONTINUOUS
 10
1.4482386155
 20
5.055637625
 11
1.47352031
 21
5.0410305098
  0
LINE
  5
255
100
AcDbEntity
  8
0
100
AcDbLine
 62
7
  6
CONTINUOUS
 10
2.0728169052
 20
4.8755947495
 11
2.0475352107
 21
4.8902018647
  0
LINE
  5
256
100
AcDbEntity
  8
0
100
AcDbLine
 62
7
  6
CONTINUOUS
 10
2.0728169052
 20
4.9172597495
 11
2.0475352107
 21
4.9318668647
  0
LINE
  5
257
100
AcDbEntity
  8
0
100
AcDbLine
 62
7
  6
CONTINUOUS
 10
2.3130277604
 20
3.6835249373
 11
1.6355277604
 21
3.6835249373
  0
LINE
  5
258
100
AcDbEntity
  8
0
100
AcDbLine
 62
7
  6
CONTINUOUS
 10
2.3330277604
 20
3.6835249373
 11
7.1880277604
 21
3.6835249373
  0
LINE
  5
259
100
AcDbEntity
  8
0
100
AcDbLine
 62
7
  6
CONTINUOUS
 10
7.2080277604
 20
3.6835249373
 11
7.8855277604
 21
3.6835249373
  0
LINE
  5
25A
100
AcDbEntity
  8
0
100
AcDbLine
 62
7
  6
CONTINUOUS
 10
2.0728169052
 20
4.9589247495
 11
2.0475352107
 21
4.9735318647
  0
LINE
  5
25B
100
AcDbEntity
  8
0
100
AcDbLine
 62
7
  6
CONTINUOUS
 10
2.0728169052
 20
5.0005897495
 11
2.0475352107
 21
5.0151968647
  0
LINE
  5
25C
100
AcDbEntity
  8
0
100
AcDbLine
 62
7
  6
CONTINUOUS
 10
2.0728169052
 20
5.0422547495
 11
2.0475352107
 21
5.0568618647
  0
LINE
  5
25D
100
AcDbEntity
  8
0
100
AcDbLine
 62
7
  6
CONTINUOUS
 10
2.3130277604
 20
4.3085249373
 11
2.1040277604
 21
4.3085249373
  0
LINE
  5
25E
100
AcDbEntity
  8
0
100
AcDbLine
 62
7
  6
CONTINUOUS
 10
2.3330277604
 20
4.3085249373
 11
7.1880277604
 21
4.3085249373
  0
LINE
  5
25F
100
AcDbEntity
  8
0
100
AcDbLine
 62
7
  6
CONTINUOUS
 10
7.2080277604
 20
4.3085249373
 11
7.4170277604
 21
4.3085249373
  0
LINE
  5
260
100
AcDbEntity
  8
0
100
AcDbLine
 62
7
  6
CONTINUOUS
 10
1.4480288461
 20
5.0610249373
 11
2.0474775564
 21
5.0610249373
  0
LINE
  5
261
100
AcDbEntity
  8
0
100
AcDbLine
 62
7
  6
CONTINUOUS
 10
7.4735779643
 20
5.0610249373
 11
8.0730266746
 21
5.0610249373
  0
LINE
  5
262
100
AcDbEntity
  8
0
100
AcDbLine
 62
7
  6
CONTINUOUS
 10
7.4738073469
 20
5.0570277179
 11
7.4482386155
 21
5.0422547495
  0
LINE
  5
263
100
AcDbEntity
  8
0
100
AcDbLine
 62
7
  6
CONTINUOUS
 10
7.4738073469
 20
5.0153627179
 11
7.4482386155
 21
5.0005897495
  0
LINE
  5
264
100
AcDbEntity
  8
0
100
AcDbLine
 62
7
  6
CONTINUOUS
 10
7.4738073469
 20
4.9736977179
 11
7.4482386155
 21
4.9589247495
  0
LINE
  5
265
100
AcDbEntity
  8
0
100
AcDbLine
 62
7
  6
CONTINUOUS
 10
7.4738073469
 20
4.9320327179
 11
7.4482386155
 21
4.9172597495
  0
LINE
  5
266
100
AcDbEntity
  8
0
100
AcDbLine
 62
7
  6
CONTINUOUS
 10
7.4738073469
 20
4.8903677179
 11
7.4482386155
 21
4.8755947495
  0
LINE
  5
267
100
AcDbEntity
  8
0
100
AcDbLine
 62
7
  6
CONTINUOUS
 10
8.0472481738
 20
5.0408646566
 11
8.0728169052
 21
5.055637625
  0
LINE
  5
268
100
AcDbEntity
  8
0
100
AcDbLine
 62
7
  6
CONTINUOUS
 10
8.0472481738
 20
4.9991996566
 11
8.0728169052
 21
5.013972625
  0
LINE
  5
269
100
AcDbEntity
  8
0
100
AcDbLine
 62
7
  6
CONTINUOUS
 10
8.0472481738
 20
4.9575346566
 11
8.0728169052
 21
4.972307625
  0
LINE
  5
26A
100
AcDbEntity
  8
0
100
AcDbLine
 62
7
  6
CONTINUOUS
 10
8.0472481738
 20
4.9158696566
 11
8.0728169052
 21
4.930642625
  0
LINE
  5
26B
100
AcDbEntity
  8
0
100
AcDbLine
 62
7
  6
CONTINUOUS
 10
7.2080277603
 20
3.6835249373
 11
7.1980277603
 21
3.6935249373
  0
LINE
  5
26C
100
AcDbEntity
  8
0
100
AcDbLine
 62
7
  6
CONTINUOUS
 10
7.4482386155
 20
5.0422547495
 11
7.4480277604
 21
5.0420111379
  0
LINE
  5
26D
100
AcDbEntity
  8
0
100
AcDbLine
 62
7
  6
CONTINUOUS
 10
7.4482386155
 20
5.0005897495
 11
7.4480277604
 21
5.0003461379
  0
LINE
  5
26E
100
AcDbEntity
  8
0
100
AcDbLine
 62
7
  6
CONTINUOUS
 10
7.4482386155
 20
4.9589247495
 11
7.4480277604
 21
4.9586811379
  0
LINE
  5
26F
100
AcDbEntity
  8
0
100
AcDbLine
 62
7
  6
CONTINUOUS
 10
7.4482386155
 20
4.9172597495
 11
7.4480277604
 21
4.9170161379
  0
LINE
  5
270
100
AcDbEntity
  8
0
100
AcDbLine
 62
7
  6
CONTINUOUS
 10
7.4482386155
 20
4.8755947495
 11
7.4480277604
 21
4.8753511379
  0
LINE
  5
271
100
AcDbEntity
  8
0
100
AcDbLine
 62
7
  6
CONTINUOUS
 10
7.2080277603
 20
4.3085249373
 11
7.1980277603
 21
4.2985249373
  0
LINE
  5
272
100
AcDbEntity
  8
0
100
AcDbLine
 62
7
  6
CONTINUOUS
 10
7.4482386155
 20
4.909810125
 11
7.47352031
 21
4.8952030098
  0
LWPOLYLINE
  5
273
100
AcDbEntity
  8
0
100
AcDbPolyline
 62
7
  6
CONTINUOUS
 90
6
 70
0
 10
7.4223128174
 20
4.3037291678
 10
7.4205169443
 20
4.3053345694
 10
7.4190761405
 20
4.3066613413
 10
7.4180382777
 20
4.3076653356
 10
7.4173554843
 20
4.3083020967
 10
7.4170277604
 20
4.3085249373
  0
LINE
  5
274
100
AcDbEntity
  8
0
100
AcDbLine
 62
7
  6
CONTINUOUS
 10
7.7605277604
 20
3.9960249373
 11
7.4170277596
 21
4.3085249372
  0
LINE
  5
275
100
AcDbEntity
  8
0
100
AcDbLine
 62
7
  6
CONTINUOUS
 10
7.5924348129
 20
4.1489468214
 11
7.5829946802
 21
4.1575365701
  0
LINE
  5
276
100
AcDbEntity
  8
0
100
AcDbLine
 62
7
  6
CONTINUOUS
 10
7.7287062765
 20
4.0249486057
 11
7.6587462335
 21
4.0886256745
  0
LINE
  5
277
100
AcDbEntity
  8
0
100
AcDbLine
 62
7
  6
CONTINUOUS
 10
7.5651861237
 20
4.1737385296
 11
7.434144127
 21
4.2929306472
  0
LWPOLYLINE
  5
278
100
AcDbEntity
  8
0
100
AcDbPolyline
 62
7
  6
CONTINUOUS
 90
3
 70
0
 10
7.434144127
 20
4.2929306472
 10
7.4314672465
 20
4.2953885656
 10
7.426505883
 20
4.2998778672
  0
LINE
  5
279
100
AcDbEntity
  8
0
100
AcDbLine
 62
7
  6
CONTINUOUS
 10
7.426505883
 20
4.2998778672
 11
7.4223128174
 21
4.3037291678
  0
LINE
  5
27A
100
AcDbEntity
  8
0
100
AcDbLine
 62
7
  6
CONTINUOUS
 10
7.1980277605
 20
4.2985249371
 11
7.1880277605
 21
4.3085249371
  0
LINE
  5
27B
100
AcDbEntity
  8
0
100
AcDbLine
 62
7
  6
CONTINUOUS
 10
7.4482386155
 20
4.951475125
 11
7.47352031
 21
4.9368680098
  0
LINE
  5
27C
100
AcDbEntity
  8
0
100
AcDbLine
 62
7
  6
CONTINUOUS
 10
7.4482386155
 20
4.993140125
 11
7.47352031
 21
4.9785330098
  0
LINE
  5
27D
100
AcDbEntity
  8
0
100
AcDbLine
 62
7
  6
CONTINUOUS
 10
7.4482386155
 20
5.034805125
 11
7.47352031
 21
5.0201980098
  0
LINE
  5
27E
100
AcDbEntity
  8
0
100
AcDbLine
 62
7
  6
CONTINUOUS
 10
7.4636220498
 20
4.3224085688
 11
7.4611641312
 21
4.3250854496
  0
LWPOLYLINE
  5
27F
100
AcDbEntity
  8
0
100
AcDbPolyline
 62
7
  6
CONTINUOUS
 90
7
 70
0
 10
7.4566748292
 20
4.3300468149
 10
7.4528235288
 20
4.3342398809
 10
7.4512181273
 20
4.3360357534
 10
7.4498913558
 20
4.3374765566
 10
7.4488873617
 20
4.3385144194
 10
7.4482506008
 20
4.3391972129
 10
7.4480277604
 20
4.3395249373
  0
LINE
  5
280
100
AcDbEntity
  8
0
100
AcDbLine
 62
7
  6
CONTINUOUS
 10
7.7605277604
 20
3.9960249373
 11
7.4480277602
 21
4.339524938
  0
LINE
  5
281
100
AcDbEntity
  8
0
100
AcDbLine
 62
7
  6
CONTINUOUS
 10
7.6679270231
 20
4.0978064641
 11
7.645990084
 21
4.1219247412
  0
LINE
  5
282
100
AcDbEntity
  8
0
100
AcDbLine
 62
7
  6
CONTINUOUS
 10
7.4588353558
 20
4.3276496215
 11
7.4566748292
 21
4.3300468149
  0
LINE
  5
283
100
AcDbEntity
  8
0
100
AcDbLine
 62
7
  6
CONTINUOUS
 10
8.0728169052
 20
5.013972625
 11
8.0730277604
 21
5.0142162366
  0
LINE
  5
284
100
AcDbEntity
  8
0
100
AcDbLine
 62
7
  6
CONTINUOUS
 10
8.0728169052
 20
4.972307625
 11
8.0730277604
 21
4.9725512366
  0
LINE
  5
285
100
AcDbEntity
  8
0
100
AcDbLine
 62
7
  6
CONTINUOUS
 10
8.0728169052
 20
4.930642625
 11
8.0730277604
 21
4.9308862366
  0
LINE
  5
286
100
AcDbEntity
  8
0
100
AcDbLine
 62
7
  6
CONTINUOUS
 10
7.1980277605
 20
3.6935249374
 11
7.1880277605
 21
3.6835249375
  0
LINE
  5
287
100
AcDbEntity
  8
0
100
AcDbLine
 62
7
  6
CONTINUOUS
 10
8.0728169052
 20
4.8964272495
 11
8.0475352107
 21
4.9110343647
  0
LINE
  5
288
100
AcDbEntity
  8
0
100
AcDbLine
 62
7
  6
CONTINUOUS
 10
8.0728169052
 20
4.9380922495
 11
8.0475352107
 21
4.9526993647
  0
LINE
  5
289
100
AcDbEntity
  8
0
100
AcDbLine
 62
7
  6
CONTINUOUS
 10
8.0728169052
 20
4.9797572495
 11
8.0475352107
 21
4.9943643647
  0
LINE
  5
28A
100
AcDbEntity
  8
0
100
AcDbLine
 62
7
  6
CONTINUOUS
 10
8.0728169052
 20
5.0214222495
 11
8.0475352107
 21
5.0360293647
  0
LINE
  5
28B
100
AcDbEntity
  8
0
100
AcDbLine
 62
7
  6
CONTINUOUS
 10
7.1880277604
 20
4.3085249373
 11
7.1880277604
 21
3.6835249373
  0
LINE
  5
28C
100
AcDbEntity
  8
0
100
AcDbLine
 62
7
  6
CONTINUOUS
 10
7.1980277604
 20
4.2985249373
 11
7.1980277604
 21
3.6935249373
  0
LINE
  5
28D
100
AcDbEntity
  8
0
100
AcDbLine
 62
7
  6
CONTINUOUS
 10
7.2080277604
 20
4.3085249373
 11
7.2080277604
 21
3.6835249373
  0
LINE
  5
28E
100
AcDbEntity
  8
0
100
AcDbLine
 62
7
  6
CONTINUOUS
 10
7.4482386155
 20
4.909810125
 11
7.4480277604
 21
4.9100537366
  0
LINE
  5
28F
100
AcDbEntity
  8
0
100
AcDbLine
 62
7
  6
CONTINUOUS
 10
7.4482386155
 20
4.951475125
 11
7.4480277604
 21
4.9517187366
  0
LINE
  5
290
100
AcDbEntity
  8
0
100
AcDbLine
 62
7
  6
CONTINUOUS
 10
7.4482386155
 20
4.993140125
 11
7.4480277604
 21
4.9933837366
  0
LINE
  5
291
100
AcDbEntity
  8
0
100
AcDbLine
 62
7
  6
CONTINUOUS
 10
7.4482386155
 20
5.034805125
 11
7.4480277604
 21
5.0350487366
  0
LINE
  5
292
100
AcDbEntity
  8
0
100
AcDbLine
 62
7
  6
CONTINUOUS
 10
7.4480277604
 20
4.3395249373
 11
7.4480277604
 21
4.8753511379
  0
LINE
  5
293
100
AcDbEntity
  8
0
100
AcDbLine
 62
7
  6
CONTINUOUS
 10
7.4480277604
 20
4.9100537366
 11
7.4480277604
 21
4.9170161379
  0
LINE
  5
294
100
AcDbEntity
  8
0
100
AcDbLine
 62
7
  6
CONTINUOUS
 10
7.4480277604
 20
4.9517187366
 11
7.4480277604
 21
4.9586811379
  0
LINE
  5
295
100
AcDbEntity
  8
0
100
AcDbLine
 62
7
  6
CONTINUOUS
 10
7.4480277604
 20
4.9933837366
 11
7.4480277604
 21
5.0003461379
  0
LINE
  5
296
100
AcDbEntity
  8
0
100
AcDbLine
 62
7
  6
CONTINUOUS
 10
7.4480277604
 20
5.0350487366
 11
7.4480277604
 21
5.0420111379
  0
LINE
  5
297
100
AcDbEntity
  8
0
100
AcDbLine
 62
7
  6
CONTINUOUS
 10
7.4735777604
 20
5.0610249373
 11
7.4735777604
 21
5.0567624373
  0
LINE
  5
298
100
AcDbEntity
  8
0
100
AcDbLine
 62
7
  6
CONTINUOUS
 10
7.4735777604
 20
5.0202974373
 11
7.4735777604
 21
5.0150974373
  0
LINE
  5
299
100
AcDbEntity
  8
0
100
AcDbLine
 62
7
  6
CONTINUOUS
 10
7.4735777604
 20
4.9786324373
 11
7.4735777604
 21
4.9734324373
  0
LINE
  5
29A
100
AcDbEntity
  8
0
100
AcDbLine
 62
7
  6
CONTINUOUS
 10
7.4735777604
 20
4.9369674373
 11
7.4735777604
 21
4.9317674373
  0
LINE
  5
29B
100
AcDbEntity
  8
0
100
AcDbLine
 62
7
  6
CONTINUOUS
 10
7.4735777604
 20
4.8953024373
 11
7.4735777604
 21
4.8901024373
  0
LINE
  5
29C
100
AcDbEntity
  8
0
100
AcDbLine
 62
7
  6
CONTINUOUS
 10
8.0728169052
 20
4.8964272495
 11
8.0730277604
 21
4.8961836379
  0
LINE
  5
29D
100
AcDbEntity
  8
0
100
AcDbLine
 62
7
  6
CONTINUOUS
 10
8.0728169052
 20
4.9380922495
 11
8.0730277604
 21
4.9378486379
  0
LINE
  5
29E
100
AcDbEntity
  8
0
100
AcDbLine
 62
7
  6
CONTINUOUS
 10
8.0728169052
 20
4.9797572495
 11
8.0730277604
 21
4.9795136379
  0
LINE
  5
29F
100
AcDbEntity
  8
0
100
AcDbLine
 62
7
  6
CONTINUOUS
 10
8.0728169052
 20
5.0214222495
 11
8.0730277604
 21
5.0211786379
  0
LINE
  5
2A0
100
AcDbEntity
  8
0
100
AcDbLine
 62
7
  6
CONTINUOUS
 10
8.0474777604
 20
4.9109349373
 11
8.0474777604
 21
4.9161349373
  0
LINE
  5
2A1
100
AcDbEntity
  8
0
100
AcDbLine
 62
7
  6
CONTINUOUS
 10
8.0474777604
 20
4.9525999373
 11
8.0474777604
 21
4.9577999373
  0
LINE
  5
2A2
100
AcDbEntity
  8
0
100
AcDbLine
 62
7
  6
CONTINUOUS
 10
8.0474777604
 20
4.9942649373
 11
8.0474777604
 21
4.9994649373
  0
LINE
  5
2A3
100
AcDbEntity
  8
0
100
AcDbLine
 62
7
  6
CONTINUOUS
 10
8.0474777604
 20
5.0359299373
 11
8.0474777604
 21
5.0411299373
  0
LINE
  5
2A4
100
AcDbEntity
  8
0
100
AcDbLine
 62
7
  6
CONTINUOUS
 10
8.0730277604
 20
3.8710249373
 11
8.0730277604
 21
4.8961836379
  0
LINE
  5
2A5
100
AcDbEntity
  8
0
100
AcDbLine
 62
7
  6
CONTINUOUS
 10
8.0730277604
 20
4.9308862366
 11
8.0730277604
 21
4.9378486379
  0
LINE
  5
2A6
100
AcDbEntity
  8
0
100
AcDbLine
 62
7
  6
CONTINUOUS
 10
8.0730277604
 20
4.9725512366
 11
8.0730277604
 21
4.9795136379
  0
LINE
  5
2A7
100
AcDbEntity
  8
0
100
AcDbLine
 62
7
  6
CONTINUOUS
 10
8.0730277604
 20
5.0142162366
 11
8.0730277604
 21
5.0211786379
  0
LINE
  5
2A8
100
AcDbEntity
  8
0
100
AcDbLine
 62
7
  6
CONTINUOUS
 10
8.0730277604
 20
5.0558812366
 11
8.0730277604
 21
5.0610249373
  0
ARC
  5
2A9
100
AcDbEntity
  8
0
100
AcDbCircle
 62
7
  6
CONTINUOUS
 10
1.6355278143
 20
3.8710249912
 40
0.1874999191
100
AcDbArc
 50
180.0000164854
 51
269.9999835146
  0
ARC
  5
2AA
100
AcDbEntity
  8
0
100
AcDbCircle
 62
7
  6
CONTINUOUS
 10
7.8855277064
 20
3.8710249912
 40
0.1874999191
100
AcDbArc
 50
270.0000164854
 51
359.9999835146
  0
ARC
  5
2AB
100
AcDbEntity
  8
0
100
AcDbCircle
 62
7
  6
CONTINUOUS
 10
2.1040276123
 20
4.3395247892
 40
0.0309999866
100
AcDbArc
 50
179.9997263728
 51
270.0002736272
  0
ARC
  5
2AC
100
AcDbEntity
  8
0
100
AcDbCircle
 62
7
  6
CONTINUOUS
 10
7.4170279084
 20
4.3395247892
 40
0.0309999866
100
AcDbArc
 50
269.9997263728
 51
0.0002736272
  0
ARC
  5
2AD
100
AcDbEntity
  8
0
100
AcDbCircle
 62
7
  6
CONTINUOUS
 10
2.0445814425
 20
4.9849365625
 40
0.0071151186
100
AcDbArc
 50
285.6284520519
 51
286.5668230868
  0
LINE
  5
2AE
100
AcDbEntity
  8
0
100
AcDbLine
 62
7
  6
CONTINUOUS
 10
1.4480278334
 20
5.055881237
 11
1.4482387173
 21
5.0556376245
  0
SPLINE
  5
2AF
100
AcDbEntity
  8
0
100
AcDbSpline
 62
7
  6
CONTINUOUS
 70
0
 71
3
 72
29
 73
25
 74
0
 42
0.0000001
 43
0.0000001
 44
0.0000000001
 40
0.0
 40
0.0
 40
0.0
 40
0.0
 40
0.2112224379
 40
0.3095602843
 40
0.402521143
 40
0.4897827196
 40
0.5710327843
 40
0.6459764908
 40
0.7143284074
 40
0.7758449415
 40
0.8302992496
 40
0.8774948017
 40
0.8983187049
 40
0.9172662192
 40
0.9343199671
 40
0.9494680697
 40
0.9626998865
 40
0.974005885
 40
0.9833787666
 40
0.990819482
 40
0.9938196515
 40
0.9963441001
 40
0.998399726
 40
1.0
 40
1.0
 40
1.0
 40
1.0
 10
1.9275317348
 20
4.9033762366
 30
0.0
 10
1.9377742476
 20
4.9036333806
 30
0.0
 10
1.9527849927
 20
4.9040237342
 30
0.0
 10
1.9723023604
 20
4.9045713447
 30
0.0
 10
1.9858085132
 20
4.9049720459
 30
0.0
 10
1.9984854127
 20
4.9053724991
 30
0.0
 10
2.0102878986
 20
4.9057727458
 30
0.0
 10
2.0211725834
 20
4.906172617
 30
0.0
 10
2.0310993693
 20
4.9065721205
 30
0.0
 10
2.0400314296
 20
4.9069709485
 30
0.0
 10
2.0479361518
 20
4.9073690147
 30
0.0
 10
2.0538671331
 20
4.9077124154
 30
0.0
 10
2.0580764388
 20
4.9079910714
 30
0.0
 10
2.0608256101
 20
4.9081910513
 30
0.0
 10
2.063298684
 20
4.9083907924
 30
0.0
 10
2.0654935406
 20
4.9085901853
 30
0.0
 10
2.0674083328
 20
4.9087891228
 30
0.0
 10
2.0690414008
 20
4.9089872278
 30
0.0
 10
2.0703911721
 20
4.9091844506
 30
0.0
 10
2.0713371322
 20
4.9093570239
 30
0.0
 10
2.0719496952
 20
4.909499974
 30
0.0
 10
2.0723040239
 20
4.9095989701
 30
0.0
 10
2.0725873475
 20
4.9096973857
 30
0.0
 10
2.0727492484
 20
4.9097713331
 30
0.0
 10
2.0728164846
 20
4.9098101251
 30
0.0
  0
LINE
  5
2B0
100
AcDbEntity
  8
0
100
AcDbLine
 62
7
  6
CONTINUOUS
 10
1.6355277604
 20
3.6835249373
 11
1.7605277604
 21
3.9960249373
  0
SPLINE
  5
2B1
100
AcDbEntity
  8
0
100
AcDbSpline
 62
7
  6
CONTINUOUS
 70
0
 71
3
 72
30
 73
26
 74
0
 42
0.0000001
 43
0.0000001
 44
0.0000000001
 40
0.0
 40
0.0
 40
0.0
 40
0.0
 40
0.0017811237
 40
0.0024770402
 40
0.0032894666
 40
0.0052785935
 40
0.007768586
 40
0.010768508
 40
0.0142832098
 40
0.0183154489
 40
0.0279378394
 40
0.0396380023
 40
0.053407876
 40
0.0692367782
 40
0.1070218336
 40
0.1528571411
 40
0.2065626197
 40
0.2679363717
 40
0.3367311544
 40
0.4126844531
 40
0.4954872669
 40
0.5848119894
 40
0.6803142573
 40
0.7816355973
 40
1.0
 40
1.0
 40
1.0
 40
1.0
 10
2.0730277604
 20
4.8753511379
 30
0.0
 10
2.0730277604
 20
4.8752645474
 30
0.0
 10
2.0729163562
 20
4.8751652739
 30
0.0
 10
2.0727821171
 20
4.8750868707
 30
0.0
 10
2.0726278552
 20
4.8750120194
 30
0.0
 10
2.0723869603
 20
4.8749227019
 30
0.0
 10
2.072037701
 20
4.8748199649
 30
0.0
 10
2.0716121665
 20
4.8747170948
 30
0.0
 10
2.0711098431
 20
4.8746137402
 30
0.0
 10
2.0702881041
 20
4.8744669
 30
0.0
 10
2.0690682725
 20
4.8742878666
 30
0.0
 10
2.0673745711
 20
4.874082321
 30
0.0
 10
2.0653773357
 20
4.8738760203
 30
0.0
 10
2.0621145319
 20
4.8735825832
 30
0.0
 10
2.0572927138
 20
4.8732252195
 30
0.0
 10
2.0506290933
 20
4.8728145031
 30
0.0
 10
2.0428169203
 20
4.8724022308
 30
0.0
 10
2.033887294
 20
4.8719887996
 30
0.0
 10
2.0238750867
 20
4.8715745437
 30
0.0
 10
2.0128203144
 20
4.8711597979
 30
0.0
 10
2.0007668432
 20
4.8707446131
 30
0.0
 10
1.9877624774
 20
4.8703291516
 30
0.0
 10
1.9738574032
 20
4.8699134204
 30
0.0
 10
1.9536807898
 20
4.8693445635
 30
0.0
 10
1.9381443123
 20
4.8689400725
 30
0.0
 10
1.9275317348
 20
4.8686736379
 30
0.0
  0
LINE
  5
2B2
100
AcDbEntity
  8
0
100
AcDbLine
 62
7
  6
CONTINUOUS
 10
2.0472475593
 20
4.9783671564
 11
2.0466102006
 21
4.9781168078
  0
SPLINE
  5
2B3
100
AcDbEntity
  8
0
100
AcDbSpline
 62
7
  6
CONTINUOUS
 70
0
 71
3
 72
61
 73
57
 74
0
 42
0.0000001
 43
0.0000001
 44
0.0000000001
 40
0.0
 40
0.0
 40
0.0
 40
0.0
 40
0.0011618999
 40
0.0026014472
 40
0.0043203465
 40
0.0063186671
 40
0.0111504114
 40
0.0170886763
 40
0.0241233919
 40
0.0322402865
 40
0.0414197014
 40
0.0516413467
 40
0.0628840909
 40
0.0751215109
 40
0.1024649367
 40
0.1334266121
 40
0.1677219453
 40
0.205040261
 40
0.2450404379
 40
0.2873576308
 40
0.3316064421
 40
0.3773821312
 40
0.4242680495
 40
0.5196508061
 40
0.5672773574
 40
0.6142809052
 40
0.6602318438
 40
0.7047119102
 40
0.7473137186
 40
0.7876505235
 40
0.8253523091
 40
0.8600772006
 40
0.8915074598
 40
0.9058971153
 40
0.9193573067
 40
0.9318590772
 40
0.9433744625
 40
0.9538757617
 40
0.9633395011
 40
0.9717461757
 40
0.9790766307
 40
0.9853134194
 40
0.9880181876
 40
0.9904457607
 40
0.9925952103
 40
0.994465805
 40
0.9960571506
 40
0.9973695851
 40
0.9979219125
 40
0.9984056364
 40
0.998821604
 40
0.9991711711
 40
0.9994566607
 40
0.9996824071
 40
0.9998572773
 40
1.0
 40
1.0
 40
1.0
 40
1.0
 10
2.0464982418
 20
4.9780844976
 30
0.0
 10
2.0462843222
 20
4.9780245781
 30
0.0
 10
2.0458000698
 20
4.9779094945
 30
0.0
 10
2.0449887315
 20
4.9777537297
 30
0.0
 10
2.0440151301
 20
4.9775972818
 30
0.0
 10
2.0423958724
 20
4.97737362
 30
0.0
 10
2.0399694147
 20
4.9771019365
 30
0.0
 10
2.0365793802
 20
4.9767902606
 30
0.0
 10
2.0325590839
 20
4.9764773936
 30
0.0
 10
2.0279175876
 20
4.9761635155
 30
0.0
 10
2.022665578
 20
4.9758489646
 30
0.0
 10
2.0168149911
 20
4.9755339317
 30
0.0
 10
2.0103789706
 20
4.9752186071
 30
0.0
 10
2.0006714166
 20
4.9747814906
 30
0.0
 10
1.9871945265
 20
4.9742423272
 30
0.0
 10
1.9695005788
 20
4.9736151683
 30
0.0
 10
1.9498984172
 20
4.9729868145
 30
0.0
 10
1.9285673335
 20
4.9723576302
 30
0.0
 10
1.9057018861
 20
4.9717278396
 30
0.0
 10
1.8815108824
 20
4.9710976119
 30
0.0
 10
1.8562152638
 20
4.970467094
 30
0.0
 10
1.8300458594
 20
4.9698363329
 30
0.0
 10
1.7941020999
 20
4.9689903437
 30
0.0
 10
1.7578041347
 20
4.9681541864
 30
0.0
 10
1.721483802
 20
4.9673124758
 30
0.0
 10
1.6946123884
 20
4.9666815793
 30
0.0
 10
1.6683427423
 20
4.9660507951
 30
0.0
 10
1.642914943
 20
4.9654202498
 30
0.0
 10
1.6185608903
 20
4.9647899583
 30
0.0
 10
1.5955032738
 20
4.9641601243
 30
0.0
 10
1.5739522864
 20
4.963530825
 30
0.0
 10
1.5541049701
 20
4.9629023257
 30
0.0
 10
1.5387142975
 20
4.962364923
 30
0.0
 10
1.5273883644
 20
4.9619307932
 30
0.0
 10
1.5196796717
 20
4.9616149461
 30
0.0
 10
1.5125210182
 20
4.9612993029
 30
0.0
 10
1.5059286788
 20
4.9609839219
 30
0.0
 10
1.4999179108
 20
4.9606688251
 30
0.0
 10
1.4945023981
 20
4.9603540987
 30
0.0
 10
1.4896942307
 20
4.9600400278
 30
0.0
 10
1.4855044887
 20
4.9597267666
 30
0.0
 10
1.4824050108
 20
4.9594555167
 30
0.0
 10
1.4802424615
 20
4.9592347139
 30
0.0
 10
1.4788590873
 20
4.9590772803
 30
0.0
 10
1.4776363217
 20
4.9589201328
 30
0.0
 10
1.4765748485
 20
4.9587634143
 30
0.0
 10
1.4756753589
 20
4.9586072168
 30
0.0
 10
1.4750284335
 20
4.9584712079
 30
0.0
 10
1.4745933697
 20
4.9583598084
 30
0.0
 10
1.4743270103
 20
4.9582812654
 30
0.0
 10
1.4741012403
 20
4.9582029161
 30
0.0
 10
1.4739159102
 20
4.9581247653
 30
0.0
 10
1.4737705286
 20
4.9580468168
 30
0.0
 10
1.4736645338
 20
4.9579685094
 30
0.0
 10
1.4735961756
 20
4.9578881655
 30
0.0
 10
1.4735782798
 20
4.9578272262
 30
0.0
 10
1.473578242
 20
4.9577999379
 30
0.0
  0
LINE
  5
2B4
100
AcDbEntity
  8
0
100
AcDbLine
 62
7
  6
CONTINUOUS
 10
1.5374205428
 20
5.0610249373
 11
1.5261895001
 21
5.0606749835
  0
LINE
  5
2B5
100
AcDbEntity
  8
0
100
AcDbLine
 62
7
  6
CONTINUOUS
 10
1.5261895001
 20
5.0606749835
 11
1.5255219007
 21
5.0606535295
  0
SPLINE
  5
2B6
100
AcDbEntity
  8
0
100
AcDbSpline
 62
7
  6
CONTINUOUS
 70
0
 71
3
 72
31
 73
27
 74
0
 42
0.0000001
 43
0.0000001
 44
0.0000000001
 40
0.0
 40
0.0
 40
0.0
 40
0.0
 40
0.2257451386
 40
0.3288787575
 40
0.4252186217
 40
0.5145903217
 40
0.5968201413
 40
0.6717450556
 40
0.7392252064
 40
0.7991245977
 40
0.8513118286
 40
0.8956925329
 40
0.9149339236
 40
0.9321986023
 40
0.94747957
 40
0.9607712152
 40
0.9720727877
 40
0.9813917416
 40
0.9853127981
 40
0.9887457794
 40
0.9916962563
 40
0.994173281
 40
0.9961925583
 40
0.9977837568
 40
0.9990085247
 40
1.0
 40
1.0
 40
1.0
 40
1.0
 10
1.5255219007
 20
5.0606535295
 30
0.0
 10
1.519668573
 20
5.0604650809
 30
0.0
 10
1.5111414991
 20
5.0601776141
 30
0.0
 10
1.5001179009
 20
5.0597686573
 30
0.0
 10
1.4926304645
 20
5.0594714102
 30
0.0
 10
1.4856857697
 20
5.0591743948
 30
0.0
 10
1.4792971665
 20
5.0588776033
 30
0.0
 10
1.4734771343
 20
5.0585810567
 30
0.0
 10
1.4682372111
 20
5.0582848998
 30
0.0
 10
1.4635881563
 20
5.0579893695
 30
0.0
 10
1.4595396873
 20
5.0576945067
 30
0.0
 10
1.4565460499
 20
5.0574392208
 30
0.0
 10
1.4544579361
 20
5.0572314251
 30
0.0
 10
1.4531226144
 20
5.0570832827
 30
0.0
 10
1.4519426697
 20
5.0569354133
 30
0.0
 10
1.4509187182
 20
5.0567879417
 30
0.0
 10
1.4500512341
 20
5.0566409254
 30
0.0
 10
1.4494273151
 20
5.0565129351
 30
0.0
 10
1.4490076042
 20
5.0564081049
 30
0.0
 10
1.4487506276
 20
5.0563342017
 30
0.0
 10
1.4485327856
 20
5.0562604882
 30
0.0
 10
1.448353956
 20
5.0561869714
 30
0.0
 10
1.4482136702
 20
5.0561136777
 30
0.0
 10
1.4481114145
 20
5.0560400752
 30
0.0
 10
1.4480453266
 20
5.055964622
 30
0.0
 10
1.448027864
 20
5.0559069582
 30
0.0
 10
1.4480278334
 20
5.055881237
 30
0.0
  0
SPLINE
  5
2B7
100
AcDbEntity
  8
0
100
AcDbSpline
 62
7
  6
CONTINUOUS
 70
0
 71
3
 72
27
 73
23
 74
0
 42
0.0000001
 43
0.0000001
 44
0.0000000001
 40
0.0
 40
0.0
 40
0.0
 40
0.0
 40
0.0017841541
 40
0.0040111348
 40
0.0098384054
 40
0.0175338139
 40
0.0271147661
 40
0.0385869966
 40
0.0519455691
 40
0.0671811808
 40
0.08428322
 40
0.1240402416
 40
0.1711106872
 40
0.2253383
 40
0.2865518327
 40
0.3545680549
 40
0.4291552295
 40
0.5100679713
 40
0.5970550703
 40
0.6898413118
 40
0.788144908
 40
1.0
 40
1.0
 40
1.0
 40
1.0
 10
2.0472477109
 20
4.895037156
 30
0.0
 10
2.0471859273
 20
4.8950014856
 30
0.0
 10
2.0470405329
 20
4.894932665
 30
0.0
 10
2.0466711208
 20
4.8947967357
 30
0.0
 10
2.0460612895
 20
4.8946352669
 30
0.0
 10
2.0451558397
 20
4.8944514868
 30
0.0
 10
2.0440209843
 20
4.8942665823
 30
0.0
 10
2.0426575474
 20
4.8940805727
 30
0.0
 10
2.0410662659
 20
4.8938939968
 30
0.0
 10
2.039248606
 20
4.893706951
 30
0.0
 10
2.036377809
 20
4.8934437801
 30
0.0
 10
2.0322344412
 20
4.8931211239
 30
0.0
 10
2.0266064087
 20
4.8927490035
 30
0.0
 10
2.0201188607
 20
4.8923757885
 30
0.0
 10
2.0127926169
 20
4.8920017055
 30
0.0
 10
2.0046513483
 20
4.8916271766
 30
0.0
 10
1.9957216522
 20
4.8912522065
 30
0.0
 10
1.9860327847
 20
4.8908769279
 30
0.0
 10
1.9756157091
 20
4.8905014838
 30
0.0
 10
1.9645028276
 20
4.8901258025
 30
0.0
 10
1.9483988133
 20
4.8896117296
 30
0.0
 10
1.9360021356
 20
4.8892461063
 30
0.0
 10
1.9275342883
 20
4.8890054533
 30
0.0
  0
SPLINE
  5
2B8
100
AcDbEntity
  8
0
100
AcDbSpline
 62
7
  6
CONTINUOUS
 70
0
 71
3
 72
65
 73
61
 74
0
 42
0.0000001
 43
0.0000001
 44
0.0000000001
 40
0.0
 40
0.0
 40
0.0
 40
0.0
 40
0.0001336266
 40
0.0003030296
 40
0.0005273957
 40
0.0008150623
 40
0.0011698876
 40
0.0015938626
 40
0.0020881109
 40
0.0026533086
 40
0.0039980291
 40
0.0056300237
 40
0.0075500451
 40
0.0097580064
 40
0.0122527942
 40
0.0150330184
 40
0.0214436864
 40
0.0289773996
 40
0.0376186581
 40
0.047345784
 40
0.0581359802
 40
0.0699658507
 40
0.0828071162
 40
0.0966287227
 40
0.1113995057
 40
0.1436484235
 40
0.1792494262
 40
0.2178687315
 40
0.2591433819
 40
0.3026837008
 40
0.3480812894
 40
0.3949088231
 40
0.4427277298
 40
0.491088236
 40
0.5395357178
 40
0.5876135457
 40
0.6348697581
 40
0.680859459
 40
0.7251510686
 40
0.7673290354
 40
0.8069958439
 40
0.8437804993
 40
0.8773350457
 40
0.9073461503
 40
0.920932906
 40
0.9335318328
 40
0.9451121366
 40
0.9556465474
 40
0.9651122207
 40
0.9734867074
 40
0.9807492972
 40
0.9868855943
 40
0.9918833086
 40
0.9939517925
 40
0.9957321854
 40
0.9972248454
 40
0.9984309474
 40
0.9993533204
 40
0.9997102798
 40
1.0
 40
1.0
 40
1.0
 40
1.0
 10
2.0730277604
 20
5.0420111379
 30
0.0
 10
2.0730277604
 20
5.0419832782
 30
0.0
 10
2.0730067981
 20
5.0419200575
 30
0.0
 10
2.0729296815
 20
5.0418393138
 30
0.0
 10
2.0728109954
 20
5.0417602299
 30
0.0
 10
2.0726479408
 20
5.041681387
 30
0.0
 10
2.0724400108
 20
5.0416021751
 30
0.0
 10
2.0721866436
 20
5.0415227119
 30
0.0
 10
2.0718877413
 20
5.0414430104
 30
0.0
 10
2.0713993598
 20
5.0413298867
 30
0.0
 10
2.0706736837
 20
5.0411918002
 30
0.0
 10
2.0696650705
 20
5.0410331851
 30
0.0
 10
2.0684746778
 20
5.0408740677
 30
0.0
 10
2.0671030985
 20
5.0407145583
 30
0.0
 10
2.0655511472
 20
5.0405547668
 30
0.0
 10
2.0631251027
 20
5.0403306717
 30
0.0
 10
2.0596489492
 20
5.0400554023
 30
0.0
 10
2.0549507754
 20
5.0397374008
 30
0.0
 10
2.0495598277
 20
5.0394186765
 30
0.0
 10
2.0434889438
 20
5.0390992578
 30
0.0
 10
2.0367524683
 20
5.0387793975
 30
0.0
 10
2.0293660793
 20
5.0384592788
 30
0.0
 10
2.0213471407
 20
5.038138937
 30
0.0
 10
2.0127146105
 20
5.0378183723
 30
0.0
 10
2.0000374978
 20
5.0373777866
 30
0.0
 10
1.9828205653
 20
5.0368324804
 30
0.0
 10
1.9606320269
 20
5.036194545
 30
0.0
 10
1.9365610288
 20
5.0355558598
 30
0.0
 10
1.9108342449
 20
5.034916596
 30
0.0
 10
1.8836938618
 20
5.034276905
 30
0.0
 10
1.8553954623
 20
5.0336369588
 30
0.0
 10
1.8262048086
 20
5.0329967894
 30
0.0
 10
1.7963962767
 20
5.0323565017
 30
0.0
 10
1.7662499282
 20
5.0317161271
 30
0.0
 10
1.7360495856
 20
5.0310757466
 30
0.0
 10
1.7060795273
 20
5.0304354032
 30
0.0
 10
1.6766220055
 20
5.0297951837
 30
0.0
 10
1.6479540556
 20
5.0291551397
 30
0.0
 10
1.6203451312
 20
5.0285153514
 30
0.0
 10
1.5940548207
 20
5.0278759514
 30
0.0
 10
1.5693301054
 20
5.027237007
 30
0.0
 10
1.5464038964
 20
5.0265988558
 30
0.0
 10
1.5254916195
 20
5.0259615779
 30
0.0
 10
1.509415397
 20
5.0254153302
 30
0.0
 10
1.4977073052
 20
5.024973168
 30
0.0
 10
1.489840008
 20
5.0246528663
 30
0.0
 10
1.4826096496
 20
5.0243328117
 30
0.0
 10
1.4760332239
 20
5.024013039
 30
0.0
 10
1.4701260153
 20
5.0236937761
 30
0.0
 10
1.464902019
 20
5.0233751936
 30
0.0
 10
1.46037353
 20
5.0230576218
 30
0.0
 10
1.4565510028
 20
5.022741311
 30
0.0
 10
1.4538119721
 20
5.0224655881
 30
0.0
 10
1.4519814756
 20
5.0222385941
 30
0.0
 10
1.4508791528
 20
5.0220796502
 30
0.0
 10
1.4499585357
 20
5.0219216282
 30
0.0
 10
1.4492199921
 20
5.021764532
 30
0.0
 10
1.4487196195
 20
5.0216265527
 30
0.0
 10
1.4484134101
 20
5.0215109029
 30
0.0
 10
1.44829154
 20
5.0214524195
 30
0.0
 10
1.4482392107
 20
5.0214222494
 30
0.0
  0
SPLINE
  5
2B9
100
AcDbEntity
  8
0
100
AcDbSpline
 62
7
  6
CONTINUOUS
 70
0
 71
3
 72
65
 73
61
 74
0
 42
0.0000001
 43
0.0000001
 44
0.0000000001
 40
0.0
 40
0.0
 40
0.0
 40
0.0
 40
0.0001336263
 40
0.0003030278
 40
0.0005273905
 40
0.0008150518
 40
0.0011698696
 40
0.0015938349
 40
0.0020880711
 40
0.0026532544
 40
0.0039979379
 40
0.005629884
 40
0.0075498435
 40
0.0097577004
 40
0.0122523385
 40
0.0150323818
 40
0.0214426496
 40
0.0289759943
 40
0.0376166603
 40
0.0473430711
 40
0.0581327753
 40
0.0699624127
 40
0.0828032924
 40
0.0966245516
 40
0.1113951705
 40
0.1436430738
 40
0.1792430914
 40
0.2178607117
 40
0.2591333935
 40
0.3026717273
 40
0.3480682853
 40
0.3948961137
 40
0.4427159822
 40
0.4910775086
 40
0.5395256556
 40
0.5876040805
 40
0.6348605674
 40
0.6808507366
 40
0.725143547
 40
0.7673237475
 40
0.8069924329
 40
0.843778504
 40
0.877333843
 40
0.9073451626
 40
0.9209319183
 40
0.9335307904
 40
0.9451109923
 40
0.9556454425
 40
0.9651112334
 40
0.9734857951
 40
0.9807485354
 40
0.9868851209
 40
0.9918831055
 40
0.9939516705
 40
0.9957321158
 40
0.9972248106
 40
0.9984309335
 40
0.9993533169
 40
0.9997102787
 40
1.0
 40
1.0
 40
1.0
 40
1.0
 10
1.4480277604
 20
5.0142162366
 30
0.0
 10
1.4480277604
 20
5.0142440963
 30
0.0
 10
1.448048722
 20
5.0143073167
 30
0.0
 10
1.4481258369
 20
5.0143880604
 30
0.0
 10
1.4482445205
 20
5.0144671443
 30
0.0
 10
1.4484075714
 20
5.014545987
 30
0.0
 10
1.4486154965
 20
5.0146251985
 30
0.0
 10
1.4488688575
 20
5.0147046612
 30
0.0
 10
1.4491677522
 20
5.014784362
 30
0.0
 10
1.4496561205
 20
5.0148974843
 30
0.0
 10
1.4503817758
 20
5.0150355685
 30
0.0
 10
1.4513903585
 20
5.0151941799
 30
0.0
 10
1.4525807069
 20
5.0153532908
 30
0.0
 10
1.4539522205
 20
5.0155127945
 30
0.0
 10
1.4555040812
 20
5.0156725802
 30
0.0
 10
1.4579299735
 20
5.0158966667
 30
0.0
 10
1.4614059291
 20
5.016171927
 30
0.0
 10
1.4661038198
 20
5.0164899103
 30
0.0
 10
1.4714944178
 20
5.0168086271
 30
0.0
 10
1.4775649263
 20
5.017128041
 30
0.0
 10
1.4843011017
 20
5.0174478925
 30
0.0
 10
1.4916872593
 20
5.0177679996
 30
0.0
 10
1.4997059962
 20
5.0180883449
 30
0.0
 10
1.5083383392
 20
5.0184089123
 30
0.0
 10
1.5210151339
 20
5.0188494884
 30
0.0
 10
1.538231615
 20
5.0193947991
 30
0.0
 10
1.5604193855
 20
5.0200327115
 30
0.0
 10
1.5844894164
 20
5.0206713877
 30
0.0
 10
1.6102150251
 20
5.0213106265
 30
0.0
 10
1.6373543692
 20
5.0219503013
 30
0.0
 10
1.6656522015
 20
5.0225902418
 30
0.0
 10
1.6948429023
 20
5.0232304146
 30
0.0
 10
1.7246519088
 20
5.0238707174
 30
0.0
 10
1.7547988091
 20
5.024511103
 30
0.0
 10
1.7849996276
 20
5.0251514946
 30
0.0
 10
1.8149700063
 20
5.0257918417
 30
0.0
 10
1.8444278076
 20
5.026432067
 30
0.0
 10
1.8730961628
 20
5.0270721117
 30
0.0
 10
1.9007059007
 20
5.0277119194
 30
0.0
 10
1.9269973186
 20
5.0283513363
 30
0.0
 10
1.9517231858
 20
5.0289903086
 30
0.0
 10
1.9746502464
 20
5.0296284786
 30
0.0
 10
1.9955630285
 20
5.0302657682
 30
0.0
 10
2.011639461
 20
5.0308120213
 30
0.0
 10
2.0233475863
 20
5.0312541815
 30
0.0
 10
2.0312148511
 20
5.0315744791
 30
0.0
 10
2.0384451851
 20
5.0318945329
 30
0.0
 10
2.0450216226
 20
5.0322143006
 30
0.0
 10
2.0509288799
 20
5.0325335581
 30
0.0
 10
2.0561529478
 20
5.0328521429
 30
0.0
 10
2.0606815436
 20
5.0331697228
 30
0.0
 10
2.0645042186
 20
5.0334860403
 30
0.0
 10
2.0672433828
 20
5.0337617688
 30
0.0
 10
2.0690739631
 20
5.033988771
 30
0.0
 10
2.0701763208
 20
5.0341477188
 30
0.0
 10
2.0710969604
 20
5.0343057432
 30
0.0
 10
2.0718355178
 20
5.034462841
 30
0.0
 10
2.0723358975
 20
5.0346008211
 30
0.0
 10
2.0726421098
 20
5.0347164714
 30
0.0
 10
2.0727639806
 20
5.034774955
 30
0.0
 10
2.0728163101
 20
5.0348051251
 30
0.0
  0
SPLINE
  5
2BA
100
AcDbEntity
  8
0
100
AcDbSpline
 62
7
  6
CONTINUOUS
 70
0
 71
3
 72
65
 73
61
 74
0
 42
0.0000001
 43
0.0000001
 44
0.0000000001
 40
0.0
 40
0.0
 40
0.0
 40
0.0
 40
0.0001336263
 40
0.000303028
 40
0.0005273913
 40
0.0008150538
 40
0.0011698739
 40
0.0015938426
 40
0.0020880836
 40
0.0026532733
 40
0.0039979756
 40
0.00562995
 40
0.0075499495
 40
0.0097578731
 40
0.0122526027
 40
0.0150327519
 40
0.0214432332
 40
0.0289767307
 40
0.0376176171
 40
0.0473442816
 40
0.0581341194
 40
0.0699637629
 40
0.082804709
 40
0.096626046
 40
0.1113967284
 40
0.1436451704
 40
0.1792458883
 40
0.2178647385
 40
0.2591391234
 40
0.3026790719
 40
0.3480764213
 40
0.3949044301
 40
0.4427244787
 40
0.4910860269
 40
0.5395341742
 40
0.5876124621
 40
0.6348688398
 40
0.680858433
 40
0.7251500161
 40
0.7673283047
 40
0.8069956487
 40
0.8437808397
 40
0.8773355518
 40
0.9073466384
 40
0.9209333139
 40
0.9335321308
 40
0.9451123216
 40
0.955646595
 40
0.9651121264
 40
0.9734864984
 40
0.9807490689
 40
0.9868854372
 40
0.9918832409
 40
0.9939517542
 40
0.9957321657
 40
0.9972248372
 40
0.9984309452
 40
0.9993533204
 40
0.99971028
 40
1.0
 40
1.0
 40
1.0
 40
1.0
 10
2.0730277604
 20
5.0003461379
 30
0.0
 10
2.0730277604
 20
5.0003182782
 30
0.0
 10
2.0730067986
 20
5.0002550578
 30
0.0
 10
2.0729296836
 20
5.000174314
 30
0.0
 10
2.0728109994
 20
5.0000952302
 30
0.0
 10
2.0726479476
 20
5.0000163873
 30
0.0
 10
2.072440021
 20
4.9999371757
 30
0.0
 10
2.0721866578
 20
4.9998577128
 30
0.0
 10
2.0718877601
 20
4.9997780117
 30
0.0
 10
2.0713993855
 20
4.9996648886
 30
0.0
 10
2.0706737191
 20
4.9995268031
 30
0.0
 10
2.0696651183
 20
4.9993681898
 30
0.0
 10
2.068474742
 20
4.9992090754
 30
0.0
 10
2.0671031872
 20
4.9990495685
 30
0.0
 10
2.0655512715
 20
4.9988897794
 30
0.0
 10
2.0631252935
 20
4.9986656883
 30
0.0
 10
2.0596492395
 20
4.9983904235
 30
0.0
 10
2.0549512268
 20
4.9980724315
 30
0.0
 10
2.049560498
 20
4.9977537128
 30
0.0
 10
2.0434898626
 20
4.9974342993
 30
0.0
 10
2.0367536052
 20
4.9971144467
 30
0.0
 10
2.0293674046
 20
4.9967943371
 30
0.0
 10
2.0213486362
 20
4.9964739949
 30
0.0
 10
2.0127162499
 20
4.9961534295
 30
0.0
 10
2.0000393134
 20
4.9957128493
 30
0.0
 10
1.9828225607
 20
4.9951675371
 30
0.0
 10
1.9606342756
 20
4.9945296097
 30
0.0
 10
1.9365634872
 20
4.9938909207
 30
0.0
 10
1.9108369306
 20
4.993251662
 30
0.0
 10
1.8836967299
 20
4.9926119707
 30
0.0
 10
1.8553983583
 20
4.9919720229
 30
0.0
 10
1.8262074175
 20
4.9913318463
 30
0.0
 10
1.7963983311
 20
4.9906915454
 30
0.0
 10
1.7662513887
 20
4.990051158
 30
0.0
 10
1.7360505941
 20
4.989410768
 30
0.0
 10
1.7060802667
 20
4.9887704191
 30
0.0
 10
1.6766226368
 20
4.9881301974
 30
0.0
 10
1.6479546803
 20
4.9874901542
 30
0.0
 10
1.6203457168
 20
4.9868503649
 30
0.0
 10
1.594055233
 20
4.9862109624
 30
0.0
 10
1.5693302273
 20
4.9855720094
 30
0.0
 10
1.5464037604
 20
4.9849338525
 30
0.0
 10
1.5254913411
 20
4.9842965688
 30
0.0
 10
1.5094151045
 20
4.9837503201
 30
0.0
 10
1.4977070561
 20
4.9833081577
 30
0.0
 10
1.4898398221
 20
4.9829878574
 30
0.0
 10
1.4826095386
 20
4.9826678072
 30
0.0
 10
1.4760331945
 20
4.9823480396
 30
0.0
 10
1.4701260679
 20
4.9820287815
 30
0.0
 10
1.464902129
 20
4.9817102011
 30
0.0
 10
1.4603736532
 20
4.9813926291
 30
0.0
 10
1.4565510965
 20
4.9810763174
 30
0.0
 10
1.4538120261
 20
4.9808005935
 30
0.0
 10
1.451981501
 20
4.9805735971
 30
0.0
 10
1.4508791659
 20
4.980414652
 30
0.0
 10
1.4499585412
 20
4.9802566292
 30
0.0
 10
1.4492199935
 20
4.9800995325
 30
0.0
 10
1.4487196192
 20
4.9799615529
 30
0.0
 10
1.4484134093
 20
4.979845903
 30
0.0
 10
1.4482915393
 20
4.9797874195
 30
0.0
 10
1.44823921
 20
4.9797572494
 30
0.0
  0
SPLINE
  5
2BB
100
AcDbEntity
  8
0
100
AcDbSpline
 62
7
  6
CONTINUOUS
 70
0
 71
3
 72
65
 73
61
 74
0
 42
0.0000001
 43
0.0000001
 44
0.0000000001
 40
0.0
 40
0.0
 40
0.0
 40
0.0
 40
0.0001336263
 40
0.000303028
 40
0.0005273911
 40
0.0008150533
 40
0.0011698727
 40
0.0015938405
 40
0.0020880801
 40
0.002653268
 40
0.003997965
 40
0.0056299313
 40
0.0075499194
 40
0.0097578237
 40
0.0122525255
 40
0.0150326403
 40
0.0214430411
 40
0.028976453
 40
0.0376171998
 40
0.0473437073
 40
0.0581334561
 40
0.069963093
 40
0.0828040186
 40
0.0966253386
 40
0.1113960155
 40
0.1436442568
 40
0.1792447012
 40
0.217863058
 40
0.2591367511
 40
0.30267595
 40
0.3480727887
 40
0.394900642
 40
0.4427206831
 40
0.4910822884
 40
0.539530486
 40
0.5876089095
 40
0.634865329
 40
0.6808550222
 40
0.7251470442
 40
0.7673262054
 40
0.8069941889
 40
0.8437798057
 40
0.8773348208
 40
0.9073460477
 40
0.9209327728
 40
0.9335316196
 40
0.9451118058
 40
0.9556461216
 40
0.9651117209
 40
0.9734861373
 40
0.9807487728
 40
0.9868852543
 40
0.9918831614
 40
0.9939517052
 40
0.9957321367
 40
0.9972248219
 40
0.9984309385
 40
0.9993533184
 40
0.9997102793
 40
1.0
 40
1.0
 40
1.0
 40
1.0
 10
1.4480277604
 20
4.9725512366
 30
0.0
 10
1.4480277604
 20
4.9725790963
 30
0.0
 10
1.4480487221
 20
4.9726423167
 30
0.0
 10
1.4481258371
 20
4.9727230605
 30
0.0
 10
1.4482445211
 20
4.9728021444
 30
0.0
 10
1.4484075726
 20
4.9728809872
 30
0.0
 10
1.4486154988
 20
4.9729601988
 30
0.0
 10
1.4488688614
 20
4.9730396617
 30
0.0
 10
1.4491677582
 20
4.9731193627
 30
0.0
 10
1.449656131
 20
4.9732324855
 30
0.0
 10
1.4503817943
 20
4.9733705707
 30
0.0
 10
1.45139039
 20
4.9735291834
 30
0.0
 10
1.4525807582
 20
4.9736882967
 30
0.0
 10
1.4539523008
 20
4.9738478026
 30
0.0
 10
1.4555041996
 20
4.9740075905
 30
0.0
 10
1.4579301479
 20
4.9742316798
 30
0.0
 10
1.4614061601
 20
4.9745069424
 30
0.0
 10
1.4661041092
 20
4.9748249304
 30
0.0
 10
1.4714947583
 20
4.9751436473
 30
0.0
 10
1.4775653133
 20
4.9754630597
 30
0.0
 10
1.484301518
 20
4.9757829106
 30
0.0
 10
1.4916876944
 20
4.9761030185
 30
0.0
 10
1.4997064535
 20
4.9764233625
 30
0.0
 10
1.5083388309
 20
4.9767439295
 30
0.0
 10
1.5210157208
 20
4.9771845087
 30
0.0
 10
1.5382323734
 20
4.9777298208
 30
0.0
 10
1.5604204569
 20
4.9783677421
 30
0.0
 10
1.5844909412
 20
4.9790064263
 30
0.0
 10
1.6102170945
 20
4.9796456764
 30
0.0
 10
1.6373568882
 20
4.9802853598
 30
0.0
 10
1.6656549646
 20
4.980925303
 30
0.0
 10
1.6948457651
 20
4.9815654771
 30
0.0
 10
1.7246548293
 20
4.9822057792
 30
0.0
 10
1.7548017926
 20
4.9828461666
 30
0.0
 10
1.7850026377
 20
4.9834865581
 30
0.0
 10
1.8149730126
 20
4.9841269069
 30
0.0
 10
1.8444307003
 20
4.9847671297
 30
0.0
 10
1.8730987779
 20
4.9854071724
 30
0.0
 10
1.9007080357
 20
4.9860469688
 30
0.0
 10
1.9269989262
 20
4.9866863773
 30
0.0
 10
1.9517243358
 20
4.9873253395
 30
0.0
 10
1.9746510879
 20
4.9879635027
 30
0.0
 10
1.9955636884
 20
4.9886007896
 30
0.0
 10
2.0116400277
 20
4.989147041
 30
0.0
 10
2.0233481219
 20
4.9895892034
 30
0.0
 10
2.0312153716
 20
4.9899095027
 30
0.0
 10
2.0384456692
 20
4.9902295537
 30
0.0
 10
2.0450220354
 20
4.9905493201
 30
0.0
 10
2.0509291944
 20
4.9908685766
 30
0.0
 10
2.0561531702
 20
4.9911871582
 30
0.0
 10
2.0606816923
 20
4.9915047336
 30
0.0
 10
2.0645043077
 20
4.9918210479
 30
0.0
 10
2.0672434296
 20
4.9920967741
 30
0.0
 10
2.0690739867
 20
4.9923237736
 30
0.0
 10
2.0701763351
 20
4.9924827203
 30
0.0
 10
2.0710969686
 20
4.992640744
 30
0.0
 10
2.0718355219
 20
4.9927978413
 30
0.0
 10
2.0723358993
 20
4.9929358213
 30
0.0
 10
2.0726421106
 20
4.9930514715
 30
0.0
 10
2.0727639811
 20
4.993109955
 30
0.0
 10
2.0728163104
 20
4.9931401251
 30
0.0
  0
SPLINE
  5
2BC
100
AcDbEntity
  8
0
100
AcDbSpline
 62
7
  6
CONTINUOUS
 70
0
 71
3
 72
65
 73
61
 74
0
 42
0.0000001
 43
0.0000001
 44
0.0000000001
 40
0.0
 40
0.0
 40
0.0
 40
0.0
 40
0.0001336263
 40
0.0003030279
 40
0.000527391
 40
0.0008150529
 40
0.001169872
 40
0.0015938393
 40
0.0020880783
 40
0.0026532653
 40
0.0039979598
 40
0.0056299227
 40
0.0075499059
 40
0.0097578021
 40
0.0122524927
 40
0.0150325946
 40
0.0214429693
 40
0.0289763629
 40
0.0376170835
 40
0.0473435608
 40
0.0581332938
 40
0.0699629298
 40
0.0828038468
 40
0.0966251562
 40
0.1113958235
 40
0.1436439944
 40
0.1792443525
 40
0.2178625592
 40
0.2591360406
 40
0.3026750399
 40
0.3480717889
 40
0.3948996234
 40
0.4427196353
 40
0.4910812323
 40
0.5395294325
 40
0.5876078809
 40
0.6348643151
 40
0.6808540712
 40
0.7251462416
 40
0.7673256412
 40
0.8069937893
 40
0.8437795133
 40
0.8773346086
 40
0.907345868
 40
0.9209326039
 40
0.9335314578
 40
0.9451116453
 40
0.9556459821
 40
0.9651116123
 40
0.9734860512
 40
0.9807487072
 40
0.9868852152
 40
0.9918831444
 40
0.9939516945
 40
0.9957321301
 40
0.9972248182
 40
0.9984309368
 40
0.9993533179
 40
0.9997102791
 40
1.0
 40
1.0
 40
1.0
 40
1.0
 10
2.0730277604
 20
4.9586811379
 30
0.0
 10
2.0730277604
 20
4.9586532782
 30
0.0
 10
2.0730067987
 20
4.9585900578
 30
0.0
 10
2.0729296837
 20
4.958509314
 30
0.0
 10
2.0728109998
 20
4.9584302302
 30
0.0
 10
2.0726479484
 20
4.9583513874
 30
0.0
 10
2.0724400224
 20
4.9582721758
 30
0.0
 10
2.0721866602
 20
4.9581927129
 30
0.0
 10
2.0718877637
 20
4.958113012
 30
0.0
 10
2.0713993918
 20
4.9579998892
 30
0.0
 10
2.0706737299
 20
4.9578618042
 30
0.0
 10
2.0696651365
 20
4.9577031917
 30
0.0
 10
2.0684747716
 20
4.9575440789
 30
0.0
 10
2.067103234
 20
4.9573845734
 30
0.0
 10
2.065551342
 20
4.9572247859
 30
0.0
 10
2.0631254042
 20
4.9570006972
 30
0.0
 10
2.0596494039
 20
4.9567254351
 30
0.0
 10
2.0549514695
 20
4.9564074481
 30
0.0
 10
2.049560836
 20
4.9560887314
 30
0.0
 10
2.0434902961
 20
4.955769319
 30
0.0
 10
2.0367541011
 20
4.9554494682
 30
0.0
 10
2.0293679299
 20
4.9551293606
 30
0.0
 10
2.0213491751
 20
4.9548090163
 30
0.0
 10
2.0127168037
 20
4.9544884491
 30
0.0
 10
2.0000399327
 20
4.9540478704
 30
0.0
 10
1.9828233148
 20
4.9535025585
 30
0.0
 10
1.9606352953
 20
4.952864639
 30
0.0
 10
1.9365649044
 20
4.9522259565
 30
0.0
 10
1.9108388681
 20
4.9515867088
 30
0.0
 10
1.8836991788
 20
4.9509470274
 30
0.0
 10
1.8554011666
 20
4.9503070851
 30
0.0
 10
1.8262103949
 20
4.9496669114
 30
0.0
 10
1.7964013424
 20
4.9490266091
 30
0.0
 10
1.7662543864
 20
4.9483862219
 30
0.0
 10
1.7360535372
 20
4.9477458302
 30
0.0
 10
1.7060831536
 20
4.9471054816
 30
0.0
 10
1.6766254445
 20
4.9464652584
 30
0.0
 10
1.6479573198
 20
4.9458252156
 30
0.0
 10
1.6203479683
 20
4.9451854169
 30
0.0
 10
1.5940569628
 20
4.9445460066
 30
0.0
 10
1.5693314469
 20
4.9439070421
 30
0.0
 10
1.5464046214
 20
4.9432688773
 30
0.0
 10
1.5254919751
 20
4.9426315896
 30
0.0
 10
1.5094156101
 20
4.9420853376
 30
0.0
 10
1.4977075053
 20
4.9416431754
 30
0.0
 10
1.4898402516
 20
4.9413228765
 30
0.0
 10
1.4826099479
 20
4.941002825
 30
0.0
 10
1.4760335706
 20
4.9406830585
 30
0.0
 10
1.470126396
 20
4.9403638022
 30
0.0
 10
1.4649024048
 20
4.94004522
 30
0.0
 10
1.4603738683
 20
4.9397276437
 30
0.0
 10
1.4565512385
 20
4.9394113287
 30
0.0
 10
1.4538121051
 20
4.939135602
 30
0.0
 10
1.4519815413
 20
4.9389086017
 30
0.0
 10
1.4508791901
 20
4.9387496547
 30
0.0
 10
1.4499585547
 20
4.9385916308
 30
0.0
 10
1.4492200002
 20
4.9384345333
 30
0.0
 10
1.448719622
 20
4.9382965533
 30
0.0
 10
1.4484134104
 20
4.9381809031
 30
0.0
 10
1.4482915398
 20
4.9381224196
 30
0.0
 10
1.4482392104
 20
4.9380922494
 30
0.0
  0
SPLINE
  5
2BD
100
AcDbEntity
  8
0
100
AcDbSpline
 62
7
  6
CONTINUOUS
 70
0
 71
3
 72
65
 73
61
 74
0
 42
0.0000001
 43
0.0000001
 44
0.0000000001
 40
0.0
 40
0.0
 40
0.0
 40
0.0
 40
0.0001336264
 40
0.0003030284
 40
0.0005273923
 40
0.0008150557
 40
0.0011698768
 40
0.0015938469
 40
0.0020880894
 40
0.0026532807
 40
0.0039979865
 40
0.0056299646
 40
0.0075499679
 40
0.0097578981
 40
0.0122526379
 40
0.0150328003
 40
0.0214433146
 40
0.0289768501
 40
0.0376178016
 40
0.0473445433
 40
0.0581344337
 40
0.0699640994
 40
0.0828050785
 40
0.0966264432
 40
0.1113971369
 40
0.1436456673
 40
0.1792464521
 40
0.2178653996
 40
0.259139869
 40
0.3026799053
 40
0.3480772814
 40
0.3949052102
 40
0.4427251139
 40
0.4910865331
 40
0.5395345945
 40
0.5876128145
 40
0.6348691746
 40
0.6808587889
 40
0.7251503389
 40
0.7673285038
 40
0.8069957381
 40
0.8437808513
 40
0.8773355308
 40
0.9073466137
 40
0.9209332984
 40
0.9335321303
 40
0.9451123393
 40
0.9556466306
 40
0.965112178
 40
0.9734865634
 40
0.9807491302
 40
0.9868854763
 40
0.9918832554
 40
0.9939517606
 40
0.9957321673
 40
0.9972248364
 40
0.9984309438
 40
0.9993533195
 40
0.9997102795
 40
1.0
 40
1.0
 40
1.0
 40
1.0
 10
1.4480277604
 20
4.9308862366
 30
0.0
 10
1.4480277604
 20
4.9309140963
 30
0.0
 10
1.4480487222
 20
4.9309773168
 30
0.0
 10
1.4481258376
 20
4.9310580606
 30
0.0
 10
1.4482445221
 20
4.9311371444
 30
0.0
 10
1.4484075745
 20
4.9312159873
 30
0.0
 10
1.4486155019
 20
4.9312951989
 30
0.0
 10
1.4488688659
 20
4.931374662
 30
0.0
 10
1.4491677646
 20
4.9314543631
 30
0.0
 10
1.4496561405
 20
4.9315674863
 30
0.0
 10
1.4503818088
 20
4.931705572
 30
0.0
 10
1.4513904119
 20
4.9318641856
 30
0.0
 10
1.452580791
 20
4.9320233006
 30
0.0
 10
1.4539523501
 20
4.932182808
 30
0.0
 10
1.4555042721
 20
4.9323425975
 30
0.0
 10
1.4579302618
 20
4.9325666893
 30
0.0
 10
1.4614063333
 20
4.9328419549
 30
0.0
 10
1.4661043743
 20
4.9331599485
 30
0.0
 10
1.4714951408
 20
4.9334786681
 30
0.0
 10
1.4775658168
 20
4.9337980824
 30
0.0
 10
1.4843021059
 20
4.9341179361
 30
0.0
 10
1.4916883289
 20
4.9344380469
 30
0.0
 10
1.4997071146
 20
4.9347583886
 30
0.0
 10
1.508339516
 20
4.9350789536
 30
0.0
 10
1.521016479
 20
4.9355195345
 30
0.0
 10
1.5382332664
 20
4.9360648461
 30
0.0
 10
1.5604216041
 20
4.9367027752
 30
0.0
 10
1.5844924443
 20
4.937341464
 30
0.0
 10
1.6102190571
 20
4.937980724
 30
0.0
 10
1.6373592993
 20
4.9386204155
 30
0.0
 10
1.6656576779
 20
4.9392603631
 30
0.0
 10
1.6948485775
 20
4.9399005385
 30
0.0
 10
1.72465759
 20
4.9405408376
 30
0.0
 10
1.7548044574
 20
4.9411812234
 30
0.0
 10
1.785005193
 20
4.9418216122
 30
0.0
 10
1.8149754847
 20
4.9424619604
 30
0.0
 10
1.8444331011
 20
4.9431021818
 30
0.0
 10
1.8731010514
 20
4.9437422252
 30
0.0
 10
1.9007099866
 20
4.9443820138
 30
0.0
 10
1.9270004148
 20
4.9450214154
 30
0.0
 10
1.9517253556
 20
4.9456603667
 30
0.0
 10
1.9746517766
 20
4.9462985225
 30
0.0
 10
1.9955641721
 20
4.9469358055
 30
0.0
 10
2.011640403
 20
4.947482054
 30
0.0
 10
2.0233484556
 20
4.9479242164
 30
0.0
 10
2.0312156985
 20
4.948244517
 30
0.0
 10
2.0384459926
 20
4.9485645679
 30
0.0
 10
2.0450223475
 20
4.9488843364
 30
0.0
 10
2.0509294839
 20
4.9492035953
 30
0.0
 10
2.0561534281
 20
4.949522176
 30
0.0
 10
2.0606819013
 20
4.9498397475
 30
0.0
 10
2.0645044475
 20
4.9501560587
 30
0.0
 10
2.0672435064
 20
4.9504317822
 30
0.0
 10
2.0690740237
 20
4.9506587779
 30
0.0
 10
2.0701763557
 20
4.9508177228
 30
0.0
 10
2.0710969788
 20
4.9509757454
 30
0.0
 10
2.0718355259
 20
4.951132842
 30
0.0
 10
2.0723359004
 20
4.9512708216
 30
0.0
 10
2.0726421105
 20
4.9513864716
 30
0.0
 10
2.0727639808
 20
4.951444955
 30
0.0
 10
2.0728163101
 20
4.9514751251
 30
0.0
  0
SPLINE
  5
2BE
100
AcDbEntity
  8
0
100
AcDbSpline
 62
7
  6
CONTINUOUS
 70
0
 71
3
 72
58
 73
54
 74
0
 42
0.0000001
 43
0.0000001
 44
0.0000000001
 40
0.0
 40
0.0
 40
0.0
 40
0.0
 40
0.0001419454
 40
0.0003155724
 40
0.000539589
 40
0.000822844
 40
0.0011696117
 40
0.0015821495
 40
0.0020617464
 40
0.0026091822
 40
0.0039092721
 40
0.0054847158
 40
0.0073363538
 40
0.0094644081
 40
0.0118686611
 40
0.0145479919
 40
0.0207256181
 40
0.0279842374
 40
0.036309965
 40
0.0456851103
 40
0.0560872306
 40
0.0674934441
 40
0.0798799193
 40
0.0932177022
 40
0.1074759606
 40
0.1386275559
 40
0.1730527344
 40
0.210443199
 40
0.2504593079
 40
0.2927419936
 40
0.3369080123
 40
0.3825595834
 40
0.4292840963
 40
0.4766597828
 40
0.571651537
 40
0.6641114589
 40
0.7083440376
 40
0.750707777
 40
0.7908212561
 40
0.8283207338
 40
0.8628702005
 40
0.8941555229
 40
0.9218972696
 40
0.9458443491
 40
0.9563272456
 40
0.9657828744
 40
0.9741920664
 40
0.9815368263
 40
0.9877997841
 40
0.9929687768
 40
0.9970366275
 40
0.9986563562
 40
1.0
 40
1.0
 40
1.0
 40
1.0
 10
2.0474776232
 20
5.0567624376
 30
0.0
 10
2.0474776599
 20
5.0567353185
 30
0.0
 10
2.0474601389
 20
5.0566747495
 30
0.0
 10
2.0473925712
 20
5.0565947733
 30
0.0
 10
2.0472876339
 20
5.0565168753
 30
0.0
 10
2.04714364
 20
5.0564393401
 30
0.0
 10
2.0469600547
 20
5.0563616062
 30
0.0
 10
2.0467364264
 20
5.056283674
 30
0.0
 10
2.0464726429
 20
5.0562055487
 30
0.0
 10
2.0460419865
 20
5.0560947638
 30
0.0
 10
2.0454018908
 20
5.0559594837
 30
0.0
 10
2.044512119
 20
5.0558040754
 30
0.0
 10
2.0434622116
 20
5.0556481641
 30
0.0
 10
2.0422525461
 20
5.0554918346
 30
0.0
 10
2.0408836251
 20
5.0553352493
 30
0.0
 10
2.0387433327
 20
5.0551156455
 30
0.0
 10
2.0356760909
 20
5.0548458777
 30
0.0
 10
2.0315300265
 20
5.0545341787
 30
0.0
 10
2.0267716184
 20
5.0542217655
 30
0.0
 10
2.0214115433
 20
5.0539087725
 30
0.0
 10
2.0154620599
 20
5.0535953314
 30
0.0
 10
2.0089365473
 20
5.0532815662
 30
0.0
 10
2.0018495823
 20
5.0529676242
 30
0.0
 10
1.99421724
 20
5.0526534813
 30
0.0
 10
1.98300161
 20
5.0522215575
 30
0.0
 10
1.9677581844
 20
5.0516870264
 30
0.0
 10
1.9480958633
 20
5.0510617839
 30
0.0
 10
1.9267391843
 20
5.0504358645
 30
0.0
 10
1.9038807251
 20
5.0498092971
 30
0.0
 10
1.8797273263
 20
5.0491823724
 30
0.0
 10
1.8544969173
 20
5.0485551181
 30
0.0
 10
1.8284176349
 20
5.0479276751
 30
0.0
 10
1.801724966
 20
5.0473000841
 30
0.0
 10
1.7656080239
 20
5.0464624939
 30
0.0
 10
1.7207553625
 20
5.0454295182
 30
0.0
 10
1.6765036549
 20
5.0443836354
 30
0.0
 10
1.6423048875
 20
5.043534771
 30
0.0
 10
1.6181046698
 20
5.0429077848
 30
0.0
 10
1.5951912731
 20
5.0422812561
 30
0.0
 10
1.5737713951
 20
5.0416552344
 30
0.0
 10
1.5540389131
 20
5.0410300588
 30
0.0
 10
1.5361716519
 20
5.0404059992
 30
0.0
 10
1.520331333
 20
5.0397835282
 30
0.0
 10
1.5084652586
 20
5.0392459629
 30
0.0
 10
1.5000921578
 20
5.0388083859
 30
0.0
 10
1.4946852563
 20
5.0384952667
 30
0.0
 10
1.489878973
 20
5.0381827807
 30
0.0
 10
1.4856840668
 20
5.0378711146
 30
0.0
 10
1.4821099861
 20
5.0375608764
 30
0.0
 10
1.4791647214
 20
5.0372521532
 30
0.0
 10
1.4771075951
 20
5.0369821054
 30
0.0
 10
1.475783041
 20
5.0367574417
 30
0.0
 10
1.4752281645
 20
5.0366438889
 30
0.0
 10
1.4749782204
 20
5.0365853503
 30
0.0
  0
LINE
  5
2BF
100
AcDbEntity
  8
0
100
AcDbLine
 62
7
  6
CONTINUOUS
 10
1.4749782204
 20
5.0365853503
 11
1.473807859
 21
5.0361952174
  0
SPLINE
  5
2C0
100
AcDbEntity
  8
0
100
AcDbSpline
 62
7
  6
CONTINUOUS
 70
0
 71
3
 72
55
 73
51
 74
0
 42
0.0000001
 43
0.0000001
 44
0.0000000001
 40
0.0
 40
0.0
 40
0.0
 40
0.0
 40
0.0038968213
 40
0.0088709126
 40
0.0149123317
 40
0.0220096952
 40
0.0301482705
 40
0.0393093823
 40
0.0606218485
 40
0.0857653344
 40
0.1145194667
 40
0.1466318098
 40
0.181822645
 40
0.2197814017
 40
0.2601772751
 40
0.3468394894
 40
0.4387734836
 40
0.5327581659
 40
0.5794898424
 40
0.6255003492
 40
0.6703847894
 40
0.7137503696
 40
0.7552151614
 40
0.7944164102
 40
0.831009451
 40
0.8646733734
 40
0.8951139044
 40
0.9090404307
 40
0.9220627441
 40
0.9341538687
 40
0.9452870309
 40
0.9554363912
 40
0.9645812922
 40
0.9727030446
 40
0.9797831951
 40
0.9858063746
 40
0.9884185428
 40
0.990763008
 40
0.9928388593
 40
0.9946453834
 40
0.9961822117
 40
0.9974499885
 40
0.9979837619
 40
0.9984514391
 40
0.9988538589
 40
0.999192365
 40
0.9994692574
 40
0.9996888121
 40
0.9998597047
 40
1.0
 40
1.0
 40
1.0
 40
1.0
 10
2.0446148203
 20
5.0610249373
 30
0.0
 10
2.0438820443
 20
5.0609047594
 30
0.0
 10
2.0422063885
 20
5.0606778519
 30
0.0
 10
2.0393809446
 20
5.0603738052
 30
0.0
 10
2.0359428349
 20
5.0600677894
 30
0.0
 10
2.0318998936
 20
5.0597604165
 30
0.0
 10
2.027261034
 20
5.0594523265
 30
0.0
 10
2.0199159779
 20
5.0590185816
 30
0.0
 10
2.0093308867
 20
5.058487871
 30
0.0
 10
1.9950121353
 20
5.0578751872
 30
0.0
 10
1.9786338249
 20
5.0572606873
 30
0.0
 10
1.9603397985
 20
5.0566446976
 30
0.0
 10
1.9402908979
 20
5.0560278439
 30
0.0
 10
1.9186628532
 20
5.0554102285
 30
0.0
 10
1.8872291035
 20
5.0545663386
 30
0.0
 10
1.8455115752
 20
5.0535283834
 30
0.0
 10
1.7935838133
 20
5.0523073632
 30
0.0
 10
1.7492624671
 20
5.0512873494
 30
0.0
 10
1.7136900208
 20
5.0504605301
 30
0.0
 10
1.6874716486
 20
5.0498416689
 30
0.0
 10
1.6618948878
 20
5.0492229261
 30
0.0
 10
1.637184598
 20
5.0486044214
 30
0.0
 10
1.6135576232
 20
5.0479861857
 30
0.0
 10
1.5912216529
 20
5.0473683741
 30
0.0
 10
1.5703727751
 20
5.046751137
 30
0.0
 10
1.5511940769
 20
5.0461346254
 30
0.0
 10
1.536334056
 20
5.0456074397
 30
0.0
 10
1.5254064141
 20
5.0451815157
 30
0.0
 10
1.5179735299
 20
5.0448717297
 30
0.0
 10
1.511073425
 20
5.0445621537
 30
0.0
 10
1.5047213618
 20
5.0442528286
 30
0.0
 10
1.4989314299
 20
5.0439437549
 30
0.0
 10
1.4937162175
 20
5.0436350774
 30
0.0
 10
1.48908695
 20
5.0433270511
 30
0.0
 10
1.48505399
 20
5.0430197803
 30
0.0
 10
1.4820709908
 20
5.0427537191
 30
0.0
 10
1.4799899144
 20
5.0425371594
 30
0.0
 10
1.478658713
 20
5.0423827499
 30
0.0
 10
1.4774821488
 20
5.0422286201
 30
0.0
 10
1.4764608923
 20
5.0420749133
 30
0.0
 10
1.4755955701
 20
5.0419216985
 30
0.0
 10
1.4749732941
 20
5.0417882877
 30
0.0
 10
1.47455483
 20
5.04167904
 30
0.0
 10
1.4742985683
 20
5.0416019986
 30
0.0
 10
1.4740813348
 20
5.0415251418
 30
0.0
 10
1.4739029842
 20
5.0414484715
 30
0.0
 10
1.4737630542
 20
5.041371976
 30
0.0
 10
1.4736610007
 20
5.0412951061
 30
0.0
 10
1.4735952768
 20
5.0412162029
 30
0.0
 10
1.4735781737
 20
5.0411566722
 30
0.0
 10
1.4735781305
 20
5.041129938
 30
0.0
  0
LINE
  5
2C1
100
AcDbEntity
  8
0
100
AcDbLine
 62
7
  6
CONTINUOUS
 10
2.0472475414
 20
5.0200321567
 11
2.046837679
 21
5.0198546127
  0
LINE
  5
2C2
100
AcDbEntity
  8
0
100
AcDbLine
 62
7
  6
CONTINUOUS
 10
2.046837679
 20
5.0198546127
 11
2.0464483036
 21
5.0197356514
  0
SPLINE
  5
2C3
100
AcDbEntity
  8
0
100
AcDbSpline
 62
7
  6
CONTINUOUS
 70
0
 71
3
 72
61
 73
57
 74
0
 42
0.0000001
 43
0.0000001
 44
0.0000000001
 40
0.0
 40
0.0
 40
0.0
 40
0.0
 40
0.0011852753
 40
0.0026482463
 40
0.0043902281
 40
0.006411055
 40
0.0112862761
 40
0.0172663805
 40
0.0243415596
 40
0.0324963391
 40
0.0417113253
 40
0.0519668153
 40
0.0632412981
 40
0.0755076812
 40
0.102902785
 40
0.13390638
 40
0.1682348679
 40
0.2055765355
 40
0.2455916683
 40
0.2879147832
 40
0.3321617072
 40
0.3779277906
 40
0.4247972533
 40
0.5201293945
 40
0.5677233927
 40
0.6146908587
 40
0.6606028865
 40
0.7050423289
 40
0.7476026644
 40
0.7878978591
 40
0.8255593377
 40
0.8602451721
 40
0.8916395511
 40
0.9060120007
 40
0.9194561383
 40
0.9319431232
 40
0.9434445344
 40
0.9539326273
 40
0.9633848546
 40
0.9717813207
 40
0.9791023665
 40
0.9853312101
 40
0.9880327068
 40
0.990457382
 40
0.992604237
 40
0.9944724707
 40
0.9960616245
 40
0.9973722502
 40
0.997923882
 40
0.9984070371
 40
0.9988225527
 40
0.9991717744
 40
0.9994570138
 40
0.9996825917
 40
0.9998573555
 40
1.0
 40
1.0
 40
1.0
 40
1.0
 10
2.0464483036
 20
5.0197356514
 30
0.0
 10
2.0462297143
 20
5.0196759262
 30
0.0
 10
2.0457362924
 20
5.0195610427
 30
0.0
 10
2.0449114243
 20
5.0194053238
 30
0.0
 10
2.0439245498
 20
5.0192489322
 30
0.0
 10
2.0422882181
 20
5.0190255481
 30
0.0
 10
2.0398412329
 20
5.0187540387
 30
0.0
 10
2.0364273487
 20
5.0184424912
 30
0.0
 10
2.0323843587
 20
5.0181298136
 30
0.0
 10
2.027721444
 20
5.0178161006
 30
0.0
 10
2.0224493494
 20
5.0175017302
 30
0.0
 10
2.0165799144
 20
5.0171869024
 30
0.0
 10
2.0101263687
 20
5.0168717902
 30
0.0
 10
2.0003981705
 20
5.0164350161
 30
0.0
 10
1.9868990323
 20
5.0158962725
 30
0.0
 10
1.9691824221
 20
5.0152694883
 30
0.0
 10
1.9495631905
 20
5.0146415576
 30
0.0
 10
1.9282203531
 20
5.0140127685
 30
0.0
 10
1.9053484992
 20
5.0133834082
 30
0.0
 10
1.8811560368
 20
5.0127535905
 30
0.0
 10
1.8558637563
 20
5.012123501
 30
0.0
 10
1.8297020487
 20
5.0114931609
 30
0.0
 10
1.793776182
 20
5.0106477938
 30
0.0
 10
1.7575005314
 20
5.0098121937
 30
0.0
 10
1.7212062692
 20
5.0089710089
 30
0.0
 10
1.6943578372
 20
5.008340542
 30
0.0
 10
1.6681126621
 20
5.0077101841
 30
0.0
 10
1.642710289
 20
5.0070800668
 30
0.0
 10
1.6183820819
 20
5.0064502066
 30
0.0
 10
1.5953501341
 20
5.0058207923
 30
0.0
 10
1.5738242173
 20
5.0051919343
 30
0.0
 10
1.5540007239
 20
5.0045638432
 30
0.0
 10
1.5386290547
 20
5.0040268235
 30
0.0
 10
1.527317362
 20
5.0035929727
 30
0.0
 10
1.5196185503
 20
5.0032773399
 30
0.0
 10
1.5124691098
 20
5.0029619189
 30
0.0
 10
1.5058853882
 20
5.0026467577
 30
0.0
 10
1.499882561
 20
5.0023318588
 30
0.0
 10
1.4944742143
 20
5.0020173536
 30
0.0
 10
1.4896724316
 20
5.0017035118
 30
0.0
 10
1.4854883387
 20
5.0013904511
 30
0.0
 10
1.4823930856
 20
5.0011193774
 30
0.0
 10
1.4802334297
 20
5.0008987333
 30
0.0
 10
1.4788518557
 20
5.0007414095
 30
0.0
 10
1.4776307019
 20
5.0005843717
 30
0.0
 10
1.476570691
 20
5.0004277668
 30
0.0
 10
1.4756725019
 20
5.0002716676
 30
0.0
 10
1.4750265378
 20
5.0001357415
 30
0.0
 10
1.4745921017
 20
5.0000244231
 30
0.0
 10
1.4743260948
 20
4.9999459334
 30
0.0
 10
1.4741006058
 20
4.9998676374
 30
0.0
 10
1.4739154906
 20
4.9997895394
 30
0.0
 10
1.4737702641
 20
4.9997116435
 30
0.0
 10
1.4736643705
 20
4.9996333889
 30
0.0
 10
1.4735960688
 20
4.9995531019
 30
0.0
 10
1.4735781752
 20
4.9994922089
 30
0.0
 10
1.47357813
 20
4.999464938
 30
0.0
  0
SPLINE
  5
2C4
100
AcDbEntity
  8
0
100
AcDbSpline
 62
7
  6
CONTINUOUS
 70
0
 71
3
 72
31
 73
27
 74
0
 42
0.0000001
 43
0.0000001
 44
0.0000000001
 40
0.0
 40
0.0
 40
0.0
 40
0.0
 40
0.00085914
 40
0.0013837834
 40
0.0019992096
 40
0.0035463101
 40
0.0055574259
 40
0.0080558738
 40
0.0110533298
 40
0.0145562357
 40
0.0185683829
 40
0.0281283844
 40
0.0397430777
 40
0.0534087007
 40
0.0691149871
 40
0.1066004006
 40
0.1520933273
 40
0.2054427749
 40
0.2664569454
 40
0.3349372642
 40
0.410638881
 40
0.493284243
 40
0.582591684
 40
0.6782542214
 40
0.7799523106
 40
1.0
 40
1.0
 40
1.0
 40
1.0
 10
2.0474777069
 20
4.8901024369
 30
0.0
 10
2.0474776693
 20
4.8900679788
 30
0.0
 10
2.0474567181
 20
4.890012457
 30
0.0
 10
2.0474052015
 20
4.8899510356
 30
0.0
 10
2.0473235338
 20
4.889879965
 30
0.0
 10
2.0471782839
 20
4.8897947769
 30
0.0
 10
2.0469550508
 20
4.8896984249
 30
0.0
 10
2.0466696364
 20
4.8896017023
 30
0.0
 10
2.0463219327
 20
4.8895045481
 30
0.0
 10
2.0459116239
 20
4.8894071095
 30
0.0
 10
2.0452408397
 20
4.8892687141
 30
0.0
 10
2.0442445838
 20
4.8890998792
 30
0.0
 10
2.0428606326
 20
4.8889060209
 30
0.0
 10
2.0412282128
 20
4.8887114701
 30
0.0
 10
2.0385609654
 20
4.8884347555
 30
0.0
 10
2.0346170623
 20
4.8880976027
 30
0.0
 10
2.0291629151
 20
4.8877102557
 30
0.0
 10
2.0227631442
 20
4.8873215382
 30
0.0
 10
2.0154400298
 20
4.8869315453
 30
0.0
 10
2.0072193305
 20
4.8865409292
 30
0.0
 10
1.9981302041
 20
4.8861497882
 30
0.0
 10
1.988205065
 20
4.885758226
 30
0.0
 10
1.9774787764
 20
4.885366444
 30
0.0
 10
1.9659878635
 20
4.8849744
 30
0.0
 10
1.9492552015
 20
4.8844371469
 30
0.0
 10
1.9363563273
 20
4.8840561723
 30
0.0
 10
1.9275342883
 20
4.8838054533
 30
0.0
  0
SPLINE
  5
2C5
100
AcDbEntity
  8
0
100
AcDbSpline
 62
7
  6
CONTINUOUS
 70
0
 71
3
 72
59
 73
55
 74
0
 42
0.0000001
 43
0.0000001
 44
0.0000000001
 40
0.0
 40
0.0
 40
0.0
 40
0.0
 40
0.0001421418
 40
0.0003161182
 40
0.0005404923
 40
0.0008240597
 40
0.0011711135
 40
0.001583945
 40
0.002063882
 40
0.0026117447
 40
0.0039131139
 40
0.0054906817
 40
0.0073454916
 40
0.0094772308
 40
0.0118849899
 40
0.0145676604
 40
0.0207526804
 40
0.0280216087
 40
0.0363595996
 40
0.0457466143
 40
0.0561620402
 40
0.0675844651
 40
0.0799873053
 40
0.0933415882
 40
0.107618276
 40
0.1388094905
 40
0.1732767648
 40
0.2107108112
 40
0.2507723504
 40
0.2930994973
 40
0.3373100417
 40
0.3830034362
 40
0.4297674224
 40
0.4771783051
 40
0.5722251328
 40
0.6647135172
 40
0.7089487082
 40
0.751305741
 40
0.7914035721
 40
0.8288774977
 40
0.8633912828
 40
0.894631218
 40
0.9223168168
 40
0.9461984479
 40
0.9566445151
 40
0.9660611116
 40
0.9744292349
 40
0.9817305321
 40
0.9879475878
 40
0.9930689747
 40
0.9952165142
 40
0.9970876505
 40
0.9986820532
 40
1.0
 40
1.0
 40
1.0
 40
1.0
 10
2.0474776055
 20
4.9317674366
 30
0.0
 10
2.0474775628
 20
4.9317402769
 30
0.0
 10
2.0474598181
 20
4.9316796593
 30
0.0
 10
2.0473920088
 20
4.9315996671
 30
0.0
 10
2.0472868607
 20
4.9315217051
 30
0.0
 10
2.047142675
 20
4.9314441037
 30
0.0
 10
2.0469589073
 20
4.9313663047
 30
0.0
 10
2.0467350861
 20
4.9312883096
 30
0.0
 10
2.0464710764
 20
4.9312101226
 30
0.0
 10
2.0460399877
 20
4.9310992432
 30
0.0
 10
2.0453990909
 20
4.9309638464
 30
0.0
 10
2.0445079585
 20
4.9308083203
 30
0.0
 10
2.0434562055
 20
4.9306523225
 30
0.0
 10
2.0422444148
 20
4.9304958984
 30
0.0
 10
2.0408733239
 20
4.9303391874
 30
0.0
 10
2.0387300663
 20
4.9301194069
 30
0.0
 10
2.0356584552
 20
4.9298493881
 30
0.0
 10
2.0315061846
 20
4.9295374913
 30
0.0
 10
2.0267406455
 20
4.9292248872
 30
0.0
 10
2.0213728037
 20
4.928911613
 30
0.0
 10
2.0154147297
 20
4.9285979147
 30
0.0
 10
2.0088796981
 20
4.9282839613
 30
0.0
 10
2.0017825422
 20
4.9279697749
 30
0.0
 10
1.9941395235
 20
4.9276553696
 30
0.0
 10
1.9829083605
 20
4.9272231423
 30
0.0
 10
1.9676440495
 20
4.9266882122
 30
0.0
 10
1.94795553
 20
4.9260625043
 30
0.0
 10
1.9265713487
 20
4.9254360991
 30
0.0
 10
1.9036847621
 20
4.9248090844
 30
0.0
 10
1.8795029084
 20
4.9241816654
 30
0.0
 10
1.8542446094
 20
4.9235539618
 30
0.0
 10
1.8281382939
 20
4.9229260328
 30
0.0
 10
1.8014203041
 20
4.9222979828
 30
0.0
 10
1.765274429
 20
4.9214598052
 30
0.0
 10
1.7203939377
 20
4.9204261429
 30
0.0
 10
1.6761207004
 20
4.9193794227
 30
0.0
 10
1.6419133632
 20
4.9185298673
 30
0.0
 10
1.6177141505
 20
4.9179024099
 30
0.0
 10
1.5948072903
 20
4.9172754287
 30
0.0
 10
1.5733996601
 20
4.9166489549
 30
0.0
 10
1.5536853073
 20
4.9160233226
 30
0.0
 10
1.5358422405
 20
4.9153988494
 30
0.0
 10
1.5200320484
 20
4.9147759323
 30
0.0
 10
1.5081949267
 20
4.9142379618
 30
0.0
 10
1.4998479235
 20
4.9137999428
 30
0.0
 10
1.4944627874
 20
4.9134866186
 30
0.0
 10
1.4896796331
 20
4.9131739053
 30
0.0
 10
1.485509211
 20
4.9128621666
 30
0.0
 10
1.4819611007
 20
4.9125514556
 30
0.0
 10
1.4793982196
 20
4.9122810041
 30
0.0
 10
1.4776658566
 20
4.9120591588
 30
0.0
 10
1.4766046588
 20
4.9119030884
 30
0.0
 10
1.4757038837
 20
4.9117475907
 30
0.0
 10
1.4751589192
 20
4.9116338567
 30
0.0
 10
1.4749140334
 20
4.9115751385
 30
0.0
  0
LINE
  5
2C6
100
AcDbEntity
  8
0
100
AcDbLine
 62
7
  6
CONTINUOUS
 10
1.4749140334
 20
4.9115751385
 11
1.4738079034
 21
4.9112002174
  0
LINE
  5
2C7
100
AcDbEntity
  8
0
100
AcDbLine
 62
7
  6
CONTINUOUS
 10
1.4480277604
 20
3.8710249373
 11
1.7605277604
 21
3.9960249373
  0
SPLINE
  5
2C8
100
AcDbEntity
  8
0
100
AcDbSpline
 62
7
  6
CONTINUOUS
 70
0
 71
3
 72
61
 73
57
 74
0
 42
0.0000001
 43
0.0000001
 44
0.0000000001
 40
0.0
 40
0.0
 40
0.0
 40
0.0
 40
0.0001425001
 40
0.0003170437
 40
0.0005422838
 40
0.0008270492
 40
0.0011756495
 40
0.0015903877
 40
0.0020726016
 40
0.0026231212
 40
0.0039309806
 40
0.0055166589
 40
0.0073809503
 40
0.0095233921
 40
0.0119431338
 40
0.0146391268
 40
0.0208550524
 40
0.0281606996
 40
0.0365400401
 40
0.0459731354
 40
0.0564397574
 40
0.0679179649
 40
0.0803802785
 40
0.093797988
 40
0.1081422025
 40
0.1394769503
 40
0.1740984574
 40
0.2116931416
 40
0.2519196216
 40
0.2944114272
 40
0.338783614
 40
0.3846313791
 40
0.431539092
 40
0.4790792953
 40
0.5743276846
 40
0.6211698555
 40
0.6669200996
 40
0.7111636986
 40
0.7534967831
 40
0.7935363751
 40
0.8309168781
 40
0.8652999556
 40
0.8963729799
 40
0.9238535037
 40
0.936167938
 40
0.9474945506
 40
0.957806062
 40
0.9670801679
 40
0.9752975979
 40
0.9824393459
 40
0.9884889213
 40
0.993436315
 40
0.9954943356
 40
0.9972742743
 40
0.9987758936
 40
1.0
 40
1.0
 40
1.0
 40
1.0
 10
2.0474774838
 20
4.9734324365
 30
0.0
 10
2.047477437
 20
4.9734051975
 30
0.0
 10
2.0474595792
 20
4.9733443841
 30
0.0
 10
2.047391411
 20
4.9732641851
 30
0.0
 10
2.0472857248
 20
4.9731860166
 30
0.0
 10
2.0471407923
 20
4.9731082072
 30
0.0
 10
2.0469560625
 20
4.9730301967
 30
0.0
 10
2.0467310556
 20
4.9729519888
 30
0.0
 10
2.0464656315
 20
4.9728735877
 30
0.0
 10
2.0460321848
 20
4.9727623989
 30
0.0
 10
2.0453877293
 20
4.9726266266
 30
0.0
 10
2.0444916306
 20
4.9724706901
 30
0.0
 10
2.043434046
 20
4.972314267
 30
0.0
 10
2.0422156219
 20
4.9721574089
 30
0.0
 10
2.0408371005
 20
4.9720002652
 30
0.0
 10
2.0386822432
 20
4.9717798759
 30
0.0
 10
2.0355939345
 20
4.9715091092
 30
0.0
 10
2.0314191768
 20
4.9711963851
 30
0.0
 10
2.0266280099
 20
4.9708829102
 30
0.0
 10
2.0212315337
 20
4.9705687671
 30
0.0
 10
2.0152418314
 20
4.9702542143
 30
0.0
 10
2.0086723824
 20
4.9699394089
 30
0.0
 10
2.0015382491
 20
4.9696243508
 30
0.0
 10
1.9938557911
 20
4.9693090772
 30
0.0
 10
1.9825676933
 20
4.9688756976
 30
0.0
 10
1.9672274888
 20
4.9683392957
 30
0.0
 10
1.9474435187
 20
4.967711897
 30
0.0
 10
1.925959123
 20
4.9670837607
 30
0.0
 10
1.9029697323
 20
4.9664550468
 30
0.0
 10
1.8786843696
 20
4.9658259019
 30
0.0
 10
1.8533241553
 20
4.9651964915
 30
0.0
 10
1.8271195906
 20
4.9645668435
 30
0.0
 10
1.8003092884
 20
4.9639370859
 30
0.0
 10
1.7640583378
 20
4.9630967754
 30
0.0
 10
1.7278197883
 20
4.9622620992
 30
0.0
 10
1.6919237088
 20
4.9614177606
 30
0.0
 10
1.6657749093
 20
4.9607881233
 30
0.0
 10
1.6404882776
 20
4.9601587363
 30
0.0
 10
1.6162935883
 20
4.9595296091
 30
0.0
 10
1.59341124
 20
4.9589009497
 30
0.0
 10
1.5720491384
 20
4.9582728295
 30
0.0
 10
1.5524017723
 20
4.9576455879
 30
0.0
 10
1.5346478201
 20
4.9570194369
 30
0.0
 10
1.5211119287
 20
4.9564813758
 30
0.0
 10
1.5113496966
 20
4.9560451864
 30
0.0
 10
1.5048672404
 20
4.9557304099
 30
0.0
 10
1.4989666769
 20
4.955415925
 30
0.0
 10
1.493661337
 20
4.9551018632
 30
0.0
 10
1.488963046
 20
4.9547884342
 30
0.0
 10
1.4848825744
 20
4.9544760419
 30
0.0
 10
1.4814292391
 20
4.9541647273
 30
0.0
 10
1.4789482294
 20
4.9538935193
 30
0.0
 10
1.47728368
 20
4.9536705942
 30
0.0
 10
1.47627494
 20
4.9535142871
 30
0.0
 10
1.475427751
 20
4.9533586377
 30
0.0
 10
1.4749191723
 20
4.9532440924
 30
0.0
 10
1.4746928515
 20
4.9531846787
 30
0.0
  0
LINE
  5
2C9
100
AcDbEntity
  8
0
100
AcDbLine
 62
7
  6
CONTINUOUS
 10
1.4746928515
 20
4.9531846787
 11
1.4738079599
 21
4.9528652176
  0
LINE
  5
2CA
100
AcDbEntity
  8
0
100
AcDbLine
 62
7
  6
CONTINUOUS
 10
2.0472476143
 20
4.9367021561
 11
2.0463482353
 21
4.936379003
  0
SPLINE
  5
2CB
100
AcDbEntity
  8
0
100
AcDbSpline
 62
7
  6
CONTINUOUS
 70
0
 71
3
 72
61
 73
57
 74
0
 42
0.0000001
 43
0.0000001
 44
0.0000000001
 40
0.0
 40
0.0
 40
0.0
 40
0.0
 40
0.0012302084
 40
0.0027374406
 40
0.0045230857
 40
0.00658716
 40
0.0115469215
 40
0.0176078644
 40
0.0247593121
 40
0.0329871351
 40
0.0422714405
 40
0.052591484
 40
0.0639259601
 40
0.0762487406
 40
0.103742514
 40
0.1348274116
 40
0.1692185473
 40
0.2066060641
 40
0.2466490154
 40
0.2889841617
 40
0.3332269929
 40
0.3789748071
 40
0.4258126222
 40
0.5210476022
 40
0.5685792976
 40
0.6154773081
 40
0.6613149176
 40
0.7056763171
 40
0.7481570375
 40
0.7883729093
 40
0.8259562986
 40
0.8605682636
 40
0.8918925615
 40
0.9062329783
 40
0.9196465581
 40
0.9321042283
 40
0.9435786961
 40
0.9540427737
 40
0.963472357
 40
0.9718483156
 40
0.9791521644
 40
0.9853664016
 40
0.9880611743
 40
0.990479706
 40
0.9926211488
 40
0.9944848517
 40
0.9960705
 40
0.9973784145
 40
0.9979288152
 40
0.9984108323
 40
0.9988253229
 40
0.9991736525
 40
0.9994581537
 40
0.999683168
 40
0.9998575584
 40
1.0
 40
1.0
 40
1.0
 40
1.0
 10
2.0463482353
 20
4.936379003
 30
0.0
 10
2.0461206995
 20
4.9363196493
 30
0.0
 10
2.0456098312
 20
4.9362051692
 30
0.0
 10
2.0447592859
 20
4.9360494897
 30
0.0
 10
2.0437472115
 20
4.9358931957
 30
0.0
 10
2.0420780433
 20
4.9356703514
 30
0.0
 10
2.039591365
 20
4.9353992288
 30
0.0
 10
2.036131701
 20
4.935087959
 30
0.0
 10
2.0320453084
 20
4.9347755435
 30
0.0
 10
2.0273413325
 20
4.9344621972
 30
0.0
 10
2.0220305515
 20
4.9341482089
 30
0.0
 10
2.016125051
 20
4.9338337555
 30
0.0
 10
2.0096380286
 20
4.9335190161
 30
0.0
 10
1.9998704102
 20
4.9330829667
 30
0.0
 10
1.9863284701
 20
4.9325449616
 30
0.0
 10
1.9685686325
 20
4.9319189632
 30
0.0
 10
1.9489166273
 20
4.9312917857
 30
0.0
 10
1.9275515576
 20
4.9306638142
 30
0.0
 10
1.9046674301
 20
4.930035235
 30
0.0
 10
1.8804724826
 20
4.9294062417
 30
0.0
 10
1.8551867295
 20
4.9287769541
 30
0.0
 10
1.8290400578
 20
4.928147436
 30
0.0
 10
1.7931487779
 20
4.9273032609
 30
0.0
 10
1.7569161994
 20
4.9264687318
 30
0.0
 10
1.7206722427
 20
4.9256285662
 30
0.0
 10
1.6938680651
 20
4.9249989178
 30
0.0
 10
1.6676700449
 20
4.9243693877
 30
0.0
 10
1.6423166174
 20
4.923740092
 30
0.0
 10
1.6180381001
 20
4.9231110526
 30
0.0
 10
1.5950556171
 20
4.9224824734
 30
0.0
 10
1.5735777964
 20
4.9218544172
 30
0.0
 10
1.553800324
 20
4.9212271802
 30
0.0
 10
1.5384650711
 20
4.9206908219
 30
0.0
 10
1.527180781
 20
4.9202575526
 30
0.0
 10
1.5195009272
 20
4.919942341
 30
0.0
 10
1.5123693738
 20
4.9196273216
 30
0.0
 10
1.5058021866
 20
4.9193125619
 30
0.0
 10
1.4998145116
 20
4.9189981091
 30
0.0
 10
1.494419982
 20
4.9186840075
 30
0.0
 10
1.4896306052
 20
4.918370552
 30
0.0
 10
1.4854572681
 20
4.9180579143
 30
0.0
 10
1.4823699372
 20
4.9177872231
 30
0.0
 10
1.4802159265
 20
4.9175668517
 30
0.0
 10
1.4788380989
 20
4.9174097305
 30
0.0
 10
1.4776202438
 20
4.9172528932
 30
0.0
 10
1.4765629983
 20
4.9170964837
 30
0.0
 10
1.4756670263
 20
4.9169405914
 30
0.0
 10
1.4750225954
 20
4.9168048709
 30
0.0
 10
1.4745892094
 20
4.9166936921
 30
0.0
 10
1.4743239007
 20
4.9166153053
 30
0.0
 10
1.4740990399
 20
4.9165371112
 30
0.0
 10
1.473914472
 20
4.9164591142
 30
0.0
 10
1.4737697026
 20
4.9163813159
 30
0.0
 10
1.4736641655
 20
4.9163031561
 30
0.0
 10
1.4735961292
 20
4.916222954
 30
0.0
 10
1.4735783542
 20
4.9161621649
 30
0.0
 10
1.4735783281
 20
4.9161349377
 30
0.0
  0
SPLINE
  5
2CC
100
AcDbEntity
  8
0
100
AcDbSpline
 62
7
  6
CONTINUOUS
 70
0
 71
3
 72
61
 73
57
 74
0
 42
0.0000001
 43
0.0000001
 44
0.0000000001
 40
0.0
 40
0.0
 40
0.0
 40
0.0
 40
0.0001426744
 40
0.0003174815
 40
0.0005431265
 40
0.0008284619
 40
0.0011778122
 40
0.0015934917
 40
0.0020768485
 40
0.0026287226
 40
0.0039399636
 40
0.0055298841
 40
0.0073989651
 40
0.0095467612
 40
0.0119724879
 40
0.0146751634
 40
0.0209068144
 40
0.0282312033
 40
0.0366313428
 40
0.046087689
 40
0.0565804524
 40
0.0680868634
 40
0.080579152
 40
0.0940290032
 40
0.1084075705
 40
0.1398147911
 40
0.1745145356
 40
0.2121904157
 40
0.2525004517
 40
0.295075582
 40
0.3395295327
 40
0.3854554371
 40
0.4324357898
 40
0.4800414002
 40
0.5753916075
 40
0.6222669505
 40
0.668036453
 40
0.7122840706
 40
0.7546050487
 40
0.7946148718
 40
0.8319481774
 40
0.8662648568
 40
0.8972534779
 40
0.9246301396
 40
0.9368861681
 40
0.948149366
 40
0.9583927698
 40
0.9675950278
 40
0.9757362887
 40
0.982797065
 40
0.9887622074
 40
0.9936218833
 40
0.995634684
 40
0.9973684577
 40
0.9988230793
 40
1.0
 40
1.0
 40
1.0
 40
1.0
 10
2.0474773583
 20
5.0150974366
 30
0.0
 10
2.0474773143
 20
5.0150701591
 30
0.0
 10
2.0474594159
 20
5.0150092493
 30
0.0
 10
2.0473910892
 20
5.0149289428
 30
0.0
 10
2.0472851548
 20
5.0148506695
 30
0.0
 10
2.0471398688
 20
5.0147727549
 30
0.0
 10
2.0469546739
 20
5.014694638
 30
0.0
 10
2.0467290833
 20
5.0146163229
 30
0.0
 10
2.0464629515
 20
5.0145378141
 30
0.0
 10
2.0460282985
 20
5.0144264673
 30
0.0
 10
2.0453820018
 20
5.0142905092
 30
0.0
 10
2.0444833561
 20
5.0141343756
 30
0.0
 10
2.0434228221
 20
5.0139777306
 30
0.0
 10
2.0422010856
 20
5.013820654
 30
0.0
 10
2.0408188604
 20
5.0136632912
 30
0.0
 10
2.0386581711
 20
5.0134425915
 30
0.0
 10
2.0355614157
 20
5.0131714529
 30
0.0
 10
2.0313753081
 20
5.0128583204
 30
0.0
 10
2.0265712406
 20
5.0125443982
 30
0.0
 10
2.0211603354
 20
5.0122298145
 30
0.0
 10
2.0151546766
 20
5.0119148428
 30
0.0
 10
2.0085678782
 20
5.0115996041
 30
0.0
 10
2.0014151433
 20
5.0112841045
 30
0.0
 10
1.9937128054
 20
5.0109683946
 30
0.0
 10
1.9823960281
 20
5.0105344432
 30
0.0
 10
1.9670175756
 20
5.0099972887
 30
0.0
 10
1.9471855705
 20
5.0093690501
 30
0.0
 10
1.9256507047
 20
5.0087400355
 30
0.0
 10
1.9026095898
 20
5.0081104709
 30
0.0
 10
1.8782721533
 20
5.0074804566
 30
0.0
 10
1.8528607004
 20
5.0068501868
 30
0.0
 10
1.8266067831
 20
5.0062196763
 30
0.0
 10
1.7997501433
 20
5.0055890563
 30
0.0
 10
1.7634465659
 20
5.0047476834
 30
0.0
 10
1.7271629409
 20
5.0039118843
 30
0.0
 10
1.6912306784
 20
5.0030662954
 30
0.0
 10
1.6650662131
 20
5.0024358044
 30
0.0
 10
1.6397727364
 20
5.0018055628
 30
0.0
 10
1.615580783
 20
5.0011755975
 30
0.0
 10
1.5927112133
 20
5.000546085
 30
0.0
 10
1.5713725598
 20
4.9999171532
 30
0.0
 10
1.5517594176
 20
4.9992890728
 30
0.0
 10
1.5340508876
 20
4.9986621535
 30
0.0
 10
1.5205596909
 20
4.9981232615
 30
0.0
 10
1.5108388524
 20
4.9976863631
 30
0.0
 10
1.5043915557
 20
4.9973711771
 30
0.0
 10
1.498528845
 20
4.9970562756
 30
0.0
 10
1.4932639239
 20
4.9967418397
 30
0.0
 10
1.4886086501
 20
4.9964280669
 30
0.0
 10
1.4845737553
 20
4.9961153248
 30
0.0
 10
1.4811683852
 20
4.9958037294
 30
0.0
 10
1.478728735
 20
4.9955321566
 30
0.0
 10
1.4770984943
 20
4.995308673
 30
0.0
 10
1.4761163465
 20
4.9951522633
 30
0.0
 10
1.4752963001
 20
4.9949965282
 30
0.0
 10
1.4748061498
 20
4.9948815727
 30
0.0
 10
1.4745892281
 20
4.9948217784
 30
0.0
  0
LINE
  5
2CD
100
AcDbEntity
  8
0
100
AcDbLine
 62
7
  6
CONTINUOUS
 10
1.4745892281
 20
4.9948217784
 11
1.4738079764
 21
4.9945302179
  0
SPLINE
  5
2CE
100
AcDbEntity
  8
0
100
AcDbSpline
 62
7
  6
CONTINUOUS
 70
0
 71
3
 72
65
 73
61
 74
0
 42
0.0000001
 43
0.0000001
 44
0.0000000001
 40
0.0
 40
0.0
 40
0.0
 40
0.0
 40
0.0001336264
 40
0.0003030281
 40
0.0005273912
 40
0.0008150529
 40
0.0011698712
 40
0.0015938369
 40
0.0020880733
 40
0.0026532565
 40
0.0039979386
 40
0.0056298814
 40
0.0075498347
 40
0.0097576817
 40
0.0122523074
 40
0.0150323377
 40
0.0214425863
 40
0.0289759337
 40
0.0376166138
 40
0.0473430413
 40
0.0581327638
 40
0.0699624191
 40
0.0828033126
 40
0.0966245793
 40
0.1113951978
 40
0.1436430814
 40
0.1792430393
 40
0.2178605592
 40
0.2591331162
 40
0.3026713742
 40
0.3480679451
 40
0.3948957807
 40
0.4427155926
 40
0.4910770421
 40
0.5395250782
 40
0.5876033568
 40
0.6348597232
 40
0.6808498922
 40
0.7251427618
 40
0.7673230664
 40
0.8069918345
 40
0.8437779805
 40
0.8773334111
 40
0.9073447731
 40
0.9209315594
 40
0.9335304629
 40
0.9451106887
 40
0.9556452007
 40
0.965111069
 40
0.9734856874
 40
0.9807484642
 40
0.9868850807
 40
0.9918830856
 40
0.9939516553
 40
0.9957321042
 40
0.9972248026
 40
0.9984309288
 40
0.9993533149
 40
0.9997102779
 40
1.0
 40
1.0
 40
1.0
 40
1.0
 10
2.0730277604
 20
4.9170161379
 30
0.0
 10
2.0730277604
 20
4.9169882782
 30
0.0
 10
2.0730067985
 20
4.9169250578
 30
0.0
 10
2.0729296835
 20
4.9168443141
 30
0.0
 10
2.0728109996
 20
4.9167652302
 30
0.0
 10
2.0726479484
 20
4.9166863875
 30
0.0
 10
2.072440023
 20
4.916607176
 30
0.0
 10
2.0721866618
 20
4.9165277133
 30
0.0
 10
2.071887767
 20
4.9164480125
 30
0.0
 10
2.071399399
 20
4.9163348903
 30
0.0
 10
2.0706737446
 20
4.9161968061
 30
0.0
 10
2.0696651642
 20
4.916038195
 30
0.0
 10
2.0684748198
 20
4.9158790844
 30
0.0
 10
2.0671033122
 20
4.915719581
 30
0.0
 10
2.0655514589
 20
4.9155597957
 30
0.0
 10
2.0631255758
 20
4.9153357097
 30
0.0
 10
2.0596496264
 20
4.9150604496
 30
0.0
 10
2.0549517362
 20
4.9147424668
 30
0.0
 10
2.0495611312
 20
4.9144237495
 30
0.0
 10
2.0434906125
 20
4.9141043347
 30
0.0
 10
2.0367544262
 20
4.9137844823
 30
0.0
 10
2.0293682581
 20
4.9134643746
 30
0.0
 10
2.0213495131
 20
4.9131440291
 30
0.0
 10
2.0127171658
 20
4.9128234617
 30
0.0
 10
2.0000403737
 20
4.9123828857
 30
0.0
 10
1.9828239093
 20
4.9118375755
 30
0.0
 10
1.9606361763
 20
4.9111996642
 30
0.0
 10
1.9365662047
 20
4.9105609894
 30
0.0
 10
1.9108406588
 20
4.909921752
 30
0.0
 10
1.8837013539
 20
4.909282078
 30
0.0
 10
1.8554035333
 20
4.9086421375
 30
0.0
 10
1.8262128402
 20
4.9080019647
 30
0.0
 10
1.7964038601
 20
4.9073616624
 30
0.0
 10
1.7662570107
 20
4.9067212779
 30
0.0
 10
1.736056262
 20
4.9060808877
 30
0.0
 10
1.706085962
 20
4.9054405426
 30
0.0
 10
1.6766282165
 20
4.9048003185
 30
0.0
 10
1.6479598741
 20
4.9041602747
 30
0.0
 10
1.6203501022
 20
4.9035204663
 30
0.0
 10
1.5940586331
 20
4.9028810491
 30
0.0
 10
1.5693327113
 20
4.9022420761
 30
0.0
 10
1.5464055988
 20
4.9016039051
 30
0.0
 10
1.5254927732
 20
4.9009666156
 30
0.0
 10
1.5094163065
 20
4.9004203617
 30
0.0
 10
1.4977081593
 20
4.8999782021
 30
0.0
 10
1.4898408767
 20
4.8996579048
 30
0.0
 10
1.4826105183
 20
4.8993378494
 30
0.0
 10
1.4760340468
 20
4.8990180808
 30
0.0
 10
1.4701267486
 20
4.8986988226
 30
0.0
 10
1.4649026452
 20
4.8983802367
 30
0.0
 10
1.4603740235
 20
4.8980626553
 30
0.0
 10
1.4565513302
 20
4.8977463369
 30
0.0
 10
1.4538121544
 20
4.8974706078
 30
0.0
 10
1.4519815681
 20
4.8972436047
 30
0.0
 10
1.450879208
 20
4.8970846564
 30
0.0
 10
1.4499585662
 20
4.8969266317
 30
0.0
 10
1.4492200069
 20
4.8967695338
 30
0.0
 10
1.4487196257
 20
4.8966315535
 30
0.0
 10
1.4484134123
 20
4.8965159031
 30
0.0
 10
1.4482915411
 20
4.8964574196
 30
0.0
 10
1.4482392114
 20
4.8964272494
 30
0.0
  0
LINE
  5
2CF
100
AcDbEntity
  8
0
100
AcDbLine
 62
7
  6
CONTINUOUS
 10
8.0730276873
 20
5.055881237
 11
8.0728168034
 21
5.0556376245
  0
LINE
  5
2D0
100
AcDbEntity
  8
0
100
AcDbLine
 62
7
  6
CONTINUOUS
 10
8.0472481097
 20
4.9575346571
 11
8.0463062973
 21
4.9572006082
  0
LINE
  5
2D1
100
AcDbEntity
  8
0
100
AcDbLine
 62
7
  6
CONTINUOUS
 10
8.0463062973
 20
4.9572006082
 11
8.0456922025
 21
4.957059896
  0
SPLINE
  5
2D2
100
AcDbEntity
  8
0
100
AcDbSpline
 62
7
  6
CONTINUOUS
 70
0
 71
3
 72
57
 73
53
 74
0
 42
0.0000001
 43
0.0000001
 44
0.0000000001
 40
0.0
 40
0.0
 40
0.0
 40
0.0
 40
0.0014858391
 40
0.0032454922
 40
0.007586388
 40
0.0130201318
 40
0.0195366077
 40
0.0271210281
 40
0.0357579908
 40
0.0561152431
 40
0.0804254046
 40
0.1084755599
 40
0.1400132472
 40
0.1747579574
 40
0.2123987376
 40
0.2525982542
 40
0.2949978987
 40
0.339216691
 40
0.4315185264
 40
0.5262052824
 40
0.5733857466
 40
0.6198931696
 40
0.6653119725
 40
0.7092342808
 40
0.7512685161
 40
0.7910364718
 40
0.8281842592
 40
0.8623778311
 40
0.893312578
 40
0.907469813
 40
0.9207119987
 40
0.93300838
 40
0.9443309523
 40
0.9546563533
 40
0.9639617479
 40
0.9722249283
 40
0.9794288987
 40
0.9855599072
 40
0.9882189667
 40
0.9906049885
 40
0.9927169064
 40
0.9945545345
 40
0.996118105
 40
0.9974084688
 40
0.9979518498
 40
0.9984279324
 40
0.9988374973
 40
0.9991818334
 40
0.9994631961
 40
0.9996858494
 40
0.9998585939
 40
1.0
 40
1.0
 40
1.0
 40
1.0
 10
8.0456922025
 20
4.957059896
 30
0.0
 10
8.0454144369
 20
4.9570022747
 30
0.0
 10
8.0448049325
 20
4.9568898459
 30
0.0
 10
8.0433736454
 20
4.9566671062
 30
0.0
 10
8.0411875373
 20
4.9563979626
 30
0.0
 10
8.0380923756
 20
4.9560900191
 30
0.0
 10
8.0343754989
 20
4.955780668
 30
0.0
 10
8.0300454171
 20
4.9554699498
 30
0.0
 10
8.0230755351
 20
4.9550303295
 30
0.0
 10
8.0129124728
 20
4.9544940716
 30
0.0
 10
7.9990427715
 20
4.9538761549
 30
0.0
 10
7.9830367298
 20
4.9532562503
 30
0.0
 10
7.9650372741
 20
4.9526345525
 30
0.0
 10
7.9452058082
 20
4.9520118536
 30
0.0
 10
7.9237198893
 20
4.9513883878
 30
0.0
 10
7.9007719196
 20
4.9507643756
 30
0.0
 10
7.8765676365
 20
4.9501399892
 30
0.0
 10
7.8424182791
 20
4.9492950036
 30
0.0
 10
7.7982879899
 20
4.94825375
 30
0.0
 10
7.7535918275
 20
4.9472246219
 30
0.0
 10
7.7176366545
 20
4.9463902697
 30
0.0
 10
7.6910854895
 20
4.9457652852
 30
0.0
 10
7.6651565492
 20
4.9451404667
 30
0.0
 10
7.6400818889
 20
4.9445158215
 30
0.0
 10
7.6160864373
 20
4.9438915171
 30
0.0
 10
7.5933848397
 20
4.9432675675
 30
0.0
 10
7.5721807758
 20
4.9426442535
 30
0.0
 10
7.5526639289
 20
4.9420216378
 30
0.0
 10
7.5375358965
 20
4.9414893034
 30
0.0
 10
7.5264069227
 20
4.9410591722
 30
0.0
 10
7.5188345714
 20
4.9407463526
 30
0.0
 10
7.5118039049
 20
4.9404337185
 30
0.0
 10
7.5053307008
 20
4.9401212666
 30
0.0
 10
7.499429246
 20
4.9398091438
 30
0.0
 10
7.4941127677
 20
4.9394974665
 30
0.0
 10
7.4893933308
 20
4.9391863525
 30
0.0
 10
7.4852814002
 20
4.9388759616
 30
0.0
 10
7.482239479
 20
4.9386073249
 30
0.0
 10
7.4801169166
 20
4.9383886415
 30
0.0
 10
7.4787593745
 20
4.9382327116
 30
0.0
 10
7.4775597837
 20
4.9380770369
 30
0.0
 10
7.4765186279
 20
4.9379217789
 30
0.0
 10
7.4756362749
 20
4.9377670211
 30
0.0
 10
7.4750015257
 20
4.9376323077
 30
0.0
 10
7.4745744749
 20
4.9375219891
 30
0.0
 10
7.4743128915
 20
4.93744419
 30
0.0
 10
7.4740911266
 20
4.9373665817
 30
0.0
 10
7.4739090669
 20
4.9372891693
 30
0.0
 10
7.4737662666
 20
4.9372119485
 30
0.0
 10
7.473662193
 20
4.9371343641
 30
0.0
 10
7.4735952067
 20
4.9370546986
 30
0.0
 10
7.4735778727
 20
4.9369944341
 30
0.0
 10
7.4735779152
 20
4.9369674366
 30
0.0
  0
SPLINE
  5
2D3
100
AcDbEntity
  8
0
100
AcDbSpline
 62
7
  6
CONTINUOUS
 70
0
 71
3
 72
65
 73
61
 74
0
 42
0.0000001
 43
0.0000001
 44
0.0000000001
 40
0.0
 40
0.0
 40
0.0
 40
0.0
 40
0.0001336264
 40
0.0003030286
 40
0.0005273924
 40
0.0008150549
 40
0.001169874
 40
0.0015938402
 40
0.0020880768
 40
0.0026532597
 40
0.0039979394
 40
0.0056298759
 40
0.0075498182
 40
0.0097576474
 40
0.0122522511
 40
0.0150322594
 40
0.0214424797
 40
0.028975845
 40
0.037616575
 40
0.0473430609
 40
0.0581328383
 40
0.0699625421
 40
0.0828034813
 40
0.0966247788
 40
0.1113954052
 40
0.143643278
 40
0.1792430993
 40
0.2178604102
 40
0.2591327788
 40
0.3026709675
 40
0.3480676012
 40
0.3948954488
 40
0.4427151277
 40
0.4910763647
 40
0.5395240648
 40
0.587601881
 40
0.6348578904
 40
0.6808480461
 40
0.7251410107
 40
0.7673214688
 40
0.8069903726
 40
0.8437766543
 40
0.8773322796
 40
0.9073437525
 40
0.9209306416
 40
0.9335296523
 40
0.9451099583
 40
0.9556446291
 40
0.9651106845
 40
0.9734854363
 40
0.980748299
 40
0.986884988
 40
0.9918830402
 40
0.993951621
 40
0.9957320785
 40
0.997224785
 40
0.9984309185
 40
0.9993533107
 40
0.999710276
 40
1.0
 40
1.0
 40
1.0
 40
1.0
 10
8.0730277604
 20
4.8961836379
 30
0.0
 10
8.0730277604
 20
4.8961557782
 30
0.0
 10
8.0730067984
 20
4.8960925577
 30
0.0
 10
8.0729296829
 20
4.896011814
 30
0.0
 10
8.0728109985
 20
4.8959327302
 30
0.0
 10
8.0726479468
 20
4.8958538874
 30
0.0
 10
8.0724400209
 20
4.895774676
 30
0.0
 10
8.0721866594
 20
4.8956952132
 30
0.0
 10
8.0718877645
 20
4.8956155125
 30
0.0
 10
8.071399397
 20
4.8955023904
 30
0.0
 10
8.0706737445
 20
4.8953643064
 30
0.0
 10
8.0696651682
 20
4.8952056956
 30
0.0
 10
8.0684748312
 20
4.8950465857
 30
0.0
 10
8.0671033342
 20
4.8948870828
 30
0.0
 10
8.0655514937
 20
4.8947272981
 30
0.0
 10
8.0631256257
 20
4.8945032127
 30
0.0
 10
8.0596496831
 20
4.8942279529
 30
0.0
 10
8.0549517846
 20
4.8939099705
 30
0.0
 10
8.0495611534
 20
4.8935912519
 30
0.0
 10
8.0434906007
 20
4.8932718349
 30
0.0
 10
8.0367543808
 20
4.8929519803
 30
0.0
 10
8.0293681817
 20
4.8926318711
 30
0.0
 10
8.0213494106
 20
4.892311525
 30
0.0
 10
8.0127170457
 20
4.8919909575
 30
0.0
 10
8.0000402478
 20
4.8915503814
 30
0.0
 10
7.9828238126
 20
4.891005073
 30
0.0
 10
7.9606361539
 20
4.8903671634
 30
0.0
 10
7.9365662937
 20
4.8897284917
 30
0.0
 10
7.9108408452
 20
4.8890892565
 30
0.0
 10
7.883701581
 20
4.8884495832
 30
0.0
 10
7.8554037594
 20
4.8878096426
 30
0.0
 10
7.8262130785
 20
4.8871694699
 30
0.0
 10
7.796404168
 20
4.8865291689
 30
0.0
 10
7.7662574608
 20
4.8858887875
 30
0.0
 10
7.7360569229
 20
4.8852484016
 30
0.0
 10
7.7060868639
 20
4.8846080623
 30
0.0
 10
7.676629292
 20
4.8839678417
 30
0.0
 10
7.647961007
 20
4.8833278009
 30
0.0
 10
7.6203511862
 20
4.8826879917
 30
0.0
 10
7.5940596371
 20
4.8820485745
 30
0.0
 10
7.5693336268
 20
4.8814096009
 30
0.0
 10
7.5464064173
 20
4.8807714281
 30
0.0
 10
7.5254934996
 20
4.8801341397
 30
0.0
 10
7.5094169478
 20
4.8795878838
 30
0.0
 10
7.4977087337
 20
4.8791457251
 30
0.0
 10
7.4898413905
 20
4.8788254278
 30
0.0
 10
7.4826109601
 20
4.8785053683
 30
0.0
 10
7.4760343998
 20
4.8781855972
 30
0.0
 10
7.4701270017
 20
4.8778663371
 30
0.0
 10
7.4649028136
 20
4.8775477483
 30
0.0
 10
7.4603741312
 20
4.8772301636
 30
0.0
 10
7.4565513951
 20
4.8769138432
 30
0.0
 10
7.4538121919
 20
4.8766381125
 30
0.0
 10
7.4519815919
 20
4.8764111073
 30
0.0
 10
7.450879226
 20
4.876252158
 30
0.0
 10
7.4499585793
 20
4.8760941327
 30
0.0
 10
7.4492200154
 20
4.8759370343
 30
0.0
 10
7.4487196309
 20
4.8757990537
 30
0.0
 10
7.4484134154
 20
4.8756834032
 30
0.0
 10
7.4482915431
 20
4.8756249196
 30
0.0
 10
7.448239213
 20
4.8755947494
 30
0.0
  0
LINE
  5
2D4
100
AcDbEntity
  8
0
100
AcDbLine
 62
7
  6
CONTINUOUS
 10
7.7605277604
 20
3.9960249373
 11
8.0730277604
 21
3.8710249373
  0
LINE
  5
2D5
100
AcDbEntity
  8
0
100
AcDbLine
 62
7
  6
CONTINUOUS
 10
8.0472480065
 20
4.9158696573
 11
8.0468553747
 21
4.915698108
  0
LINE
  5
2D6
100
AcDbEntity
  8
0
100
AcDbLine
 62
7
  6
CONTINUOUS
 10
8.0468553747
 20
4.915698108
 11
8.0464415268
 21
4.9155712445
  0
SPLINE
  5
2D7
100
AcDbEntity
  8
0
100
AcDbSpline
 62
7
  6
CONTINUOUS
 70
0
 71
3
 72
61
 73
57
 74
0
 42
0.0000001
 43
0.0000001
 44
0.0000000001
 40
0.0
 40
0.0
 40
0.0
 40
0.0
 40
0.0011893461
 40
0.0026559441
 40
0.0044007956
 40
0.0064240595
 40
0.0113043763
 40
0.0172915509
 40
0.0243725644
 40
0.0325313034
 40
0.0417512167
 40
0.0520126949
 40
0.0632908788
 40
0.0755602796
 40
0.1029639294
 40
0.1339720259
 40
0.1683058804
 40
0.2056503732
 40
0.2456675193
 40
0.2879917323
 40
0.3322378808
 40
0.3780030605
 40
0.4248698145
 40
0.520194993
 40
0.5677846347
 40
0.6147468215
 40
0.6606538819
 40
0.7050870267
 40
0.7476424912
 40
0.7879309882
 40
0.8255878026
 40
0.8602675542
 40
0.8916571901
 40
0.9060265056
 40
0.9194694141
 40
0.931954835
 40
0.9434529581
 40
0.9539393711
 40
0.9633911955
 40
0.971785782
 40
0.9791043478
 40
0.985333083
 40
0.9880347428
 40
0.9904592203
 40
0.9926052036
 40
0.9944722457
 40
0.9960606295
 40
0.9973712615
 40
0.9979230897
 40
0.9984065039
 40
0.9988222922
 40
0.9991717512
 40
0.9994571466
 40
0.9996827625
 40
0.9998574439
 40
1.0
 40
1.0
 40
1.0
 40
1.0
 10
8.0464415268
 20
4.9155712445
 30
0.0
 10
8.0462221253
 20
4.9155115497
 30
0.0
 10
8.0457271879
 20
4.9153967285
 30
0.0
 10
8.0449002751
 20
4.9152410121
 30
0.0
 10
8.043911687
 20
4.9150846029
 30
0.0
 10
8.0422733669
 20
4.9148612254
 30
0.0
 10
8.0398236048
 20
4.9145896886
 30
0.0
 10
8.0364062922
 20
4.9142782777
 30
0.0
 10
8.0323601161
 20
4.9139656096
 30
0.0
 10
8.0276944373
 20
4.9136518597
 30
0.0
 10
8.0224195529
 20
4.9133375231
 30
0.0
 10
8.016547383
 20
4.913022784
 30
0.0
 10
8.0100914806
 20
4.912707662
 30
0.0
 10
8.0003604735
 20
4.9122708961
 30
0.0
 10
7.9868584122
 20
4.9117322997
 30
0.0
 10
7.9691384861
 20
4.9111054812
 30
0.0
 10
7.9495170499
 20
4.9104776652
 30
0.0
 10
7.9281725071
 20
4.9098489029
 30
0.0
 10
7.9052997808
 20
4.9092196065
 30
0.0
 10
7.88110715
 20
4.908589856
 30
0.0
 10
7.8558152724
 20
4.9079598071
 30
0.0
 10
7.8296547048
 20
4.9073295438
 30
0.0
 10
7.7937312746
 20
4.9064842454
 30
0.0
 10
7.7574587246
 20
4.9056487279
 30
0.0
 10
7.7211680547
 20
4.9048076225
 30
0.0
 10
7.694322725
 20
4.9041772015
 30
0.0
 10
7.6680810155
 20
4.9035469239
 30
0.0
 10
7.6426820216
 20
4.9029168334
 30
0.0
 10
7.6183575103
 20
4.9022870744
 30
0.0
 10
7.5953289335
 20
4.9016576701
 30
0.0
 10
7.5738065992
 20
4.9010289214
 30
0.0
 10
7.5539862978
 20
4.9004008421
 30
0.0
 10
7.5386174736
 20
4.8998639223
 30
0.0
 10
7.5273076547
 20
4.8994300584
 30
0.0
 10
7.5196100639
 20
4.8991144841
 30
0.0
 10
7.5124618673
 20
4.8987991217
 30
0.0
 10
7.5058794734
 20
4.8984839346
 30
0.0
 10
7.4998777427
 20
4.8981690643
 30
0.0
 10
7.4944702128
 20
4.8978546424
 30
0.0
 10
7.489669396
 20
4.8975408295
 30
0.0
 10
7.4854862131
 20
4.8972277084
 30
0.0
 10
7.4823914556
 20
4.8969567088
 30
0.0
 10
7.480231848
 20
4.8967361072
 30
0.0
 10
7.4788504609
 20
4.8965788149
 30
0.0
 10
7.4776297557
 20
4.8964217861
 30
0.0
 10
7.4765703069
 20
4.8962651655
 30
0.0
 10
7.4756725111
 20
4.8961090509
 30
0.0
 10
7.475026661
 20
4.8959731536
 30
0.0
 10
7.4745921325
 20
4.895861862
 30
0.0
 10
7.4743259813
 20
4.8957833821
 30
0.0
 10
7.4741003359
 20
4.8957050968
 30
0.0
 10
7.4739150803
 20
4.8956270121
 30
0.0
 10
7.4737697524
 20
4.8955491319
 30
0.0
 10
7.4736638214
 20
4.8954708976
 30
0.0
 10
7.4735955404
 20
4.8953906066
 30
0.0
 10
7.4735777842
 20
4.8953296905
 30
0.0
 10
7.4735778138
 20
4.8953024369
 30
0.0
  0
SPLINE
  5
2D8
100
AcDbEntity
  8
0
100
AcDbSpline
 62
7
  6
CONTINUOUS
 70
0
 71
3
 72
37
 73
33
 74
0
 42
0.0000001
 43
0.0000001
 44
0.0000000001
 40
0.0
 40
0.0
 40
0.0
 40
0.0
 40
0.0005312998
 40
0.0012206419
 40
0.0020726443
 40
0.0030895818
 40
0.0056223805
 40
0.0088237837
 40
0.0126945916
 40
0.0172322888
 40
0.0224324753
 40
0.0282903711
 40
0.0348009841
 40
0.0419589983
 40
0.0581866816
 40
0.0769063006
 40
0.0980463331
 40
0.1215191759
 40
0.1472309912
 40
0.1750790042
 40
0.2049482992
 40
0.2367207708
 40
0.2702657831
 40
0.3421263162
 40
0.4193669917
 40
0.5007381348
 40
0.584922834
 40
0.6705580052
 40
0.7562590811
 40
0.8406311289
 40
0.9223290183
 40
1.0
 40
1.0
 40
1.0
 40
1.0
 10
8.0728168034
 20
5.0556376245
 30
0.0
 10
8.072745732
 20
5.0555965942
 30
0.0
 10
8.0725731873
 20
5.0555187526
 30
0.0
 10
8.0722699831
 20
5.0554155773
 30
0.0
 10
8.07188848
 20
5.0553117481
 30
0.0
 10
8.0712252669
 20
5.0551615374
 30
0.0
 10
8.0701978255
 20
5.0549804411
 30
0.0
 10
8.0687286311
 20
5.054773464
 30
0.0
 10
8.0669473108
 20
5.0545655351
 30
0.0
 10
8.0648556475
 20
5.0543567009
 30
0.0
 10
8.0624557809
 20
5.0541473547
 30
0.0
 10
8.0597501993
 20
5.0539376283
 30
0.0
 10
8.0567414218
 20
5.0537276229
 30
0.0
 10
8.052132884
 20
5.0534350142
 30
0.0
 10
8.0456391843
 20
5.0530745507
 30
0.0
 10
8.036985958
 20
5.0526565776
 30
0.0
 10
8.0272125256
 20
5.0522378746
 30
0.0
 10
8.0163582278
 20
5.0518184396
 30
0.0
 10
8.0044671291
 20
5.0513985603
 30
0.0
 10
7.9915874794
 20
5.0509783685
 30
0.0
 10
7.9777712471
 20
5.0505578656
 30
0.0
 10
7.9630746785
 20
5.0501372007
 30
0.0
 10
7.9418938971
 20
5.0495628179
 30
0.0
 10
7.9136912386
 20
5.048851814
 30
0.0
 10
7.8781022143
 20
5.0480156736
 30
0.0
 10
7.8406091175
 20
5.0471787813
 30
0.0
 10
7.801819107
 20
5.0463413897
 30
0.0
 10
7.7623601467
 20
5.0455037694
 30
0.0
 10
7.7228722425
 20
5.0446661393
 30
0.0
 10
7.6839926247
 20
5.0438287131
 30
0.0
 10
7.6463536233
 20
5.042991728
 30
0.0
 10
7.62174416
 20
5.0424167952
 30
0.0
 10
7.6097505936
 20
5.0421262366
 30
0.0
  0
SPLINE
  5
2D9
100
AcDbEntity
  8
0
100
AcDbSpline
 62
7
  6
CONTINUOUS
 70
0
 71
3
 72
37
 73
33
 74
0
 42
0.0000001
 43
0.0000001
 44
0.0000000001
 40
0.0
 40
0.0
 40
0.0
 40
0.0
 40
0.0005703809
 40
0.001297955
 40
0.0021872348
 40
0.003240487
 40
0.0058429754
 40
0.0091099689
 40
0.0130420368
 40
0.0176381863
 40
0.0228949111
 40
0.0288066784
 40
0.0353676558
 40
0.0425718599
 40
0.0588844879
 40
0.0776794978
 40
0.0988800279
 40
0.1224050723
 40
0.1481568634
 40
0.1760325632
 40
0.2059217847
 40
0.2377009579
 40
0.2712443817
 40
0.343072888
 40
0.4202495439
 40
0.5015284622
 40
0.5855979462
 40
0.6711030802
 40
0.7566646461
 40
0.8408930293
 40
0.9224587587
 40
1.0
 40
1.0
 40
1.0
 40
1.0
 10
8.0472481673
 20
5.0408646568
 30
0.0
 10
8.0471781241
 20
5.0408241747
 30
0.0
 10
8.0470103741
 20
5.0407467849
 30
0.0
 10
8.0467176764
 20
5.0406435186
 30
0.0
 10
8.0463532567
 20
5.0405396914
 30
0.0
 10
8.0457261041
 20
5.0403900196
 30
0.0
 10
8.0447605192
 20
5.0402091707
 30
0.0
 10
8.0433856626
 20
5.0400023477
 30
0.0
 10
8.0417254896
 20
5.0397945706
 30
0.0
 10
8.0397813895
 20
5.0395859886
 30
0.0
 10
8.037555144
 20
5.0393769489
 30
0.0
 10
8.0350491778
 20
5.0391675366
 30
0.0
 10
8.0322661511
 20
5.0389578535
 30
0.0
 10
8.0280100361
 20
5.0386657772
 30
0.0
 10
8.0220194125
 20
5.0383059319
 30
0.0
 10
8.0140437764
 20
5.0378886449
 30
0.0
 10
8.0050439728
 20
5.0374704732
 30
0.0
 10
7.9950565311
 20
5.0370517438
 30
0.0
 10
7.9841215801
 20
5.0366325086
 30
0.0
 10
7.9722833681
 20
5.0362129318
 30
0.0
 10
7.9595897694
 20
5.0357931499
 30
0.0
 10
7.946091884
 20
5.0353731005
 30
0.0
 10
7.9266474382
 20
5.0347997344
 30
0.0
 10
7.9007652812
 20
5.0340898802
 30
0.0
 10
7.868113491
 20
5.0332550586
 30
0.0
 10
7.8337249804
 20
5.0324194753
 30
0.0
 10
7.7981548753
 20
5.0315833963
 30
0.0
 10
7.7619771806
 20
5.0307470953
 30
0.0
 10
7.7257769426
 20
5.0299107933
 30
0.0
 10
7.6901355968
 20
5.0290746807
 30
0.0
 10
7.655632128
 20
5.0282390035
 30
0.0
 10
7.6330724071
 20
5.0276650025
 30
0.0
 10
7.6220781348
 20
5.0273749373
 30
0.0
  0
SPLINE
  5
2DA
100
AcDbEntity
  8
0
100
AcDbSpline
 62
7
  6
CONTINUOUS
 70
0
 71
3
 72
35
 73
31
 74
0
 42
0.0000001
 43
0.0000001
 44
0.0000000001
 40
0.0
 40
0.0
 40
0.0
 40
0.0
 40
0.0003473794
 40
0.0007432956
 40
0.0012216225
 40
0.0018019198
 40
0.0033063374
 40
0.0053026129
 40
0.0078078988
 40
0.0108303338
 40
0.014374188
 40
0.0184418222
 40
0.0230345525
 40
0.0281529298
 40
0.0399630818
 40
0.0538620208
 40
0.0698367626
 40
0.0878731937
 40
0.1079553786
 40
0.1541615251
 40
0.2082501715
 40
0.2699919531
 40
0.3391073505
 40
0.4152997643
 40
0.498220657
 40
0.5875013262
 40
0.6827547623
 40
0.7835787882
 40
0.8895137212
 40
1.0
 40
1.0
 40
1.0
 40
1.0
 10
7.4480277604
 20
5.0350487366
 30
0.0
 10
7.4480277604
 20
5.0350675053
 30
0.0
 10
7.4480363503
 20
5.035107922
 30
0.0
 10
7.448071938
 20
5.035164552
 30
0.0
 10
7.4481284521
 20
5.0352198354
 30
0.0
 10
7.4482419053
 20
5.0352999071
 30
0.0
 10
7.4484419497
 20
5.0353953431
 30
0.0
 10
7.448748152
 20
5.0355031838
 30
0.0
 10
7.4491402179
 20
5.0356116949
 30
0.0
 10
7.4496181323
 20
5.0357208207
 30
0.0
 10
7.4501822359
 20
5.0358303024
 30
0.0
 10
7.4508324721
 20
5.0359400424
 30
0.0
 10
7.451568805
 20
5.0360499652
 30
0.0
 10
7.452721354
 20
5.0362041257
 30
0.0
 10
7.4543762781
 20
5.0363935
 30
0.0
 10
7.4566178456
 20
5.0366122041
 30
0.0
 10
7.4591971516
 20
5.0368314213
 30
0.0
 10
7.462111545
 20
5.03705109
 30
0.0
 10
7.4666571791
 20
5.0373588963
 30
0.0
 10
7.4731501972
 20
5.037736971
 30
0.0
 10
7.4818940614
 20
5.0381740841
 30
0.0
 10
7.4918769992
 20
5.038612171
 30
0.0
 10
7.5030551562
 20
5.0390512216
 30
0.0
 10
7.5153783816
 20
5.0394907592
 30
0.0
 10
7.5287917367
 20
5.0399307748
 30
0.0
 10
7.5432354475
 20
5.04037108
 30
0.0
 10
7.5586468625
 20
5.0408116593
 30
0.0
 10
7.5749584348
 20
5.0412524821
 30
0.0
 10
7.5920933096
 20
5.0416933732
 30
0.0
 10
7.6037828469
 20
5.0419816608
 30
0.0
 10
7.6097505936
 20
5.0421262366
 30
0.0
  0
SPLINE
  5
2DB
100
AcDbEntity
  8
0
100
AcDbSpline
 62
7
  6
CONTINUOUS
 70
0
 71
3
 72
44
 73
40
 74
0
 42
0.0000001
 43
0.0000001
 44
0.0000000001
 40
0.0
 40
0.0
 40
0.0
 40
0.0
 40
0.0065930368
 40
0.0141339097
 40
0.0319906005
 40
0.0534243838
 40
0.0782697274
 40
0.1063371976
 40
0.137406919
 40
0.2075607279
 40
0.2865426041
 40
0.3718867847
 40
0.4609329637
 40
0.5509046834
 40
0.6389923957
 40
0.68146548
 40
0.7224469034
 40
0.7616155933
 40
0.7986664587
 40
0.833309384
 40
0.8652739421
 40
0.8943112849
 40
0.9201934097
 40
0.9318881155
 40
0.942721061
 40
0.9526700054
 40
0.9617168378
 40
0.9698447788
 40
0.9770372068
 40
0.9832801439
 40
0.9885638289
 40
0.9928794809
 40
0.9946719803
 40
0.9962203652
 40
0.9975251458
 40
0.9985875201
 40
0.99941014
 40
0.9997334591
 40
1.0
 40
1.0
 40
1.0
 40
1.0
 10
8.0613479613
 20
5.0610249373
 30
0.0
 10
8.0600037482
 20
5.0609196203
 30
0.0
 10
8.0571206169
 20
5.060712377
 30
0.0
 10
8.0505911512
 20
5.0603010999
 30
0.0
 10
8.0410266506
 20
5.0597995488
 30
0.0
 10
8.0279229515
 20
5.0592224889
 30
0.0
 10
8.0127293963
 20
5.058643381
 30
0.0
 10
7.9955640377
 20
5.058062539
 30
0.0
 10
7.9691352602
 20
5.0572536773
 30
0.0
 10
7.9322948766
 20
5.05626466
 30
0.0
 10
7.8843555034
 20
5.0551145366
 30
0.0
 10
7.8325515219
 20
5.0539616111
 30
0.0
 10
7.7784995413
 20
5.0528070128
 30
0.0
 10
7.7238863684
 20
5.0516520318
 30
0.0
 10
7.6787960751
 20
5.0506788236
 30
0.0
 10
7.6437230749
 20
5.0498905998
 30
0.0
 10
7.6186523731
 20
5.0493068073
 30
0.0
 10
7.5946908679
 20
5.0487232579
 30
0.0
 10
7.5720260334
 20
5.0481400744
 30
0.0
 10
7.5508350101
 20
5.0475573541
 30
0.0
 10
7.5312834632
 20
5.0469752966
 30
0.0
 10
7.5135244134
 20
5.0463941295
 30
0.0
 10
7.4999103132
 20
5.0458955837
 30
0.0
 10
7.4900183082
 20
5.0454921695
 30
0.0
 10
7.4833829763
 20
5.045200125
 30
0.0
 10
7.4772897143
 20
5.0449082693
 30
0.0
 10
7.4717503246
 20
5.0446167085
 30
0.0
 10
7.4667754958
 20
5.0443256066
 30
0.0
 10
7.4623751476
 20
5.0440350752
 30
0.0
 10
7.4585578201
 20
5.0437454373
 30
0.0
 10
7.4553307147
 20
5.0434569175
 30
0.0
 10
7.4530143086
 20
5.0432055024
 30
0.0
 10
7.4514621047
 20
5.0429987166
 30
0.0
 10
7.4505230853
 20
5.0428537213
 30
0.0
 10
7.449735223
 20
5.0427094787
 30
0.0
 10
7.4490987408
 20
5.0425660184
 30
0.0
 10
7.4486642828
 20
5.0424400783
 30
0.0
 10
7.4483950164
 20
5.0423350333
 30
0.0
 10
7.4482863764
 20
5.0422819804
 30
0.0
 10
7.4482391556
 20
5.0422547494
 30
0.0
  0
SPLINE
  5
2DC
100
AcDbEntity
  8
0
100
AcDbSpline
 62
7
  6
CONTINUOUS
 70
0
 71
3
 72
41
 73
37
 74
0
 42
0.0000001
 43
0.0000001
 44
0.0000000001
 40
0.0
 40
0.0
 40
0.0
 40
0.0
 40
0.0005831825
 40
0.0008136341
 40
0.0010832155
 40
0.0017444632
 40
0.0025732837
 40
0.0035725114
 40
0.004743642
 40
0.0060875087
 40
0.0076045813
 40
0.0092951144
 40
0.0131961213
 40
0.017787499
 40
0.0230649244
 40
0.0290236789
 40
0.0356588131
 40
0.0509319733
 40
0.0688184262
 40
0.0892466229
 40
0.1121309206
 40
0.137375031
 40
0.1648760422
 40
0.1945158495
 40
0.2261727986
 40
0.2597128272
 40
0.2949946876
 40
0.3318719204
 40
0.4097813138
 40
0.4921341445
 40
0.5775510098
 40
0.6646003334
 40
0.7518224444
 40
0.8377446178
 40
0.9209444635
 40
1.0
 40
1.0
 40
1.0
 40
1.0
 10
8.0730277604
 20
5.0211786379
 30
0.0
 10
8.0730277604
 20
5.0210884961
 30
0.0
 10
8.0729083829
 20
5.0209866451
 30
0.0
 10
8.0727670687
 20
5.0209064547
 30
0.0
 10
8.0726032361
 20
5.0208293194
 30
0.0
 10
8.0723477152
 20
5.0207373663
 30
0.0
 10
8.0719772583
 20
5.020631573
 30
0.0
 10
8.0715259321
 20
5.0205256355
 30
0.0
 10
8.0709931618
 20
5.0204192003
 30
0.0
 10
8.0703790806
 20
5.0203125665
 30
0.0
 10
8.0696836845
 20
5.0202057348
 30
0.0
 10
8.0685951447
 20
5.0200559033
 30
0.0
 10
8.0670318415
 20
5.0198718632
 30
0.0
 10
8.0649140341
 20
5.0196593281
 30
0.0
 10
8.0624768254
 20
5.0194462999
 30
0.0
 10
8.0597227049
 20
5.019232834
 30
0.0
 10
8.0554256966
 20
5.0189336556
 30
0.0
 10
8.0492855203
 20
5.0185662739
 30
0.0
 10
8.0410133592
 20
5.0181414751
 30
0.0
 10
8.0315634479
 20
5.0177157192
 30
0.0
 10
8.020975298
 20
5.0172891171
 30
0.0
 10
8.0092931367
 20
5.0168619257
 30
0.0
 10
7.9965661629
 20
5.0164343733
 30
0.0
 10
7.9828474615
 20
5.0160064407
 30
0.0
 10
7.9681949001
 20
5.0155783117
 30
0.0
 10
7.9526699097
 20
5.0151499845
 30
0.0
 10
7.9363377405
 20
5.0147214863
 30
0.0
 10
7.9131491384
 20
5.0141393461
 30
0.0
 10
7.8826860603
 20
5.0134178312
 30
0.0
 10
7.844721287
 20
5.0125661786
 30
0.0
 10
7.8053434373
 20
5.0117140019
 30
0.0
 10
7.7652127844
 20
5.0108615352
 30
0.0
 10
7.7250040098
 20
5.0100090389
 30
0.0
 10
7.6853903736
 20
5.0091567588
 30
0.0
 10
7.647039324
 20
5.0083049525
 30
0.0
 10
7.6219665279
 20
5.0077195836
 30
0.0
 10
7.6097505936
 20
5.0074236379
 30
0.0
  0
SPLINE
  5
2DD
100
AcDbEntity
  8
0
100
AcDbSpline
 62
7
  6
CONTINUOUS
 70
0
 71
3
 72
65
 73
61
 74
0
 42
0.0000001
 43
0.0000001
 44
0.0000000001
 40
0.0
 40
0.0
 40
0.0
 40
0.0
 40
0.0001336263
 40
0.0003030279
 40
0.0005273909
 40
0.0008150526
 40
0.0011698714
 40
0.001593838
 40
0.0020880762
 40
0.0026532621
 40
0.0039979532
 40
0.0056299108
 40
0.0075498866
 40
0.0097577703
 40
0.0122524442
 40
0.015032527
 40
0.0214428652
 40
0.0289762374
 40
0.0376169302
 40
0.0473433751
 40
0.0581330924
 40
0.0699627287
 40
0.0828036343
 40
0.0966249292
 40
0.1113955833
 40
0.143643665
 40
0.1792439108
 40
0.2178619133
 40
0.2591350935
 40
0.3026738295
 40
0.3480704984
 40
0.394898337
 40
0.4427183119
 40
0.4910798938
 40
0.5395280848
 40
0.587606537
 40
0.6348629809
 40
0.6808528494
 40
0.7251452364
 40
0.7673249428
 40
0.8069932974
 40
0.8437791512
 40
0.8773343373
 40
0.9073456239
 40
0.9209323689
 40
0.93353123
 40
0.9451114206
 40
0.955645792
 40
0.9651114723
 40
0.973485949
 40
0.9807486341
 40
0.9868851734
 40
0.991883127
 40
0.993951684
 40
0.9957321239
 40
0.997224815
 40
0.9984309355
 40
0.9993533175
 40
0.999710279
 40
1.0
 40
1.0
 40
1.0
 40
1.0
 10
7.4480277604
 20
4.9933837366
 30
0.0
 10
7.4480277604
 20
4.9934115963
 30
0.0
 10
7.448048722
 20
4.9934748167
 30
0.0
 10
7.448125837
 20
4.9935555605
 30
0.0
 10
7.4482445208
 20
4.9936346443
 30
0.0
 10
7.4484075721
 20
4.9937134871
 30
0.0
 10
7.4486154978
 20
4.9937926987
 30
0.0
 10
7.4488688597
 20
4.9938721615
 30
0.0
 10
7.4491677556
 20
4.9939518624
 30
0.0
 10
7.4496561264
 20
4.994064985
 30
0.0
 10
7.4503817863
 20
4.9942030698
 30
0.0
 10
7.4513903763
 20
4.9943616819
 30
0.0
 10
7.452580736
 20
4.9945207941
 30
0.0
 10
7.453952266
 20
4.994680299
 30
0.0
 10
7.455504148
 20
4.994840086
 30
0.0
 10
7.4579300707
 20
4.9950641739
 30
0.0
 10
7.4614060549
 20
4.9953394353
 30
0.0
 10
7.4661039715
 20
4.9956574209
 30
0.0
 10
7.471494588
 20
4.9959761375
 30
0.0
 10
7.477565112
 20
4.9962955501
 30
0.0
 10
7.484301297
 20
4.996615401
 30
0.0
 10
7.4916874626
 20
4.9969355084
 30
0.0
 10
7.4997062121
 20
4.9972558531
 30
0.0
 10
7.5083385753
 20
4.9975764205
 30
0.0
 10
7.521015422
 20
4.9980169984
 30
0.0
 10
7.5382319951
 20
4.99856231
 30
0.0
 10
7.5604199301
 20
4.999200227
 30
0.0
 10
7.5844901922
 20
4.9998389073
 30
0.0
 10
7.6102160683
 20
5.0004781516
 30
0.0
 10
7.6373556232
 20
5.0011178304
 30
0.0
 10
7.6656535646
 20
5.001757772
 30
0.0
 10
7.6948443128
 20
5.0023979454
 30
0.0
 10
7.7246533552
 20
5.003038248
 30
0.0
 10
7.7548002984
 20
5.0036786348
 30
0.0
 10
7.7850011433
 20
5.0043190266
 30
0.0
 10
7.814971528
 20
5.0049593747
 30
0.0
 10
7.8444292633
 20
5.0055995985
 30
0.0
 10
7.8730974586
 20
5.0062396417
 30
0.0
 10
7.9007069426
 20
5.0068794436
 30
0.0
 10
7.9269981002
 20
5.0075188562
 30
0.0
 10
7.9517237502
 20
5.0081578238
 30
0.0
 10
7.9746506647
 20
5.0087959905
 30
0.0
 10
7.9955633627
 20
5.009433279
 30
0.0
 10
8.0116397542
 20
5.0099795315
 30
0.0
 10
8.0233478681
 20
5.0104216931
 30
0.0
 10
8.0312151259
 20
5.0107419916
 30
0.0
 10
8.0384454389
 20
5.0110620438
 30
0.0
 10
8.0450218345
 20
5.0113818105
 30
0.0
 10
8.0509290347
 20
5.011701067
 30
0.0
 10
8.0561530502
 20
5.01201965
 30
0.0
 10
8.0606816072
 20
5.0123372276
 30
0.0
 10
8.0645042547
 20
5.0126535435
 30
0.0
 10
8.0672434011
 20
5.0129292709
 30
0.0
 10
8.0690739723
 20
5.013156272
 30
0.0
 10
8.0701763264
 20
5.0133152194
 30
0.0
 10
8.0710969637
 20
5.0134732435
 30
0.0
 10
8.0718355195
 20
5.0136303411
 30
0.0
 10
8.0723358983
 20
5.0137683212
 30
0.0
 10
8.0726421101
 20
5.0138839715
 30
0.0
 10
8.0727639808
 20
5.013942455
 30
0.0
 10
8.0728163103
 20
5.0139726251
 30
0.0
  0
LINE
  5
2DE
100
AcDbEntity
  8
0
100
AcDbLine
 62
7
  6
CONTINUOUS
 10
7.7605277604
 20
3.9960249373
 11
7.8855277604
 21
3.6835249373
  0
SPLINE
  5
2DF
100
AcDbEntity
  8
0
100
AcDbSpline
 62
7
  6
CONTINUOUS
 70
0
 71
3
 72
29
 73
25
 74
0
 42
0.0000001
 43
0.0000001
 44
0.0000000001
 40
0.0
 40
0.0
 40
0.0
 40
0.0
 40
0.2097161604
 40
0.3077161432
 40
0.4005513178
 40
0.4878579335
 40
0.5692832533
 40
0.6444934902
 40
0.7131653926
 40
0.7750226363
 40
0.8298075534
 40
0.8772969535
 40
0.8982465102
 40
0.9173015181
 40
0.9344423068
 40
0.9496551084
 40
0.9629272846
 40
0.974247239
 40
0.9836056246
 40
0.9910021318
 40
0.9939686344
 40
0.9964514647
 40
0.9984573766
 40
1.0
 40
1.0
 40
1.0
 40
1.0
 10
7.6097505936
 20
5.0074236379
 30
0.0
 10
7.5984465584
 20
5.007149784
 30
0.0
 10
7.5818604801
 20
5.0067346191
 30
0.0
 10
7.5602715975
 20
5.0061537767
 30
0.0
 10
7.5452809465
 20
5.0057282118
 30
0.0
 10
7.5311843309
 20
5.0053029143
 30
0.0
 10
7.5180384597
 20
5.0048778333
 30
0.0
 10
7.5058978728
 20
5.0044531602
 30
0.0
 10
7.4948130315
 20
5.0040288762
 30
0.0
 10
7.4848303196
 20
5.0036053256
 30
0.0
 10
7.4759908267
 20
5.0031825907
 30
0.0
 10
7.4693568348
 20
5.0028179124
 30
0.0
 10
7.4646486569
 20
5.0025219424
 30
0.0
 10
7.4615748319
 20
5.0023095539
 30
0.0
 10
7.4588111109
 20
5.0020974241
 30
0.0
 10
7.4563601663
 20
5.0018856767
 30
0.0
 10
7.4542243495
 20
5.0016744266
 30
0.0
 10
7.4524058019
 20
5.0014641043
 30
0.0
 10
7.4509065168
 20
5.0012547417
 30
0.0
 10
7.4498585901
 20
5.0010714822
 30
0.0
 10
7.4491827476
 20
5.0009194469
 30
0.0
 10
7.4487945039
 20
5.0008144181
 30
0.0
 10
7.4484863588
 20
5.0007100778
 30
0.0
 10
7.4483111529
 20
5.0006313064
 30
0.0
 10
7.4482391045
 20
5.0005897494
 30
0.0
  0
SPLINE
  5
2E0
100
AcDbEntity
  8
0
100
AcDbSpline
 62
7
  6
CONTINUOUS
 70
0
 71
3
 72
65
 73
61
 74
0
 42
0.0000001
 43
0.0000001
 44
0.0000000001
 40
0.0
 40
0.0
 40
0.0
 40
0.0
 40
0.0001336263
 40
0.000303028
 40
0.0005273912
 40
0.0008150535
 40
0.0011698731
 40
0.0015938413
 40
0.0020880815
 40
0.0026532702
 40
0.0039979695
 40
0.0056299394
 40
0.0075499328
 40
0.0097578458
 40
0.0122525599
 40
0.0150326894
 40
0.0214431218
 40
0.0289765618
 40
0.0376173518
 40
0.0473439082
 40
0.0581336837
 40
0.0699633218
 40
0.0828042559
 40
0.0966255843
 40
0.1113962662
 40
0.1436445836
 40
0.1792451301
 40
0.2178636733
 40
0.2591376354
 40
0.3026771059
 40
0.3480740949
 40
0.3949019809
 40
0.4427220328
 40
0.4910836294
 40
0.539531818
 40
0.5876102062
 40
0.6348666224
 40
0.6808562744
 40
0.7251481176
 40
0.7673269449
 40
0.8069946982
 40
0.8437801732
 40
0.8773350865
 40
0.9073462709
 40
0.9209329814
 40
0.9335318191
 40
0.9451120057
 40
0.9556462998
 40
0.9651118659
 40
0.9734862587
 40
0.9807488686
 40
0.9868853122
 40
0.9918831862
 40
0.9939517204
 40
0.9957321456
 40
0.9972248265
 40
0.9984309405
 40
0.999353319
 40
0.9997102795
 40
1.0
 40
1.0
 40
1.0
 40
1.0
 10
8.0730277604
 20
4.9795136379
 30
0.0
 10
8.0730277604
 20
4.9794857782
 30
0.0
 10
8.0730067986
 20
4.9794225578
 30
0.0
 10
8.0729296836
 20
4.979341814
 30
0.0
 10
8.0728109996
 20
4.9792627302
 30
0.0
 10
8.072647948
 20
4.9791838873
 30
0.0
 10
8.0724400216
 20
4.9791046757
 30
0.0
 10
8.0721866588
 20
4.9790252128
 30
0.0
 10
8.0718877616
 20
4.9789455118
 30
0.0
 10
8.071399388
 20
4.9788323888
 30
0.0
 10
8.0706737233
 20
4.9786943035
 30
0.0
 10
8.0696651253
 20
4.9785356905
 30
0.0
 10
8.0684747534
 20
4.9783765767
 30
0.0
 10
8.0671032053
 20
4.9782170704
 30
0.0
 10
8.0655512991
 20
4.978057282
 30
0.0
 10
8.0631253386
 20
4.9778331921
 30
0.0
 10
8.0596493109
 20
4.9775579287
 30
0.0
 10
8.0549513404
 20
4.9772399392
 30
0.0
 10
8.0495606663
 20
4.9769212218
 30
0.0
 10
8.0434900865
 20
4.9766018093
 30
0.0
 10
8.0367538657
 20
4.976281958
 30
0.0
 10
8.0293676817
 20
4.9759618496
 30
0.0
 10
8.0213489189
 20
4.9756415062
 30
0.0
 10
8.0127165369
 20
4.9753209397
 30
0.0
 10
8.0000396283
 20
4.97488036
 30
0.0
 10
7.9828229375
 20
4.9743350478
 30
0.0
 10
7.960634778
 20
4.9736971242
 30
0.0
 10
7.9365641775
 20
4.9730584381
 30
0.0
 10
7.9108378727
 20
4.9724191848
 30
0.0
 10
7.8836979349
 20
4.9717794986
 30
0.0
 10
7.8553997637
 20
4.971139554
 30
0.0
 10
7.8262089229
 20
4.9704993792
 30
0.0
 10
7.7963998514
 20
4.9698590776
 30
0.0
 10
7.7662528896
 20
4.96921869
 30
0.0
 10
7.7360520554
 20
4.9685782989
 30
0.0
 10
7.7060816905
 20
4.9679379499
 30
0.0
 10
7.6766240194
 20
4.9672977274
 30
0.0
 10
7.6479559884
 20
4.9666576846
 30
0.0
 10
7.6203468461
 20
4.966017891
 30
0.0
 10
7.5940561104
 20
4.9653784848
 30
0.0
 10
7.5693308479
 20
4.964739526
 30
0.0
 10
7.5464041946
 20
4.964101365
 30
0.0
 10
7.5254916538
 20
4.9634640791
 30
0.0
 10
7.5094153476
 20
4.9629178285
 30
0.0
 10
7.4977072672
 20
4.9624756659
 30
0.0
 10
7.4898400223
 20
4.9621553662
 30
0.0
 10
7.4826097311
 20
4.9618353156
 30
0.0
 10
7.4760333763
 20
4.961515549
 30
0.0
 10
7.4701262337
 20
4.9611962922
 30
0.0
 10
7.464902275
 20
4.9608777111
 30
0.0
 10
7.4603737711
 20
4.960560137
 30
0.0
 10
7.4565511758
 20
4.9602438236
 30
0.0
 10
7.4538120707
 20
4.9599680983
 30
0.0
 10
7.4519815238
 20
4.9597410997
 30
0.0
 10
7.4508791795
 20
4.9595821536
 30
0.0
 10
7.4499585488
 20
4.9594241301
 30
0.0
 10
7.4492199972
 20
4.959267033
 30
0.0
 10
7.4487196207
 20
4.9591290532
 30
0.0
 10
7.4484134099
 20
4.959013403
 30
0.0
 10
7.4482915395
 20
4.9589549195
 30
0.0
 10
7.4482392102
 20
4.9589247494
 30
0.0
  0
SPLINE
  5
2E1
100
AcDbEntity
  8
0
100
AcDbSpline
 62
7
  6
CONTINUOUS
 70
0
 71
3
 72
61
 73
57
 74
0
 42
0.0000001
 43
0.0000001
 44
0.0000000001
 40
0.0
 40
0.0
 40
0.0
 40
0.0
 40
0.0001425919
 40
0.0003171957
 40
0.0005426287
 40
0.0008278306
 40
0.0011771925
 40
0.001593084
 40
0.002076839
 40
0.0026292105
 40
0.0039413713
 40
0.0055315854
 40
0.0074004075
 40
0.0095477715
 40
0.0119732769
 40
0.0146763274
 40
0.0209102759
 40
0.0282353619
 40
0.0366353346
 40
0.0460934141
 40
0.0565885347
 40
0.0680954239
 40
0.0805885469
 40
0.0940412356
 40
0.1084216237
 40
0.1398316409
 40
0.1745357561
 40
0.2122158168
 40
0.2525296864
 40
0.2951096102
 40
0.3395670532
 40
0.3854974401
 40
0.4324810651
 40
0.4800902627
 40
0.5754456599
 40
0.6223223106
 40
0.6680933503
 40
0.7123404671
 40
0.7546616942
 40
0.7946692544
 40
0.8320007518
 40
0.8663138806
 40
0.8972979147
 40
0.9246701733
 40
0.9369232706
 40
0.9481819356
 40
0.958422549
 40
0.967622232
 40
0.975758656
 40
0.9828146611
 40
0.9887767806
 40
0.9936323925
 40
0.995642142
 40
0.9973728197
 40
0.9988249677
 40
1.0
 40
1.0
 40
1.0
 40
1.0
 10
8.0474771926
 20
4.9109349377
 30
0.0
 10
8.0474772187
 20
4.9109076758
 30
0.0
 10
8.0474594997
 20
4.9108467655
 30
0.0
 10
8.0473913453
 20
4.9107664191
 30
0.0
 10
8.0472855448
 20
4.9106881354
 30
0.0
 10
8.0471403306
 20
4.9106102139
 30
0.0
 10
8.046955116
 20
4.9105320926
 30
0.0
 10
8.0467293961
 20
4.9104537789
 30
0.0
 10
8.0464630397
 20
4.9103752742
 30
0.0
 10
8.046028022
 20
4.9102639366
 30
0.0
 10
8.0453813821
 20
4.9101279985
 30
0.0
 10
8.0444825493
 20
4.9099718331
 30
0.0
 10
8.0434220869
 20
4.909815158
 30
0.0
 10
8.0422005181
 20
4.9096580575
 30
0.0
 10
8.0408183361
 20
4.909500674
 30
0.0
 10
8.0386571587
 20
4.909279947
 30
0.0
 10
8.0355597224
 20
4.9090088803
 30
0.0
 10
8.0313730408
 20
4.9086956798
 30
0.0
 10
8.0265685008
 20
4.9083816841
 30
0.0
 10
8.0211567948
 20
4.9080671121
 30
0.0
 10
8.0151502065
 20
4.9077521586
 30
0.0
 10
8.0085626497
 20
4.9074368558
 30
0.0
 10
8.0014090582
 20
4.9071213139
 30
0.0
 10
7.9937055992
 20
4.9068056289
 30
0.0
 10
7.9823872958
 20
4.9063716329
 30
0.0
 10
7.967006988
 20
4.9058344212
 30
0.0
 10
7.947172635
 20
4.9052061616
 30
0.0
 10
7.9256352088
 20
4.9045771019
 30
0.0
 10
7.9025914394
 20
4.9039474788
 30
0.0
 10
7.8782514675
 20
4.9033174456
 30
0.0
 10
7.8528373468
 20
4.9026871054
 30
0.0
 10
7.8265810439
 20
4.9020565751
 30
0.0
 10
7.7997219958
 20
4.9014258941
 30
0.0
 10
7.7634157898
 20
4.9005844795
 30
0.0
 10
7.7271299123
 20
4.8997486271
 30
0.0
 10
7.6911957933
 20
4.8989029571
 30
0.0
 10
7.6650306457
 20
4.8982724481
 30
0.0
 10
7.6397366985
 20
4.89764213
 30
0.0
 10
7.6155450094
 20
4.8970121608
 30
0.0
 10
7.5926759679
 20
4.896382569
 30
0.0
 10
7.5713385815
 20
4.8957536222
 30
0.0
 10
7.5517271675
 20
4.8951254931
 30
0.0
 10
7.5340208798
 20
4.8944985179
 30
0.0
 10
7.5205318443
 20
4.8939595974
 30
0.0
 10
7.51081319
 20
4.8935226916
 30
0.0
 10
7.5043678023
 20
4.8932074236
 30
0.0
 10
7.4985069342
 20
4.8928925221
 30
0.0
 10
7.4932439175
 20
4.8925781247
 30
0.0
 10
7.48859094
 20
4.8922642919
 30
0.0
 10
7.4845584368
 20
4.8919514742
 30
0.0
 10
7.4811553088
 20
4.8916399312
 30
0.0
 10
7.4787175797
 20
4.8913683968
 30
0.0
 10
7.4770893056
 20
4.8911448267
 30
0.0
 10
7.4761088241
 20
4.8909883747
 30
0.0
 10
7.4752902246
 20
4.8908326256
 30
0.0
 10
7.4748009242
 20
4.8907176755
 30
0.0
 10
7.4745843769
 20
4.8906578742
 30
0.0
  0
LINE
  5
2E2
100
AcDbEntity
  8
0
100
AcDbLine
 62
7
  6
CONTINUOUS
 10
7.4745843769
 20
4.8906578742
 11
7.4738075211
 21
4.8903677185
  0
SPLINE
  5
2E3
100
AcDbEntity
  8
0
100
AcDbSpline
 62
7
  6
CONTINUOUS
 70
0
 71
3
 72
23
 73
19
 74
0
 42
0.0000001
 43
0.0000001
 44
0.0000000001
 40
0.0
 40
0.0
 40
0.0
 40
0.0
 40
0.2148587912
 40
0.4059469758
 40
0.5719479628
 40
0.6452393609
 40
0.7119342731
 40
0.7719412076
 40
0.8251774171
 40
0.8715835135
 40
0.9111072364
 40
0.9437025671
 40
0.9573916813
 40
0.9693407569
 40
0.9795566117
 40
0.9880518323
 40
0.9948500065
 40
1.0
 40
1.0
 40
1.0
 40
1.0
 10
7.5308463447
 20
5.0610249373
 30
0.0
 10
7.5267491434
 20
5.0608669834
 30
0.0
 10
7.5190085515
 20
5.0605545445
 30
0.0
 10
7.5081049661
 20
5.0600602794
 30
0.0
 10
7.4999027929
 20
5.0596339473
 30
0.0
 10
7.4940737436
 20
5.0592878267
 30
0.0
 10
7.4902652522
 20
5.0590394053
 30
0.0
 10
7.4868403494
 20
5.0587913367
 30
0.0
 10
7.4838037294
 20
5.0585436396
 30
0.0
 10
7.4811593813
 20
5.0582966466
 30
0.0
 10
7.4789108513
 20
5.0580505071
 30
0.0
 10
7.4772871348
 20
5.0578363223
 30
0.0
 10
7.4761897343
 20
5.0576607025
 30
0.0
 10
7.4755166958
 20
5.0575370255
 30
0.0
 10
7.4749446356
 20
5.0574137655
 30
0.0
 10
7.4744732279
 20
5.0572911262
 30
0.0
 10
7.4741024545
 20
5.0571693413
 30
0.0
 10
7.4738929122
 20
5.0570768723
 30
0.0
 10
7.4738078082
 20
5.0570277177
 30
0.0
  0
SPLINE
  5
2E4
100
AcDbEntity
  8
0
100
AcDbSpline
 62
7
  6
CONTINUOUS
 70
0
 71
3
 72
65
 73
61
 74
0
 42
0.0000001
 43
0.0000001
 44
0.0000000001
 40
0.0
 40
0.0
 40
0.0
 40
0.0
 40
0.0001336263
 40
0.000303028
 40
0.0005273913
 40
0.0008150538
 40
0.0011698737
 40
0.0015938422
 40
0.002088083
 40
0.0026532723
 40
0.0039979733
 40
0.0056299456
 40
0.0075499421
 40
0.0097578606
 40
0.0122525825
 40
0.0150327217
 40
0.0214431765
 40
0.0289766397
 40
0.0376174675
 40
0.0473440665
 40
0.0581338661
 40
0.0699635063
 40
0.0828044468
 40
0.0966257813
 40
0.1113964668
 40
0.1436448458
 40
0.1792454722
 40
0.2178641535
 40
0.2591383025
 40
0.302677976
 40
0.3480751064
 40
0.3949030399
 40
0.4427231014
 40
0.4910846865
 40
0.5395328592
 40
0.5876112015
 40
0.6348676007
 40
0.6808572282
 40
0.7251489514
 40
0.7673275341
 40
0.8069951101
 40
0.8437804677
 40
0.8773352935
 40
0.907346435
 40
0.9209331307
 40
0.9335319596
 40
0.9451121472
 40
0.9556464299
 40
0.9651119777
 40
0.9734863588
 40
0.9807489509
 40
0.9868853632
 40
0.9918832086
 40
0.9939517344
 40
0.995732154
 40
0.997224831
 40
0.9984309425
 40
0.9993533196
 40
0.9997102797
 40
1.0
 40
1.0
 40
1.0
 40
1.0
 10
7.4480277604
 20
4.9517187366
 30
0.0
 10
7.4480277604
 20
4.9517465963
 30
0.0
 10
7.4480487221
 20
4.9518098167
 30
0.0
 10
7.4481258371
 20
4.9518905605
 30
0.0
 10
7.4482445212
 20
4.9519696444
 30
0.0
 10
7.448407573
 20
4.9520484872
 30
0.0
 10
7.4486154995
 20
4.9521276988
 30
0.0
 10
7.4488688626
 20
4.9522071618
 30
0.0
 10
7.4491677602
 20
4.9522868628
 30
0.0
 10
7.4496561343
 20
4.9523999858
 30
0.0
 10
7.4503818
 20
4.9525380712
 30
0.0
 10
7.4513903995
 20
4.9526966844
 30
0.0
 10
7.4525807736
 20
4.9528557985
 30
0.0
 10
7.4539523252
 20
4.9530153051
 30
0.0
 10
7.4555042361
 20
4.9531750939
 30
0.0
 10
7.4579302049
 20
4.9533991843
 30
0.0
 10
7.4614062441
 20
4.9536744483
 30
0.0
 10
7.466104232
 20
4.9539924388
 30
0.0
 10
7.4714949278
 20
4.9543111567
 30
0.0
 10
7.4775655293
 20
4.9546305695
 30
0.0
 10
7.4843017645
 20
4.9549504213
 30
0.0
 10
7.4916879552
 20
4.9552705302
 30
0.0
 10
7.4997067212
 20
4.9555908731
 30
0.0
 10
7.5083391065
 20
4.9559114392
 30
0.0
 10
7.5210160299
 20
4.9563520192
 30
0.0
 10
7.5382327511
 20
4.9568973315
 30
0.0
 10
7.5604209688
 20
4.9575352569
 30
0.0
 10
7.5844916537
 20
4.9581739442
 30
0.0
 10
7.6102180686
 20
4.9588131999
 30
0.0
 10
7.6373581172
 20
4.9594528882
 30
0.0
 10
7.66565637
 20
4.9600928341
 30
0.0
 10
7.6948472522
 20
4.9607330096
 30
0.0
 10
7.7246563332
 20
4.961373311
 30
0.0
 10
7.7548032913
 20
4.9620136986
 30
0.0
 10
7.7850041102
 20
4.9626540893
 30
0.0
 10
7.8149744588
 20
4.9632944382
 30
0.0
 10
7.8444321116
 20
4.9639346604
 30
0.0
 10
7.873100109
 20
4.9645747033
 30
0.0
 10
7.9007091702
 20
4.965214495
 30
0.0
 10
7.9269997929
 20
4.9658538995
 30
0.0
 10
7.9517249429
 20
4.9664928558
 30
0.0
 10
7.9746515166
 20
4.967131015
 30
0.0
 10
7.9955640058
 20
4.9677683
 30
0.0
 10
8.0116402817
 20
4.9683145498
 30
0.0
 10
8.0233483482
 20
4.9687567123
 30
0.0
 10
8.0312155884
 20
4.9690770123
 30
0.0
 10
8.0384458756
 20
4.9693970627
 30
0.0
 10
8.0450222244
 20
4.9697168297
 30
0.0
 10
8.0509293584
 20
4.9700360869
 30
0.0
 10
8.056153307
 20
4.9703546676
 30
0.0
 10
8.0606817983
 20
4.9706722408
 30
0.0
 10
8.0645043774
 20
4.9709885535
 30
0.0
 10
8.0672434683
 20
4.9712642783
 30
0.0
 10
8.0690740063
 20
4.9714912759
 30
0.0
 10
8.0701763469
 20
4.9716502216
 30
0.0
 10
8.0710969751
 20
4.9718082448
 30
0.0
 10
8.0718355251
 20
4.9719653417
 30
0.0
 10
8.0723359007
 20
4.9721033215
 30
0.0
 10
8.0726421111
 20
4.9722189715
 30
0.0
 10
8.0727639813
 20
4.972277455
 30
0.0
 10
8.0728163106
 20
4.9723076251
 30
0.0
  0
SPLINE
  5
2E5
100
AcDbEntity
  8
0
100
AcDbSpline
 62
7
  6
CONTINUOUS
 70
0
 71
3
 72
61
 73
57
 74
0
 42
0.0000001
 43
0.0000001
 44
0.0000000001
 40
0.0
 40
0.0
 40
0.0
 40
0.0
 40
0.0001426385
 40
0.0003173262
 40
0.0005429227
 40
0.0008283884
 40
0.0011781261
 40
0.00159446
 40
0.0020786657
 40
0.0026315003
 40
0.0039446565
 40
0.0055360166
 40
0.0074062066
 40
0.0095552331
 40
0.0119827686
 40
0.0146882521
 40
0.0209273315
 40
0.0282580535
 40
0.0366647144
 40
0.0461306964
 40
0.056633994
 40
0.068149682
 40
0.0806527167
 40
0.0941159055
 40
0.1085070061
 40
0.1399406106
 40
0.1746695114
 40
0.2123760028
 40
0.2527164058
 40
0.2953233218
 40
0.339806887
 40
0.3857624391
 40
0.4327693754
 40
0.4803995764
 40
0.5757876655
 40
0.6226748609
 40
0.6684521374
 40
0.7127004712
 40
0.7550176993
 40
0.7950158241
 40
0.8323317906
 40
0.8666239592
 40
0.8975803701
 40
0.9249196984
 40
0.9371535542
 40
0.9483919104
 40
0.9586110266
 40
0.9677874563
 40
0.9758989874
 40
0.9829293546
 40
0.9888645715
 40
0.9936915203
 40
0.9956866099
 40
0.997402567
 40
0.9988398932
 40
1.0
 40
1.0
 40
1.0
 40
1.0
 10
8.0474772787
 20
4.9525999379
 30
0.0
 10
8.0474773165
 20
4.9525726655
 30
0.0
 10
8.0474595998
 20
4.9525117186
 30
0.0
 10
8.0473913867
 20
4.9524313355
 30
0.0
 10
8.0472854788
 20
4.9523530192
 30
0.0
 10
8.0471400964
 20
4.9522750649
 30
0.0
 10
8.046954656
 20
4.9521969162
 30
0.0
 10
8.0467286753
 20
4.9521185725
 30
0.0
 10
8.0464620427
 20
4.9520400309
 30
0.0
 10
8.0460266333
 20
4.9519286459
 30
0.0
 10
8.0453794586
 20
4.951792645
 30
0.0
 10
8.0444799031
 20
4.9516364074
 30
0.0
 10
8.0434185807
 20
4.9514796607
 30
0.0
 10
8.0421959729
 20
4.9513224895
 30
0.0
 10
8.0408125383
 20
4.9511650358
 30
0.0
 10
8.0386493974
 20
4.9509442305
 30
0.0
 10
8.0355492565
 20
4.9506730375
 30
0.0
 10
8.0313589933
 20
4.9503596872
 30
0.0
 10
8.026550305
 20
4.9500455503
 30
0.0
 10
8.0211339281
 20
4.9497308588
 30
0.0
 10
8.0151222325
 20
4.9494157561
 30
0.0
 10
8.0085291502
 20
4.9491003073
 30
0.0
 10
8.0013695552
 20
4.9487846344
 30
0.0
 10
7.9936596949
 20
4.948468814
 30
0.0
 10
7.982332165
 20
4.9480346157
 30
0.0
 10
7.966939661
 20
4.947497187
 30
0.0
 10
7.9470898476
 20
4.9468686354
 30
0.0
 10
7.9255362975
 20
4.9462393139
 30
0.0
 10
7.9024758952
 20
4.9456094019
 30
0.0
 10
7.8781192734
 20
4.9449791017
 30
0.0
 10
7.8526887023
 20
4.9443484786
 30
0.0
 10
7.8264166035
 20
4.9437176756
 30
0.0
 10
7.7995427035
 20
4.9430867166
 30
0.0
 10
7.7632196554
 20
4.9422449618
 30
0.0
 10
7.726919379
 20
4.9414087512
 30
0.0
 10
7.6909737068
 20
4.9405626771
 30
0.0
 10
7.6648035937
 20
4.9399318969
 30
0.0
 10
7.6395075137
 20
4.9393013048
 30
0.0
 10
7.615316754
 20
4.9386710624
 30
0.0
 10
7.5924519227
 20
4.9380412082
 30
0.0
 10
7.5711220816
 20
4.9374119823
 30
0.0
 10
7.551521793
 20
4.9367836116
 30
0.0
 10
7.5338300745
 20
4.9361563551
 30
0.0
 10
7.5203555269
 20
4.9356172077
 30
0.0
 10
7.5106501872
 20
4.9351800463
 30
0.0
 10
7.5042161145
 20
4.9348646488
 30
0.0
 10
7.4983673664
 20
4.9345496296
 30
0.0
 10
7.4931173872
 20
4.9342351123
 30
0.0
 10
7.4884782852
 20
4.9339211413
 30
0.0
 10
7.4844604005
 20
4.9336082313
 30
0.0
 10
7.4810726679
 20
4.9332966274
 30
0.0
 10
7.4786483135
 20
4.9330249488
 30
0.0
 10
7.4770311698
 20
4.9328011894
 30
0.0
 10
7.47605919
 20
4.9326447056
 30
0.0
 10
7.4752491982
 20
4.9324889422
 30
0.0
 10
7.474765728
 20
4.9323738607
 30
0.0
 10
7.4745521655
 20
4.9323139295
 30
0.0
  0
LINE
  5
2E6
100
AcDbEntity
  8
0
100
AcDbLine
 62
7
  6
CONTINUOUS
 10
7.4745521655
 20
4.9323139295
 11
7.4738074145
 21
4.9320327183
  0
SPLINE
  5
2E7
100
AcDbEntity
  8
0
100
AcDbSpline
 62
7
  6
CONTINUOUS
 70
0
 71
3
 72
39
 73
35
 74
0
 42
0.0000001
 43
0.0000001
 44
0.0000000001
 40
0.0
 40
0.0
 40
0.0
 40
0.0
 40
0.0006159773
 40
0.0008514559
 40
0.0011253037
 40
0.0017935821
 40
0.0026283537
 40
0.0036328613
 40
0.0048087039
 40
0.0061567035
 40
0.009370382
 40
0.0132747105
 40
0.0178684441
 40
0.0231491471
 40
0.0357490129
 40
0.051022512
 40
0.0689120081
 40
0.0893409382
 40
0.1122246255
 40
0.1374700846
 40
0.1649682217
 40
0.1946068561
 40
0.2262607483
 40
0.259796046
 40
0.2950747531
 40
0.3319462565
 40
0.4098469112
 40
0.4921914734
 40
0.5775989505
 40
0.6646373625
 40
0.7518477498
 40
0.8377580448
 40
0.92095425
 40
1.0
 40
1.0
 40
1.0
 40
1.0
 10
8.0474772236
 20
5.0359299377
 30
0.0
 10
8.0474773004
 20
5.0358424972
 30
0.0
 10
8.0473711855
 20
5.0357395639
 30
0.0
 10
8.0472386574
 20
5.0356576932
 30
0.0
 10
8.0470888483
 20
5.0355806775
 30
0.0
 10
8.046854222
 20
5.0354886105
 30
0.0
 10
8.0465139098
 20
5.0353827957
 30
0.0
 10
8.0460991657
 20
5.0352768485
 30
0.0
 10
8.0456096328
 20
5.0351704262
 30
0.0
 10
8.0448092483
 20
5.035019284
 30
0.0
 10
8.043621407
 20
5.0348349254
 30
0.0
 10
8.0419723204
 20
5.0346231767
 30
0.0
 10
8.0400278519
 20
5.0344106596
 30
0.0
 10
8.0368518025
 20
5.0341085054
 30
0.0
 10
8.0321595835
 20
5.033740474
 30
0.0
 10
8.0256770605
 20
5.0333173702
 30
0.0
 10
8.018081231
 20
5.0328928764
 30
0.0
 10
8.0094037405
 20
5.0324670228
 30
0.0
 10
7.9996809641
 20
5.0320403904
 30
0.0
 10
7.9889538422
 20
5.0316132529
 30
0.0
 10
7.9772671548
 20
5.031185626
 30
0.0
 10
7.9646702129
 20
5.0307577406
 30
0.0
 10
7.9512158197
 20
5.0303296118
 30
0.0
 10
7.9369604216
 20
5.0299012685
 30
0.0
 10
7.9219640493
 20
5.0294728191
 30
0.0
 10
7.9006716727
 20
5.0288906507
 30
0.0
 10
7.8726994414
 20
5.0281691676
 30
0.0
 10
7.8378384402
 20
5.0273174982
 30
0.0
 10
7.8016799393
 20
5.0264653154
 30
0.0
 10
7.7648305355
 20
5.0256128525
 30
0.0
 10
7.7279097363
 20
5.0247603685
 30
0.0
 10
7.6915344948
 20
5.0239080823
 30
0.0
 10
7.6563185719
 20
5.0230562563
 30
0.0
 10
7.6332950967
 20
5.0224708778
 30
0.0
 10
7.6220781348
 20
5.0221749373
 30
0.0
  0
LINE
  5
2E8
100
AcDbEntity
  8
0
100
AcDbLine
 62
7
  6
CONTINUOUS
 10
8.0472481688
 20
4.9991996568
 11
8.0460258708
 21
4.9987977008
  0
SPLINE
  5
2E9
100
AcDbEntity
  8
0
100
AcDbSpline
 62
7
  6
CONTINUOUS
 70
0
 71
3
 72
58
 73
54
 74
0
 42
0.0000001
 43
0.0000001
 44
0.0000000001
 40
0.0
 40
0.0
 40
0.0
 40
0.0
 40
0.001363577
 40
0.0030024596
 40
0.0071075604
 40
0.0123144001
 40
0.01861365
 40
0.0259910966
 40
0.0344318285
 40
0.0439190538
 40
0.0544301581
 40
0.0784277134
 40
0.1062129054
 40
0.1375340694
 40
0.172110401
 40
0.2096304967
 40
0.2497554106
 40
0.2921248436
 40
0.3363551608
 40
0.4287931796
 40
0.5237422255
 40
0.5710906927
 40
0.6177845988
 40
0.663403735
 40
0.7075354116
 40
0.7497832722
 40
0.7897646596
 40
0.8271207624
 40
0.861513876
 40
0.8926345426
 40
0.9068789206
 40
0.9202035193
 40
0.932576905
 40
0.9439713788
 40
0.9543630814
 40
0.9637284092
 40
0.9720449567
 40
0.9792961151
 40
0.9854674491
 40
0.9881438741
 40
0.9905453289
 40
0.9926710117
 40
0.9945207326
 40
0.9960946426
 40
0.9973935115
 40
0.9979404323
 40
0.9984195665
 40
0.9988316861
 40
0.9991780729
 40
0.9994609801
 40
0.9996847024
 40
0.9998581452
 40
1.0
 40
1.0
 40
1.0
 40
1.0
 10
8.0460258708
 20
4.9987977008
 30
0.0
 10
8.0457720061
 20
4.9987393159
 30
0.0
 10
8.0452095414
 20
4.9986259293
 30
0.0
 10
8.0438702858
 20
4.9984015147
 30
0.0
 10
8.0417952064
 20
4.9981315201
 30
0.0
 10
8.0388287997
 20
4.9978229895
 30
0.0
 10
8.0352345601
 20
4.9975128967
 30
0.0
 10
8.0310207823
 20
4.9972013059
 30
0.0
 10
8.0261965914
 20
4.9968889603
 30
0.0
 10
8.0207726974
 20
4.9965760794
 30
0.0
 10
8.0123792604
 20
4.9961387825
 30
0.0
 10
8.0004909127
 20
4.9956015621
 30
0.0
 10
7.9846272354
 20
4.9949794177
 30
0.0
 10
7.9667413199
 20
4.9943557154
 30
0.0
 10
7.946994723
 20
4.9937308506
 30
0.0
 10
7.9255655493
 20
4.9931052236
 30
0.0
 10
7.902647044
 20
4.9924790109
 30
0.0
 10
7.8784462072
 20
4.9918524159
 30
0.0
 10
7.8442541108
 20
4.9910040714
 30
0.0
 10
7.8000192473
 20
4.9899588515
 30
0.0
 10
7.7551882577
 20
4.9889264043
 30
0.0
 10
7.7190938466
 20
4.9880892728
 30
0.0
 10
7.6924208788
 20
4.9874620387
 30
0.0
 10
7.6663626017
 20
4.9868349701
 30
0.0
 10
7.6411539264
 20
4.9862080748
 30
0.0
 10
7.617022599
 20
4.9855815164
 30
0.0
 10
7.5941860957
 20
4.9849553225
 30
0.0
 10
7.5728507079
 20
4.9843297497
 30
0.0
 10
7.5532087962
 20
4.9837049003
 30
0.0
 10
7.5379814621
 20
4.9831706502
 30
0.0
 10
7.5267779444
 20
4.9827389874
 30
0.0
 10
7.5191539761
 20
4.9824250408
 30
0.0
 10
7.5120749273
 20
4.9821112638
 30
0.0
 10
7.50555675
 20
4.9817976828
 30
0.0
 10
7.4996139229
 20
4.9814844375
 30
0.0
 10
7.4942599614
 20
4.9811716333
 30
0.0
 10
7.489507049
 20
4.9808593763
 30
0.0
 10
7.4853657478
 20
4.9805478721
 30
0.0
 10
7.4823019708
 20
4.9802782716
 30
0.0
 10
7.4801641681
 20
4.9800587974
 30
0.0
 10
7.4787969186
 20
4.9799022918
 30
0.0
 10
7.47758872
 20
4.9797460524
 30
0.0
 10
7.4765400221
 20
4.9795902341
 30
0.0
 10
7.4756512247
 20
4.9794349192
 30
0.0
 10
7.4750118117
 20
4.9792997215
 30
0.0
 10
7.4745816143
 20
4.9791890024
 30
0.0
 10
7.4743181216
 20
4.9791109237
 30
0.0
 10
7.4740947552
 20
4.9790330384
 30
0.0
 10
7.4739114078
 20
4.9789553514
 30
0.0
 10
7.4737676273
 20
4.9788778617
 30
0.0
 10
7.4736628769
 20
4.9787999951
 30
0.0
 10
7.473595451
 20
4.9787200552
 30
0.0
 10
7.4735779902
 20
4.9786595358
 30
0.0
 10
7.4735780369
 20
4.9786324365
 30
0.0
  0
SPLINE
  5
2EA
100
AcDbEntity
  8
0
100
AcDbSpline
 62
7
  6
CONTINUOUS
 70
0
 71
3
 72
30
 73
26
 74
0
 42
0.0000001
 43
0.0000001
 44
0.0000000001
 40
0.0
 40
0.0
 40
0.0
 40
0.0
 40
0.2163508916
 40
0.3171662396
 40
0.4124009501
 40
0.5016594309
 40
0.5845562049
 40
0.6607333914
 40
0.7298433077
 40
0.7915734186
 40
0.8456634002
 40
0.8918659585
 40
0.9299917152
 40
0.9459759891
 40
0.9598825705
 40
0.9716998628
 40
0.9814244484
 40
0.9855025415
 40
0.989059055
 40
0.9920963945
 40
0.9946191954
 40
0.9966365768
 40
0.9974616212
 40
0.9981694528
 40
1.0
 40
1.0
 40
1.0
 40
1.0
 10
7.6220781348
 20
5.0273749373
 30
0.0
 10
7.6113449656
 20
5.0270917608
 30
0.0
 10
7.5956107083
 20
5.0266623973
 30
0.0
 10
7.5751532236
 20
5.0260603955
 30
0.0
 10
7.5610009894
 20
5.0256197605
 30
0.0
 10
7.5477384498
 20
5.02517949
 30
0.0
 10
7.5354222304
 20
5.0247394705
 30
0.0
 10
7.5241066
 20
5.0242999042
 30
0.0
 10
7.5138422484
 20
5.0238609393
 30
0.0
 10
7.5046751025
 20
5.023422673
 30
0.0
 10
7.4966461443
 20
5.0229858665
 30
0.0
 10
7.489790539
 20
5.0225505204
 30
0.0
 10
7.484826452
 20
5.0221717728
 30
0.0
 10
7.48146525
 20
5.0218608781
 30
0.0
 10
7.4794068736
 20
5.0216422214
 30
0.0
 10
7.4776611139
 20
5.0214243161
 30
0.0
 10
7.4764036158
 20
5.0212345928
 30
0.0
 10
7.4755562199
 20
5.0210790463
 30
0.0
 10
7.4750379364
 20
5.0209695325
 30
0.0
 10
7.4745987879
 20
5.0208605196
 30
0.0
 10
7.4742383629
 20
5.020751639
 30
0.0
 10
7.473989799
 20
5.0206569544
 30
0.0
 10
7.4738308846
 20
5.0205776426
 30
0.0
 10
7.4736915446
 20
5.0204940007
 30
0.0
 10
7.473578016
 20
5.0203882815
 30
0.0
 10
7.4735781624
 20
5.0202974366
 30
0.0
  0
SPLINE
  5
2EB
100
AcDbEntity
  8
0
100
AcDbSpline
 62
7
  6
CONTINUOUS
 70
0
 71
3
 72
29
 73
25
 74
0
 42
0.0000001
 43
0.0000001
 44
0.0000000001
 40
0.0
 40
0.0
 40
0.0
 40
0.0
 40
0.2090800203
 40
0.3068330425
 40
0.3994470284
 40
0.4865655389
 40
0.5678416068
 40
0.6429504386
 40
0.7115804378
 40
0.7734362983
 40
0.8282772384
 40
0.8758758527
 40
0.8968965019
 40
0.9160393426
 40
0.9332864133
 40
0.9486201881
 40
0.9620240645
 40
0.9734877369
 40
0.9830080537
 40
0.9905863346
 40
0.993650584
 40
0.9962354614
 40
0.9983475382
 40
1.0
 40
1.0
 40
1.0
 40
1.0
 10
7.6220781348
 20
5.0221749373
 30
0.0
 10
7.6117304267
 20
5.0219019305
 30
0.0
 10
7.5965451023
 20
5.0214880009
 30
0.0
 10
7.5767774141
 20
5.0209090545
 30
0.0
 10
7.5630459745
 20
5.0204847756
 30
0.0
 10
7.5501306908
 20
5.0200608181
 30
0.0
 10
7.5380825559
 20
5.0196370795
 30
0.0
 10
7.5269503601
 20
5.0192136737
 30
0.0
 10
7.5167803692
 20
5.0187907722
 30
0.0
 10
7.5076147384
 20
5.0183684307
 30
0.0
 10
7.4994915387
 20
5.0179469892
 30
0.0
 10
7.4933898794
 20
5.0175835614
 30
0.0
 10
7.4890548798
 20
5.0172885704
 30
0.0
 10
7.4862204243
 20
5.0170767973
 30
0.0
 10
7.4836683602
 20
5.0168652987
 30
0.0
 10
7.4814014666
 20
5.0166541793
 30
0.0
 10
7.4794222611
 20
5.0164435213
 30
0.0
 10
7.4777325909
 20
5.0162336848
 30
0.0
 10
7.4763338963
 20
5.0160248192
 30
0.0
 10
7.4753520087
 20
5.0158421727
 30
0.0
 10
7.4747147044
 20
5.0156909739
 30
0.0
 10
7.4743448179
 20
5.0155861296
 30
0.0
 10
7.4740480989
 20
5.0154818639
 30
0.0
 10
7.4738781917
 20
5.0154036593
 30
0.0
 10
7.4738073616
 20
5.0153627177
 30
0.0
  0
SPLINE
  5
2EC
100
AcDbEntity
  8
0
100
AcDbSpline
 62
7
  6
CONTINUOUS
 70
0
 71
3
 72
60
 73
56
 74
0
 42
0.0000001
 43
0.0000001
 44
0.0000000001
 40
0.0
 40
0.0
 40
0.0
 40
0.0
 40
0.0001422046
 40
0.0003162
 40
0.0005407558
 40
0.0008248145
 40
0.0011727346
 40
0.0015867749
 40
0.0020682126
 40
0.0026178129
 40
0.0039231401
 40
0.0055049236
 40
0.0073638717
 40
0.0095000732
 40
0.0119132834
 40
0.0146028666
 40
0.0208048257
 40
0.0280918985
 40
0.0364491029
 40
0.0458599373
 40
0.0563020463
 40
0.067751241
 40
0.0801831835
 40
0.0935704072
 40
0.107881049
 40
0.1391430732
 40
0.1736878699
 40
0.2112022858
 40
0.2513458722
 40
0.2937560006
 40
0.3380467027
 40
0.3838179201
 40
0.4306533538
 40
0.4781292415
 40
0.5732769794
 40
0.6200859334
 40
0.6658177149
 40
0.7100563817
 40
0.7524024391
 40
0.7924702725
 40
0.8298983081
 40
0.8643464047
 40
0.8955028453
 40
0.9230866278
 40
0.946846733
 40
0.9572258558
 40
0.9665725567
 40
0.9748644112
 40
0.9820848862
 40
0.9882194564
 40
0.9932543697
 40
0.9953564388
 40
0.9971811543
 40
0.9987287169
 40
1.0
 40
1.0
 40
1.0
 40
1.0
 10
8.0474773907
 20
4.994264938
 30
0.0
 10
8.0474774357
 20
4.9942377608
 30
0.0
 10
8.0474598655
 20
4.9941770478
 30
0.0
 10
8.0473920905
 20
4.9940969056
 30
0.0
 10
8.0472868223
 20
4.9940188329
 30
0.0
 10
8.0471423147
 20
4.9939411311
 30
0.0
 10
8.0469580093
 20
4.9938632388
 30
0.0
 10
8.0467334477
 20
4.9937851445
 30
0.0
 10
8.0464685236
 20
4.9937068558
 30
0.0
 10
8.0460359582
 20
4.9935958346
 30
0.0
 10
8.0453930255
 20
4.9934602722
 30
0.0
 10
8.0444993553
 20
4.993304538
 30
0.0
 10
8.0434449443
 20
4.9931482981
 30
0.0
 10
8.0422302265
 20
4.9929916355
 30
0.0
 10
8.0408556427
 20
4.9928346973
 30
0.0
 10
8.0387063458
 20
4.9926146229
 30
0.0
 10
8.0356260766
 20
4.9923442981
 30
0.0
 10
8.0314625864
 20
4.9920319558
 30
0.0
 10
8.026684392
 20
4.9917188426
 30
0.0
 10
8.0213021327
 20
4.9914051848
 30
0.0
 10
8.0153280785
 20
4.9910910954
 30
0.0
 10
8.0087759448
 20
4.9907766657
 30
0.0
 10
8.0016603755
 20
4.9904620279
 30
0.0
 10
7.993997457
 20
4.9901472317
 30
0.0
 10
7.982737697
 20
4.9897144167
 30
0.0
 10
7.9674354521
 20
4.9891787241
 30
0.0
 10
7.9476992284
 20
4.9885521933
 30
0.0
 10
7.9262648531
 20
4.9879249193
 30
0.0
 10
7.9033267249
 20
4.9872970366
 30
0.0
 10
7.8790931072
 20
4.98666878
 30
0.0
 10
7.853783635
 20
4.9860401918
 30
0.0
 10
7.8276281783
 20
4.9854114277
 30
0.0
 10
7.8008638207
 20
4.9847825042
 30
0.0
 10
7.7646652546
 20
4.9839432623
 30
0.0
 10
7.7284716186
 20
4.983109703
 30
0.0
 10
7.6926116181
 20
4.9822665844
 30
0.0
 10
7.6664787098
 20
4.9816378234
 30
0.0
 10
7.6411989728
 20
4.9810092423
 30
0.0
 10
7.6170020341
 20
4.9803809987
 30
0.0
 10
7.5941071523
 20
4.9797531288
 30
0.0
 10
7.5727222648
 20
4.9791258723
 30
0.0
 10
7.5530412329
 20
4.9784993965
 30
0.0
 10
7.5352425657
 20
4.9778741358
 30
0.0
 10
7.5194878742
 20
4.9772504834
 30
0.0
 10
7.5077039138
 20
4.9767116951
 30
0.0
 10
7.4994046992
 20
4.9762728696
 30
0.0
 10
7.4940592807
 20
4.9759592366
 30
0.0
 10
7.489318649
 20
4.9756461327
 30
0.0
 10
7.4851933178
 20
4.9753339849
 30
0.0
 10
7.4816924228
 20
4.9750230391
 30
0.0
 10
7.4791702425
 20
4.9747522649
 30
0.0
 10
7.4774719661
 20
4.9745298289
 30
0.0
 10
7.4764373667
 20
4.9743736162
 30
0.0
 10
7.4755635658
 20
4.9742180081
 30
0.0
 10
7.4750368075
 20
4.9741038933
 30
0.0
 10
7.4748011292
 20
4.9740448566
 30
0.0
  0
LINE
  5
2ED
100
AcDbEntity
  8
0
100
AcDbLine
 62
7
  6
CONTINUOUS
 10
7.4748011292
 20
4.9740448566
 11
7.4738073531
 21
4.973697718
  0
SPLINE
  5
2EE
100
AcDbEntity
  8
0
100
AcDbSpline
 62
7
  6
CONTINUOUS
 70
0
 71
3
 72
65
 73
61
 74
0
 42
0.0000001
 43
0.0000001
 44
0.0000000001
 40
0.0
 40
0.0
 40
0.0
 40
0.0
 40
0.0001336263
 40
0.0003030279
 40
0.0005273907
 40
0.0008150522
 40
0.0011698706
 40
0.0015938366
 40
0.002088074
 40
0.0026532588
 40
0.0039979467
 40
0.0056298997
 40
0.0075498689
 40
0.0097577418
 40
0.0122524011
 40
0.0150324677
 40
0.0214427764
 40
0.0289761354
 40
0.0376168136
 40
0.0473432406
 40
0.0581329501
 40
0.0699625865
 40
0.0828034811
 40
0.0966247609
 40
0.1113953997
 40
0.1436434029
 40
0.1792435536
 40
0.2178613943
 40
0.2591343508
 40
0.3026729016
 40
0.3480695216
 40
0.3948973569
 40
0.4427172833
 40
0.4910788408
 40
0.5395270192
 40
0.587605472
 40
0.6348619366
 40
0.6808519211
 40
0.7251444821
 40
0.7673244051
 40
0.8069929074
 40
0.8437788608
 40
0.8773341201
 40
0.907345428
 40
0.9209321798
 40
0.9335310465
 40
0.9451112411
 40
0.9556456433
 40
0.9651113672
 40
0.973485877
 40
0.9807485852
 40
0.9868851462
 40
0.9918831153
 40
0.9939516764
 40
0.9957321192
 40
0.9972248123
 40
0.9984309342
 40
0.9993533171
 40
0.9997102788
 40
1.0
 40
1.0
 40
1.0
 40
1.0
 10
8.0730277604
 20
4.9378486379
 30
0.0
 10
8.0730277604
 20
4.9378207782
 30
0.0
 10
8.0730067987
 20
4.9377575578
 30
0.0
 10
8.0729296838
 20
4.9376768141
 30
0.0
 10
8.072811
 20
4.9375977302
 30
0.0
 10
8.072647949
 20
4.9375188874
 30
0.0
 10
8.0724400235
 20
4.9374396759
 30
0.0
 10
8.072186662
 20
4.9373602131
 30
0.0
 10
8.0718877666
 20
4.9372805123
 30
0.0
 10
8.0713993969
 20
4.9371673898
 30
0.0
 10
8.0706737389
 20
4.9370293053
 30
0.0
 10
8.0696651518
 20
4.9368706935
 30
0.0
 10
8.0684747967
 20
4.9367115818
 30
0.0
 10
8.0671032733
 20
4.9365520774
 30
0.0
 10
8.0655514
 20
4.9363922909
 30
0.0
 10
8.0631254898
 20
4.9361682036
 30
0.0
 10
8.0596495179
 20
4.9358929427
 30
0.0
 10
8.0549516132
 20
4.9355749581
 30
0.0
 10
8.0495610063
 20
4.9352562415
 30
0.0
 10
8.0434904907
 20
4.9349368284
 30
0.0
 10
8.0367543111
 20
4.9346169773
 30
0.0
 10
8.0293681494
 20
4.9342968701
 30
0.0
 10
8.0213494053
 20
4.9339765251
 30
0.0
 10
8.0127170507
 20
4.9336559577
 30
0.0
 10
8.0000402268
 20
4.9332153806
 30
0.0
 10
7.982823693
 20
4.9326700693
 30
0.0
 10
7.9606358279
 20
4.9320321543
 30
0.0
 10
7.936565666
 20
4.9313934757
 30
0.0
 10
7.9108399089
 20
4.9307542339
 30
0.0
 10
7.8837004494
 20
4.9301145569
 30
0.0
 10
7.8554025575
 20
4.9294746159
 30
0.0
 10
7.8262118303
 20
4.9288344427
 30
0.0
 10
7.7964028038
 20
4.92819414
 30
0.0
 10
7.7662558784
 20
4.9275537538
 30
0.0
 10
7.7360550411
 20
4.926913362
 30
0.0
 10
7.7060846547
 20
4.9262730142
 30
0.0
 10
7.6766268907
 20
4.9256327897
 30
0.0
 10
7.6479586306
 20
4.924992746
 30
0.0
 10
7.6203490411
 20
4.9243529417
 30
0.0
 10
7.5940577712
 20
4.9237135272
 30
0.0
 10
7.5693320245
 20
4.9230745576
 30
0.0
 10
7.5464050432
 20
4.9224363894
 30
0.0
 10
7.5254923048
 20
4.9217991003
 30
0.0
 10
7.5094158922
 20
4.9212528474
 30
0.0
 10
7.4977077712
 20
4.9208106863
 30
0.0
 10
7.48984051
 20
4.9204903881
 30
0.0
 10
7.4826101885
 20
4.9201703353
 30
0.0
 10
7.4760337766
 20
4.9198505683
 30
0.0
 10
7.470126554
 20
4.9195313115
 30
0.0
 10
7.4649025177
 20
4.9192127278
 30
0.0
 10
7.4603739445
 20
4.9188951492
 30
0.0
 10
7.4565512845
 20
4.9185788326
 30
0.0
 10
7.4538121294
 20
4.9183031048
 30
0.0
 10
7.4519815536
 20
4.9180761031
 30
0.0
 10
7.4508791976
 20
4.9179171555
 30
0.0
 10
7.449958559
 20
4.9177591312
 30
0.0
 10
7.4492200024
 20
4.9176020335
 30
0.0
 10
7.448719623
 20
4.9174640534
 30
0.0
 10
7.4484134108
 20
4.9173484031
 30
0.0
 10
7.4482915401
 20
4.9172899196
 30
0.0
 10
7.4482392106
 20
4.9172597494
 30
0.0
  0
SPLINE
  5
2EF
100
AcDbEntity
  8
0
100
AcDbSpline
 62
7
  6
CONTINUOUS
 70
0
 71
3
 72
65
 73
61
 74
0
 42
0.0000001
 43
0.0000001
 44
0.0000000001
 40
0.0
 40
0.0
 40
0.0
 40
0.0
 40
0.0001336265
 40
0.0003030291
 40
0.0005273944
 40
0.0008150597
 40
0.0011698833
 40
0.0015938562
 40
0.0020881019
 40
0.0026532969
 40
0.0039980107
 40
0.0056299973
 40
0.0075500096
 40
0.0097579551
 40
0.0122527188
 40
0.0150329122
 40
0.0214435036
 40
0.0289771285
 40
0.0376182339
 40
0.0473451635
 40
0.0581351938
 40
0.0699649383
 40
0.082806029
 40
0.096627487
 40
0.1113982149
 40
0.1436469408
 40
0.179247847
 40
0.2178669769
 40
0.2591415592
 40
0.3026817333
 40
0.3480791567
 40
0.3949068563
 40
0.4427263044
 40
0.4910873248
 40
0.5395351374
 40
0.5876131891
 40
0.6348695037
 40
0.6808591825
 40
0.7251507304
 40
0.767328733
 40
0.8069957597
 40
0.8437806924
 40
0.8773353238
 40
0.9073464229
 40
0.9209331429
 40
0.9335320221
 40
0.9451122798
 40
0.9556466278
 40
0.9651122324
 40
0.9734866636
 40
0.9807492351
 40
0.9868855459
 40
0.991883282
 40
0.9939517726
 40
0.9957321707
 40
0.9972248354
 40
0.9984309416
 40
0.999353318
 40
0.9997102788
 40
1.0
 40
1.0
 40
1.0
 40
1.0
 10
7.4480277604
 20
4.9100537366
 30
0.0
 10
7.4480277604
 20
4.9100815963
 30
0.0
 10
7.4480487225
 20
4.910144817
 30
0.0
 10
7.4481258386
 20
4.9102255607
 30
0.0
 10
7.4482445241
 20
4.9103046445
 30
0.0
 10
7.4484075777
 20
4.9103834875
 30
0.0
 10
7.4486155066
 20
4.9104626992
 30
0.0
 10
7.4488688725
 20
4.9105421624
 30
0.0
 10
7.4491677732
 20
4.9106218637
 30
0.0
 10
7.4496561523
 20
4.9107349871
 30
0.0
 10
7.4503818248
 20
4.9108730733
 30
0.0
 10
7.4513904331
 20
4.9110316877
 30
0.0
 10
7.452580819
 20
4.911190804
 30
0.0
 10
7.453952388
 20
4.9113503124
 30
0.0
 10
7.4555043246
 20
4.9115101029
 30
0.0
 10
7.4579303418
 20
4.9117341963
 30
0.0
 10
7.4614064545
 20
4.9120094637
 30
0.0
 10
7.4661045622
 20
4.9123274613
 30
0.0
 10
7.4714954185
 20
4.9126461831
 30
0.0
 10
7.477566195
 20
4.9129655994
 30
0.0
 10
7.4843025688
 20
4.9132854561
 30
0.0
 10
7.4916888605
 20
4.9136055703
 30
0.0
 10
7.4997077054
 20
4.9139259116
 30
0.0
 10
7.5083401567
 20
4.914246476
 30
0.0
 10
7.521017187
 20
4.914687059
 30
0.0
 10
7.5382340477
 20
4.9152323682
 30
0.0
 10
7.5604224894
 20
4.9158703007
 30
0.0
 10
7.5844934165
 20
4.9165089881
 30
0.0
 10
7.6102201195
 20
4.9171482501
 30
0.0
 10
7.6373604237
 20
4.9177879413
 30
0.0
 10
7.6656587931
 20
4.9184278878
 30
0.0
 10
7.6948495597
 20
4.91906806
 30
0.0
 10
7.7246583463
 20
4.9197083537
 30
0.0
 10
7.7548049837
 20
4.9203487346
 30
0.0
 10
7.7850055491
 20
4.9209891198
 30
0.0
 10
7.8149757442
 20
4.9216294659
 30
0.0
 10
7.8444333294
 20
4.9222696868
 30
0.0
 10
7.8731012831
 20
4.9229097307
 30
0.0
 10
7.9007101975
 20
4.9235495186
 30
0.0
 10
7.9270005481
 20
4.924188919
 30
0.0
 10
7.9517253741
 20
4.9248278669
 30
0.0
 10
7.9746517041
 20
4.9254660206
 30
0.0
 10
7.9955640553
 20
4.9261033017
 30
0.0
 10
8.0116402868
 20
4.92664955
 30
0.0
 10
8.0233483601
 20
4.9270917124
 30
0.0
 10
8.0312156303
 20
4.9274120137
 30
0.0
 10
8.0384459562
 20
4.9277320664
 30
0.0
 10
8.0450223449
 20
4.9280518372
 30
0.0
 10
8.0509295146
 20
4.9283710982
 30
0.0
 10
8.0561534812
 20
4.9286896796
 30
0.0
 10
8.0606819576
 20
4.9290072507
 30
0.0
 10
8.0645044884
 20
4.9293235612
 30
0.0
 10
8.0672435279
 20
4.9295992841
 30
0.0
 10
8.0690740314
 20
4.9298262789
 30
0.0
 10
8.0701763576
 20
4.9299852233
 30
0.0
 10
8.0710969777
 20
4.9301432457
 30
0.0
 10
8.0718355239
 20
4.9303003422
 30
0.0
 10
8.0723358984
 20
4.9304383216
 30
0.0
 10
8.072642109
 20
4.9305539716
 30
0.0
 10
8.0727639796
 20
4.930612455
 30
0.0
 10
8.0728163092
 20
4.9306426251
 30
0.0
  0
ENDSEC
  0
SECTION
  2
OBJECTS
  0
DICTIONARY
  5
C
100
AcDbDictionary
280
0
281
1
  3
ACAD_GROUP
350
D
  3
ACAD_MLINESTYLE
350
17
  3
ACAD_LAYOUT
350
1A
  3
ACAD_PLOTSETTINGS
350
19
  3
ACAD_PLOTSTYLENAME
350
E
  0
DICTIONARY
  5
D
102
{ACAD_REACTORS
330
C
102
}
100
AcDbDictionary
280
0
281
1
  0
ACDBDICTIONARYWDFLT
  5
E
102
{ACAD_REACTORS
330
C
102
}
100
AcDbDictionary
281
1
  3
Normal
350
F
100
AcDbDictionaryWithDefault
340
F
  0
DICTIONARY
  5
17
102
{ACAD_REACTORS
330
C
102
}
100
AcDbDictionary
280
0
281
1
  3
Standard
350
18
  0
DICTIONARY
  5
19
102
{ACAD_REACTORS
330
C
102
}
100
AcDbDictionary
281
1
  0
DICTIONARY
  5
1A
102
{ACAD_REACTORS
330
C
102
}
100
AcDbDictionary
281
1
  3
Model
350
2F0
  3
Layout1
350
2F1
  0
ACDBPLACEHOLDER
  5
F
102
{ACAD_REACTORS
330
E
102
}
  0
MLINESTYLE
  5
18
102
{ACAD_REACTORS
330
17
102
}
100
AcDbMlineStyle
  2
STANDARD
 70
0
  3

 62
256
 51
90.0
 52
90.0
 71
2
 49
0.5
 62
256
  6
BYLAYER
 49
-0.5
 62
256
  6
BYLAYER
  0
LAYOUT
  5
2F0
102
{ACAD_REACTORS
330
1A
102
}
100
AcDbPlotSettings
  1

  2
none_device
  4
ANSI_A_(11.00_x_8.50_Inches)
  6

 40
0.0
 41
0.0
 42
0.0
 43
0.0
 44
279.4
 45
215.9
 46
0.0
 47
0.0
 48
0.0
 49
0.0
140
0.0
141
0.0
142
1.0
143
1.0
 70
1024
 72
0
 73
0
 74
0
  7

 75
0
147
1.0
148
0.0
149
0.0
100
AcDbLayout
  1
Model
 70
0
 71
0
 10
0.0
 20
0.0
 11
11.0
 21
8.5
 12
0.0
 22
0.0
 32
0.0
 14
0.0
 24
0.0
 34
0.0
 15
0.0
 25
0.0
 35
0.0
146
0.0
 13
0.0
 23
0.0
 33
0.0
 16
1.0
 26
0.0
 36
0.0
 17
0.0
 27
1.0
 37
0.0
 76
0
330
207
345
0
346
0
  0
LAYOUT
  5
2F1
102
{ACAD_REACTORS
330
1A
102
}
100
AcDbPlotSettings
  1

  2
none_device
  4
ANSI_A_(11.00_x_8.50_Inches)
  6

 40
0.0
 41
0.0
 42
0.0
 43
0.0
 44
279.4
 45
215.9
 46
0.0
 47
0.0
 48
0.0
 49
0.0
140
0.0
141
0.0
142
1.0
143
1.0
 70
0
 72
0
 73
0
 74
0
  7

 75
0
147
1.0
148
0.0
149
0.0
100
AcDbLayout
  1
Layout1
 70
0
 71
1
 10
0.0
 20
0.0
 11
11.0
 21
8.5
 12
0.0
 22
0.0
 32
0.0
 14
0.0
 24
0.0
 34
0.0
 15
0.0
 25
0.0
 35
0.0
146
0.0
 13
0.0
 23
0.0
 33
0.0
 16
1.0
 26
0.0
 36
0.0
 17
0.0
 27
1.0
 37
0.0
 76
0
330
208
345
0
346
0
  0
ENDSEC
  0
EOF
