999
DXF file: 5082sq_right.dxf
999
Pro/ENGINEER 2019352 by Parametric Technology Corporation
  0
SECTION
  2
HEADER
  9
$ACADVER
  1
AC1032
  9
$DWGCODEPAGE
  3
ANSI_1252
  9
$EXTMAX
 10
11.0
 20
8.5
 30
0.0
  9
$EXTMIN
 10
0.0
 20
0.0
 30
0.0
  9
$LIMMIN
 10
0.0
 20
0.0
  9
$LIMMAX
 10
11.0
 20
8.5
  9
$VIEWCTR
 10
5.5
 20
4.25
  9
$VIEWSIZE
 40
8.5
  9
$CLAYER
  8
0
  9
$LTSCALE
 40
0.605
  9
$CELTYPE
  6
BYLAYER
  9
$DIMSCALE
 40
1.0
  9
$DIMASZ
 40
0.1
  9
$DIMEXO
 40
0.0625
  9
$DIMDLI
 40
0.418
  9
$DIMEXE
 40
0.125
  9
$DIMCEN
 40
0.099
  9
$DIMLFAC
 40
1.0
  9
$DIMBLK
  1
_FILLED
  9
$DIMALT
 70
1
  9
$DIMALTD
 70
2
  9
$DIMALTTD
 70
2
  9
$DIMALTF
 40
25.4
  9
$DIMTXT
 40
0.08
  9
$DIMTOL
 70
1
  9
$DIMLIM
 70
0
  9
$DIMTFAC
 40
1.0
  9
$DIMTP
 40
0.001
  9
$DIMTM
 40
0.001
  9
$DIMGAP
 40
0.09
  9
$DIMDSEP
 70
46
  9
$AUNITS
 70
0
  9
$PDMODE
 70
3
  9
$PDSIZE
 40
0.3125
  9
$HANDSEED
  5
2A9
  9
$TILEMODE
 70
1
  9
$MEASUREMENT
 70
0
  9
$INSUNITS
 70
1
  0
ENDSEC
  0
SECTION
  2
CLASSES
  0
CLASS
  1
ACDBDICTIONARYWDFLT
  2
AcDbDictionaryWithDefault
  3
AutoCAD 2000
 90
0
 91
1
280
0
281
0
  0
CLASS
  1
ACDBPLACEHOLDER
  2
AcDbPlaceHolder
  3
AutoCAD 2000
 90
0
 91
1
280
0
281
0
  0
CLASS
  1
LAYOUT
  2
AcDbLayout
  3
AutoCAD 2000
 90
0
 91
0
280
0
281
0
  0
ENDSEC
  0
SECTION
  2
TABLES
  0
TABLE
  2
VPORT
  5
8
100
AcDbSymbolTable
 70
2
  0
VPORT
  5
1F4
100
AcDbSymbolTableRecord
100
AcDbViewportTableRecord
  2
*ACTIVE
 70
0
 10
0.0
 20
0.0
 11
1.0
 21
1.0
 12
5.5
 22
4.25
 13
0.0
 23
0.0
 14
1.0
 24
1.0
 15
0.0
 25
0.0
 16
0.0
 26
0.0
 36
1.0
 17
0.0
 27
0.0
 37
0.0
 40
8.5
 41
1.2941176471
 42
50.0
 43
0.0
 44
0.0
 50
0.0
 51
0.0
 71
0
 72
100
 73
1
 74
1
 75
0
 76
0
 77
0
 78
0
  0
ENDTAB
  0
TABLE
  2
LTYPE
  5
5
100
AcDbSymbolTable
 70
6
  0
LTYPE
  5
14
100
AcDbSymbolTableRecord
100
AcDbLinetypeTableRecord
  2
BYBLOCK
 70
0
  3

 72
65
 73
0
 40
0.0
  0
LTYPE
  5
15
100
AcDbSymbolTableRecord
100
AcDbLinetypeTableRecord
  2
BYLAYER
 70
0
  3

 72
65
 73
0
 40
0.0
  0
LTYPE
  5
16
100
AcDbSymbolTableRecord
100
AcDbLinetypeTableRecord
  2
CONTINUOUS
 70
64
  3
Solid line
 72
65
 73
0
 40
0.0
  0
LTYPE
  5
1F5
100
AcDbSymbolTableRecord
100
AcDbLinetypeTableRecord
  2
CENTER
 70
64
  3
____ _ ____ _ ____ _ ____ _ ____ _ ____ _ ____
 72
65
 73
4
 40
0.6
 49
0.375
 74
0
 49
-0.075
 74
0
 49
0.075
 74
0
 49
-0.075
 74
0
  0
LTYPE
  5
1F6
100
AcDbSymbolTableRecord
100
AcDbLinetypeTableRecord
  2
HIDDEN
 70
64
  3
- - - - - - - - - - - - - - - - - - - -
 72
65
 73
2
 40
0.2
 49
0.1
 74
0
 49
-0.1
 74
0
  0
LTYPE
  5
1F7
100
AcDbSymbolTableRecord
100
AcDbLinetypeTableRecord
  2
PHANTOM
 70
64
  3
_____ _ _ _____ _ _ _____ _ _ _____
 72
65
 73
6
 40
0.8
 49
0.45
 74
0
 49
-0.05
 74
0
 49
0.1
 74
0
 49
-0.05
 74
0
 49
0.1
 74
0
 49
-0.05
 74
0
  0
LTYPE
  5
1F8
100
AcDbSymbolTableRecord
100
AcDbLinetypeTableRecord
  2
DOT
 70
64
  3
. . . . . . . . . . . . . . . . . . . .
 72
65
 73
2
 40
0.2
 49
0.1
 74
0
 49
-0.1
 74
0
  0
LTYPE
  5
1F9
100
AcDbSymbolTableRecord
100
AcDbLinetypeTableRecord
  2
DASHED
 70
64
  3
- - - - - - - - - - - - - - - - - - - -
 72
65
 73
2
 40
0.2
 49
0.1
 74
0
 49
-0.1
 74
0
  0
ENDTAB
  0
TABLE
  2
LAYER
  5
2
100
AcDbSymbolTable
 70
36
  0
LAYER
  5
10
100
AcDbSymbolTableRecord
100
AcDbLayerTableRecord
  2
0
 70
0
 62
7
  6
CONTINUOUS
370
-3
390
F
  0
LAYER
  5
1FA
100
AcDbSymbolTableRecord
100
AcDbLayerTableRecord
  2
DEFAULT_1
 70
0
 62
7
  6
CENTER
370
-3
390
F
  0
LAYER
  5
1FB
100
AcDbSymbolTableRecord
100
AcDbLayerTableRecord
  2
DEFAULT_2
 70
0
 62
8
  6
HIDDEN
370
-3
390
F
  0
LAYER
  5
1FC
100
AcDbSymbolTableRecord
100
AcDbLayerTableRecord
  2
DEFAULT_3
 70
0
 62
7
  6
PHANTOM
370
-3
390
F
  0
LAYER
  5
1FD
100
AcDbSymbolTableRecord
100
AcDbLayerTableRecord
  2
ALL_FEATURES
 70
0
 62
7
  6
CONTINUOUS
370
-3
390
F
  0
LAYER
  5
1FE
100
AcDbSymbolTableRecord
100
AcDbLayerTableRecord
  2
AXES_FEATURES
 70
0
 62
7
  6
CONTINUOUS
370
-3
390
F
  0
LAYER
  5
1FF
100
AcDbSymbolTableRecord
100
AcDbLayerTableRecord
  2
DEFAULT_COORDINATE_SYSTEM
 70
0
 62
7
  6
CONTINUOUS
370
-3
390
F
  0
LAYER
  5
200
100
AcDbSymbolTableRecord
100
AcDbLayerTableRecord
  2
DEFAULT_DATUM_AXES
 70
0
 62
7
  6
CONTINUOUS
370
-3
390
F
  0
LAYER
  5
201
100
AcDbSymbolTableRecord
100
AcDbLayerTableRecord
  2
DEFAULT_DATUM_CURVES
 70
0
 62
7
  6
CONTINUOUS
370
-3
390
F
  0
LAYER
  5
202
100
AcDbSymbolTableRecord
100
AcDbLayerTableRecord
  2
DEFAULT_DATUM_PLANES
 70
0
 62
7
  6
CONTINUOUS
370
-3
390
F
  0
LAYER
  5
203
100
AcDbSymbolTableRecord
100
AcDbLayerTableRecord
  2
DEFAULT_SURFACES
 70
0
 62
7
  6
CONTINUOUS
370
-3
390
F
  0
LAYER
  5
204
100
AcDbSymbolTableRecord
100
AcDbLayerTableRecord
  2
DIMENSIONS
 70
0
 62
7
  6
CONTINUOUS
370
-3
390
F
  0
ENDTAB
  0
TABLE
  2
STYLE
  5
3
100
AcDbSymbolTable
 70
1
  0
STYLE
  5
11
100
AcDbSymbolTableRecord
100
AcDbTextStyleTableRecord
  2
STANDARD
 70
0
 40
0.0
 41
0.8
 50
0.0
 71
0
 42
0.2
  3
txt
  4

  0
STYLE
  5
205
100
AcDbSymbolTableRecord
100
AcDbTextStyleTableRecord
  2
TEXTSTYLE_1
 70
0
 40
0.0
 41
0.8
 50
0.0
 71
0
 42
0.2
  3
gdt
  4

  0
ENDTAB
  0
TABLE
  2
VIEW
  5
6
100
AcDbSymbolTable
 70
0
  0
ENDTAB
  0
TABLE
  2
UCS
  5
7
100
AcDbSymbolTable
 70
0
  0
ENDTAB
  0
TABLE
  2
APPID
  5
9
100
AcDbSymbolTable
 70
1
  0
APPID
  5
206
100
AcDbSymbolTableRecord
100
AcDbRegAppTableRecord
  2
ACAD
 70
0
  0
ENDTAB
  0
TABLE
  2
BLOCK_RECORD
  5
1
100
AcDbSymbolTable
 70
0
  0
BLOCK_RECORD
  5
207
100
AcDbSymbolTableRecord
100
AcDbBlockTableRecord
  2
*Model_Space
  0
BLOCK_RECORD
  5
208
100
AcDbSymbolTableRecord
100
AcDbBlockTableRecord
  2
*Paper_Space
  0
BLOCK_RECORD
  5
209
100
AcDbSymbolTableRecord
100
AcDbBlockTableRecord
  2
_FILLED
  0
ENDTAB
  0
TABLE
  2
DIMSTYLE
  5
A
100
AcDbSymbolTable
 70
1
100
AcDbDimStyleTable
 71
0
  0
DIMSTYLE
105
20A
100
AcDbSymbolTableRecord
100
AcDbDimStyleTableRecord
  2
STANDARD
 70
0
  3

  4

 40
1.0
 41
0.1
 42
0.0625
 43
0.38
 44
0.125
 45
0.0
 46
0.0
 47
0.001
 48
0.001
140
0.08
141
0.09
142
0.0
143
25.4
144
1.0
145
0.0
146
1.0
147
0.09
 71
1.0
 72
0.0
 73
1
 74
1
 75
0
 76
0
 77
0
 78
4
 79
1
170
1
171
2
172
0
173
0
174
0
175
0
176
0
177
0
178
0
270
2
179
3
271
3
272
3
273
2
274
2
275
0
280
0
281
0
282
0
283
1
284
4
285
0
286
0
287
3
288
0
340
11
278
46
341
209
342
209
343
209
344
209
  0
ENDTAB
  0
ENDSEC
  0
SECTION
  2
BLOCKS
  0
BLOCK
  5
20
100
AcDbEntity
  8
0
100
AcDbBlockBegin
  2
*Model_Space
 70
0
 10
0.0
 20
0.0
 30
0.0
  3
*Model_Space
  1

  0
ENDBLK
  5
21
100
AcDbEntity
  8
0
100
AcDbBlockEnd
  0
BLOCK
  5
1C
100
AcDbEntity
  8
0
100
AcDbBlockBegin
  2
*Paper_Space
 70
0
 10
0.0
 20
0.0
 30
0.0
  3
*Paper_Space
  1

  0
ENDBLK
  5
1D
100
AcDbEntity
  8
0
100
AcDbBlockEnd
  0
BLOCK
  5
20B
100
AcDbEntity
  8
0
100
AcDbBlockBegin
  2
_FILLED
 70
64
 10
0.0
 20
0.0
  3
_FILLED
  1

  0
SOLID
  5
20C
100
AcDbEntity
  8
0
  6
BYBLOCK
 62
0
100
AcDbTrace
 10
0.0
 20
0.0
 11
-1.0
 21
0.2
 12
-1.0
 22
-0.2
 13
-1.0
 23
-0.2
  0
ENDBLK
  5
20D
100
AcDbEntity
  8
0
  6
BYBLOCK
 62
0
100
AcDbBlockEnd
  0
ENDSEC
  0
SECTION
  2
ENTITIES
  0
MTEXT
  5
20E
100
AcDbEntity
  8
0
100
AcDbMText
 62
2
  6
CONTINUOUS
  7
STANDARD
 71
3
 72
1
 10
5.4903193179
 20
2.367006744
 30
0.0
 11
1.0
 21
0.0
 31
0.0
 73
2
 44
0.9
  1
SCALE 0.500
 40
0.08
 41
0.704
  0
LINE
  5
20F
100
AcDbEntity
  8
0
100
AcDbLine
 62
7
  6
CONTINUOUS
 10
0.0
 20
0.0
 11
0.0
 21
8.5
  0
LINE
  5
210
100
AcDbEntity
  8
0
100
AcDbLine
 62
7
  6
CONTINUOUS
 10
0.0
 20
0.0
 11
11.0
 21
0.0
  0
LINE
  5
211
100
AcDbEntity
  8
0
100
AcDbLine
 62
7
  6
CONTINUOUS
 10
0.0
 20
8.5
 11
11.0
 21
8.5
  0
LINE
  5
212
100
AcDbEntity
  8
0
100
AcDbLine
 62
7
  6
CONTINUOUS
 10
11.0
 20
0.0
 11
11.0
 21
8.5
  0
LINE
  5
213
100
AcDbEntity
  8
0
100
AcDbLine
 62
7
  6
CONTINUOUS
 10
5.0946417658
 20
4.1995177227
 11
6.0052118703
 21
4.1995177227
  0
LINE
  5
214
100
AcDbEntity
  8
0
100
AcDbLine
 62
7
  6
CONTINUOUS
 10
6.0190819691
 20
4.1995177227
 11
6.0260443703
 21
4.1995177227
  0
LINE
  5
215
100
AcDbEntity
  8
0
100
AcDbLine
 62
7
  6
CONTINUOUS
 10
6.0399144691
 20
4.1995177227
 11
6.0468768703
 21
4.1995177227
  0
LINE
  5
216
100
AcDbEntity
  8
0
100
AcDbLine
 62
7
  6
CONTINUOUS
 10
6.0607469691
 20
4.1995177227
 11
6.0677093703
 21
4.1995177227
  0
LINE
  5
217
100
AcDbEntity
  8
0
100
AcDbLine
 62
7
  6
CONTINUOUS
 10
6.0815794691
 20
4.1995177227
 11
6.0885418703
 21
4.1995177227
  0
LINE
  5
218
100
AcDbEntity
  8
0
100
AcDbLine
 62
7
  6
CONTINUOUS
 10
6.1024119691
 20
4.1995177227
 11
6.1093743703
 21
4.1995177227
  0
LINE
  5
219
100
AcDbEntity
  8
0
100
AcDbLine
 62
7
  6
CONTINUOUS
 10
6.1232444691
 20
4.1995177227
 11
6.1302068703
 21
4.1995177227
  0
LINE
  5
21A
100
AcDbEntity
  8
0
100
AcDbLine
 62
7
  6
CONTINUOUS
 10
6.1440769691
 20
4.1995177227
 11
6.1510393703
 21
4.1995177227
  0
LINE
  5
21B
100
AcDbEntity
  8
0
100
AcDbLine
 62
7
  6
CONTINUOUS
 10
6.0199631697
 20
4.2250677227
 11
6.0251631697
 21
4.2250677227
  0
LINE
  5
21C
100
AcDbEntity
  8
0
100
AcDbLine
 62
7
  6
CONTINUOUS
 10
6.0616281697
 20
4.2250677227
 11
6.0665628891
 21
4.2250677227
  0
LINE
  5
21D
100
AcDbEntity
  8
0
100
AcDbLine
 62
7
  6
CONTINUOUS
 10
6.1032931697
 20
4.2250677227
 11
6.1084931697
 21
4.2250677227
  0
LINE
  5
21E
100
AcDbEntity
  8
0
100
AcDbLine
 62
7
  6
CONTINUOUS
 10
6.1449581697
 20
4.2250677227
 11
6.1501581697
 21
4.2250677227
  0
LINE
  5
21F
100
AcDbEntity
  8
0
100
AcDbLine
 62
7
  6
CONTINUOUS
 10
6.1230008574
 20
4.8243068675
 11
6.1232444691
 21
4.8245177227
  0
LINE
  5
220
100
AcDbEntity
  8
0
100
AcDbLine
 62
7
  6
CONTINUOUS
 10
6.1230008574
 20
4.1997285779
 11
6.1232444691
 21
4.1995177227
  0
LINE
  5
221
100
AcDbEntity
  8
0
100
AcDbLine
 62
7
  6
CONTINUOUS
 10
6.1293256697
 20
4.7989677227
 11
6.1241256697
 21
4.7989677227
  0
LINE
  5
222
100
AcDbEntity
  8
0
100
AcDbLine
 62
7
  6
CONTINUOUS
 10
6.0876606697
 20
4.7989677227
 11
6.0824606697
 21
4.7989677227
  0
LINE
  5
223
100
AcDbEntity
  8
0
100
AcDbLine
 62
7
  6
CONTINUOUS
 10
6.0459956697
 20
4.7989677227
 11
6.0407956697
 21
4.7989677227
  0
LINE
  5
224
100
AcDbEntity
  8
0
100
AcDbLine
 62
7
  6
CONTINUOUS
 10
6.0043306697
 20
4.7989677227
 11
5.9991306697
 21
4.7989677227
  0
LINE
  5
225
100
AcDbEntity
  8
0
100
AcDbLine
 62
7
  6
CONTINUOUS
 10
6.0188383574
 20
4.8243068675
 11
6.0042312422
 21
4.799025173
  0
LINE
  5
226
100
AcDbEntity
  8
0
100
AcDbLine
 62
7
  6
CONTINUOUS
 10
6.0396708574
 20
4.8243068675
 11
6.0329794192
 21
4.8127250789
  0
LINE
  5
227
100
AcDbEntity
  8
0
100
AcDbLine
 62
7
  6
CONTINUOUS
 10
6.0605033574
 20
4.8243068675
 11
6.0458962422
 21
4.799025173
  0
LINE
  5
228
100
AcDbEntity
  8
0
100
AcDbLine
 62
7
  6
CONTINUOUS
 10
5.0946369197
 20
4.8245177227
 11
5.9843793703
 21
4.8245177227
  0
LINE
  5
229
100
AcDbEntity
  8
0
100
AcDbLine
 62
7
  6
CONTINUOUS
 10
5.984622982
 20
4.8245177227
 11
6.0052118703
 21
4.8245177227
  0
LINE
  5
22A
100
AcDbEntity
  8
0
100
AcDbLine
 62
7
  6
CONTINUOUS
 10
6.0190819691
 20
4.8245177227
 11
6.0260443703
 21
4.8245177227
  0
LINE
  5
22B
100
AcDbEntity
  8
0
100
AcDbLine
 62
7
  6
CONTINUOUS
 10
6.0399144691
 20
4.8245177227
 11
6.0468768703
 21
4.8245177227
  0
LINE
  5
22C
100
AcDbEntity
  8
0
100
AcDbLine
 62
7
  6
CONTINUOUS
 10
6.0607469691
 20
4.8245177227
 11
6.0677093703
 21
4.8245177227
  0
LINE
  5
22D
100
AcDbEntity
  8
0
100
AcDbLine
 62
7
  6
CONTINUOUS
 10
6.0815794691
 20
4.8245177227
 11
6.0885418703
 21
4.8245177227
  0
LINE
  5
22E
100
AcDbEntity
  8
0
100
AcDbLine
 62
7
  6
CONTINUOUS
 10
6.1024119691
 20
4.8245177227
 11
6.1093743703
 21
4.8245177227
  0
LINE
  5
22F
100
AcDbEntity
  8
0
100
AcDbLine
 62
7
  6
CONTINUOUS
 10
6.1232444691
 20
4.8245177227
 11
6.1302068703
 21
4.8245177227
  0
LINE
  5
230
100
AcDbEntity
  8
0
100
AcDbLine
 62
7
  6
CONTINUOUS
 10
6.1440769691
 20
4.8245177227
 11
6.1510393703
 21
4.8245177227
  0
LINE
  5
231
100
AcDbEntity
  8
0
100
AcDbLine
 62
7
  6
CONTINUOUS
 10
6.0121469192
 20
4.2113103665
 11
6.0188383574
 21
4.1997285779
  0
LINE
  5
232
100
AcDbEntity
  8
0
100
AcDbLine
 62
7
  6
CONTINUOUS
 10
6.0248978891
 20
4.2252973092
 11
6.0396708574
 21
4.1997285779
  0
LINE
  5
233
100
AcDbEntity
  8
0
100
AcDbLine
 62
7
  6
CONTINUOUS
 10
6.0538119192
 20
4.2113103665
 11
6.0605033574
 21
4.1997285779
  0
LINE
  5
234
100
AcDbEntity
  8
0
100
AcDbLine
 62
7
  6
CONTINUOUS
 10
6.0813358574
 20
4.8243068675
 11
6.0746444192
 21
4.8127250789
  0
LINE
  5
235
100
AcDbEntity
  8
0
100
AcDbLine
 62
7
  6
CONTINUOUS
 10
6.1021683574
 20
4.8243068675
 11
6.0875612422
 21
4.799025173
  0
LINE
  5
236
100
AcDbEntity
  8
0
100
AcDbLine
 62
7
  6
CONTINUOUS
 10
6.1230008574
 20
4.8243068675
 11
6.1163094192
 21
4.8127250789
  0
LINE
  5
237
100
AcDbEntity
  8
0
100
AcDbLine
 62
7
  6
CONTINUOUS
 10
6.0665628891
 20
4.2252973092
 11
6.0813358574
 21
4.1997285779
  0
LINE
  5
238
100
AcDbEntity
  8
0
100
AcDbLine
 62
7
  6
CONTINUOUS
 10
6.0954769192
 20
4.2113103665
 11
6.1021683574
 21
4.1997285779
  0
LINE
  5
239
100
AcDbEntity
  8
0
100
AcDbLine
 62
7
  6
CONTINUOUS
 10
6.1082278891
 20
4.2252973092
 11
6.1230008574
 21
4.1997285779
  0
LINE
  5
23A
100
AcDbEntity
  8
0
100
AcDbLine
 62
7
  6
CONTINUOUS
 10
6.1438333574
 20
4.8243068675
 11
6.1292262422
 21
4.799025173
  0
LINE
  5
23B
100
AcDbEntity
  8
0
100
AcDbLine
 62
7
  6
CONTINUOUS
 10
6.1596369197
 20
4.8156025372
 11
6.1579744192
 21
4.8127250789
  0
LINE
  5
23C
100
AcDbEntity
  8
0
100
AcDbLine
 62
7
  6
CONTINUOUS
 10
6.1371419192
 20
4.2113103665
 11
6.1438333574
 21
4.1997285779
  0
LINE
  5
23D
100
AcDbEntity
  8
0
100
AcDbLine
 62
7
  6
CONTINUOUS
 10
6.1498928891
 20
4.2252973092
 11
6.1596369197
 21
4.2084329082
  0
LINE
  5
23E
100
AcDbEntity
  8
0
100
AcDbLine
 62
7
  6
CONTINUOUS
 10
6.0233520755
 20
4.2249653099
 11
6.0233462844
 21
4.2250677227
  0
LINE
  5
23F
100
AcDbEntity
  8
0
100
AcDbLine
 62
7
  6
CONTINUOUS
 10
6.0650181923
 20
4.2249013294
 11
6.0650125171
 21
4.2250070157
  0
LINE
  5
240
100
AcDbEntity
  8
0
100
AcDbLine
 62
7
  6
CONTINUOUS
 10
6.0426050953
 20
4.7991443642
 11
6.042610688
 21
4.7989677227
  0
LINE
  5
241
100
AcDbEntity
  8
0
100
AcDbLine
 62
7
  6
CONTINUOUS
 10
6.005455482
 20
4.1997285779
 11
6.0052118703
 21
4.1995177227
  0
LINE
  5
242
100
AcDbEntity
  8
0
100
AcDbLine
 62
7
  6
CONTINUOUS
 10
5.984622982
 20
4.8243068675
 11
5.9843793703
 21
4.8245177227
  0
LINE
  5
243
100
AcDbEntity
  8
0
100
AcDbLine
 62
7
  6
CONTINUOUS
 10
6.005455482
 20
4.8243068675
 11
6.0052118703
 21
4.8245177227
  0
LINE
  5
244
100
AcDbEntity
  8
0
100
AcDbLine
 62
7
  6
CONTINUOUS
 10
5.9993959503
 20
4.7987381362
 11
5.984622982
 21
4.8243068675
  0
LINE
  5
245
100
AcDbEntity
  8
0
100
AcDbLine
 62
7
  6
CONTINUOUS
 10
6.14834547
 20
4.2249644238
 11
6.1483395834
 21
4.2250677227
  0
LINE
  5
246
100
AcDbEntity
  8
0
100
AcDbLine
 62
7
  6
CONTINUOUS
 10
6.0842709346
 20
4.7990693793
 11
6.0842766432
 21
4.7989677227
  0
LINE
  5
247
100
AcDbEntity
  8
0
100
AcDbLine
 62
7
  6
CONTINUOUS
 10
6.005455482
 20
4.1997285779
 11
6.0200625971
 21
4.2250102724
  0
LINE
  5
248
100
AcDbEntity
  8
0
100
AcDbLine
 62
7
  6
CONTINUOUS
 10
6.026287982
 20
4.1997285779
 11
6.0329794192
 21
4.2113103665
  0
LINE
  5
249
100
AcDbEntity
  8
0
100
AcDbLine
 62
7
  6
CONTINUOUS
 10
6.047120482
 20
4.1997285779
 11
6.0617275971
 21
4.2250102724
  0
LINE
  5
24A
100
AcDbEntity
  8
0
100
AcDbLine
 62
7
  6
CONTINUOUS
 10
6.0121469192
 20
4.8127250789
 11
6.005455482
 21
4.8243068675
  0
LINE
  5
24B
100
AcDbEntity
  8
0
100
AcDbLine
 62
7
  6
CONTINUOUS
 10
6.0410609503
 20
4.7987381362
 11
6.026287982
 21
4.8243068675
  0
LINE
  5
24C
100
AcDbEntity
  8
0
100
AcDbLine
 62
7
  6
CONTINUOUS
 10
6.0538119192
 20
4.8127250789
 11
6.047120482
 21
4.8243068675
  0
LINE
  5
24D
100
AcDbEntity
  8
0
100
AcDbLine
 62
7
  6
CONTINUOUS
 10
6.1259371082
 20
4.7990704267
 11
6.1259429313
 21
4.7989677227
  0
LINE
  5
24E
100
AcDbEntity
  8
0
100
AcDbLine
 62
7
  6
CONTINUOUS
 10
6.1596369197
 20
4.8156139934
 11
6.1596369197
 21
4.208421452
  0
LINE
  5
24F
100
AcDbEntity
  8
0
100
AcDbLine
 62
7
  6
CONTINUOUS
 10
6.067952982
 20
4.1997285779
 11
6.0746444192
 21
4.2113103665
  0
LINE
  5
250
100
AcDbEntity
  8
0
100
AcDbLine
 62
7
  6
CONTINUOUS
 10
6.088785482
 20
4.1997285779
 11
6.1033925971
 21
4.2250102724
  0
LINE
  5
251
100
AcDbEntity
  8
0
100
AcDbLine
 62
7
  6
CONTINUOUS
 10
6.109617982
 20
4.1997285779
 11
6.1163094192
 21
4.2113103665
  0
LINE
  5
252
100
AcDbEntity
  8
0
100
AcDbLine
 62
7
  6
CONTINUOUS
 10
6.130450482
 20
4.1997285779
 11
6.1450575971
 21
4.2250102724
  0
LINE
  5
253
100
AcDbEntity
  8
0
100
AcDbLine
 62
7
  6
CONTINUOUS
 10
6.151282982
 20
4.1997285779
 11
6.1579706891
 21
4.2113039105
  0
LINE
  5
254
100
AcDbEntity
  8
0
100
AcDbLine
 62
7
  6
CONTINUOUS
 10
6.0827259503
 20
4.7987381362
 11
6.067952982
 21
4.8243068675
  0
LINE
  5
255
100
AcDbEntity
  8
0
100
AcDbLine
 62
7
  6
CONTINUOUS
 10
6.0954769192
 20
4.8127250789
 11
6.088785482
 21
4.8243068675
  0
LINE
  5
256
100
AcDbEntity
  8
0
100
AcDbLine
 62
7
  6
CONTINUOUS
 10
6.1243909503
 20
4.7987381362
 11
6.109617982
 21
4.8243068675
  0
LINE
  5
257
100
AcDbEntity
  8
0
100
AcDbLine
 62
7
  6
CONTINUOUS
 10
6.1371419192
 20
4.8127250789
 11
6.130450482
 21
4.8243068675
  0
LINE
  5
258
100
AcDbEntity
  8
0
100
AcDbLine
 62
7
  6
CONTINUOUS
 10
6.1596369197
 20
4.8098476588
 11
6.151282982
 21
4.8243068675
  0
ARC
  5
259
100
AcDbEntity
  8
0
100
AcDbCircle
 62
7
  6
CONTINUOUS
 10
5.0946369197
 20
4.5120177227
 40
0.3125
100
AcDbArc
 50
90.0
 51
270.0
  0
ARC
  5
25A
100
AcDbEntity
  8
0
100
AcDbCircle
 62
7
  6
CONTINUOUS
 10
6.0373692983
 20
4.2294848049
 40
0.0132105792
100
AcDbArc
 50
192.3115811989
 51
193.6563908354
  0
LINE
  5
25B
100
AcDbEntity
  8
0
100
AcDbLine
 62
7
  6
CONTINUOUS
 10
6.0188383581
 20
4.1997289452
 11
6.0190819692
 21
4.1995183664
  0
LINE
  5
25C
100
AcDbEntity
  8
0
100
AcDbLine
 62
7
  6
CONTINUOUS
 10
6.0605033582
 20
4.1997289709
 11
6.0607469692
 21
4.1995183697
  0
LINE
  5
25D
100
AcDbEntity
  8
0
100
AcDbLine
 62
7
  6
CONTINUOUS
 10
6.1021683581
 20
4.1997290176
 11
6.102411969
 21
4.1995183693
  0
LINE
  5
25E
100
AcDbEntity
  8
0
100
AcDbLine
 62
7
  6
CONTINUOUS
 10
6.0396708582
 20
4.8243064921
 11
6.0399144692
 21
4.8245170766
  0
LINE
  5
25F
100
AcDbEntity
  8
0
100
AcDbLine
 62
7
  6
CONTINUOUS
 10
6.0813358581
 20
4.8243064519
 11
6.0815794691
 21
4.8245170765
  0
LINE
  5
260
100
AcDbEntity
  8
0
100
AcDbLine
 62
7
  6
CONTINUOUS
 10
6.0262879813
 20
4.1997290285
 11
6.0260443704
 21
4.1995183697
  0
LINE
  5
261
100
AcDbEntity
  8
0
100
AcDbLine
 62
7
  6
CONTINUOUS
 10
6.0679529812
 20
4.1997289808
 11
6.0677093703
 21
4.1995183693
  0
LINE
  5
262
100
AcDbEntity
  8
0
100
AcDbLine
 62
7
  6
CONTINUOUS
 10
6.0471204813
 20
4.8243064415
 11
6.0468768703
 21
4.8245170765
  0
LINE
  5
263
100
AcDbEntity
  8
0
100
AcDbLine
 62
7
  6
CONTINUOUS
 10
6.0887854812
 20
4.8243064869
 11
6.0885418702
 21
4.8245170756
  0
LINE
  5
264
100
AcDbEntity
  8
0
100
AcDbLine
 62
7
  6
CONTINUOUS
 10
6.1096179829
 20
4.1997289951
 11
6.1093743712
 21
4.1995178305
  0
LINE
  5
265
100
AcDbEntity
  8
0
100
AcDbLine
 62
7
  6
CONTINUOUS
 10
6.1512829824
 20
4.1997286737
 11
6.1510393699
 21
4.1995178038
  0
LINE
  5
266
100
AcDbEntity
  8
0
100
AcDbLine
 62
7
  6
CONTINUOUS
 10
6.1304504813
 20
4.8243065098
 11
6.1302068702
 21
4.8245170829
  0
LINE
  5
267
100
AcDbEntity
  8
0
100
AcDbLine
 62
7
  6
CONTINUOUS
 10
6.1440769699
 20
4.1995178407
 11
6.1438333571
 21
4.199728623
  0
SPLINE
  5
268
100
AcDbEntity
  8
0
100
AcDbSpline
 62
7
  6
CONTINUOUS
 70
0
 71
3
 72
18
 73
14
 74
0
 42
0.0000001
 43
0.0000001
 44
0.0000000001
 40
0.0
 40
0.0
 40
0.0
 40
0.0
 40
0.2109130865
 40
0.3976909089
 40
0.5600233318
 40
0.6976599446
 40
0.8104674379
 40
0.8575340343
 40
0.8983690878
 40
0.932979366
 40
0.9613900918
 40
0.9836707681
 40
1.0
 40
1.0
 40
1.0
 40
1.0
 10
6.090908608
 20
4.8048238497
 30
0.0
 10
6.0908248946
 20
4.8062020802
 30
0.0
 10
6.0906592046
 20
4.8088003658
 30
0.0
 10
6.0903962142
 20
4.8124572334
 30
0.0
 10
6.0901340442
 20
4.8156330751
 30
0.0
 10
6.0898727574
 20
4.8183228009
 30
0.0
 10
6.0896451834
 20
4.8202574293
 30
0.0
 10
6.0894583013
 20
4.821558108
 30
0.0
 10
6.0893270819
 20
4.8223494439
 30
0.0
 10
6.0891963882
 20
4.8230167454
 30
0.0
 10
6.0890665583
 20
4.823560274
 30
0.0
 10
6.0889378243
 20
4.8239797648
 30
0.0
 10
6.0888389992
 20
4.8242139464
 30
0.0
 10
6.0887854812
 20
4.8243064869
 30
0.0
  0
SPLINE
  5
269
100
AcDbEntity
  8
0
100
AcDbSpline
 62
7
  6
CONTINUOUS
 70
0
 71
3
 72
18
 73
14
 74
0
 42
0.0000001
 43
0.0000001
 44
0.0000000001
 40
0.0
 40
0.0
 40
0.0
 40
0.0
 40
0.2109068583
 40
0.3976793826
 40
0.5600040394
 40
0.6976387235
 40
0.8104502114
 40
0.8575196973
 40
0.8983575348
 40
0.9329699804
 40
0.9613819454
 40
0.9836655516
 40
1.0
 40
1.0
 40
1.0
 40
1.0
 10
6.0492425045
 20
4.8048419862
 30
0.0
 10
6.0491588347
 20
4.8062188958
 30
0.0
 10
6.0489932317
 20
4.8088146922
 30
0.0
 10
6.0487303835
 20
4.812468035
 30
0.0
 10
6.0484683415
 20
4.8156408239
 30
0.0
 10
6.048207188
 20
4.8183280075
 30
0.0
 10
6.0479797354
 20
4.8202608641
 30
0.0
 10
6.0477929526
 20
4.8215603899
 30
0.0
 10
6.0476618015
 20
4.8223510352
 30
0.0
 10
6.0475311777
 20
4.8230177494
 30
0.0
 10
6.0474014076
 20
4.823560802
 30
0.0
 10
6.0472727345
 20
4.8239799507
 30
0.0
 10
6.0471739645
 20
4.824213956
 30
0.0
 10
6.0471204813
 20
4.8243064415
 30
0.0
  0
SPLINE
  5
26A
100
AcDbEntity
  8
0
100
AcDbSpline
 62
7
  6
CONTINUOUS
 70
0
 71
3
 72
18
 73
14
 74
0
 42
0.0000001
 43
0.0000001
 44
0.0000000001
 40
0.0
 40
0.0
 40
0.0
 40
0.0
 40
0.2109043746
 40
0.397674839
 40
0.5599969153
 40
0.6976308593
 40
0.8104433526
 40
0.857513671
 40
0.8983523906
 40
0.9329656447
 40
0.961378333
 40
0.9836633687
 40
1.0
 40
1.0
 40
1.0
 40
1.0
 10
6.1000467982
 20
4.2191858487
 30
0.0
 10
6.1001304499
 20
4.2178094922
 30
0.0
 10
6.1002960168
 20
4.2152147377
 30
0.0
 10
6.1005588066
 20
4.2115628667
 30
0.0
 10
6.1008207941
 20
4.208391352
 30
0.0
 10
6.101081891
 20
4.2057052339
 30
0.0
 10
6.101309293
 20
4.2037731268
 30
0.0
 10
6.1014960341
 20
4.2024740932
 30
0.0
 10
6.1016271566
 20
4.2016837427
 30
0.0
 10
6.1017577513
 20
4.2010172761
 30
0.0
 10
6.1018874957
 20
4.2004744209
 30
0.0
 10
6.1020161421
 20
4.2000554126
 30
0.0
 10
6.1021148892
 20
4.1998214798
 30
0.0
 10
6.1021683581
 20
4.1997290176
 30
0.0
  0
SPLINE
  5
26B
100
AcDbEntity
  8
0
100
AcDbSpline
 62
7
  6
CONTINUOUS
 70
0
 71
3
 72
18
 73
14
 74
0
 42
0.0000001
 43
0.0000001
 44
0.0000000001
 40
0.0
 40
0.0
 40
0.0
 40
0.0
 40
0.2109003371
 40
0.3976672641
 40
0.5599845553
 40
0.6976172312
 40
0.8104315405
 40
0.8575032844
 40
0.8983434398
 40
0.9329578978
 40
0.9613716554
 40
0.9836592852
 40
1.0
 40
1.0
 40
1.0
 40
1.0
 10
6.0075761842
 20
4.8048636681
 30
0.0
 10
6.0074925658
 20
4.8062390054
 30
0.0
 10
6.0073270654
 20
4.8088318384
 30
0.0
 10
6.0070643834
 20
4.8124809929
 30
0.0
 10
6.0068024961
 20
4.8156501538
 30
0.0
 10
6.0065415041
 20
4.8183343017
 30
0.0
 10
6.006314196
 20
4.8202650223
 30
0.0
 10
6.0061275321
 20
4.8215631432
 30
0.0
 10
6.005996463
 20
4.8223529447
 30
0.0
 10
6.0058659221
 20
4.8230189484
 30
0.0
 10
6.0057362248
 20
4.8235614342
 30
0.0
 10
6.0056076279
 20
4.8239801809
 30
0.0
 10
6.0055089235
 20
4.8242139795
 30
0.0
 10
6.0054554813
 20
4.8243063992
 30
0.0
  0
SPLINE
  5
26C
100
AcDbEntity
  8
0
100
AcDbSpline
 62
7
  6
CONTINUOUS
 70
0
 71
3
 72
18
 73
14
 74
0
 42
0.0000001
 43
0.0000001
 44
0.0000000001
 40
0.0
 40
0.0
 40
0.0
 40
0.0
 40
0.0163662319
 40
0.0386797486
 40
0.0671059357
 40
0.1017147071
 40
0.1425374872
 40
0.1895874164
 40
0.3023738039
 40
0.4400088991
 40
0.6023043022
 40
0.7890437108
 40
1.0
 40
1.0
 40
1.0
 40
1.0
 10
6.1438333571
 20
4.199728623
 30
0.0
 10
6.1437799396
 20
4.1998211446
 30
0.0
 10
6.143681316
 20
4.2000551048
 30
0.0
 10
6.1435527979
 20
4.2004739192
 30
0.0
 10
6.1434231539
 20
4.2010161478
 30
0.0
 10
6.1432926538
 20
4.2016815008
 30
0.0
 10
6.1431616381
 20
4.2024703246
 30
0.0
 10
6.1429750427
 20
4.2037668869
 30
0.0
 10
6.1427478528
 20
4.2056956483
 30
0.0
 10
6.142487084
 20
4.2083772046
 30
0.0
 10
6.1422253111
 20
4.2115433551
 30
0.0
 10
6.1419626823
 20
4.2151894394
 30
0.0
 10
6.1417972554
 20
4.217780251
 30
0.0
 10
6.14171367
 20
4.2191547831
 30
0.0
  0
SPLINE
  5
26D
100
AcDbEntity
  8
0
100
AcDbSpline
 62
7
  6
CONTINUOUS
 70
0
 71
3
 72
18
 73
14
 74
0
 42
0.0000001
 43
0.0000001
 44
0.0000000001
 40
0.0
 40
0.0
 40
0.0
 40
0.0
 40
0.2109143978
 40
0.3976931596
 40
0.5600250948
 40
0.6976619338
 40
0.810470387
 40
0.8575373198
 40
0.898372392
 40
0.9329822066
 40
0.9613918518
 40
0.9836714998
 40
1.0
 40
1.0
 40
1.0
 40
1.0
 10
6.0583800712
 20
4.2192142381
 30
0.0
 10
6.0584637908
 20
4.2178358138
 30
0.0
 10
6.0586294927
 20
4.2152371641
 30
0.0
 10
6.058892501
 20
4.211579793
 30
0.0
 10
6.0591546926
 20
4.2084035196
 30
0.0
 10
6.0594159997
 20
4.2057134268
 30
0.0
 10
6.05964359
 20
4.2037785271
 30
0.0
 10
6.0598304861
 20
4.2024776636
 30
0.0
 10
6.0599617152
 20
4.2016862209
 30
0.0
 10
6.060092418
 20
4.2010188384
 30
0.0
 10
6.0602222589
 20
4.2004752526
 30
0.0
 10
6.0603510036
 20
4.200055723
 30
0.0
 10
6.0604498359
 20
4.19982152
 30
0.0
 10
6.0605033582
 20
4.1997289709
 30
0.0
  0
SPLINE
  5
26E
100
AcDbEntity
  8
0
100
AcDbSpline
 62
7
  6
CONTINUOUS
 70
0
 71
3
 72
18
 73
14
 74
0
 42
0.0000001
 43
0.0000001
 44
0.0000000001
 40
0.0
 40
0.0
 40
0.0
 40
0.0
 40
0.2109064581
 40
0.3976789768
 40
0.5600098999
 40
0.6976454518
 40
0.8104518676
 40
0.8575186207
 40
0.8983546692
 40
0.932967062
 40
0.9613812861
 40
0.9836661998
 40
1.0
 40
1.0
 40
1.0
 40
1.0
 10
6.0167161987
 20
4.2191956554
 30
0.0
 10
6.0167998746
 20
4.2178185899
 30
0.0
 10
6.0169654908
 20
4.2152224973
 30
0.0
 10
6.0172283657
 20
4.2115686959
 30
0.0
 10
6.0174904138
 20
4.2083954935
 30
0.0
 10
6.0177515803
 20
4.2057079856
 30
0.0
 10
6.0179790516
 20
4.2037749516
 30
0.0
 10
6.0181658478
 20
4.2024753386
 30
0.0
 10
6.0182970076
 20
4.2016846316
 30
0.0
 10
6.0184276432
 20
4.2010178376
 30
0.0
 10
6.0185574137
 20
4.2004746955
 30
0.0
 10
6.0186860893
 20
4.2000554751
 30
0.0
 10
6.0187848683
 20
4.1998214362
 30
0.0
 10
6.0188383581
 20
4.1997289452
 30
0.0
  0
SPLINE
  5
26F
100
AcDbEntity
  8
0
100
AcDbSpline
 62
7
  6
CONTINUOUS
 70
0
 71
3
 72
24
 73
20
 74
0
 42
0.0000001
 43
0.0000001
 44
0.0000000001
 40
0.0
 40
0.0
 40
0.0
 40
0.0
 40
0.0034168262
 40
0.0078124834
 40
0.0136963418
 40
0.0212838172
 40
0.03067386
 40
0.0419179815
 40
0.0700693309
 40
0.0870044931
 40
0.1058519856
 40
0.1492897767
 40
0.2003846737
 40
0.2591239106
 40
0.3254877767
 40
0.3994523903
 40
0.5700146937
 40
0.7703610805
 40
1.0
 40
1.0
 40
1.0
 40
1.0
 10
6.123244469
 20
4.8245170756
 30
0.0
 10
6.1232737406
 20
4.8245170818
 30
0.0
 10
6.1233405985
 20
4.8244937867
 30
0.0
 10
6.1234247644
 20
4.8244094741
 30
0.0
 10
6.1235074171
 20
4.8242799926
 30
0.0
 10
6.1235898218
 20
4.8241018722
 30
0.0
 10
6.1236726896
 20
4.8238745744
 30
0.0
 10
6.1237926531
 20
4.8234740389
 30
0.0
 10
6.1239008867
 20
4.823003322
 30
0.0
 10
6.1240063052
 20
4.8224658647
 30
0.0
 10
6.1241235059
 20
4.82179733
 30
0.0
 10
6.124267672
 20
4.8208366466
 30
0.0
 10
6.1244341333
 20
4.819534104
 30
0.0
 10
6.1246009928
 20
4.8180338283
 30
0.0
 10
6.124768181
 20
4.8163366121
 30
0.0
 10
6.1250026382
 20
4.8136835415
 30
0.0
 10
6.1252905561
 20
4.8098831048
 30
0.0
 10
6.1256232633
 20
4.8047489743
 30
0.0
 10
6.1258315831
 20
4.8010711827
 30
0.0
 10
6.1259371206
 20
4.7991067183
 30
0.0
  0
SPLINE
  5
270
100
AcDbEntity
  8
0
100
AcDbSpline
 62
7
  6
CONTINUOUS
 70
0
 71
3
 72
18
 73
14
 74
0
 42
0.0000001
 43
0.0000001
 44
0.0000000001
 40
0.0
 40
0.0
 40
0.0
 40
0.0
 40
0.2109022734
 40
0.3976715234
 40
0.5600018671
 40
0.6976368449
 40
0.8104421098
 40
0.8575086725
 40
0.8983451085
 40
0.9329587073
 40
0.9613751902
 40
0.9836630128
 40
1.0
 40
1.0
 40
1.0
 40
1.0
 10
6.132571962
 20
4.8048509628
 30
0.0
 10
6.1324883122
 20
4.8062272147
 30
0.0
 10
6.1323227473
 20
4.8088217763
 30
0.0
 10
6.1320599524
 20
4.8124734378
 30
0.0
 10
6.1317979894
 20
4.8156447974
 30
0.0
 10
6.1315369079
 20
4.8183307524
 30
0.0
 10
6.1313095087
 20
4.8202626656
 30
0.0
 10
6.1311227729
 20
4.821561525
 30
0.0
 10
6.1309916551
 20
4.8223517852
 30
0.0
 10
6.1308610607
 20
4.8230182185
 30
0.0
 10
6.1307313318
 20
4.823561086
 30
0.0
 10
6.1306026976
 20
4.8239801151
 30
0.0
 10
6.1305039512
 20
4.8242140535
 30
0.0
 10
6.1304504813
 20
4.8243065098
 30
0.0
  0
SPLINE
  5
271
100
AcDbEntity
  8
0
100
AcDbSpline
 62
7
  6
CONTINUOUS
 70
0
 71
3
 72
24
 73
20
 74
0
 42
0.0000001
 43
0.0000001
 44
0.0000000001
 40
0.0
 40
0.0
 40
0.0
 40
0.0
 40
0.0034183482
 40
0.0078154258
 40
0.0137003383
 40
0.0212883995
 40
0.0306784785
 40
0.0419220008
 40
0.0700714787
 40
0.0870063872
 40
0.1058540132
 40
0.1492928413
 40
0.20038913
 40
0.2591292882
 40
0.3254927702
 40
0.3994549676
 40
0.570015448
 40
0.7703631899
 40
1.0
 40
1.0
 40
1.0
 40
1.0
 10
6.0815794691
 20
4.8245170765
 30
0.0
 10
6.081608729
 20
4.8245170757
 30
0.0
 10
6.0816755502
 20
4.8244937883
 30
0.0
 10
6.0817596813
 20
4.8244095366
 30
0.0
 10
6.0818422997
 20
4.824280156
 30
0.0
 10
6.08192467
 20
4.8241021875
 30
0.0
 10
6.0820075025
 20
4.8238750949
 30
0.0
 10
6.0821274162
 20
4.8234749364
 30
0.0
 10
6.0822356073
 20
4.8230046535
 30
0.0
 10
6.0823409775
 20
4.8224676774
 30
0.0
 10
6.0824581282
 20
4.8217997104
 30
0.0
 10
6.0826022311
 20
4.8208398284
 30
0.0
 10
6.0827686195
 20
4.8195383703
 30
0.0
 10
6.0829354063
 20
4.818039358
 30
0.0
 10
6.0831025215
 20
4.8163436043
 30
0.0
 10
6.0833368842
 20
4.8136928328
 30
0.0
 10
6.0836246749
 20
4.8098956528
 30
0.0
 10
6.0839572305
 20
4.8047659074
 30
0.0
 10
6.084165459
 20
4.8010912464
 30
0.0
 10
6.084270951
 20
4.7991284686
 30
0.0
  0
SPLINE
  5
272
100
AcDbEntity
  8
0
100
AcDbSpline
 62
7
  6
CONTINUOUS
 70
0
 71
3
 72
24
 73
20
 74
0
 42
0.0000001
 43
0.0000001
 44
0.0000000001
 40
0.0
 40
0.0
 40
0.0
 40
0.0
 40
0.00341727
 40
0.007813337
 40
0.0136974982
 40
0.0212851428
 40
0.0306751997
 40
0.0419191574
 40
0.0700700689
 40
0.0870052169
 40
0.1058528034
 40
0.149290989
 40
0.2003863549
 40
0.2591258885
 40
0.3254896293
 40
0.399453498
 40
0.5700151897
 40
0.7703618006
 40
1.0
 40
1.0
 40
1.0
 40
1.0
 10
6.0260443704
 20
4.1995183697
 30
0.0
 10
6.0260151022
 20
4.1995183654
 30
0.0
 10
6.0259482551
 20
4.1995416579
 30
0.0
 10
6.0258640992
 20
4.1996259524
 30
0.0
 10
6.0257814566
 20
4.1997554042
 30
0.0
 10
6.025699062
 20
4.19993348
 30
0.0
 10
6.0256162044
 20
4.2001607177
 30
0.0
 10
6.0254962552
 20
4.2005611437
 30
0.0
 10
6.0253880343
 20
4.201031735
 30
0.0
 10
6.0252826298
 20
4.2015690531
 30
0.0
 10
6.0251654437
 20
4.2022374232
 30
0.0
 10
6.0250212961
 20
4.2031978733
 30
0.0
 10
6.024854856
 20
4.2045000995
 30
0.0
 10
6.0246880178
 20
4.2060000054
 30
0.0
 10
6.0245208509
 20
4.2076967925
 30
0.0
 10
6.0242864214
 20
4.2103491878
 30
0.0
 10
6.0239985411
 20
4.2141486671
 30
0.0
 10
6.0236658786
 20
4.2192815087
 30
0.0
 10
6.0234575857
 20
4.22295838
 30
0.0
 10
6.0233520616
 20
4.224922349
 30
0.0
  0
SPLINE
  5
273
100
AcDbEntity
  8
0
100
AcDbSpline
 62
7
  6
CONTINUOUS
 70
0
 71
3
 72
24
 73
20
 74
0
 42
0.0000001
 43
0.0000001
 44
0.0000000001
 40
0.0
 40
0.0
 40
0.0
 40
0.0
 40
0.0034194815
 40
0.0078176536
 40
0.013703386
 40
0.0212918907
 40
0.0306819573
 40
0.0419249311
 40
0.0700722281
 40
0.0870065077
 40
0.1058538468
 40
0.1492928381
 40
0.2003897751
 40
0.2591304544
 40
0.3254937099
 40
0.3994543164
 40
0.5700138608
 40
0.7703639016
 40
1.0
 40
1.0
 40
1.0
 40
1.0
 10
6.0399144692
 20
4.8245170766
 30
0.0
 10
6.0399437206
 20
4.8245170697
 30
0.0
 10
6.0400105147
 20
4.8244937854
 30
0.0
 10
6.0400946196
 20
4.8244095763
 30
0.0
 10
6.0401772126
 20
4.8242802681
 30
0.0
 10
6.0402595574
 20
4.8241024102
 30
0.0
 10
6.0403423639
 20
4.8238754687
 30
0.0
 10
6.0404622392
 20
4.8234755938
 30
0.0
 10
6.0405704007
 20
4.8230056405
 30
0.0
 10
6.0406757348
 20
4.8224690304
 30
0.0
 10
6.0407928486
 20
4.8218014906
 30
0.0
 10
6.0409369046
 20
4.8208422059
 30
0.0
 10
6.0411032389
 20
4.8195415502
 30
0.0
 10
6.0412699719
 20
4.8180434655
 30
0.0
 10
6.0414370334
 20
4.8163487801
 30
0.0
 10
6.0416713269
 20
4.8136996838
 30
0.0
 10
6.0419590272
 20
4.8099048686
 30
0.0
 10
6.0422914725
 20
4.804778307
 30
0.0
 10
6.0424996359
 20
4.8011059162
 30
0.0
 10
6.0426050953
 20
4.7991443642
 30
0.0
  0
SPLINE
  5
274
100
AcDbEntity
  8
0
100
AcDbSpline
 62
7
  6
CONTINUOUS
 70
0
 71
3
 72
24
 73
20
 74
0
 42
0.0000001
 43
0.0000001
 44
0.0000000001
 40
0.0
 40
0.0
 40
0.0
 40
0.0
 40
0.0034187457
 40
0.0078161989
 40
0.0137013902
 40
0.021289603
 40
0.0306796825
 40
0.041923029
 40
0.0700718458
 40
0.0870065874
 40
0.1058541562
 40
0.1492931011
 40
0.2003896476
 40
0.2591299977
 40
0.3254933968
 40
0.3994550318
 40
0.5700151895
 40
0.7703636005
 40
1.0
 40
1.0
 40
1.0
 40
1.0
 10
6.0677093703
 20
4.1995183693
 30
0.0
 10
6.0676801135
 20
4.1995183721
 30
0.0
 10
6.0676133018
 20
4.1995416578
 30
0.0
 10
6.0675291798
 20
4.1996258939
 30
0.0
 10
6.0674465704
 20
4.1997552485
 30
0.0
 10
6.0673642092
 20
4.1999331775
 30
0.0
 10
6.0672813858
 20
4.2001602166
 30
0.0
 10
6.0671614856
 20
4.2005602755
 30
0.0
 10
6.0670533052
 20
4.2010304431
 30
0.0
 10
6.0669479477
 20
4.201567291
 30
0.0
 10
6.0668308101
 20
4.2022351076
 30
0.0
 10
6.0666867238
 20
4.2031947785
 30
0.0
 10
6.0665203545
 20
4.2044959524
 30
0.0
 10
6.0663535867
 20
4.2059946354
 30
0.0
 10
6.0661864906
 20
4.2076900096
 30
0.0
 10
6.0659521525
 20
4.2103401861
 30
0.0
 10
6.0656643942
 20
4.2141365247
 30
0.0
 10
6.0653318778
 20
4.2192651365
 30
0.0
 10
6.0651236726
 20
4.2229389884
 30
0.0
 10
6.0650181923
 20
4.2249013294
 30
0.0
  0
SPLINE
  5
275
100
AcDbEntity
  8
0
100
AcDbSpline
 62
7
  6
CONTINUOUS
 70
0
 71
3
 72
24
 73
20
 74
0
 42
0.0000001
 43
0.0000001
 44
0.0000000001
 40
0.0
 40
0.0
 40
0.0
 40
0.0
 40
0.0034742852
 40
0.0079152457
 40
0.0138357575
 40
0.0214538377
 40
0.0308682995
 40
0.042129332
 40
0.0552647446
 40
0.070290868
 40
0.1060491779
 40
0.1494477814
 40
0.200498501
 40
0.2591993188
 40
0.325529436
 40
0.3994519033
 40
0.5699105233
 40
0.7702376677
 40
1.0
 40
1.0
 40
1.0
 40
1.0
 10
6.1093743712
 20
4.1995178305
 30
0.0
 10
6.1093457114
 20
4.1995177934
 30
0.0
 10
6.1092804024
 20
4.1995399823
 30
0.0
 10
6.1091976706
 20
4.1996211524
 30
0.0
 10
6.1091165684
 20
4.1997459835
 30
0.0
 10
6.1090357087
 20
4.1999176323
 30
0.0
 10
6.1089544433
 20
4.200136594
 30
0.0
 10
6.1088729228
 20
4.2004034515
 30
0.0
 10
6.1087911597
 20
4.2007182774
 30
0.0
 10
6.1086751077
 20
4.2012327013
 30
0.0
 10
6.1085334808
 20
4.2019968616
 30
0.0
 10
6.1083708043
 20
4.2030586623
 30
0.0
 10
6.108207589
 20
4.204311516
 30
0.0
 10
6.108043944
 20
4.2057548339
 30
0.0
 10
6.1078800149
 20
4.2073878535
 30
0.0
 10
6.1076500886
 20
4.2099406477
 30
0.0
 10
6.1073676206
 20
4.213598344
 30
0.0
 10
6.1070412402
 20
4.2185416332
 30
0.0
 10
6.106836951
 20
4.2220836452
 30
0.0
 10
6.1067334109
 20
4.2239761518
 30
0.0
  0
LINE
  5
276
100
AcDbEntity
  8
0
100
AcDbLine
 62
7
  6
CONTINUOUS
 10
6.1067334109
 20
4.2239761518
 11
6.1066819494
 21
4.2249254131
  0
SPLINE
  5
277
100
AcDbEntity
  8
0
100
AcDbSpline
 62
7
  6
CONTINUOUS
 70
0
 71
3
 72
24
 73
20
 74
0
 42
0.0000001
 43
0.0000001
 44
0.0000000001
 40
0.0
 40
0.0
 40
0.0
 40
0.0
 40
0.0034171668
 40
0.0078175571
 40
0.0137084692
 40
0.0213029961
 40
0.0306980483
 40
0.0419432674
 40
0.0700812944
 40
0.087005294
 40
0.1058418857
 40
0.1492683609
 40
0.2003702645
 40
0.2591248284
 40
0.3255008958
 40
0.3994632224
 40
0.569992887
 40
0.7703508416
 40
1.0
 40
1.0
 40
1.0
 40
1.0
 10
6.1510393699
 20
4.1995178038
 30
0.0
 10
6.151010068
 20
4.1995178402
 30
0.0
 10
6.1509431534
 20
4.1995413324
 30
0.0
 10
6.150858996
 20
4.199625939
 30
0.0
 10
6.1507763142
 20
4.1997557616
 30
0.0
 10
6.1506938785
 20
4.1999342478
 30
0.0
 10
6.1506109739
 20
4.2001618921
 30
0.0
 10
6.1504909792
 20
4.2005627607
 30
0.0
 10
6.1503826628
 20
4.2010337143
 30
0.0
 10
6.1502771847
 20
4.2015713734
 30
0.0
 10
6.1501599097
 20
4.2022402492
 30
0.0
 10
6.1500156673
 20
4.203201709
 30
0.0
 10
6.1498491545
 20
4.2045055789
 30
0.0
 10
6.1496822322
 20
4.2060075665
 30
0.0
 10
6.1495149782
 20
4.2077065968
 30
0.0
 10
6.149280412
 20
4.2103619635
 30
0.0
 10
6.1489922772
 20
4.2141657589
 30
0.0
 10
6.1486594787
 20
4.2193046144
 30
0.0
 10
6.1484510639
 20
4.2229860396
 30
0.0
 10
6.1483454658
 20
4.2249524319
 30
0.0
  0
LINE
  5
278
100
AcDbEntity
  8
0
100
AcDbLine
 62
7
  6
CONTINUOUS
 10
6.0396708582
 20
4.1997289533
 11
6.0399144692
 21
4.1995183688
  0
LINE
  5
279
100
AcDbEntity
  8
0
100
AcDbLine
 62
7
  6
CONTINUOUS
 10
6.0813358581
 20
4.1997289935
 11
6.0815794691
 21
4.1995183689
  0
LINE
  5
27A
100
AcDbEntity
  8
0
100
AcDbLine
 62
7
  6
CONTINUOUS
 10
6.0188383581
 20
4.8243065002
 11
6.0190819692
 21
4.824517079
  0
LINE
  5
27B
100
AcDbEntity
  8
0
100
AcDbLine
 62
7
  6
CONTINUOUS
 10
6.0605033582
 20
4.8243064745
 11
6.0607469692
 21
4.8245170758
  0
LINE
  5
27C
100
AcDbEntity
  8
0
100
AcDbLine
 62
7
  6
CONTINUOUS
 10
6.1021683581
 20
4.8243064279
 11
6.102411969
 21
4.8245170761
  0
LINE
  5
27D
100
AcDbEntity
  8
0
100
AcDbLine
 62
7
  6
CONTINUOUS
 10
6.0471204813
 20
4.1997290039
 11
6.0468768703
 21
4.1995183689
  0
LINE
  5
27E
100
AcDbEntity
  8
0
100
AcDbLine
 62
7
  6
CONTINUOUS
 10
6.0887854812
 20
4.1997289585
 11
6.0885418702
 21
4.1995183698
  0
LINE
  5
27F
100
AcDbEntity
  8
0
100
AcDbLine
 62
7
  6
CONTINUOUS
 10
6.0262879813
 20
4.8243064169
 11
6.0260443704
 21
4.8245170758
  0
LINE
  5
280
100
AcDbEntity
  8
0
100
AcDbLine
 62
7
  6
CONTINUOUS
 10
6.0679529812
 20
4.8243064646
 11
6.0677093703
 21
4.8245170761
  0
LINE
  5
281
100
AcDbEntity
  8
0
100
AcDbLine
 62
7
  6
CONTINUOUS
 10
6.1304504813
 20
4.1997289356
 11
6.1302068702
 21
4.1995183626
  0
LINE
  5
282
100
AcDbEntity
  8
0
100
AcDbLine
 62
7
  6
CONTINUOUS
 10
6.1096179829
 20
4.8243064503
 11
6.1093743712
 21
4.8245176149
  0
LINE
  5
283
100
AcDbEntity
  8
0
100
AcDbLine
 62
7
  6
CONTINUOUS
 10
6.1512829824
 20
4.8243067717
 11
6.1510393699
 21
4.8245176416
  0
LINE
  5
284
100
AcDbEntity
  8
0
100
AcDbLine
 62
7
  6
CONTINUOUS
 10
6.1440769699
 20
4.8245176048
 11
6.1438333571
 21
4.8243068224
  0
LINE
  5
285
100
AcDbEntity
  8
0
100
AcDbLine
 62
7
  6
CONTINUOUS
 10
6.0665628897
 20
4.2252977884
 11
6.0662003343
 21
4.2263528919
  0
SPLINE
  5
286
100
AcDbEntity
  8
0
100
AcDbSpline
 62
7
  6
CONTINUOUS
 70
0
 71
3
 72
59
 73
55
 74
0
 42
0.0000001
 43
0.0000001
 44
0.0000000001
 40
0.0
 40
0.0
 40
0.0
 40
0.0
 40
0.0012972761
 40
0.0028710937
 40
0.0047218517
 40
0.0068493151
 40
0.0119317699
 40
0.0181119058
 40
0.0253777606
 40
0.0337120775
 40
0.0430969644
 40
0.0535134615
 40
0.0773412044
 40
0.1049815688
 40
0.1361840936
 40
0.1706690657
 40
0.2081221404
 40
0.2482070674
 40
0.2905588662
 40
0.3347958407
 40
0.4273073931
 40
0.5223990699
 40
0.5698387365
 40
0.6166346126
 40
0.6623624137
 40
0.7066087258
 40
0.7489726784
 40
0.7890706336
 40
0.8265406365
 40
0.861041962
 40
0.8922652058
 40
0.906556645
 40
0.9199252339
 40
0.9323414627
 40
0.9437759504
 40
0.9542027345
 40
0.9636002757
 40
0.9719474504
 40
0.9792241678
 40
0.9854162484
 40
0.988102037
 40
0.9905125521
 40
0.9926466206
 40
0.9945032935
 40
0.9960825069
 40
0.9973853465
 40
0.9979338581
 40
0.9984143753
 40
0.9988277103
 40
0.9991751825
 40
0.9994590757
 40
0.9996836776
 40
0.9998577868
 40
1.0
 40
1.0
 40
1.0
 40
1.0
 10
6.0662003343
 20
4.2263528919
 30
0.0
 10
6.0661414694
 20
4.2265937018
 30
0.0
 10
6.0660275695
 20
4.22713064
 30
0.0
 10
6.0658720279
 20
4.2280195409
 30
0.0
 10
6.0657158982
 20
4.2290690422
 30
0.0
 10
6.0654938085
 20
4.2307862422
 30
0.0
 10
6.0652231728
 20
4.2333309162
 30
0.0
 10
6.0649123556
 20
4.2368579975
 30
0.0
 10
6.0646004632
 20
4.2410084502
 30
0.0
 10
6.0642875788
 20
4.2457727015
 30
0.0
 10
6.0639740837
 20
4.2511401234
 30
0.0
 10
6.0635357358
 20
4.2594658405
 30
0.0
 10
6.0629973874
 20
4.2712794183
 30
0.0
 10
6.0623741516
 20
4.2870649421
 30
0.0
 10
6.0617493114
 20
4.3048883256
 30
0.0
 10
6.0611233258
 20
4.3245878324
 30
0.0
 10
6.0604964795
 20
4.3459854585
 30
0.0
 10
6.0598691261
 20
4.3688869608
 30
0.0
 10
6.0592412954
 20
4.3930852619
 30
0.0
 10
6.0583911658
 20
4.427299498
 30
0.0
 10
6.0573437738
 20
4.4715901306
 30
0.0
 10
6.0563095477
 20
4.5164932364
 30
0.0
 10
6.0554709001
 20
4.5526625926
 30
0.0
 10
6.0548424655
 20
4.5794012031
 30
0.0
 10
6.0542141584
 20
4.6055294182
 30
0.0
 10
6.0535860665
 20
4.6308104784
 30
0.0
 10
6.0529582731
 20
4.6550153792
 30
0.0
 10
6.0523308668
 20
4.6779249298
 30
0.0
 10
6.0517040898
 20
4.6993314117
 30
0.0
 10
6.0510779901
 20
4.7190412375
 30
0.0
 10
6.0505427482
 20
4.7343223971
 30
0.0
 10
6.0501102486
 20
4.7455662647
 30
0.0
 10
6.0497956558
 20
4.7532180969
 30
0.0
 10
6.0494812841
 20
4.7603235026
 30
0.0
 10
6.0491671269
 20
4.7668661682
 30
0.0
 10
6.0488532373
 20
4.772831277
 30
0.0
 10
6.0485397792
 20
4.7782055498
 30
0.0
 10
6.0482269888
 20
4.7829767827
 30
0.0
 10
6.0479148802
 20
4.7871340265
 30
0.0
 10
6.0476447061
 20
4.7902093548
 30
0.0
 10
6.0474247954
 20
4.7923552827
 30
0.0
 10
6.0472679905
 20
4.7937280683
 30
0.0
 10
6.0471114757
 20
4.7949412993
 30
0.0
 10
6.0469553707
 20
4.795994263
 30
0.0
 10
6.0467997455
 20
4.7968864281
 30
0.0
 10
6.0466642692
 20
4.7975281046
 30
0.0
 10
6.0465533245
 20
4.7979597514
 30
0.0
 10
6.0464750901
 20
4.7982241186
 30
0.0
 10
6.0463970481
 20
4.7984482506
 30
0.0
 10
6.046319203
 20
4.7986322773
 30
0.0
 10
6.0462415569
 20
4.7987766674
 30
0.0
 10
6.0461635514
 20
4.7988819611
 30
0.0
 10
6.0460835143
 20
4.7989498646
 30
0.0
 10
6.046022846
 20
4.7989676244
 30
0.0
 10
6.0459956701
 20
4.7989676567
 30
0.0
  0
SPLINE
  5
287
100
AcDbEntity
  8
0
100
AcDbSpline
 62
7
  6
CONTINUOUS
 70
0
 71
3
 72
32
 73
28
 74
0
 42
0.0000001
 43
0.0000001
 44
0.0000000001
 40
0.0
 40
0.0
 40
0.0
 40
0.0
 40
0.1905916165
 40
0.2836945209
 40
0.3741866647
 40
0.4612516212
 40
0.5440792627
 40
0.6219130923
 40
0.6940380483
 40
0.7597945917
 40
0.8185777346
 40
0.8451835107
 40
0.86984746
 40
0.8925166162
 40
0.9131389507
 40
0.9316642942
 40
0.9480535196
 40
0.9622721139
 40
0.9742864775
 40
0.984071763
 40
0.9881243942
 40
0.991615478
 40
0.9945447612
 40
0.9969134627
 40
0.9987263686
 40
0.9994288672
 40
1.0
 40
1.0
 40
1.0
 40
1.0
 10
6.0781256203
 20
4.5120177227
 30
0.0
 10
6.0777043423
 20
4.5318707737
 30
0.0
 10
6.0770774173
 20
4.5614219298
 30
0.0
 10
6.0762272235
 20
4.600398736
 30
0.0
 10
6.0755946972
 20
4.6285913967
 30
0.0
 10
6.0749624644
 20
4.6557132186
 30
0.0
 10
6.0743305462
 20
4.6815158197
 30
0.0
 10
6.0736991678
 20
4.705761361
 30
0.0
 10
6.0730684724
 20
4.728227662
 30
0.0
 10
6.0724387282
 20
4.7487082718
 30
0.0
 10
6.0718988006
 20
4.7644467389
 30
0.0
 10
6.0714618474
 20
4.7759047049
 30
0.0
 10
6.0711452712
 20
4.7836018177
 30
0.0
 10
6.0708289853
 20
4.7906749667
 30
0.0
 10
6.070513062
 20
4.7971078631
 30
0.0
 10
6.0701975487
 20
4.8028856183
 30
0.0
 10
6.0698826447
 20
4.8079950995
 30
0.0
 10
6.0695688482
 20
4.8124248509
 30
0.0
 10
6.0692562797
 20
4.8161646104
 30
0.0
 10
6.0689837201
 20
4.8188445988
 30
0.0
 10
6.0687594715
 20
4.8206362042
 30
0.0
 10
6.0686024668
 20
4.8217160892
 30
0.0
 10
6.0684463734
 20
4.822618635
 30
0.0
 10
6.068291196
 20
4.82334318
 30
0.0
 10
6.0681548322
 20
4.8238343211
 30
0.0
 10
6.0680405546
 20
4.8241351165
 30
0.0
 10
6.0679827709
 20
4.8242549525
 30
0.0
 10
6.0679529812
 20
4.8243064646
 30
0.0
  0
LINE
  5
288
100
AcDbEntity
  8
0
100
AcDbLine
 62
7
  6
CONTINUOUS
 10
6.1498928897
 20
4.2252977645
 11
6.1495419197
 21
4.2263059332
  0
SPLINE
  5
289
100
AcDbEntity
  8
0
100
AcDbSpline
 62
7
  6
CONTINUOUS
 70
0
 71
3
 72
59
 73
55
 74
0
 42
0.0000001
 43
0.0000001
 44
0.0000000001
 40
0.0
 40
0.0
 40
0.0
 40
0.0
 40
0.0012777555
 40
0.0028322439
 40
0.0046639444
 40
0.0067726694
 40
0.011818724
 40
0.0179640263
 40
0.0251966187
 40
0.0334993622
 40
0.042854507
 40
0.0532430917
 40
0.0770204273
 40
0.104618193
 40
0.1357857204
 40
0.1702435426
 40
0.2076770932
 40
0.2477498449
 40
0.2900967293
 40
0.3343353447
 40
0.4268686024
 40
0.5220023308
 40
0.5694690177
 40
0.6162947758
 40
0.6620549071
 40
0.7063347294
 40
0.7487332758
 40
0.7888653677
 40
0.8263691101
 40
0.8609024471
 40
0.8921555666
 40
0.9064609329
 40
0.9198431149
 40
0.9322718495
 40
0.943717444
 40
0.9541550907
 40
0.9635626483
 40
0.9719181373
 40
0.9792021447
 40
0.9854010947
 40
0.9880898755
 40
0.9905029353
 40
0.9926389905
 40
0.9944973177
 40
0.9960781955
 40
0.9973825933
 40
0.9979318008
 40
0.9984129356
 40
0.9988267931
 40
0.9991746769
 40
0.9994588571
 40
0.9996836153
 40
0.9998577682
 40
1.0
 40
1.0
 40
1.0
 40
1.0
 10
6.1495419197
 20
4.2263059332
 30
0.0
 10
6.1494829117
 20
4.226542887
 30
0.0
 10
6.1493688487
 20
4.2270722584
 30
0.0
 10
6.1492132727
 20
4.2279499965
 30
0.0
 10
6.1490570907
 20
4.228988546
 30
0.0
 10
6.1488347743
 20
4.2306915675
 30
0.0
 10
6.1485639741
 20
4.2332191574
 30
0.0
 10
6.148253041
 20
4.2367264825
 30
0.0
 10
6.1479410104
 20
4.2408581783
 30
0.0
 10
6.1476279714
 20
4.2456047112
 30
0.0
 10
6.1473143164
 20
4.2509554988
 30
0.0
 10
6.1468756489
 20
4.2592612259
 30
0.0
 10
6.1463369621
 20
4.2710526592
 30
0.0
 10
6.1457134151
 20
4.2868150277
 30
0.0
 10
6.1450882406
 20
4.3046198802
 30
0.0
 10
6.1444619176
 20
4.3243054295
 30
0.0
 10
6.1438347267
 20
4.3456936069
 30
0.0
 10
6.143207022
 20
4.3685900398
 30
0.0
 10
6.142578843
 20
4.3927874281
 30
0.0
 10
6.1417281745
 20
4.4270080722
 30
0.0
 10
6.1406801537
 20
4.4713149428
 30
0.0
 10
6.1396453989
 20
4.5162391921
 30
0.0
 10
6.1388063121
 20
4.5524305174
 30
0.0
 10
6.1381775157
 20
4.5791884418
 30
0.0
 10
6.1375488565
 20
4.60533716
 30
0.0
 10
6.1369203984
 20
4.6306395521
 30
0.0
 10
6.1362922565
 20
4.6548660397
 30
0.0
 10
6.1356644822
 20
4.6777971112
 30
0.0
 10
6.1350373557
 20
4.6992244939
 30
0.0
 10
6.134410894
 20
4.7189542625
 30
0.0
 10
6.1338753531
 20
4.7342512044
 30
0.0
 10
6.1334425999
 20
4.7455069923
 30
0.0
 10
6.1331278357
 20
4.753167122
 30
0.0
 10
6.1328132911
 20
4.76028024
 30
0.0
 10
6.1324989325
 20
4.7668300471
 30
0.0
 10
6.1321848709
 20
4.7728017743
 30
0.0
 10
6.1318712512
 20
4.7781820828
 30
0.0
 10
6.1315582695
 20
4.7829586157
 30
0.0
 10
6.1312459595
 20
4.7871205051
 30
0.0
 10
6.1309756495
 20
4.7901993741
 30
0.0
 10
6.1307556178
 20
4.7923478565
 30
0.0
 10
6.1305987297
 20
4.7937221975
 30
0.0
 10
6.1304421208
 20
4.794936713
 30
0.0
 10
6.1302859084
 20
4.7959907766
 30
0.0
 10
6.1301301982
 20
4.7968839506
 30
0.0
 10
6.1299946512
 20
4.7975264339
 30
0.0
 10
6.1298836477
 20
4.7979586711
 30
0.0
 10
6.1298053701
 20
4.7982234157
 30
0.0
 10
6.1297272855
 20
4.7984478682
 30
0.0
 10
6.1296493988
 20
4.7986321489
 30
0.0
 10
6.1295717128
 20
4.7987767202
 30
0.0
 10
6.1294936678
 20
4.7988821138
 30
0.0
 10
6.1294135769
 20
4.7989500488
 30
0.0
 10
6.1293528513
 20
4.7989677288
 30
0.0
 10
6.1293256695
 20
4.7989677046
 30
0.0
  0
SPLINE
  5
28A
100
AcDbEntity
  8
0
100
AcDbSpline
 62
7
  6
CONTINUOUS
 70
0
 71
3
 72
43
 73
39
 74
0
 42
0.0000001
 43
0.0000001
 44
0.0000000001
 40
0.0
 40
0.0
 40
0.0
 40
0.0
 40
0.0657498712
 40
0.1389240785
 40
0.2179454507
 40
0.3011238755
 40
0.3866720995
 40
0.4727552733
 40
0.5575258278
 40
0.6391648222
 40
0.6782592531
 40
0.7159205292
 40
0.7519477149
 40
0.7861462869
 40
0.8183333395
 40
0.8483359781
 40
0.8759927944
 40
0.9011566961
 40
0.9236911192
 40
0.9434781915
 40
0.960409632
 40
0.9677773961
 40
0.9743996744
 40
0.980266956
 40
0.9853727864
 40
0.9897121318
 40
0.9915929984
 40
0.9932806922
 40
0.9947748898
 40
0.9960755782
 40
0.9971834355
 40
0.9980998062
 40
0.9988272517
 40
0.9993712151
 40
0.9995784518
 40
0.999746761
 40
0.9998830339
 40
1.0
 40
1.0
 40
1.0
 40
1.0
 10
6.1596369197
 20
4.2932040589
 30
0.0
 10
6.1592906703
 20
4.3048536607
 30
0.0
 10
6.1586133734
 20
4.3294699268
 30
0.0
 10
6.1576550232
 20
4.3680908197
 30
0.0
 10
6.1566948177
 20
4.4098019092
 30
0.0
 10
6.155733417
 20
4.4537069167
 30
0.0
 10
6.1547714372
 20
4.4988639671
 30
0.0
 10
6.1538093337
 20
4.5443032967
 30
0.0
 10
6.1528475173
 20
4.5890495305
 30
0.0
 10
6.1520354402
 20
4.6254678844
 30
0.0
 10
6.1513797512
 20
4.6535370918
 30
0.0
 10
6.1508951868
 20
4.673522987
 30
0.0
 10
6.1504108109
 20
4.6926407875
 30
0.0
 10
6.1499266166
 20
4.7107879122
 30
0.0
 10
6.1494426926
 20
4.7278667394
 30
0.0
 10
6.1489591206
 20
4.7437854979
 30
0.0
 10
6.1484759881
 20
4.7584587388
 30
0.0
 10
6.1479935307
 20
4.771807416
 30
0.0
 10
6.1475119461
 20
4.7837601498
 30
0.0
 10
6.1470316585
 20
4.7942523268
 30
0.0
 10
6.1466162047
 20
4.8020560872
 30
0.0
 10
6.1462779749
 20
4.8075267819
 30
0.0
 10
6.1460365386
 20
4.8110384114
 30
0.0
 10
6.1457955566
 20
4.814148081
 30
0.0
 10
6.1455551341
 20
4.8168517432
 30
0.0
 10
6.1453469886
 20
4.8188487026
 30
0.0
 10
6.1451775751
 20
4.820240208
 30
0.0
 10
6.1450568008
 20
4.8211294997
 30
0.0
 10
6.1449362411
 20
4.8219149234
 30
0.0
 10
6.1448159629
 20
4.8225962727
 30
0.0
 10
6.1446960772
 20
4.8231734042
 30
0.0
 10
6.1445769236
 20
4.8236466982
 30
0.0
 10
6.1444585289
 20
4.8240161137
 30
0.0
 10
6.1443538454
 20
4.8242577327
 30
0.0
 10
6.1442656107
 20
4.8243952783
 30
0.0
 10
6.1442050344
 20
4.8244635032
 30
0.0
 10
6.1441428592
 20
4.8245068434
 30
0.0
 10
6.1440977032
 20
4.8245175786
 30
0.0
 10
6.1440769699
 20
4.8245176048
 30
0.0
  0
SPLINE
  5
28B
100
AcDbEntity
  8
0
100
AcDbSpline
 62
7
  6
CONTINUOUS
 70
0
 71
3
 72
32
 73
28
 74
0
 42
0.0000001
 43
0.0000001
 44
0.0000000001
 40
0.0
 40
0.0
 40
0.0
 40
0.0
 40
0.1905918892
 40
0.2836941586
 40
0.3741862294
 40
0.4612516461
 40
0.544079923
 40
0.6219142768
 40
0.6940393359
 40
0.7597955251
 40
0.8185783222
 40
0.845183664
 40
0.8698473525
 40
0.8925163543
 40
0.9131383912
 40
0.9316635527
 40
0.9480530776
 40
0.962271953
 40
0.9742862361
 40
0.9840717282
 40
0.9881245126
 40
0.9916157099
 40
0.9945450128
 40
0.9969135878
 40
0.9987263625
 40
0.9994288511
 40
1.0
 40
1.0
 40
1.0
 40
1.0
 10
6.0364606203
 20
4.5120177227
 30
0.0
 10
6.0360393418
 20
4.5318707992
 30
0.0
 10
6.0354124176
 20
4.5614219134
 30
0.0
 10
6.0345622252
 20
4.6003986685
 30
0.0
 10
6.0339296993
 20
4.6285912994
 30
0.0
 10
6.0332974646
 20
4.6557132238
 30
0.0
 10
6.0326655419
 20
4.6815159899
 30
0.0
 10
6.0320341593
 20
4.7057616592
 30
0.0
 10
6.0314034644
 20
4.7282279853
 30
0.0
 10
6.0307737179
 20
4.7487085299
 30
0.0
 10
6.0302337976
 20
4.7644468767
 30
0.0
 10
6.0297968451
 20
4.7759047326
 30
0.0
 10
6.0294802742
 20
4.7836017558
 30
0.0
 10
6.0291639954
 20
4.7906748298
 30
0.0
 10
6.0288480741
 20
4.7971076593
 30
0.0
 10
6.0285325571
 20
4.8028853945
 30
0.0
 10
6.028217656
 20
4.8079949168
 30
0.0
 10
6.0279038643
 20
4.8124247202
 30
0.0
 10
6.0275912821
 20
4.8161645205
 30
0.0
 10
6.0273187233
 20
4.8188445378
 30
0.0
 10
6.0270944763
 20
4.8206361928
 30
0.0
 10
6.0269374721
 20
4.821716108
 30
0.0
 10
6.026781381
 20
4.8226186547
 30
0.0
 10
6.0266262009
 20
4.8233431741
 30
0.0
 10
6.0264898293
 20
4.8238342838
 30
0.0
 10
6.0263755535
 20
4.8241350658
 30
0.0
 10
6.0263177705
 20
4.8242549026
 30
0.0
 10
6.0262879813
 20
4.8243064169
 30
0.0
  0
LINE
  5
28C
100
AcDbEntity
  8
0
100
AcDbLine
 62
7
  6
CONTINUOUS
 10
6.0248978896
 20
4.2252978751
 11
6.024532194
 21
4.2263658056
  0
SPLINE
  5
28D
100
AcDbEntity
  8
0
100
AcDbSpline
 62
7
  6
CONTINUOUS
 70
0
 71
3
 72
57
 73
53
 74
0
 42
0.0000001
 43
0.0000001
 44
0.0000000001
 40
0.0
 40
0.0
 40
0.0
 40
0.0
 40
0.0014197435
 40
0.0031146517
 40
0.0073292863
 40
0.0126395601
 40
0.0190378194
 40
0.0265115593
 40
0.0350430736
 40
0.0552051465
 40
0.0793472876
 40
0.1072540856
 40
0.1386746476
 40
0.173329088
 40
0.2109039158
 40
0.2510641507
 40
0.2934467045
 40
0.3376724627
 40
0.4300477254
 40
0.5248761433
 40
0.5721470511
 40
0.6187555752
 40
0.6642819828
 40
0.7083179192
 40
0.7504668943
 40
0.7903504659
 40
0.8276106378
 40
0.8619116049
 40
0.8929475207
 40
0.9071516328
 40
0.9204372335
 40
0.9327755985
 40
0.9441380669
 40
0.9544983519
 40
0.9638352972
 40
0.9721285388
 40
0.979358267
 40
0.9855097795
 40
0.9881778851
 40
0.9905725683
 40
0.9926927431
 40
0.9945375222
 40
0.9961065864
 40
0.9974009742
 40
0.9979459214
 40
0.9984233282
 40
0.9988340166
 40
0.999179315
 40
0.9994615139
 40
0.9996849004
 40
0.9998582426
 40
1.0
 40
1.0
 40
1.0
 40
1.0
 10
6.0244625295
 20
4.2266679412
 30
0.0
 10
6.0244044908
 20
4.2269328066
 30
0.0
 10
6.0242915477
 20
4.2275170187
 30
0.0
 10
6.024067945
 20
4.2288989479
 30
0.0
 10
6.0237984006
 20
4.2310252657
 30
0.0
 10
6.0234900322
 20
4.2340507899
 30
0.0
 10
6.0231802456
 20
4.2377013456
 30
0.0
 10
6.0228691038
 20
4.2419688149
 30
0.0
 10
6.0224283023
 20
4.2488622253
 30
0.0
 10
6.0218908664
 20
4.2589389713
 30
0.0
 10
6.0212720078
 20
4.272716382
 30
0.0
 10
6.0206509927
 20
4.2886457787
 30
0.0
 10
6.0200281618
 20
4.3065841204
 30
0.0
 10
6.0194043324
 20
4.3263698776
 30
0.0
 10
6.0187796509
 20
4.3478255109
 30
0.0
 10
6.0181544934
 20
4.3707576648
 30
0.0
 10
6.017528872
 20
4.3949604778
 30
0.0
 10
6.0166821038
 20
4.4291331721
 30
0.0
 10
6.015638679
 20
4.4733204169
 30
0.0
 10
6.0146077684
 20
4.518089678
 30
0.0
 10
6.0137718976
 20
4.5541203537
 30
0.0
 10
6.013145714
 20
4.5807374148
 30
0.0
 10
6.0125196538
 20
4.6067364739
 30
0.0
 10
6.0118938176
 20
4.6318835781
 30
0.0
 10
6.0112682687
 20
4.6559526469
 30
0.0
 10
6.0106431205
 20
4.6787271991
 30
0.0
 10
6.0100185839
 20
4.7000023205
 30
0.0
 10
6.0093947399
 20
4.7195869092
 30
0.0
 10
6.0088613899
 20
4.7347687248
 30
0.0
 10
6.0084304386
 20
4.745937942
 30
0.0
 10
6.0081169737
 20
4.7535380566
 30
0.0
 10
6.007803727
 20
4.7605949758
 30
0.0
 10
6.0074907125
 20
4.767092622
 30
0.0
 10
6.0071779523
 20
4.7730163341
 30
0.0
 10
6.0068656147
 20
4.7783529966
 30
0.0
 10
6.006553945
 20
4.7830906848
 30
0.0
 10
6.0062429819
 20
4.7872185566
 30
0.0
 10
6.0059737689
 20
4.7902720438
 30
0.0
 10
6.0057546447
 20
4.7924026056
 30
0.0
 10
6.0055984023
 20
4.7937655573
 30
0.0
 10
6.0054424454
 20
4.7949701495
 30
0.0
 10
6.0052869145
 20
4.7960156524
 30
0.0
 10
6.0051318537
 20
4.7969014852
 30
0.0
 10
6.0049968611
 20
4.7975385592
 30
0.0
 10
6.0048863144
 20
4.7979670655
 30
0.0
 10
6.0048083603
 20
4.7982294968
 30
0.0
 10
6.0047305966
 20
4.7984519797
 30
0.0
 10
6.0046530272
 20
4.7986346498
 30
0.0
 10
6.0045756509
 20
4.7987779757
 30
0.0
 10
6.0044979114
 20
4.7988825007
 30
0.0
 10
6.0044181412
 20
4.7989498918
 30
0.0
 10
6.0043577439
 20
4.7989675093
 30
0.0
 10
6.0043306704
 20
4.7989675529
 30
0.0
  0
SPLINE
  5
28E
100
AcDbEntity
  8
0
100
AcDbSpline
 62
7
  6
CONTINUOUS
 70
0
 71
3
 72
32
 73
28
 74
0
 42
0.0000001
 43
0.0000001
 44
0.0000000001
 40
0.0
 40
0.0
 40
0.0
 40
0.0
 40
0.1905917605
 40
0.2836933415
 40
0.3741858496
 40
0.4612525294
 40
0.5440815078
 40
0.6219159964
 40
0.6940409099
 40
0.7597966649
 40
0.8185788816
 40
0.8451838798
 40
0.86984739
 40
0.8925163127
 40
0.9131382288
 40
0.9316633565
 40
0.9480530589
 40
0.9622720844
 40
0.9742863392
 40
0.9840718885
 40
0.9881247067
 40
0.9916159135
 40
0.9945451812
 40
0.9969136575
 40
0.9987263617
 40
0.9994288438
 40
1.0
 40
1.0
 40
1.0
 40
1.0
 10
5.9947956203
 20
4.5120177227
 30
0.0
 10
5.9943743421
 20
4.5318707844
 30
0.0
 10
5.9937474196
 20
4.5614218114
 30
0.0
 10
5.9928972287
 20
4.6003985244
 30
0.0
 10
5.9922646997
 20
4.6285912587
 30
0.0
 10
5.9916324599
 20
4.6557134315
 30
0.0
 10
5.9910005314
 20
4.6815164144
 30
0.0
 10
5.9903691459
 20
4.705762154
 30
0.0
 10
5.9897384514
 20
4.7282284322
 30
0.0
 10
5.9891087069
 20
4.7487088545
 30
0.0
 10
5.988568792
 20
4.7644470588
 30
0.0
 10
5.9881318418
 20
4.7759047991
 30
0.0
 10
5.9878152742
 20
4.7836017592
 30
0.0
 10
5.987498999
 20
4.7906747934
 30
0.0
 10
5.9871830777
 20
4.7971075981
 30
0.0
 10
5.9868675582
 20
4.8028853352
 30
0.0
 10
5.986552657
 20
4.8079948878
 30
0.0
 10
5.9862388662
 20
4.8124247222
 30
0.0
 10
5.9859262782
 20
4.8161645405
 30
0.0
 10
5.9856537203
 20
4.8188445642
 30
0.0
 10
5.9854294745
 20
4.8206362298
 30
0.0
 10
5.985272471
 20
4.8217161459
 30
0.0
 10
5.985116382
 20
4.8226186798
 30
0.0
 10
5.9849612
 20
4.8233431771
 30
0.0
 10
5.9848248265
 20
4.823834267
 30
0.0
 10
5.9847105524
 20
4.8241350418
 30
0.0
 10
5.98465277
 20
4.824254879
 30
0.0
 10
5.9846229813
 20
4.8243063944
 30
0.0
  0
SPLINE
  5
28F
100
AcDbEntity
  8
0
100
AcDbSpline
 62
7
  6
CONTINUOUS
 70
0
 71
3
 72
30
 73
26
 74
0
 42
0.0000001
 43
0.0000001
 44
0.0000000001
 40
0.0
 40
0.0
 40
0.0
 40
0.0
 40
0.0165468323
 40
0.0332183528
 40
0.0502483138
 40
0.0678542256
 40
0.0862046319
 40
0.1054220802
 40
0.1468281014
 40
0.1692155798
 40
0.1928065932
 40
0.217651736
 40
0.243781756
 40
0.2712135777
 40
0.2999572004
 40
0.3300120102
 40
0.3613654896
 40
0.427882569
 40
0.4992621239
 40
0.5751228872
 40
0.6549547942
 40
0.7381285997
 40
0.823911317
 40
0.9115168518
 40
1.0
 40
1.0
 40
1.0
 40
1.0
 10
5.0946369197
 20
4.8245177227
 30
0.0
 10
5.0926539622
 20
4.8245168746
 30
0.0
 10
5.088669182
 20
4.8242806982
 30
0.0
 10
5.0827288538
 20
4.8232178889
 30
0.0
 10
5.0768267547
 20
4.8214490126
 30
0.0
 10
5.0709646857
 20
4.8189793618
 30
0.0
 10
5.0651475385
 20
4.8158146721
 30
0.0
 10
5.0572742551
 20
4.8105432558
 30
0.0
 10
5.0497539376
 20
4.8039592057
 30
0.0
 10
5.0426106211
 20
4.7962966793
 30
0.0
 10
5.0372200486
 20
4.7897332473
 30
0.0
 10
5.0319479631
 20
4.7825131478
 30
0.0
 10
5.0268046521
 20
4.7746449475
 30
0.0
 10
5.0218031614
 20
4.7661397385
 30
0.0
 10
5.0169572972
 20
4.7570092126
 30
0.0
 10
5.0122798684
 20
4.7472674657
 30
0.0
 10
5.0061621573
 20
4.7332073275
 30
0.0
 10
4.9990574474
 20
4.7141925929
 30
0.0
 10
4.9915546027
 20
4.6896855978
 30
0.0
 10
4.9850140706
 20
4.663258392
 30
0.0
 10
4.9795211459
 20
4.6351538164
 30
0.0
 10
4.9751553626
 20
4.6056505253
 30
0.0
 10
4.9719876095
 20
4.5750584317
 30
0.0
 10
4.9700669558
 20
4.5437263097
 30
0.0
 10
4.9696369977
 20
4.5226214644
 30
0.0
 10
4.9696369197
 20
4.5120177227
 30
0.0
  0
SPLINE
  5
290
100
AcDbEntity
  8
0
100
AcDbSpline
 62
7
  6
CONTINUOUS
 70
0
 71
3
 72
30
 73
26
 74
0
 42
0.0000001
 43
0.0000001
 44
0.0000000001
 40
0.0
 40
0.0
 40
0.0
 40
0.0
 40
0.2024527405
 40
0.2986656215
 40
0.3907090425
 40
0.4780361412
 40
0.5601121448
 40
0.6364162714
 40
0.7064825843
 40
0.7698724212
 40
0.8262012989
 40
0.8751143663
 40
0.8966967897
 40
0.9163189923
 40
0.9339484936
 40
0.9495594797
 40
0.963132203
 40
0.9746479425
 40
0.9840898954
 40
0.9880306216
 40
0.9914515493
 40
0.9943540059
 40
0.9967408565
 40
0.9986181862
 40
1.0
 40
1.0
 40
1.0
 40
1.0
 10
6.1596369197
 20
4.5966549292
 30
0.0
 10
6.1592979626
 20
4.6120315235
 30
0.0
 10
6.1587874954
 20
4.6347154097
 30
0.0
 10
6.1580819895
 20
4.6643891845
 30
0.0
 10
6.1575620927
 20
4.6853187976
 30
0.0
 10
6.1570424231
 20
4.7051740913
 30
0.0
 10
6.1565231159
 20
4.723833249
 30
0.0
 10
6.1560041552
 20
4.7411805747
 30
0.0
 10
6.1554858472
 20
4.7571076486
 30
0.0
 10
6.1549683027
 20
4.7715163584
 30
0.0
 10
6.1544519303
 20
4.7843169457
 30
0.0
 10
6.1540065576
 20
4.7939415881
 30
0.0
 10
6.1536448476
 20
4.80077829
 30
0.0
 10
6.1533852973
 20
4.8052403995
 30
0.0
 10
6.1531261032
 20
4.8092480402
 30
0.0
 10
6.152867349
 20
4.8127950597
 30
0.0
 10
6.1526094046
 20
4.8158763081
 30
0.0
 10
6.1523524372
 20
4.8184870571
 30
0.0
 10
6.1521285997
 20
4.8203655726
 30
0.0
 10
6.1519447675
 20
4.821628904
 30
0.0
 10
6.1518156651
 20
4.8223980063
 30
0.0
 10
6.1516870643
 20
4.8230471814
 30
0.0
 10
6.1515592841
 20
4.8235767982
 30
0.0
 10
6.15143259
 20
4.8239866403
 30
0.0
 10
6.1513354681
 20
4.8242158581
 30
0.0
 10
6.1512829824
 20
4.8243067717
 30
0.0
  0
SPLINE
  5
291
100
AcDbEntity
  8
0
100
AcDbSpline
 62
7
  6
CONTINUOUS
 70
0
 71
3
 72
32
 73
28
 74
0
 42
0.0000001
 43
0.0000001
 44
0.0000000001
 40
0.0
 40
0.0
 40
0.0
 40
0.0
 40
0.1905918618
 40
0.283693883
 40
0.3741860286
 40
0.461251746
 40
0.5440802148
 40
0.6219146353
 40
0.6940396883
 40
0.7597957541
 40
0.818578424
 40
0.8451836381
 40
0.8698472659
 40
0.8925162442
 40
0.9131382161
 40
0.9316633521
 40
0.9480529736
 40
0.9622719293
 40
0.974286193
 40
0.9840717419
 40
0.9881245642
 40
0.9916157863
 40
0.9945450867
 40
0.9969136182
 40
0.9987263592
 40
0.999428846
 40
1.0
 40
1.0
 40
1.0
 40
1.0
 10
6.1128282191
 20
4.5120177227
 30
0.0
 10
6.1132494975
 20
4.4921646499
 30
0.0
 10
6.1138764211
 20
4.4626135657
 30
0.0
 10
6.1147266129
 20
4.423636833
 30
0.0
 10
6.1153591392
 20
4.3954441901
 30
0.0
 10
6.115991375
 20
4.3683222077
 30
0.0
 10
6.1166232992
 20
4.3425193845
 30
0.0
 10
6.1172546829
 20
4.3182736899
 30
0.0
 10
6.1178853773
 20
4.2958073712
 30
0.0
 10
6.118515124
 20
4.2753268543
 30
0.0
 10
6.1190550419
 20
4.2595885475
 30
0.0
 10
6.1194919942
 20
4.248130725
 30
0.0
 10
6.1198085637
 20
4.2404337241
 30
0.0
 10
6.1201248406
 20
4.2333606659
 30
0.0
 10
6.1204407618
 20
4.2269278486
 30
0.0
 10
6.1207562799
 20
4.221150113
 30
0.0
 10
6.1210711805
 20
4.2160405751
 30
0.0
 10
6.1213849713
 20
4.2116107554
 30
0.0
 10
6.1216975572
 20
4.2078709432
 30
0.0
 10
6.1219701156
 20
4.2051909181
 30
0.0
 10
6.122194362
 20
4.2033992505
 30
0.0
 10
6.1223513661
 20
4.2023193291
 30
0.0
 10
6.1225074563
 20
4.2014167845
 30
0.0
 10
6.1226626378
 20
4.2006922738
 30
0.0
 10
6.122799011
 20
4.2002011732
 30
0.0
 10
6.1229132862
 20
4.1999003945
 30
0.0
 10
6.122971069
 20
4.1997805572
 30
0.0
 10
6.1230008581
 20
4.1997290422
 30
0.0
  0
SPLINE
  5
292
100
AcDbEntity
  8
0
100
AcDbSpline
 62
7
  6
CONTINUOUS
 70
0
 71
3
 72
60
 73
56
 74
0
 42
0.0000001
 43
0.0000001
 44
0.0000000001
 40
0.0
 40
0.0
 40
0.0
 40
0.0
 40
0.0001423696
 40
0.0003166927
 40
0.000541592
 40
0.0008258909
 40
0.0011739001
 40
0.001587925
 40
0.0020693064
 40
0.002618877
 40
0.0039245007
 40
0.0055074909
 40
0.0073685179
 40
0.0095071299
 40
0.0119225192
 40
0.0146136807
 40
0.0208186795
 40
0.0281117069
 40
0.0364762605
 40
0.0458928307
 40
0.0563416609
 40
0.0678003091
 40
0.080241296
 40
0.0936365174
 40
0.1079573356
 40
0.139240928
 40
0.1738084452
 40
0.2113459556
 40
0.25151455
 40
0.29394805
 40
0.3382632475
 40
0.3840565929
 40
0.4309134979
 40
0.4784081506
 40
0.5735854453
 40
0.620404456
 40
0.6661413452
 40
0.7103817738
 40
0.7527238775
 40
0.7927834035
 40
0.8301978821
 40
0.8646262899
 40
0.8957591153
 40
0.9233116165
 40
0.9470375647
 40
0.9573961282
 40
0.9667215984
 40
0.9749924426
 40
0.9821891664
 40
0.9882983087
 40
0.9933082037
 40
0.9953977371
 40
0.9972091729
 40
0.9987428705
 40
1.0
 40
1.0
 40
1.0
 40
1.0
 10
6.144958169
 20
4.2250680083
 30
0.0
 10
6.1449309586
 20
4.2250680528
 30
0.0
 10
6.1448702176
 20
4.2250858607
 30
0.0
 10
6.1447900885
 20
4.2251538819
 30
0.0
 10
6.1447119914
 20
4.2252593545
 30
0.0
 10
6.1446342545
 20
4.2254039967
 30
0.0
 10
6.1445563182
 20
4.2255883607
 30
0.0
 10
6.1444781851
 20
4.2258129267
 30
0.0
 10
6.1443998593
 20
4.2260778364
 30
0.0
 10
6.144288777
 20
4.2265104545
 30
0.0
 10
6.1441531353
 20
4.2271536984
 30
0.0
 10
6.1439973561
 20
4.2280481095
 30
0.0
 10
6.143841081
 20
4.2291036781
 30
0.0
 10
6.1436843726
 20
4.2303197461
 30
0.0
 10
6.1435273792
 20
4.2316955901
 30
0.0
 10
6.1433071984
 20
4.233846307
 30
0.0
 10
6.1430366925
 20
4.2369287681
 30
0.0
 10
6.1427242834
 20
4.2410956278
 30
0.0
 10
6.1424110999
 20
4.2458777406
 30
0.0
 10
6.1420972537
 20
4.2512640922
 30
0.0
 10
6.1417830158
 20
4.2572426777
 30
0.0
 10
6.1414685136
 20
4.2638000122
 30
0.0
 10
6.1411537521
 20
4.270921056
 30
0.0
 10
6.1408387808
 20
4.2785896166
 30
0.0
 10
6.1404058312
 20
4.2898576231
 30
0.0
 10
6.139869914
 20
4.3051711598
 30
0.0
 10
6.1392431424
 20
4.3249214003
 30
0.0
 10
6.1386155904
 20
4.3463705465
 30
0.0
 10
6.1379874936
 20
4.3693236583
 30
0.0
 10
6.137358946
 20
4.3935725999
 30
0.0
 10
6.1367301411
 20
4.4188969092
 30
0.0
 10
6.1361010991
 20
4.4450668869
 30
0.0
 10
6.1354719416
 20
4.4718447061
 30
0.0
 10
6.1346323791
 20
4.5080586963
 30
0.0
 10
6.1337984882
 20
4.5442655737
 30
0.0
 10
6.1329550226
 20
4.5801361851
 30
0.0
 10
6.1323259912
 20
4.6062738308
 30
0.0
 10
6.1316971842
 20
4.6315555785
 30
0.0
 10
6.1310686763
 20
4.6557518995
 30
0.0
 10
6.1304405662
 20
4.6786431598
 30
0.0
 10
6.129813083
 20
4.70002133
 30
0.0
 10
6.1291863273
 20
4.719692616
 30
0.0
 10
6.1285609058
 20
4.7374780419
 30
0.0
 10
6.1279369335
 20
4.7532165972
 30
0.0
 10
6.1273980103
 20
4.7649847801
 30
0.0
 10
6.1269589085
 20
4.7732699248
 30
0.0
 10
6.126645131
 20
4.7786036209
 30
0.0
 10
6.1263319921
 20
4.783331885
 30
0.0
 10
6.1260197342
 20
4.7874439955
 30
0.0
 10
6.1257086434
 20
4.790930845
 30
0.0
 10
6.1254377614
 20
4.7934410583
 30
0.0
 10
6.1252152213
 20
4.795129623
 30
0.0
 10
6.1250589728
 20
4.7961566106
 30
0.0
 10
6.1249033377
 20
4.7970224425
 30
0.0
 10
6.1247890963
 20
4.7975437345
 30
0.0
 10
6.1247299541
 20
4.7977766108
 30
0.0
  0
LINE
  5
293
100
AcDbEntity
  8
0
100
AcDbLine
 62
7
  6
CONTINUOUS
 10
6.1247299541
 20
4.7977766108
 11
6.1243909516
 21
4.7987378944
  0
SPLINE
  5
294
100
AcDbEntity
  8
0
100
AcDbSpline
 62
7
  6
CONTINUOUS
 70
0
 71
3
 72
32
 73
28
 74
0
 42
0.0000001
 43
0.0000001
 44
0.0000000001
 40
0.0
 40
0.0
 40
0.0
 40
0.0
 40
0.1905922204
 40
0.2836944533
 40
0.3741894555
 40
0.4612559175
 40
0.5440831189
 40
0.6219157752
 40
0.6940415441
 40
0.7597965942
 40
0.8185805697
 40
0.8451847684
 40
0.8698497587
 40
0.8925198798
 40
0.9131403244
 40
0.931665531
 40
0.9480562413
 40
0.9622738088
 40
0.9742864946
 40
0.9840733103
 40
0.9881265563
 40
0.9916173279
 40
0.9945451857
 40
0.9969125626
 40
0.9987254416
 40
0.9994283392
 40
1.0
 40
1.0
 40
1.0
 40
1.0
 10
6.1197906203
 20
4.5120177227
 30
0.0
 10
6.1193693411
 20
4.5318708345
 30
0.0
 10
6.1187424155
 20
4.5614219806
 30
0.0
 10
6.1178922171
 20
4.6003990735
 30
0.0
 10
6.1172596806
 20
4.628592116
 30
0.0
 10
6.116627437
 20
4.6557143437
 30
0.0
 10
6.1159955248
 20
4.6815169311
 30
0.0
 10
6.1153641279
 20
4.705762386
 30
0.0
 10
6.1147334669
 20
4.7282284924
 30
0.0
 10
6.1141036797
 20
4.7487091146
 30
0.0
 10
6.1135638056
 20
4.7644473487
 30
0.0
 10
6.113126802
 20
4.7759053425
 30
0.0
 10
6.1128102415
 20
4.7836024997
 30
0.0
 10
6.1124939841
 20
4.7906756614
 30
0.0
 10
6.1121780182
 20
4.7971084444
 30
0.0
 10
6.1118624969
 20
4.8028861419
 30
0.0
 10
6.111547639
 20
4.8079956589
 30
0.0
 10
6.1112338359
 20
4.8124252825
 30
0.0
 10
6.1109211906
 20
4.8161649119
 30
0.0
 10
6.110648692
 20
4.8188449546
 30
0.0
 10
6.110424469
 20
4.8206367555
 30
0.0
 10
6.1102674853
 20
4.8217165258
 30
0.0
 10
6.1101113744
 20
4.8226187452
 30
0.0
 10
6.1099561503
 20
4.8233429854
 30
0.0
 10
6.1098197896
 20
4.8238340196
 30
0.0
 10
6.1097055405
 20
4.8241349251
 30
0.0
 10
6.1096477673
 20
4.8242548716
 30
0.0
 10
6.1096179829
 20
4.8243064503
 30
0.0
  0
SPLINE
  5
295
100
AcDbEntity
  8
0
100
AcDbSpline
 62
7
  6
CONTINUOUS
 70
0
 71
3
 72
32
 73
28
 74
0
 42
0.0000001
 43
0.0000001
 44
0.0000000001
 40
0.0
 40
0.0
 40
0.0
 40
0.0
 40
0.1905917533
 40
0.2836945103
 40
0.3741865716
 40
0.4612515559
 40
0.54407937
 40
0.6219134019
 40
0.6940384158
 40
0.7597948735
 40
0.8185779295
 40
0.8451835888
 40
0.8698474643
 40
0.892516574
 40
0.9131388208
 40
0.9316640982
 40
0.9480533913
 40
0.9622720521
 40
0.9742863839
 40
0.9840717276
 40
0.9881244065
 40
0.9916155287
 40
0.9945448249
 40
0.9969134981
 40
0.9987263672
 40
0.9994288629
 40
1.0
 40
1.0
 40
1.0
 40
1.0
 10
6.0711632191
 20
4.5120177227
 30
0.0
 10
6.0715844973
 20
4.4921646583
 30
0.0
 10
6.0722114223
 20
4.4626135043
 30
0.0
 10
6.0730616159
 20
4.4236367094
 30
0.0
 10
6.0736941417
 20
4.3954440708
 30
0.0
 10
6.0743263746
 20
4.3683222377
 30
0.0
 10
6.074958294
 20
4.3425195956
 30
0.0
 10
6.0755896737
 20
4.3182740102
 30
0.0
 10
6.0762203693
 20
4.2958076919
 30
0.0
 10
6.0768501143
 20
4.2753270949
 30
0.0
 10
6.07739004
 20
4.2595886585
 30
0.0
 10
6.077826993
 20
4.2481307218
 30
0.0
 10
6.0781435679
 20
4.240433634
 30
0.0
 10
6.0784598518
 20
4.2333605069
 30
0.0
 10
6.0787757743
 20
4.2269276315
 30
0.0
 10
6.0790912885
 20
4.2211498857
 30
0.0
 10
6.0794061913
 20
4.2160403974
 30
0.0
 10
6.0797199862
 20
4.2116106354
 30
0.0
 10
6.0800325585
 20
4.2078708667
 30
0.0
 10
6.080305118
 20
4.2051908706
 30
0.0
 10
6.0805293662
 20
4.2033992501
 30
0.0
 10
6.0806863708
 20
4.2023193546
 30
0.0
 10
6.0808424638
 20
4.2014168064
 30
0.0
 10
6.0809976416
 20
4.2006922669
 30
0.0
 10
6.0811340079
 20
4.200201134
 30
0.0
 10
6.0812482851
 20
4.1999003424
 30
0.0
 10
6.0813060686
 20
4.1997805062
 30
0.0
 10
6.0813358581
 20
4.1997289935
 30
0.0
  0
LINE
  5
296
100
AcDbEntity
  8
0
100
AcDbLine
 62
7
  6
CONTINUOUS
 10
6.1082278898
 20
4.2252976762
 11
6.1079381392
 21
4.2260722768
  0
SPLINE
  5
297
100
AcDbEntity
  8
0
100
AcDbSpline
 62
7
  6
CONTINUOUS
 70
0
 71
3
 72
61
 73
57
 74
0
 42
0.0000001
 43
0.0000001
 44
0.0000000001
 40
0.0
 40
0.0
 40
0.0
 40
0.0
 40
0.0011745441
 40
0.0026267258
 40
0.004357499
 40
0.0063669364
 40
0.0112199355
 40
0.0171802431
 40
0.0242364864
 40
0.0323718851
 40
0.0415689855
 40
0.0518091449
 40
0.063068061
 40
0.0753193646
 40
0.1026903857
 40
0.1336722888
 40
0.167985567
 40
0.20531508
 40
0.2453232988
 40
0.2876434005
 40
0.3318910784
 40
0.3776620159
 40
0.4245392068
 40
0.5198959939
 40
0.5675058524
 40
0.6144907774
 40
0.6604219071
 40
0.704880691
 40
0.7474618271
 40
0.7877764468
 40
0.8254585057
 40
0.8601624411
 40
0.8915750066
 40
0.9059548386
 40
0.9194073729
 40
0.9319022934
 40
0.9434096101
 40
0.9539037346
 40
0.9633625541
 40
0.9717641739
 40
0.9790885197
 40
0.9853216881
 40
0.9880253473
 40
0.9904518323
 40
0.992599881
 40
0.9944685922
 40
0.9960581543
 40
0.9973695942
 40
0.9979217251
 40
0.9984053946
 40
0.998821405
 40
0.9991710671
 40
0.9994566584
 40
0.9996824695
 40
0.9998573346
 40
1.0
 40
1.0
 40
1.0
 40
1.0
 10
6.1079381392
 20
4.2260722768
 30
0.0
 10
6.1078783099
 20
4.2262887205
 30
0.0
 10
6.1077633558
 20
4.2267779353
 30
0.0
 10
6.1076076315
 20
4.2275964725
 30
0.0
 10
6.1074511949
 20
4.2285769253
 30
0.0
 10
6.1072276569
 20
4.2302046639
 30
0.0
 10
6.1069560052
 20
4.2326414783
 30
0.0
 10
6.1066444599
 20
4.2360438182
 30
0.0
 10
6.1063317247
 20
4.2400758458
 30
0.0
 10
6.1060178768
 20
4.2447281955
 30
0.0
 10
6.1057033995
 20
4.2499904514
 30
0.0
 10
6.1053885306
 20
4.2558508123
 30
0.0
 10
6.1050732983
 20
4.2622958461
 30
0.0
 10
6.104636307
 20
4.2720140046
 30
0.0
 10
6.1040974445
 20
4.2855021106
 30
0.0
 10
6.1034703935
 20
4.3032078526
 30
0.0
 10
6.1028423215
 20
4.3228185908
 30
0.0
 10
6.1022132949
 20
4.3441558379
 30
0.0
 10
6.1015837499
 20
4.3670245062
 30
0.0
 10
6.1009537233
 20
4.3912163115
 30
0.0
 10
6.1003234227
 20
4.416510236
 30
0.0
 10
6.0996928845
 20
4.4426756818
 30
0.0
 10
6.0988472048
 20
4.4786102983
 30
0.0
 10
6.0980113374
 20
4.5148968206
 30
0.0
 10
6.0971698977
 20
4.5512038164
 30
0.0
 10
6.096539216
 20
4.5780634923
 30
0.0
 10
6.0959086614
 20
4.60432055
 30
0.0
 10
6.0952783143
 20
4.6297354057
 30
0.0
 10
6.094648276
 20
4.6540761096
 30
0.0
 10
6.0940186131
 20
4.6771207304
 30
0.0
 10
6.0933895933
 20
4.698658738
 30
0.0
 10
6.0927612423
 20
4.7184940051
 30
0.0
 10
6.0922241032
 20
4.7338747256
 30
0.0
 10
6.0917900591
 20
4.7451934256
 30
0.0
 10
6.0914743387
 20
4.7528971228
 30
0.0
 10
6.0911588406
 20
4.760051142
 30
0.0
 10
6.0908435395
 20
4.7666389614
 30
0.0
 10
6.0905285234
 20
4.7726456041
 30
0.0
 10
6.0902139465
 20
4.7780575983
 30
0.0
 10
6.0899000271
 20
4.7828624788
 30
0.0
 10
6.0895867791
 20
4.7870491992
 30
0.0
 10
6.0893156452
 20
4.790146467
 30
0.0
 10
6.0890949469
 20
4.7923078113
 30
0.0
 10
6.0889375804
 20
4.7936904383
 30
0.0
 10
6.0887805031
 20
4.7949123148
 30
0.0
 10
6.0886238222
 20
4.7959727662
 30
0.0
 10
6.0884676386
 20
4.7968713124
 30
0.0
 10
6.088331678
 20
4.7975176352
 30
0.0
 10
6.088220335
 20
4.7979524467
 30
0.0
 10
6.0881418205
 20
4.7982187597
 30
0.0
 10
6.0880635004
 20
4.7984445451
 30
0.0
 10
6.0879853798
 20
4.7986299271
 30
0.0
 10
6.0879074644
 20
4.7987753745
 30
0.0
 10
6.0878291928
 20
4.7988814248
 30
0.0
 10
6.0877488865
 20
4.7989498246
 30
0.0
 10
6.087687946
 20
4.7989677061
 30
0.0
 10
6.0876606698
 20
4.7989677171
 30
0.0
  0
SPLINE
  5
298
100
AcDbEntity
  8
0
100
AcDbSpline
 62
7
  6
CONTINUOUS
 70
0
 71
3
 72
39
 73
35
 74
0
 42
0.0000001
 43
0.0000001
 44
0.0000000001
 40
0.0
 40
0.0
 40
0.0
 40
0.0
 40
0.0002707318
 40
0.0006149086
 40
0.0010717995
 40
0.0016584525
 40
0.0023828049
 40
0.0032490116
 40
0.0042594749
 40
0.0054156731
 40
0.0081678709
 40
0.0115083802
 40
0.0154373516
 40
0.0199538729
 40
0.0250564618
 40
0.0307433035
 40
0.0438597977
 40
0.0592724119
 40
0.0769437371
 40
0.0968354545
 40
0.1189008638
 40
0.1430842049
 40
0.1693291159
 40
0.197575343
 40
0.2277519502
 40
0.2936038662
 40
0.366254257
 40
0.445003377
 40
0.5290941129
 40
0.6177216665
 40
0.7100193987
 40
0.8051105326
 40
0.9021120387
 40
1.0
 40
1.0
 40
1.0
 40
1.0
 10
6.1302068702
 20
4.1995183626
 30
0.0
 10
6.1301786328
 20
4.1995183712
 30
0.0
 10
6.130114479
 20
4.1995398591
 30
0.0
 10
6.1300327762
 20
4.1996186668
 30
0.0
 10
6.1299527389
 20
4.1997399251
 30
0.0
 10
6.1298729572
 20
4.1999065987
 30
0.0
 10
6.1297928045
 20
4.2001192387
 30
0.0
 10
6.1297124076
 20
4.2003784658
 30
0.0
 10
6.1296317776
 20
4.2006844179
 30
0.0
 10
6.1295173362
 20
4.2011846012
 30
0.0
 10
6.1293776955
 20
4.2019279089
 30
0.0
 10
6.1292172961
 20
4.2029608856
 30
0.0
 10
6.1290563566
 20
4.2041796758
 30
0.0
 10
6.1288949668
 20
4.2055835456
 30
0.0
 10
6.1287332822
 20
4.2071717894
 30
0.0
 10
6.1285064989
 20
4.2096548851
 30
0.0
 10
6.1282280175
 20
4.2132128744
 30
0.0
 10
6.1279062724
 20
4.2180209025
 30
0.0
 10
6.1275836966
 20
4.2235369102
 30
0.0
 10
6.1272605197
 20
4.229747807
 30
0.0
 10
6.1269369511
 20
4.2366387113
 30
0.0
 10
6.1266130202
 20
4.2441928993
 30
0.0
 10
6.1262888523
 20
4.252392281
 30
0.0
 10
6.1259645317
 20
4.2612172075
 30
0.0
 10
6.1255187911
 20
4.2741714488
 30
0.0
 10
6.1249671073
 20
4.2917561038
 30
0.0
 10
6.124321682
 20
4.3144063273
 30
0.0
 10
6.1236755005
 20
4.3389595532
 30
0.0
 10
6.1230286877
 20
4.3651797206
 30
0.0
 10
6.1223815142
 20
4.392813409
 30
0.0
 10
6.1217340178
 20
4.421594735
 30
0.0
 10
6.1210862805
 20
4.4512496748
 30
0.0
 10
6.1204384571
 20
4.4814878109
 30
0.0
 10
6.1200072205
 20
4.5018102732
 30
0.0
 10
6.1197906203
 20
4.5120177227
 30
0.0
  0
SPLINE
  5
299
100
AcDbEntity
  8
0
100
AcDbSpline
 62
7
  6
CONTINUOUS
 70
0
 71
3
 72
61
 73
57
 74
0
 42
0.0000001
 43
0.0000001
 44
0.0000000001
 40
0.0
 40
0.0
 40
0.0
 40
0.0
 40
0.0001425052
 40
0.0003170021
 40
0.0005421797
 40
0.0008269033
 40
0.0011755142
 40
0.0015903436
 40
0.002072756
 40
0.0026236072
 40
0.0039325948
 40
0.0055195811
 40
0.0073848813
 40
0.0095281695
 40
0.0119487837
 40
0.0146458647
 40
0.0208653579
 40
0.0281753992
 40
0.0365584599
 40
0.0459959574
 40
0.0564687105
 40
0.0679526669
 40
0.0804205469
 40
0.0938449556
 40
0.1081968231
 40
0.1395456808
 40
0.1741838836
 40
0.2117947374
 40
0.2520386912
 40
0.294547524
 40
0.3389364669
 40
0.3848003973
 40
0.431722907
 40
0.479276637
 40
0.5745459478
 40
0.6213949416
 40
0.6671492525
 40
0.7113934763
 40
0.7537244949
 40
0.7937575124
 40
0.8311290089
 40
0.8654978984
 40
0.8965542178
 40
0.9240130917
 40
0.936316075
 40
0.9476292236
 40
0.9579264213
 40
0.9671864004
 40
0.9753884646
 40
0.9825127684
 40
0.9885452383
 40
0.9934752868
 40
0.9955240795
 40
0.9972941906
 40
0.9987856762
 40
1.0
 40
1.0
 40
1.0
 40
1.0
 10
6.0199631692
 20
4.2250682812
 30
0.0
 10
6.0199359281
 20
4.225068309
 30
0.0
 10
6.0198751044
 20
4.2250861087
 30
0.0
 10
6.0197948686
 20
4.2251542155
 30
0.0
 10
6.0197166743
 20
4.2252598546
 30
0.0
 10
6.0196388411
 20
4.2254047621
 30
0.0
 10
6.0195608082
 20
4.2255895037
 30
0.0
 10
6.019482578
 20
4.2258145737
 30
0.0
 10
6.0194041549
 20
4.2260801264
 30
0.0
 10
6.0192929241
 20
4.2265139076
 30
0.0
 10
6.0191571385
 20
4.2271589274
 30
0.0
 10
6.019001175
 20
4.2280557244
 30
0.0
 10
6.0188446931
 20
4.2291139528
 30
0.0
 10
6.0186877833
 20
4.2303329434
 30
0.0
 10
6.0185305892
 20
4.2317120527
 30
0.0
 10
6.0183101165
 20
4.2338680474
 30
0.0
 10
6.018039297
 20
4.2369582078
 30
0.0
 10
6.0177265147
 20
4.2411353613
 30
0.0
 10
6.0174129147
 20
4.2459291022
 30
0.0
 10
6.0170986672
 20
4.2513285096
 30
0.0
 10
6.0167840664
 20
4.2573215566
 30
0.0
 10
6.0164691614
 20
4.2638945922
 30
0.0
 10
6.0161539962
 20
4.2710324421
 30
0.0
 10
6.0158386372
 20
4.2787190027
 30
0.0
 10
6.0154051686
 20
4.2900129756
 30
0.0
 10
6.0148685655
 20
4.3053611185
 30
0.0
 10
6.0142410366
 20
4.3251548286
 30
0.0
 10
6.01361269
 20
4.34664967
 30
0.0
 10
6.0129838195
 20
4.369649629
 30
0.0
 10
6.0123544887
 20
4.3939457208
 30
0.0
 10
6.011724902
 20
4.4193164555
 30
0.0
 10
6.0110950805
 20
4.4455311464
 30
0.0
 10
6.0104651415
 20
4.4723509804
 30
0.0
 10
6.0096246165
 20
4.5086127337
 30
0.0
 10
6.0087897086
 20
4.5448605606
 30
0.0
 10
6.0079451113
 20
4.5807640947
 30
0.0
 10
6.0073153044
 20
4.6069160958
 30
0.0
 10
6.0066857299
 20
4.6322041957
 30
0.0
 10
6.0060564503
 20
4.6563982774
 30
0.0
 10
6.0054275881
 20
4.6792781241
 30
0.0
 10
6.0047993357
 20
4.7006353492
 30
0.0
 10
6.004171883
 20
4.7202758323
 30
0.0
 10
6.0035456156
 20
4.7380204124
 30
0.0
 10
6.0030073397
 20
4.7515472874
 30
0.0
 10
6.0025710441
 20
4.76130098
 30
0.0
 10
6.002256167
 20
4.7677761731
 30
0.0
 10
6.0019415785
 20
4.7736689364
 30
0.0
 10
6.00162746
 20
4.7789660886
 30
0.0
 10
6.0013139904
 20
4.7836555663
 30
0.0
 10
6.0010014662
 20
4.7877266166
 30
0.0
 10
6.0006901019
 20
4.7911701205
 30
0.0
 10
6.0004188488
 20
4.7936428265
 30
0.0
 10
6.0001958165
 20
4.795300407
 30
0.0
 10
6.0000394837
 20
4.7963035388
 30
0.0
 10
5.9998837814
 20
4.7971449714
 30
0.0
 10
5.9997691635
 20
4.797649658
 30
0.0
 10
5.9997096833
 20
4.7978740365
 30
0.0
  0
LINE
  5
29A
100
AcDbEntity
  8
0
100
AcDbLine
 62
7
  6
CONTINUOUS
 10
5.9997096833
 20
4.7978740365
 11
5.9993959508
 21
4.7987375675
  0
SPLINE
  5
29B
100
AcDbEntity
  8
0
100
AcDbSpline
 62
7
  6
CONTINUOUS
 70
0
 71
3
 72
39
 73
35
 74
0
 42
0.0000001
 43
0.0000001
 44
0.0000000001
 40
0.0
 40
0.0
 40
0.0
 40
0.0
 40
0.0002707288
 40
0.0006148965
 40
0.0010717812
 40
0.0016584361
 40
0.0023828022
 40
0.0032490379
 40
0.0042595483
 40
0.0054158037
 40
0.0081680877
 40
0.0115086517
 40
0.0154376564
 40
0.0199541996
 40
0.0250568095
 40
0.0307436815
 40
0.0438602046
 40
0.0592727363
 40
0.0769439936
 40
0.0968357476
 40
0.118901159
 40
0.1430845638
 40
0.1693297464
 40
0.1975764097
 40
0.2277534799
 40
0.2936061272
 40
0.3662569173
 40
0.4450060266
 40
0.5290960753
 40
0.6177220194
 40
0.7100188098
 40
0.8051103067
 40
0.9021122005
 40
1.0
 40
1.0
 40
1.0
 40
1.0
 10
6.0885418702
 20
4.1995183698
 30
0.0
 10
6.0885136331
 20
4.1995183758
 30
0.0
 10
6.0884494783
 20
4.1995398578
 30
0.0
 10
6.0883677735
 20
4.1996186614
 30
0.0
 10
6.0882877353
 20
4.1997399175
 30
0.0
 10
6.0882079528
 20
4.1999065919
 30
0.0
 10
6.0881277995
 20
4.2001192367
 30
0.0
 10
6.0880474018
 20
4.2003784734
 30
0.0
 10
6.0879667716
 20
4.2006844399
 30
0.0
 10
6.0878523308
 20
4.2011846437
 30
0.0
 10
6.0877126887
 20
4.201927972
 30
0.0
 10
6.0875522879
 20
4.2029609669
 30
0.0
 10
6.0873913472
 20
4.2041797685
 30
0.0
 10
6.0872299566
 20
4.2055836462
 30
0.0
 10
6.0870682715
 20
4.2071718977
 30
0.0
 10
6.086841489
 20
4.2096550018
 30
0.0
 10
6.0865630096
 20
4.2132129888
 30
0.0
 10
6.0862412648
 20
4.2180210043
 30
0.0
 10
6.0859186906
 20
4.2235370002
 30
0.0
 10
6.0855955165
 20
4.2297478942
 30
0.0
 10
6.0852719471
 20
4.2366388091
 30
0.0
 10
6.0849480142
 20
4.2441930323
 30
0.0
 10
6.0846238442
 20
4.2523924945
 30
0.0
 10
6.0842995206
 20
4.261217543
 30
0.0
 10
6.0838537751
 20
4.2741719544
 30
0.0
 10
6.0833020865
 20
4.2917567756
 30
0.0
 10
6.0826566608
 20
4.314407116
 30
0.0
 10
6.0820104813
 20
4.3389603109
 30
0.0
 10
6.0813636756
 20
4.3651802378
 30
0.0
 10
6.0807165095
 20
4.3928135886
 30
0.0
 10
6.0800690193
 20
4.4215946865
 30
0.0
 10
6.079421282
 20
4.4512496064
 30
0.0
 10
6.0787734571
 20
4.4814878041
 30
0.0
 10
6.0783422201
 20
4.50181029
 30
0.0
 10
6.0781256203
 20
4.5120177227
 30
0.0
  0
SPLINE
  5
29C
100
AcDbEntity
  8
0
100
AcDbSpline
 62
7
  6
CONTINUOUS
 70
0
 71
3
 72
39
 73
35
 74
0
 42
0.0000001
 43
0.0000001
 44
0.0000000001
 40
0.0
 40
0.0
 40
0.0
 40
0.0
 40
0.0002707102
 40
0.0006148402
 40
0.0010716893
 40
0.0016583253
 40
0.0023826997
 40
0.00324898
 40
0.0042595794
 40
0.0054159219
 40
0.0081682553
 40
0.0115087463
 40
0.0154376113
 40
0.0199540047
 40
0.0250565115
 40
0.0307433843
 40
0.0438598791
 40
0.0592720306
 40
0.0769430875
 40
0.096835163
 40
0.1189007538
 40
0.1430843175
 40
0.1693299051
 40
0.1975769144
 40
0.2277541573
 40
0.2936072264
 40
0.3662580493
 40
0.4450068492
 40
0.5290962462
 40
0.6177214577
 40
0.7100180901
 40
0.8051103355
 40
0.9021126489
 40
1.0
 40
1.0
 40
1.0
 40
1.0
 10
6.0468768703
 20
4.1995183689
 30
0.0
 10
6.0468486352
 20
4.1995183682
 30
0.0
 10
6.0467844802
 20
4.1995398332
 30
0.0
 10
6.0467027729
 20
4.1996186225
 30
0.0
 10
6.046622735
 20
4.1997398674
 30
0.0
 10
6.0465429529
 20
4.1999065369
 30
0.0
 10
6.0464628002
 20
4.2001191857
 30
0.0
 10
6.0463824028
 20
4.2003784381
 30
0.0
 10
6.0463017753
 20
4.2006844291
 30
0.0
 10
6.0461873384
 20
4.2011846579
 30
0.0
 10
6.0460476953
 20
4.2019279926
 30
0.0
 10
6.0458872935
 20
4.2029609702
 30
0.0
 10
6.0457263522
 20
4.2041797337
 30
0.0
 10
6.0455649616
 20
4.2055835703
 30
0.0
 10
6.0454032768
 20
4.2071717955
 30
0.0
 10
6.0451764984
 20
4.2096548865
 30
0.0
 10
6.0448980251
 20
4.2132128315
 30
0.0
 10
6.0445762756
 20
4.2180207833
 30
0.0
 10
6.0442537002
 20
4.2235367525
 30
0.0
 10
6.0439305316
 20
4.2297476785
 30
0.0
 10
6.0436069557
 20
4.2366386625
 30
0.0
 10
6.0432830158
 20
4.2441929635
 30
0.0
 10
6.0429588436
 20
4.2523925211
 30
0.0
 10
6.042634517
 20
4.2612176665
 30
0.0
 10
6.0421887666
 20
4.2741721767
 30
0.0
 10
6.0416370792
 20
4.2917570645
 30
0.0
 10
6.0409916519
 20
4.3144074216
 30
0.0
 10
6.0403454762
 20
4.3389605212
 30
0.0
 10
6.0396986749
 20
4.3651802733
 30
0.0
 10
6.0390515122
 20
4.3928134651
 30
0.0
 10
6.0384040225
 20
4.42159455
 30
0.0
 10
6.0377562826
 20
4.4512495772
 30
0.0
 10
6.037108456
 20
4.4814878519
 30
0.0
 10
6.0366772191
 20
4.5018103361
 30
0.0
 10
6.0364606203
 20
4.5120177227
 30
0.0
  0
SPLINE
  5
29D
100
AcDbEntity
  8
0
100
AcDbSpline
 62
7
  6
CONTINUOUS
 70
0
 71
3
 72
39
 73
35
 74
0
 42
0.0000001
 43
0.0000001
 44
0.0000000001
 40
0.0
 40
0.0
 40
0.0
 40
0.0
 40
0.0002706931
 40
0.0006147894
 40
0.001071607
 40
0.0016582262
 40
0.0023826077
 40
0.0032489269
 40
0.0042595979
 40
0.0054159834
 40
0.008168285
 40
0.0115086354
 40
0.0154373105
 40
0.0199535251
 40
0.0250559248
 40
0.030742823
 40
0.0438593061
 40
0.0592711515
 40
0.0769420947
 40
0.0968344846
 40
0.1189001835
 40
0.1430838215
 40
0.1693297068
 40
0.1975769071
 40
0.2277541816
 40
0.2936074951
 40
0.3662581239
 40
0.4450062095
 40
0.5290950131
 40
0.6177205506
 40
0.7100177737
 40
0.8051106101
 40
0.9021130821
 40
1.0
 40
1.0
 40
1.0
 40
1.0
 10
6.0052118704
 20
4.1995183688
 30
0.0
 10
6.0051836371
 20
4.1995183622
 30
0.0
 10
6.0051194821
 20
4.1995398124
 30
0.0
 10
6.0050377729
 20
4.1996185892
 30
0.0
 10
6.0049577357
 20
4.1997398243
 30
0.0
 10
6.0048779543
 20
4.1999064896
 30
0.0
 10
6.0047978025
 20
4.200119142
 30
0.0
 10
6.0047174061
 20
4.2003784077
 30
0.0
 10
6.0046367823
 20
4.2006844162
 30
0.0
 10
6.0045223479
 20
4.2011846544
 30
0.0
 10
6.0043827053
 20
4.2019279755
 30
0.0
 10
6.0042223035
 20
4.2029609149
 30
0.0
 10
6.0040613627
 20
4.2041796249
 30
0.0
 10
6.0038999731
 20
4.2055834117
 30
0.0
 10
6.0037382889
 20
4.2071716098
 30
0.0
 10
6.0035115161
 20
4.2096546917
 30
0.0
 10
6.0032330463
 20
4.2132126065
 30
0.0
 10
6.0029112905
 20
4.218020513
 30
0.0
 10
6.0025887126
 20
4.2235364714
 30
0.0
 10
6.0022655478
 20
4.2297474302
 30
0.0
 10
6.0019419656
 20
4.2366384661
 30
0.0
 10
6.0016180203
 20
4.2441928174
 30
0.0
 10
6.0012938476
 20
4.2523924341
 30
0.0
 10
6.000969519
 20
4.2612176343
 30
0.0
 10
6.0005237647
 20
4.2741721938
 30
0.0
 10
5.99997208
 20
4.2917570912
 30
0.0
 10
5.9993266524
 20
4.3144073801
 30
0.0
 10
5.9986804812
 20
4.3389603245
 30
0.0
 10
5.9980336821
 20
4.3651799756
 30
0.0
 10
5.9973865185
 20
4.3928132026
 30
0.0
 10
5.9967390247
 20
4.4215944463
 30
0.0
 10
5.9960912818
 20
4.4512496148
 30
0.0
 10
5.9954434545
 20
4.4814879241
 30
0.0
 10
5.9950122182
 20
4.5018103808
 30
0.0
 10
5.9947956203
 20
4.5120177227
 30
0.0
  0
SPLINE
  5
29E
100
AcDbEntity
  8
0
100
AcDbSpline
 62
7
  6
CONTINUOUS
 70
0
 71
3
 72
32
 73
28
 74
0
 42
0.0000001
 43
0.0000001
 44
0.0000000001
 40
0.0
 40
0.0
 40
0.0
 40
0.0
 40
0.1905914037
 40
0.2836947044
 40
0.3741873311
 40
0.4612526531
 40
0.5440800095
 40
0.6219132447
 40
0.694037975
 40
0.7597946616
 40
0.818577833
 40
0.8451838054
 40
0.8698478411
 40
0.892517008
 40
0.9131394679
 40
0.931664944
 40
0.9480539984
 40
0.9622724212
 40
0.9742868494
 40
0.9840719765
 40
0.9881244726
 40
0.9916154373
 40
0.9945446576
 40
0.9969133909
 40
0.9987263715
 40
0.9994288763
 40
1.0
 40
1.0
 40
1.0
 40
1.0
 10
6.0294982191
 20
4.5120177227
 30
0.0
 10
6.0299194966
 20
4.4921646923
 30
0.0
 10
6.0305464221
 20
4.4626135145
 30
0.0
 10
6.0313966175
 20
4.4236366357
 30
0.0
 10
6.0320291469
 20
4.395443843
 30
0.0
 10
6.0326613817
 20
4.3683219602
 30
0.0
 10
6.0332932983
 20
4.3425194105
 30
0.0
 10
6.0339246739
 20
4.3182739822
 30
0.0
 10
6.0345553692
 20
4.29580775
 30
0.0
 10
6.0351851105
 20
4.275327144
 30
0.0
 10
6.035725043
 20
4.2595886374
 30
0.0
 10
6.0361619951
 20
4.2481306379
 30
0.0
 10
6.0364785735
 20
4.240433494
 30
0.0
 10
6.0367948633
 20
4.2333603214
 30
0.0
 10
6.0371107883
 20
4.2269273965
 30
0.0
 10
6.0374262995
 20
4.2211496317
 30
0.0
 10
6.0377412063
 20
4.216040172
 30
0.0
 10
6.0380550073
 20
4.2116104497
 30
0.0
 10
6.0383675666
 20
4.2078707169
 30
0.0
 10
6.0386401254
 20
4.205190752
 30
0.0
 10
6.0388643744
 20
4.2033991898
 30
0.0
 10
6.0390213787
 20
4.202319338
 30
0.0
 10
6.0391774724
 20
4.2014168081
 30
0.0
 10
6.0393326493
 20
4.2006922585
 30
0.0
 10
6.0394690063
 20
4.2002011032
 30
0.0
 10
6.0395832845
 20
4.1999002999
 30
0.0
 10
6.0396410683
 20
4.1997804642
 30
0.0
 10
6.0396708582
 20
4.1997289533
 30
0.0
  0
SPLINE
  5
29F
100
AcDbEntity
  8
0
100
AcDbSpline
 62
7
  6
CONTINUOUS
 70
0
 71
3
 72
58
 73
54
 74
0
 42
0.0000001
 43
0.0000001
 44
0.0000000001
 40
0.0
 40
0.0
 40
0.0
 40
0.0
 40
0.0001420167
 40
0.0003156959
 40
0.000539622
 40
0.0008226426
 40
0.0011691024
 40
0.0015813407
 40
0.0020607315
 40
0.0026081402
 40
0.0039088579
 40
0.0054855257
 40
0.0073385269
 40
0.0094676207
 40
0.0118722305
 40
0.014551583
 40
0.0207306884
 40
0.0279930683
 40
0.0363215154
 40
0.0456981976
 40
0.0561042176
 40
0.0675151857
 40
0.0799045636
 40
0.0932457244
 40
0.1075094977
 40
0.1386694836
 40
0.1731058622
 40
0.2105054836
 40
0.2505333835
 40
0.2928259403
 40
0.3370029337
 40
0.3826643014
 40
0.4293982212
 40
0.4767822935
 40
0.5717871048
 40
0.6642539347
 40
0.7084871768
 40
0.7508496818
 40
0.7909588644
 40
0.8284533741
 40
0.8629932198
 40
0.8942692637
 40
0.9219965799
 40
0.9459291024
 40
0.9564021323
 40
0.9658493684
 40
0.9742497491
 40
0.9815830728
 40
0.987834844
 40
0.9929938078
 40
0.9970500607
 40
0.9986630109
 40
1.0
 40
1.0
 40
1.0
 40
1.0
 10
6.0616281694
 20
4.225068337
 30
0.0
 10
6.061601036
 20
4.2250683505
 30
0.0
 10
6.0615404787
 20
4.2250859584
 30
0.0
 10
6.0614605033
 20
4.2251535222
 30
0.0
 10
6.061382576
 20
4.2252583767
 30
0.0
 10
6.0613050136
 20
4.2254022233
 30
0.0
 10
6.0612272576
 20
4.225585631
 30
0.0
 10
6.0611493064
 20
4.225809095
 30
0.0
 10
6.0610711638
 20
4.2260727751
 30
0.0
 10
6.0609603388
 20
4.2265035115
 30
0.0
 10
6.060825052
 20
4.2271439808
 30
0.0
 10
6.0606696391
 20
4.2280343985
 30
0.0
 10
6.0605137162
 20
4.2290850323
 30
0.0
 10
6.060357367
 20
4.2302952581
 30
0.0
 10
6.0602007361
 20
4.2316644821
 30
0.0
 10
6.0599810475
 20
4.2338051784
 30
0.0
 10
6.0597112213
 20
4.2368735045
 30
0.0
 10
6.0593995529
 20
4.2410212035
 30
0.0
 10
6.0590870704
 20
4.2457812646
 30
0.0
 10
6.0587739524
 20
4.251143032
 30
0.0
 10
6.0584604937
 20
4.2570946182
 30
0.0
 10
6.0581467114
 20
4.2636225088
 30
0.0
 10
6.0578326732
 20
4.2707117628
 30
0.0
 10
6.0575184547
 20
4.2783465544
 30
0.0
 10
6.0570865239
 20
4.289565778
 30
0.0
 10
6.056551815
 20
4.3048143898
 30
0.0
 10
6.0559265408
 20
4.3244827121
 30
0.0
 10
6.0553004394
 20
4.3458460809
 30
0.0
 10
6.0546738195
 20
4.3687110182
 30
0.0
 10
6.0540467412
 20
4.392871273
 30
0.0
 10
6.0534194024
 20
4.4181081862
 30
0.0
 10
6.0527918345
 20
4.444193905
 30
0.0
 10
6.0521641383
 20
4.4708925318
 30
0.0
 10
6.0513264093
 20
4.5070162969
 30
0.0
 10
6.0502932687
 20
4.5518755281
 30
0.0
 10
6.0492471933
 20
4.5961323137
 30
0.0
 10
6.0483981574
 20
4.6303331692
 30
0.0
 10
6.0477710789
 20
4.6545330779
 30
0.0
 10
6.0471444054
 20
4.6774450543
 30
0.0
 10
6.0465183356
 20
4.6988618734
 30
0.0
 10
6.0458929738
 20
4.7185902956
 30
0.0
 10
6.0452689099
 20
4.7364516458
 30
0.0
 10
6.0446462304
 20
4.7522850482
 30
0.0
 10
6.0441086818
 20
4.7641439992
 30
0.0
 10
6.0436709049
 20
4.7725110276
 30
0.0
 10
6.0433577632
 20
4.7779128866
 30
0.0
 10
6.0430452918
 20
4.7827138122
 30
0.0
 10
6.0427335183
 20
4.7869027971
 30
0.0
 10
6.0424232005
 20
4.7904707029
 30
0.0
 10
6.0421145256
 20
4.7934097438
 30
0.0
 10
6.0418444982
 20
4.7954614623
 30
0.0
 10
6.0416196718
 20
4.7967811753
 30
0.0
 10
6.041506055
 20
4.7973334363
 30
0.0
 10
6.0414474882
 20
4.7975820745
 30
0.0
  0
LINE
  5
2A0
100
AcDbEntity
  8
0
100
AcDbLine
 62
7
  6
CONTINUOUS
 10
6.0414474882
 20
4.7975820745
 11
6.041060951
 21
4.7987376529
  0
SPLINE
  5
2A1
100
AcDbEntity
  8
0
100
AcDbSpline
 62
7
  6
CONTINUOUS
 70
0
 71
3
 72
39
 73
35
 74
0
 42
0.0000001
 43
0.0000001
 44
0.0000000001
 40
0.0
 40
0.0
 40
0.0
 40
0.0
 40
0.000270705
 40
0.0006148244
 40
0.0010716636
 40
0.0016582945
 40
0.0023826716
 40
0.0032489648
 40
0.0042595889
 40
0.0054159497
 40
0.0081682844
 40
0.0115087432
 40
0.0154375597
 40
0.0199539058
 40
0.0250563839
 40
0.0307432643
 40
0.043859762
 40
0.0592718269
 40
0.0769428544
 40
0.0968350389
 40
0.1189006907
 40
0.1430843064
 40
0.169330006
 40
0.1975771008
 40
0.2277543811
 40
0.2936075453
 40
0.3662583365
 40
0.4450069579
 40
0.529096158
 40
0.6177213376
 40
0.7100180497
 40
0.8051104527
 40
0.9021127968
 40
1.0
 40
1.0
 40
1.0
 40
1.0
 10
6.102411969
 20
4.8245170761
 30
0.0
 10
6.1024402036
 20
4.8245170787
 30
0.0
 10
6.1025043587
 20
4.8244956185
 30
0.0
 10
6.1025860666
 20
4.8244168331
 30
0.0
 10
6.1026661044
 20
4.8242955914
 30
0.0
 10
6.1027458864
 20
4.8241289231
 30
0.0
 10
6.1028260389
 20
4.8239162731
 30
0.0
 10
6.102906436
 20
4.8236570162
 30
0.0
 10
6.1029870625
 20
4.8233510188
 30
0.0
 10
6.1031014987
 20
4.8228507852
 30
0.0
 10
6.1032411418
 20
4.8221074517
 30
0.0
 10
6.1034015437
 20
4.8210744826
 30
0.0
 10
6.103562485
 20
4.8198557325
 30
0.0
 10
6.1037238755
 20
4.818451909
 30
0.0
 10
6.1038855603
 20
4.8168636909
 30
0.0
 10
6.1041123372
 20
4.8143806016
 30
0.0
 10
6.1043908093
 20
4.8108226644
 30
0.0
 10
6.1047125606
 20
4.8060147245
 30
0.0
 10
6.1050351367
 20
4.800498756
 30
0.0
 10
6.1053583042
 20
4.7942878151
 30
0.0
 10
6.1056818821
 20
4.787396808
 30
0.0
 10
6.1060058238
 20
4.7798424835
 30
0.0
 10
6.1063299966
 20
4.7716428997
 30
0.0
 10
6.1066543239
 20
4.7628177297
 30
0.0
 10
6.1071000754
 20
4.7498631965
 30
0.0
 10
6.1076517623
 20
4.7322782979
 30
0.0
 10
6.1082971896
 20
4.7096279525
 30
0.0
 10
6.108943364
 20
4.6850748949
 30
0.0
 10
6.1095901642
 20
4.6588551849
 30
0.0
 10
6.1102373265
 20
4.6312220082
 30
0.0
 10
6.1108848168
 20
4.6024409013
 30
0.0
 10
6.1115325573
 20
4.5727858457
 30
0.0
 10
6.1121803839
 20
4.5425475664
 30
0.0
 10
6.1126116206
 20
4.522225094
 30
0.0
 10
6.1128282191
 20
4.5120177227
 30
0.0
  0
SPLINE
  5
2A2
100
AcDbEntity
  8
0
100
AcDbSpline
 62
7
  6
CONTINUOUS
 70
0
 71
3
 72
60
 73
56
 74
0
 42
0.0000001
 43
0.0000001
 44
0.0000000001
 40
0.0
 40
0.0
 40
0.0
 40
0.0
 40
0.0001422627
 40
0.000316333
 40
0.0005408903
 40
0.0008248192
 40
0.0011724828
 40
0.0015862332
 40
0.0020674551
 40
0.0026170024
 40
0.003922668
 40
0.0055051724
 40
0.0073649623
 40
0.0095018617
 40
0.0119153597
 40
0.014604749
 40
0.020807304
 40
0.0280965562
 40
0.0364555298
 40
0.045866842
 40
0.0563110366
 40
0.0677630252
 40
0.080196626
 40
0.093585407
 40
0.1078990865
 40
0.1391657462
 40
0.173716648
 40
0.2112359809
 40
0.2513861603
 40
0.2938014642
 40
0.3380983416
 40
0.3838746896
 40
0.4307153551
 40
0.4781957031
 40
0.5733505076
 40
0.6201620677
 40
0.6658948762
 40
0.7101341758
 40
0.7524792324
 40
0.7925450454
 40
0.8299701952
 40
0.8644130743
 40
0.8955646127
 40
0.9231400619
 40
0.9468928649
 40
0.9572664233
 40
0.9666079197
 40
0.9748956476
 40
0.9821101452
 40
0.9882379799
 40
0.9932673866
 40
0.9953669448
 40
0.9971885375
 40
0.9987325048
 40
1.0
 40
1.0
 40
1.0
 40
1.0
 10
6.1032931697
 20
4.2250683527
 30
0.0
 10
6.103265981
 20
4.2250683508
 30
0.0
 10
6.1032052738
 20
4.2250860071
 30
0.0
 10
6.1031251393
 20
4.2251538192
 30
0.0
 10
6.1030470588
 20
4.2252590698
 30
0.0
 10
6.1029693421
 20
4.2254034869
 30
0.0
 10
6.1028914292
 20
4.2255876465
 30
0.0
 10
6.1028133198
 20
4.2258120523
 30
0.0
 10
6.1027350194
 20
4.2260768659
 30
0.0
 10
6.1026239797
 20
4.226509447
 30
0.0
 10
6.1024884138
 20
4.2271525852
 30
0.0
 10
6.1023326785
 20
4.2280466359
 30
0.0
 10
6.1021764328
 20
4.2291014969
 30
0.0
 10
6.1020197614
 20
4.2303165819
 30
0.0
 10
6.101862808
 20
4.2316913344
 30
0.0
 10
6.1016426664
 20
4.2338407856
 30
0.0
 10
6.101372314
 20
4.2369215893
 30
0.0
 10
6.1010599907
 20
4.2410860071
 30
0.0
 10
6.1007468592
 20
4.2458651112
 30
0.0
 10
6.1004331097
 20
4.2512482659
 30
0.0
 10
6.1001190172
 20
4.2572234245
 30
0.0
 10
6.0998045825
 20
4.2637768955
 30
0.0
 10
6.0994898963
 20
4.2708937065
 30
0.0
 10
6.0991750483
 20
4.2785579204
 30
0.0
 10
6.0987422369
 20
4.2898195948
 30
0.0
 10
6.0982064458
 20
4.3051246734
 30
0.0
 10
6.0975798995
 20
4.3248641515
 30
0.0
 10
6.0969525224
 20
4.3463021749
 30
0.0
 10
6.096324619
 20
4.3692437958
 30
0.0
 10
6.09569627
 20
4.3934811618
 30
0.0
 10
6.0950676455
 20
4.4187941183
 30
0.0
 10
6.0944388056
 20
4.4449530804
 30
0.0
 10
6.093809831
 20
4.471720624
 30
0.0
 10
6.0929705105
 20
4.5079228703
 30
0.0
 10
6.0921368687
 20
4.5441196843
 30
0.0
 10
6.0912936749
 20
4.5799822023
 30
0.0
 10
6.0906648412
 20
4.6061162696
 30
0.0
 10
6.0900362128
 20
4.6313964655
 30
0.0
 10
6.0894079043
 20
4.6555932657
 30
0.0
 10
6.0887799696
 20
4.6784873189
 30
0.0
 10
6.0881526798
 20
4.6998705525
 30
0.0
 10
6.0875261007
 20
4.7195493543
 30
0.0
 10
6.0869008547
 20
4.7373447288
 30
0.0
 10
6.086277057
 20
4.7530956946
 30
0.0
 10
6.0857383064
 20
4.764875757
 30
0.0
 10
6.0852993771
 20
4.7731716178
 30
0.0
 10
6.0849856886
 20
4.778514252
 30
0.0
 10
6.0846726304
 20
4.7832520176
 30
0.0
 10
6.0843604438
 20
4.7873741739
 30
0.0
 10
6.0840494178
 20
4.7908716129
 30
0.0
 10
6.0837786228
 20
4.793390989
 30
0.0
 10
6.0835562049
 20
4.7950871437
 30
0.0
 10
6.0833999826
 20
4.7961199728
 30
0.0
 10
6.0832443625
 20
4.7969917448
 30
0.0
 10
6.0831302078
 20
4.7975170605
 30
0.0
 10
6.0830711441
 20
4.797751989
 30
0.0
  0
LINE
  5
2A3
100
AcDbEntity
  8
0
100
AcDbLine
 62
7
  6
CONTINUOUS
 10
6.0830711441
 20
4.797751989
 11
6.0827259511
 21
4.7987377644
  0
SPLINE
  5
2A4
100
AcDbEntity
  8
0
100
AcDbSpline
 62
7
  6
CONTINUOUS
 70
0
 71
3
 72
39
 73
35
 74
0
 42
0.0000001
 43
0.0000001
 44
0.0000000001
 40
0.0
 40
0.0
 40
0.0
 40
0.0
 40
0.0002707237
 40
0.0006148809
 40
0.0010717554
 40
0.0016584047
 40
0.0023827726
 40
0.0032490198
 40
0.0042595541
 40
0.0054158359
 40
0.008168138
 40
0.0115086853
 40
0.0154376537
 40
0.0199541567
 40
0.0250567378
 40
0.0307436085
 40
0.0438601272
 40
0.0592725527
 40
0.0769437453
 40
0.0968355755
 40
0.1189010236
 40
0.143084461
 40
0.1693297535
 40
0.1975765216
 40
0.2277536505
 40
0.2936064316
 40
0.3662572455
 40
0.4450063088
 40
0.5290961791
 40
0.6177218247
 40
0.7100185096
 40
0.805110255
 40
0.9021123157
 40
1.0
 40
1.0
 40
1.0
 40
1.0
 10
6.0607469692
 20
4.8245170758
 30
0.0
 10
6.0607752057
 20
4.8245170716
 30
0.0
 10
6.0608393606
 20
4.8244955944
 30
0.0
 10
6.0609210661
 20
4.8244167948
 30
0.0
 10
6.0610011042
 20
4.8242955419
 30
0.0
 10
6.0610808867
 20
4.824128869
 30
0.0
 10
6.0611610398
 20
4.8239162234
 30
0.0
 10
6.0612414374
 20
4.8236569825
 30
0.0
 10
6.061322067
 20
4.8233510092
 30
0.0
 10
6.0614365065
 20
4.8228507978
 30
0.0
 10
6.061576149
 20
4.8221074666
 30
0.0
 10
6.0617365501
 20
4.8210744755
 30
0.0
 10
6.061897491
 20
4.8198556836
 30
0.0
 10
6.0620588816
 20
4.8184518169
 30
0.0
 10
6.0622205667
 20
4.8168635728
 30
0.0
 10
6.0624473482
 20
4.8143804722
 30
0.0
 10
6.0627258257
 20
4.8108224967
 30
0.0
 10
6.0630475717
 20
4.8060144995
 30
0.0
 10
6.0633701462
 20
4.8004985134
 30
0.0
 10
6.0636933186
 20
4.7942876142
 30
0.0
 10
6.0640168896
 20
4.787396684
 30
0.0
 10
6.0643408244
 20
4.7798424421
 30
0.0
 10
6.064664995
 20
4.771642954
 30
0.0
 10
6.0649893194
 20
4.7628178767
 30
0.0
 10
6.0654350665
 20
4.7498634341
 30
0.0
 10
6.065986755
 20
4.7322785901
 30
0.0
 10
6.0666321813
 20
4.7096282376
 30
0.0
 10
6.0672783598
 20
4.6850750632
 30
0.0
 10
6.0679251641
 20
4.6588551903
 30
0.0
 10
6.068572329
 20
4.6312218997
 30
0.0
 10
6.0692198187
 20
4.6024408175
 30
0.0
 10
6.0698675569
 20
4.5727858648
 30
0.0
 10
6.0705153824
 20
4.5425476352
 30
0.0
 10
6.0709466195
 20
4.5222251435
 30
0.0
 10
6.0711632191
 20
4.5120177227
 30
0.0
  0
SPLINE
  5
2A5
100
AcDbEntity
  8
0
100
AcDbSpline
 62
7
  6
CONTINUOUS
 70
0
 71
3
 72
30
 73
26
 74
0
 42
0.0000001
 43
0.0000001
 44
0.0000000001
 40
0.0
 40
0.0
 40
0.0
 40
0.0
 40
0.0884830524
 40
0.1760887604
 40
0.2618719734
 40
0.3450460408
 40
0.4248786467
 40
0.5007402905
 40
0.5721198946
 40
0.6386370607
 40
0.6699906386
 40
0.7000455746
 40
0.7287893083
 40
0.7562209847
 40
0.7823508567
 40
0.8071961337
 40
0.8307872423
 40
0.853174591
 40
0.8945797039
 40
0.9137970875
 40
0.9321482772
 40
0.9497558914
 40
0.9667863116
 40
0.9834564568
 40
1.0
 40
1.0
 40
1.0
 40
1.0
 10
4.9696369197
 20
4.5120177227
 30
0.0
 10
4.969636986
 20
4.5014139975
 30
0.0
 10
4.9700670363
 20
4.4803091528
 30
0.0
 10
4.9719878491
 20
4.4489769885
 30
0.0
 10
4.9751555981
 20
4.4183847989
 30
0.0
 10
4.9795213665
 20
4.388881342
 30
0.0
 10
4.9850144679
 20
4.3607765867
 30
0.0
 10
4.9915551804
 20
4.3343492426
 30
0.0
 10
4.9990578665
 20
4.3098420868
 30
0.0
 10
5.0061625909
 20
4.2908273312
 30
0.0
 10
5.0122804433
 20
4.2767672211
 30
0.0
 10
5.0169579481
 20
4.2670254736
 30
0.0
 10
5.0218037475
 20
4.2578949073
 30
0.0
 10
5.0268051989
 20
4.2493897048
 30
0.0
 10
5.0319485176
 20
4.2415215362
 30
0.0
 10
5.0372206889
 20
4.2343014916
 30
0.0
 10
5.0426113667
 20
4.2277381337
 30
0.0
 10
5.0497546986
 20
4.220075794
 30
0.0
 10
5.0572747269
 20
4.2134916199
 30
0.0
 10
5.0651480726
 20
4.2082203267
 30
0.0
 10
5.0709655967
 20
4.2050557181
 30
0.0
 10
5.0768281121
 20
4.2025862325
 30
0.0
 10
5.0827303103
 20
4.2008173962
 30
0.0
 10
5.0886701341
 20
4.1997546553
 30
0.0
 10
5.0926543573
 20
4.1995185256
 30
0.0
 10
5.0946369197
 20
4.1995177227
 30
0.0
  0
SPLINE
  5
2A6
100
AcDbEntity
  8
0
100
AcDbSpline
 62
7
  6
CONTINUOUS
 70
0
 71
3
 72
39
 73
35
 74
0
 42
0.0000001
 43
0.0000001
 44
0.0000000001
 40
0.0
 40
0.0
 40
0.0
 40
0.0
 40
0.0002707311
 40
0.0006149051
 40
0.0010717944
 40
0.0016584492
 40
0.0023828081
 40
0.0032490273
 40
0.0042595102
 40
0.0054157325
 40
0.0081679693
 40
0.011508507
 40
0.0154374999
 40
0.019954039
 40
0.0250566457
 40
0.0307435086
 40
0.0438600395
 40
0.059272653
 40
0.0769439621
 40
0.0968356609
 40
0.1189010192
 40
0.1430843409
 40
0.1693293446
 40
0.1975757675
 40
0.2277526022
 40
0.2936048961
 40
0.366255508
 40
0.4450046564
 40
0.5290951458
 40
0.6177220738
 40
0.7100193304
 40
0.8051104109
 40
0.9021120504
 40
1.0
 40
1.0
 40
1.0
 40
1.0
 10
6.0190819692
 20
4.824517079
 30
0.0
 10
6.0191102065
 20
4.8245170714
 30
0.0
 10
6.0191743608
 20
4.8244955857
 30
0.0
 10
6.0192560645
 20
4.8244167795
 30
0.0
 10
6.0193361023
 20
4.8242955217
 30
0.0
 10
6.0194158844
 20
4.8241288475
 30
0.0
 10
6.0194960374
 20
4.8239162053
 30
0.0
 10
6.0195764347
 20
4.8236569741
 30
0.0
 10
6.0196570649
 20
4.8233510159
 30
0.0
 10
6.0197715062
 20
4.8228508238
 30
0.0
 10
6.0199111476
 20
4.8221075066
 30
0.0
 10
6.0200715476
 20
4.8210745206
 30
0.0
 10
6.0202324877
 20
4.8198557233
 30
0.0
 10
6.020393878
 20
4.8184518476
 30
0.0
 10
6.0205555628
 20
4.8168635978
 30
0.0
 10
6.0207823461
 20
4.8143804943
 30
0.0
 10
6.0210608269
 20
4.810822499
 30
0.0
 10
6.0213825719
 20
4.8060144688
 30
0.0
 10
6.0217051469
 20
4.8004984647
 30
0.0
 10
6.0220283225
 20
4.7942875768
 30
0.0
 10
6.0223518908
 20
4.7873966817
 30
0.0
 10
6.0226758219
 20
4.7798424915
 30
0.0
 10
6.0229999902
 20
4.7716430817
 30
0.0
 10
6.023324312
 20
4.7628181015
 30
0.0
 10
6.0237700552
 20
4.7498637766
 30
0.0
 10
6.0243217417
 20
4.7322790355
 30
0.0
 10
6.0249671674
 20
4.7096287466
 30
0.0
 10
6.0256133483
 20
4.6850755204
 30
0.0
 10
6.0262601584
 20
4.658855441
 30
0.0
 10
6.0269073287
 20
4.6312218932
 30
0.0
 10
6.027554822
 20
4.6024406876
 30
0.0
 10
6.0282025585
 20
4.5727857892
 30
0.0
 10
6.0288503821
 20
4.5425476459
 30
0.0
 10
6.029281619
 20
4.522225171
 30
0.0
 10
6.0294982191
 20
4.5120177227
 30
0.0
  0
ENDSEC
  0
SECTION
  2
OBJECTS
  0
DICTIONARY
  5
C
100
AcDbDictionary
280
0
281
1
  3
ACAD_GROUP
350
D
  3
ACAD_MLINESTYLE
350
17
  3
ACAD_LAYOUT
350
1A
  3
ACAD_PLOTSETTINGS
350
19
  3
ACAD_PLOTSTYLENAME
350
E
  0
DICTIONARY
  5
D
102
{ACAD_REACTORS
330
C
102
}
100
AcDbDictionary
280
0
281
1
  0
ACDBDICTIONARYWDFLT
  5
E
102
{ACAD_REACTORS
330
C
102
}
100
AcDbDictionary
281
1
  3
Normal
350
F
100
AcDbDictionaryWithDefault
340
F
  0
DICTIONARY
  5
17
102
{ACAD_REACTORS
330
C
102
}
100
AcDbDictionary
280
0
281
1
  3
Standard
350
18
  0
DICTIONARY
  5
19
102
{ACAD_REACTORS
330
C
102
}
100
AcDbDictionary
281
1
  0
DICTIONARY
  5
1A
102
{ACAD_REACTORS
330
C
102
}
100
AcDbDictionary
281
1
  3
Model
350
2A7
  3
Layout1
350
2A8
  0
ACDBPLACEHOLDER
  5
F
102
{ACAD_REACTORS
330
E
102
}
  0
MLINESTYLE
  5
18
102
{ACAD_REACTORS
330
17
102
}
100
AcDbMlineStyle
  2
STANDARD
 70
0
  3

 62
256
 51
90.0
 52
90.0
 71
2
 49
0.5
 62
256
  6
BYLAYER
 49
-0.5
 62
256
  6
BYLAYER
  0
LAYOUT
  5
2A7
102
{ACAD_REACTORS
330
1A
102
}
100
AcDbPlotSettings
  1

  2
none_device
  4
ANSI_A_(11.00_x_8.50_Inches)
  6

 40
0.0
 41
0.0
 42
0.0
 43
0.0
 44
279.4
 45
215.9
 46
0.0
 47
0.0
 48
0.0
 49
0.0
140
0.0
141
0.0
142
1.0
143
1.0
 70
1024
 72
0
 73
0
 74
0
  7

 75
0
147
1.0
148
0.0
149
0.0
100
AcDbLayout
  1
Model
 70
0
 71
0
 10
0.0
 20
0.0
 11
11.0
 21
8.5
 12
0.0
 22
0.0
 32
0.0
 14
0.0
 24
0.0
 34
0.0
 15
0.0
 25
0.0
 35
0.0
146
0.0
 13
0.0
 23
0.0
 33
0.0
 16
1.0
 26
0.0
 36
0.0
 17
0.0
 27
1.0
 37
0.0
 76
0
330
207
345
0
346
0
  0
LAYOUT
  5
2A8
102
{ACAD_REACTORS
330
1A
102
}
100
AcDbPlotSettings
  1

  2
none_device
  4
ANSI_A_(11.00_x_8.50_Inches)
  6

 40
0.0
 41
0.0
 42
0.0
 43
0.0
 44
279.4
 45
215.9
 46
0.0
 47
0.0
 48
0.0
 49
0.0
140
0.0
141
0.0
142
1.0
143
1.0
 70
0
 72
0
 73
0
 74
0
  7

 75
0
147
1.0
148
0.0
149
0.0
100
AcDbLayout
  1
Layout1
 70
0
 71
1
 10
0.0
 20
0.0
 11
11.0
 21
8.5
 12
0.0
 22
0.0
 32
0.0
 14
0.0
 24
0.0
 34
0.0
 15
0.0
 25
0.0
 35
0.0
146
0.0
 13
0.0
 23
0.0
 33
0.0
 16
1.0
 26
0.0
 36
0.0
 17
0.0
 27
1.0
 37
0.0
 76
0
330
208
345
0
346
0
  0
ENDSEC
  0
EOF
