999
DXF file: 5082_top.dxf
999
Pro/ENGINEER 2019352 by Parametric Technology Corporation
  0
SECTION
  2
HEADER
  9
$ACADVER
  1
AC1032
  9
$DWGCODEPAGE
  3
ANSI_1252
  9
$EXTMAX
 10
11.0
 20
8.5
 30
0.0
  9
$EXTMIN
 10
0.0
 20
0.0
 30
0.0
  9
$LIMMIN
 10
0.0
 20
0.0
  9
$LIMMAX
 10
11.0
 20
8.5
  9
$VIEWCTR
 10
5.5
 20
4.25
  9
$VIEWSIZE
 40
8.5
  9
$CLAYER
  8
0
  9
$LTSCALE
 40
0.605
  9
$CELTYPE
  6
BYLAYER
  9
$DIMSCALE
 40
1.0
  9
$DIMASZ
 40
0.1
  9
$DIMEXO
 40
0.0625
  9
$DIMDLI
 40
0.418
  9
$DIMEXE
 40
0.125
  9
$DIMCEN
 40
0.099
  9
$DIMLFAC
 40
1.0
  9
$DIMBLK
  1
_FILLED
  9
$DIMALT
 70
1
  9
$DIMALTD
 70
2
  9
$DIMALTTD
 70
2
  9
$DIMALTF
 40
25.4
  9
$DIMTXT
 40
0.08
  9
$DIMTOL
 70
1
  9
$DIMLIM
 70
0
  9
$DIMTFAC
 40
1.0
  9
$DIMTP
 40
0.001
  9
$DIMTM
 40
0.001
  9
$DIMGAP
 40
0.09
  9
$DIMDSEP
 70
46
  9
$AUNITS
 70
0
  9
$PDMODE
 70
3
  9
$PDSIZE
 40
0.3125
  9
$HANDSEED
  5
2C7
  9
$TILEMODE
 70
1
  9
$MEASUREMENT
 70
0
  9
$INSUNITS
 70
1
  0
ENDSEC
  0
SECTION
  2
CLASSES
  0
CLASS
  1
ACDBDICTIONARYWDFLT
  2
AcDbDictionaryWithDefault
  3
AutoCAD 2000
 90
0
 91
1
280
0
281
0
  0
CLASS
  1
ACDBPLACEHOLDER
  2
AcDbPlaceHolder
  3
AutoCAD 2000
 90
0
 91
1
280
0
281
0
  0
CLASS
  1
LAYOUT
  2
AcDbLayout
  3
AutoCAD 2000
 90
0
 91
0
280
0
281
0
  0
ENDSEC
  0
SECTION
  2
TABLES
  0
TABLE
  2
VPORT
  5
8
100
AcDbSymbolTable
 70
2
  0
VPORT
  5
1F4
100
AcDbSymbolTableRecord
100
AcDbViewportTableRecord
  2
*ACTIVE
 70
0
 10
0.0
 20
0.0
 11
1.0
 21
1.0
 12
5.5
 22
4.25
 13
0.0
 23
0.0
 14
1.0
 24
1.0
 15
0.0
 25
0.0
 16
0.0
 26
0.0
 36
1.0
 17
0.0
 27
0.0
 37
0.0
 40
8.5
 41
1.2941176471
 42
50.0
 43
0.0
 44
0.0
 50
0.0
 51
0.0
 71
0
 72
100
 73
1
 74
1
 75
0
 76
0
 77
0
 78
0
  0
ENDTAB
  0
TABLE
  2
LTYPE
  5
5
100
AcDbSymbolTable
 70
6
  0
LTYPE
  5
14
100
AcDbSymbolTableRecord
100
AcDbLinetypeTableRecord
  2
BYBLOCK
 70
0
  3

 72
65
 73
0
 40
0.0
  0
LTYPE
  5
15
100
AcDbSymbolTableRecord
100
AcDbLinetypeTableRecord
  2
BYLAYER
 70
0
  3

 72
65
 73
0
 40
0.0
  0
LTYPE
  5
16
100
AcDbSymbolTableRecord
100
AcDbLinetypeTableRecord
  2
CONTINUOUS
 70
64
  3
Solid line
 72
65
 73
0
 40
0.0
  0
LTYPE
  5
1F5
100
AcDbSymbolTableRecord
100
AcDbLinetypeTableRecord
  2
CENTER
 70
64
  3
____ _ ____ _ ____ _ ____ _ ____ _ ____ _ ____
 72
65
 73
4
 40
0.6
 49
0.375
 74
0
 49
-0.075
 74
0
 49
0.075
 74
0
 49
-0.075
 74
0
  0
LTYPE
  5
1F6
100
AcDbSymbolTableRecord
100
AcDbLinetypeTableRecord
  2
HIDDEN
 70
64
  3
- - - - - - - - - - - - - - - - - - - -
 72
65
 73
2
 40
0.2
 49
0.1
 74
0
 49
-0.1
 74
0
  0
LTYPE
  5
1F7
100
AcDbSymbolTableRecord
100
AcDbLinetypeTableRecord
  2
PHANTOM
 70
64
  3
_____ _ _ _____ _ _ _____ _ _ _____
 72
65
 73
6
 40
0.8
 49
0.45
 74
0
 49
-0.05
 74
0
 49
0.1
 74
0
 49
-0.05
 74
0
 49
0.1
 74
0
 49
-0.05
 74
0
  0
LTYPE
  5
1F8
100
AcDbSymbolTableRecord
100
AcDbLinetypeTableRecord
  2
DOT
 70
64
  3
. . . . . . . . . . . . . . . . . . . .
 72
65
 73
2
 40
0.2
 49
0.1
 74
0
 49
-0.1
 74
0
  0
LTYPE
  5
1F9
100
AcDbSymbolTableRecord
100
AcDbLinetypeTableRecord
  2
DASHED
 70
64
  3
- - - - - - - - - - - - - - - - - - - -
 72
65
 73
2
 40
0.2
 49
0.1
 74
0
 49
-0.1
 74
0
  0
ENDTAB
  0
TABLE
  2
LAYER
  5
2
100
AcDbSymbolTable
 70
36
  0
LAYER
  5
10
100
AcDbSymbolTableRecord
100
AcDbLayerTableRecord
  2
0
 70
0
 62
7
  6
CONTINUOUS
370
-3
390
F
  0
LAYER
  5
1FA
100
AcDbSymbolTableRecord
100
AcDbLayerTableRecord
  2
DEFAULT_1
 70
0
 62
7
  6
CENTER
370
-3
390
F
  0
LAYER
  5
1FB
100
AcDbSymbolTableRecord
100
AcDbLayerTableRecord
  2
DEFAULT_2
 70
0
 62
8
  6
HIDDEN
370
-3
390
F
  0
LAYER
  5
1FC
100
AcDbSymbolTableRecord
100
AcDbLayerTableRecord
  2
DEFAULT_3
 70
0
 62
7
  6
PHANTOM
370
-3
390
F
  0
LAYER
  5
1FD
100
AcDbSymbolTableRecord
100
AcDbLayerTableRecord
  2
_  SHELL
 70
0
 62
7
  6
CONTINUOUS
370
-3
390
F
  0
LAYER
  5
1FE
100
AcDbSymbolTableRecord
100
AcDbLayerTableRecord
  2
06___PRT_ALL_SURFS
 70
0
 62
7
  6
CONTINUOUS
370
-3
390
F
  0
LAYER
  5
1FF
100
AcDbSymbolTableRecord
100
AcDbLayerTableRecord
  2
ALL_FEATURES
 70
0
 62
7
  6
CONTINUOUS
370
-3
390
F
  0
LAYER
  5
200
100
AcDbSymbolTableRecord
100
AcDbLayerTableRecord
  2
AXES_FEATURES
 70
0
 62
7
  6
CONTINUOUS
370
-3
390
F
  0
LAYER
  5
201
100
AcDbSymbolTableRecord
100
AcDbLayerTableRecord
  2
DEFAULT_COORDINATE_SYSTEM
 70
0
 62
7
  6
CONTINUOUS
370
-3
390
F
  0
LAYER
  5
202
100
AcDbSymbolTableRecord
100
AcDbLayerTableRecord
  2
DEFAULT_DATUM_AXES
 70
0
 62
7
  6
CONTINUOUS
370
-3
390
F
  0
LAYER
  5
203
100
AcDbSymbolTableRecord
100
AcDbLayerTableRecord
  2
DEFAULT_DATUM_CURVES
 70
0
 62
7
  6
CONTINUOUS
370
-3
390
F
  0
LAYER
  5
204
100
AcDbSymbolTableRecord
100
AcDbLayerTableRecord
  2
DEFAULT_DATUM_PLANES
 70
0
 62
7
  6
CONTINUOUS
370
-3
390
F
  0
LAYER
  5
205
100
AcDbSymbolTableRecord
100
AcDbLayerTableRecord
  2
DEFAULT_SURFACES
 70
0
 62
7
  6
CONTINUOUS
370
-3
390
F
  0
LAYER
  5
206
100
AcDbSymbolTableRecord
100
AcDbLayerTableRecord
  2
DIMENSIONS
 70
0
 62
7
  6
CONTINUOUS
370
-3
390
F
  0
LAYER
  5
207
100
AcDbSymbolTableRecord
100
AcDbLayerTableRecord
  2
INTF_BLANK
 70
0
 62
7
  6
CONTINUOUS
370
-3
390
F
  0
LAYER
  5
208
100
AcDbSymbolTableRecord
100
AcDbLayerTableRecord
  2
PLATED_SURFACE_AREA
 70
0
 62
7
  6
CONTINUOUS
370
-3
390
F
  0
LAYER
  5
209
100
AcDbSymbolTableRecord
100
AcDbLayerTableRecord
  2
SHELL
 70
0
 62
7
  6
CONTINUOUS
370
-3
390
F
  0
LAYER
  5
20A
100
AcDbSymbolTableRecord
100
AcDbLayerTableRecord
  2
XSEC_DATUMS
 70
0
 62
7
  6
CONTINUOUS
370
-3
390
F
  0
LAYER
  5
20B
100
AcDbSymbolTableRecord
100
AcDbLayerTableRecord
  2
___SHELL
 70
0
 62
7
  6
CONTINUOUS
370
-3
390
F
  0
ENDTAB
  0
TABLE
  2
STYLE
  5
3
100
AcDbSymbolTable
 70
1
  0
STYLE
  5
11
100
AcDbSymbolTableRecord
100
AcDbTextStyleTableRecord
  2
STANDARD
 70
0
 40
0.0
 41
0.8
 50
0.0
 71
0
 42
0.2
  3
txt
  4

  0
STYLE
  5
20C
100
AcDbSymbolTableRecord
100
AcDbTextStyleTableRecord
  2
TEXTSTYLE_1
 70
0
 40
0.0
 41
0.8
 50
0.0
 71
0
 42
0.2
  3
gdt
  4

  0
ENDTAB
  0
TABLE
  2
VIEW
  5
6
100
AcDbSymbolTable
 70
0
  0
ENDTAB
  0
TABLE
  2
UCS
  5
7
100
AcDbSymbolTable
 70
0
  0
ENDTAB
  0
TABLE
  2
APPID
  5
9
100
AcDbSymbolTable
 70
1
  0
APPID
  5
20D
100
AcDbSymbolTableRecord
100
AcDbRegAppTableRecord
  2
ACAD
 70
0
  0
ENDTAB
  0
TABLE
  2
BLOCK_RECORD
  5
1
100
AcDbSymbolTable
 70
0
  0
BLOCK_RECORD
  5
20E
100
AcDbSymbolTableRecord
100
AcDbBlockTableRecord
  2
*Model_Space
  0
BLOCK_RECORD
  5
20F
100
AcDbSymbolTableRecord
100
AcDbBlockTableRecord
  2
*Paper_Space
  0
BLOCK_RECORD
  5
210
100
AcDbSymbolTableRecord
100
AcDbBlockTableRecord
  2
_FILLED
  0
ENDTAB
  0
TABLE
  2
DIMSTYLE
  5
A
100
AcDbSymbolTable
 70
1
100
AcDbDimStyleTable
 71
0
  0
DIMSTYLE
105
211
100
AcDbSymbolTableRecord
100
AcDbDimStyleTableRecord
  2
STANDARD
 70
0
  3

  4

 40
1.0
 41
0.1
 42
0.0625
 43
0.38
 44
0.125
 45
0.0
 46
0.0
 47
0.001
 48
0.001
140
0.08
141
0.09
142
0.0
143
25.4
144
1.0
145
0.0
146
1.0
147
0.09
 71
1.0
 72
0.0
 73
1
 74
1
 75
0
 76
0
 77
0
 78
4
 79
1
170
1
171
2
172
0
173
0
174
0
175
0
176
0
177
0
178
0
270
2
179
3
271
3
272
3
273
2
274
2
275
0
280
0
281
0
282
0
283
1
284
4
285
0
286
0
287
3
288
0
340
11
278
46
341
210
342
210
343
210
344
210
  0
ENDTAB
  0
ENDSEC
  0
SECTION
  2
BLOCKS
  0
BLOCK
  5
20
100
AcDbEntity
  8
0
100
AcDbBlockBegin
  2
*Model_Space
 70
0
 10
0.0
 20
0.0
 30
0.0
  3
*Model_Space
  1

  0
ENDBLK
  5
21
100
AcDbEntity
  8
0
100
AcDbBlockEnd
  0
BLOCK
  5
1C
100
AcDbEntity
  8
0
100
AcDbBlockBegin
  2
*Paper_Space
 70
0
 10
0.0
 20
0.0
 30
0.0
  3
*Paper_Space
  1

  0
ENDBLK
  5
1D
100
AcDbEntity
  8
0
100
AcDbBlockEnd
  0
BLOCK
  5
212
100
AcDbEntity
  8
0
100
AcDbBlockBegin
  2
_FILLED
 70
64
 10
0.0
 20
0.0
  3
_FILLED
  1

  0
SOLID
  5
213
100
AcDbEntity
  8
0
  6
BYBLOCK
 62
0
100
AcDbTrace
 10
0.0
 20
0.0
 11
-1.0
 21
0.2
 12
-1.0
 22
-0.2
 13
-1.0
 23
-0.2
  0
ENDBLK
  5
214
100
AcDbEntity
  8
0
  6
BYBLOCK
 62
0
100
AcDbBlockEnd
  0
ENDSEC
  0
SECTION
  2
ENTITIES
  0
MTEXT
  5
215
100
AcDbEntity
  8
0
100
AcDbMText
 62
2
  6
CONTINUOUS
  7
STANDARD
 71
3
 72
1
 10
5.5756940088
 20
2.4058261543
 30
0.0
 11
1.0
 21
0.0
 31
0.0
 73
2
 44
0.9
  1
SCALE 0.312
 40
0.08
 41
0.704
  0
LINE
  5
216
100
AcDbEntity
  8
0
100
AcDbLine
 62
7
  6
CONTINUOUS
 10
0.0
 20
0.0
 11
0.0
 21
8.5
  0
LINE
  5
217
100
AcDbEntity
  8
0
100
AcDbLine
 62
7
  6
CONTINUOUS
 10
0.0
 20
0.0
 11
11.0
 21
0.0
  0
LINE
  5
218
100
AcDbEntity
  8
0
100
AcDbLine
 62
7
  6
CONTINUOUS
 10
0.0
 20
8.5
 11
11.0
 21
8.5
  0
LINE
  5
219
100
AcDbEntity
  8
0
100
AcDbLine
 62
7
  6
CONTINUOUS
 10
11.0
 20
0.0
 11
11.0
 21
8.5
  0
LINE
  5
21A
100
AcDbEntity
  8
0
100
AcDbLine
 62
7
  6
CONTINUOUS
 10
2.2000465809
 20
4.8255777227
 11
2.2000465809
 21
4.7865777227
  0
LINE
  5
21B
100
AcDbEntity
  8
0
100
AcDbLine
 62
7
  6
CONTINUOUS
 10
2.2021057809
 20
4.9235441011
 11
2.2021057809
 21
4.9192089227
  0
LINE
  5
21C
100
AcDbEntity
  8
0
100
AcDbLine
 62
7
  6
CONTINUOUS
 10
2.2021057809
 20
4.8975545011
 11
2.2021057809
 21
4.8932193227
  0
LINE
  5
21D
100
AcDbEntity
  8
0
100
AcDbLine
 62
7
  6
CONTINUOUS
 10
2.2021057809
 20
4.8715649011
 11
2.2021057809
 21
4.8672297227
  0
LINE
  5
21E
100
AcDbEntity
  8
0
100
AcDbLine
 62
7
  6
CONTINUOUS
 10
2.2021057809
 20
4.8255777227
 11
2.2021057809
 21
4.8411777227
  0
LINE
  5
21F
100
AcDbEntity
  8
0
100
AcDbLine
 62
7
  6
CONTINUOUS
 10
2.2180489809
 20
4.9359937119
 11
2.2180489809
 21
4.9328325701
  0
LINE
  5
220
100
AcDbEntity
  8
0
100
AcDbLine
 62
7
  6
CONTINUOUS
 10
2.2180489809
 20
4.9100041119
 11
2.2180489809
 21
4.9068429701
  0
LINE
  5
221
100
AcDbEntity
  8
0
100
AcDbLine
 62
7
  6
CONTINUOUS
 10
2.2180489809
 20
4.8840145119
 11
2.2180489809
 21
4.8808533701
  0
LINE
  5
222
100
AcDbEntity
  8
0
100
AcDbLine
 62
7
  6
CONTINUOUS
 10
2.2180489809
 20
4.8411777227
 11
2.2180489809
 21
4.8580249119
  0
LINE
  5
223
100
AcDbEntity
  8
0
100
AcDbLine
 62
7
  6
CONTINUOUS
 10
2.5720441809
 20
4.8411777227
 11
2.5720441809
 21
4.8567777227
  0
LINE
  5
224
100
AcDbEntity
  8
0
100
AcDbLine
 62
7
  6
CONTINUOUS
 10
2.5720441809
 20
4.8677749119
 11
2.5720441809
 21
4.8709360537
  0
LINE
  5
225
100
AcDbEntity
  8
0
100
AcDbLine
 62
7
  6
CONTINUOUS
 10
2.5720441809
 20
4.8937645119
 11
2.5720441809
 21
4.8969256537
  0
LINE
  5
226
100
AcDbEntity
  8
0
100
AcDbLine
 62
7
  6
CONTINUOUS
 10
2.5720441809
 20
4.9197541119
 11
2.5720441809
 21
4.9229152537
  0
LINE
  5
227
100
AcDbEntity
  8
0
100
AcDbLine
 62
7
  6
CONTINUOUS
 10
2.5879873809
 20
4.9105493011
 11
2.5879873809
 21
4.9062141227
  0
LINE
  5
228
100
AcDbEntity
  8
0
100
AcDbLine
 62
7
  6
CONTINUOUS
 10
2.5879873809
 20
4.8845597011
 11
2.5879873809
 21
4.8802245227
  0
LINE
  5
229
100
AcDbEntity
  8
0
100
AcDbLine
 62
7
  6
CONTINUOUS
 10
2.5879873809
 20
4.8255777227
 11
2.5879873809
 21
4.8411777227
  0
LINE
  5
22A
100
AcDbEntity
  8
0
100
AcDbLine
 62
7
  6
CONTINUOUS
 10
2.5879873809
 20
4.8567777227
 11
2.5879873809
 21
4.8585701011
  0
LINE
  5
22B
100
AcDbEntity
  8
0
100
AcDbLine
 62
7
  6
CONTINUOUS
 10
2.5879873809
 20
4.9322037227
 11
2.5879873809
 21
4.9365389011
  0
LINE
  5
22C
100
AcDbEntity
  8
0
100
AcDbLine
 62
7
  6
CONTINUOUS
 10
2.5900465809
 20
4.8255777227
 11
2.5900465809
 21
4.7865777227
  0
LINE
  5
22D
100
AcDbEntity
  8
0
100
AcDbLine
 62
7
  6
CONTINUOUS
 10
2.2021057809
 20
4.9235441011
 11
2.2022386603
 21
4.9236976251
  0
LINE
  5
22E
100
AcDbEntity
  8
0
100
AcDbLine
 62
7
  6
CONTINUOUS
 10
2.2022386603
 20
4.8977080251
 11
2.2021057809
 21
4.8975545011
  0
LINE
  5
22F
100
AcDbEntity
  8
0
100
AcDbLine
 62
7
  6
CONTINUOUS
 10
2.2022386603
 20
4.8717184251
 11
2.2021057809
 21
4.8715649011
  0
LINE
  5
230
100
AcDbEntity
  8
0
100
AcDbLine
 62
7
  6
CONTINUOUS
 10
2.9020465809
 20
4.4745777227
 11
2.9020465809
 21
4.0845777227
  0
LINE
  5
231
100
AcDbEntity
  8
0
100
AcDbLine
 62
7
  6
CONTINUOUS
 10
2.5878545015
 20
4.9060605987
 11
2.5879873809
 21
4.9062141227
  0
LINE
  5
232
100
AcDbEntity
  8
0
100
AcDbLine
 62
7
  6
CONTINUOUS
 10
2.5878545015
 20
4.8800709987
 11
2.5879873809
 21
4.8802245227
  0
LINE
  5
233
100
AcDbEntity
  8
0
100
AcDbLine
 62
7
  6
CONTINUOUS
 10
2.2022386603
 20
4.8670761987
 11
2.2021057809
 21
4.8672297227
  0
LINE
  5
234
100
AcDbEntity
  8
0
100
AcDbLine
 62
7
  6
CONTINUOUS
 10
2.2022386603
 20
4.8930657987
 11
2.2021057809
 21
4.8932193227
  0
LINE
  5
235
100
AcDbEntity
  8
0
100
AcDbLine
 62
7
  6
CONTINUOUS
 10
2.2181938014
 20
4.9329162503
 11
2.2180489809
 21
4.9328325701
  0
LINE
  5
236
100
AcDbEntity
  8
0
100
AcDbLine
 62
7
  6
CONTINUOUS
 10
2.2180489809
 20
4.9328325701
 11
2.2022386603
 21
4.9236976251
  0
LINE
  5
237
100
AcDbEntity
  8
0
100
AcDbLine
 62
7
  6
CONTINUOUS
 10
2.2181938014
 20
4.9069266503
 11
2.2180489809
 21
4.9068429701
  0
LINE
  5
238
100
AcDbEntity
  8
0
100
AcDbLine
 62
7
  6
CONTINUOUS
 10
2.2180489809
 20
4.9068429701
 11
2.2022386603
 21
4.8977080251
  0
LINE
  5
239
100
AcDbEntity
  8
0
100
AcDbLine
 62
7
  6
CONTINUOUS
 10
2.2181938014
 20
4.8809370503
 11
2.2180489809
 21
4.8808533701
  0
LINE
  5
23A
100
AcDbEntity
  8
0
100
AcDbLine
 62
7
  6
CONTINUOUS
 10
2.2180489809
 20
4.8808533701
 11
2.2022386603
 21
4.8717184251
  0
LINE
  5
23B
100
AcDbEntity
  8
0
100
AcDbLine
 62
7
  6
CONTINUOUS
 10
2.5718993605
 20
4.9228315735
 11
2.5878545015
 21
4.9320501987
  0
LINE
  5
23C
100
AcDbEntity
  8
0
100
AcDbLine
 62
7
  6
CONTINUOUS
 10
2.5718993605
 20
4.8968419735
 11
2.5878545015
 21
4.9060605987
  0
LINE
  5
23D
100
AcDbEntity
  8
0
100
AcDbLine
 62
7
  6
CONTINUOUS
 10
2.5718993605
 20
4.8708523735
 11
2.5878545015
 21
4.8800709987
  0
LINE
  5
23E
100
AcDbEntity
  8
0
100
AcDbLine
 62
7
  6
CONTINUOUS
 10
2.2022386603
 20
4.9190553987
 11
2.2021112695
 21
4.9191777227
  0
LINE
  5
23F
100
AcDbEntity
  8
0
100
AcDbLine
 62
7
  6
CONTINUOUS
 10
2.5878545015
 20
4.8847132251
 11
2.5879873809
 21
4.8845597011
  0
LINE
  5
240
100
AcDbEntity
  8
0
100
AcDbLine
 62
7
  6
CONTINUOUS
 10
2.5878545015
 20
4.9107028251
 11
2.5879873809
 21
4.9105493011
  0
LINE
  5
241
100
AcDbEntity
  8
0
100
AcDbLine
 62
7
  6
CONTINUOUS
 10
2.2022386603
 20
4.8670761987
 11
2.2180127411
 21
4.8579621938
  0
LINE
  5
242
100
AcDbEntity
  8
0
100
AcDbLine
 62
7
  6
CONTINUOUS
 10
2.2022386603
 20
4.8930657987
 11
2.2180127411
 21
4.8839517938
  0
LINE
  5
243
100
AcDbEntity
  8
0
100
AcDbLine
 62
7
  6
CONTINUOUS
 10
2.2022386603
 20
4.9190553987
 11
2.2180127411
 21
4.9099413938
  0
LINE
  5
244
100
AcDbEntity
  8
0
100
AcDbLine
 62
7
  6
CONTINUOUS
 10
2.2119090902
 20
4.9394577227
 11
2.2180127411
 21
4.9359309938
  0
LINE
  5
245
100
AcDbEntity
  8
0
100
AcDbLine
 62
7
  6
CONTINUOUS
 10
2.5878545015
 20
4.8587236251
 11
2.5720804207
 21
4.86783763
  0
LINE
  5
246
100
AcDbEntity
  8
0
100
AcDbLine
 62
7
  6
CONTINUOUS
 10
2.5878545015
 20
4.8847132251
 11
2.5720804207
 21
4.89382723
  0
LINE
  5
247
100
AcDbEntity
  8
0
100
AcDbLine
 62
7
  6
CONTINUOUS
 10
2.5878545015
 20
4.9107028251
 11
2.5720804207
 21
4.91981683
  0
LINE
  5
248
100
AcDbEntity
  8
0
100
AcDbLine
 62
7
  6
CONTINUOUS
 10
2.5878545015
 20
4.9366924251
 11
2.5830682481
 21
4.9394577227
  0
LINE
  5
249
100
AcDbEntity
  8
0
100
AcDbLine
 62
7
  6
CONTINUOUS
 10
2.9020465809
 20
4.0845777227
 11
7.5040465809
 21
4.0845777227
  0
LINE
  5
24A
100
AcDbEntity
  8
0
100
AcDbLine
 62
7
  6
CONTINUOUS
 10
2.9020465809
 20
4.4745777227
 11
7.5040465809
 21
4.4745777227
  0
LINE
  5
24B
100
AcDbEntity
  8
0
100
AcDbLine
 62
7
  6
CONTINUOUS
 10
2.5900465809
 20
4.7865777227
 11
2.2000465809
 21
4.7865777227
  0
LINE
  5
24C
100
AcDbEntity
  8
0
100
AcDbLine
 62
7
  6
CONTINUOUS
 10
7.8160465809
 20
4.7865777227
 11
8.2060465809
 21
4.7865777227
  0
LINE
  5
24D
100
AcDbEntity
  8
0
100
AcDbLine
 62
7
  6
CONTINUOUS
 10
2.5900465809
 20
4.8255777227
 11
2.2000465809
 21
4.8255777227
  0
LINE
  5
24E
100
AcDbEntity
  8
0
100
AcDbLine
 62
7
  6
CONTINUOUS
 10
7.8160465809
 20
4.8255777227
 11
8.2060465809
 21
4.8255777227
  0
LINE
  5
24F
100
AcDbEntity
  8
0
100
AcDbLine
 62
7
  6
CONTINUOUS
 10
2.2021071891
 20
4.8411777227
 11
2.5879872176
 21
4.8411777227
  0
LINE
  5
250
100
AcDbEntity
  8
0
100
AcDbLine
 62
7
  6
CONTINUOUS
 10
7.8181071891
 20
4.8411777227
 11
8.2039872176
 21
4.8411777227
  0
LINE
  5
251
100
AcDbEntity
  8
0
100
AcDbLine
 62
7
  6
CONTINUOUS
 10
2.2382913988
 20
4.8567777227
 11
2.5879863891
 21
4.8567777227
  0
LINE
  5
252
100
AcDbEntity
  8
0
100
AcDbLine
 62
7
  6
CONTINUOUS
 10
7.8542913988
 20
4.8567777227
 11
8.2039863891
 21
4.8567777227
  0
LINE
  5
253
100
AcDbEntity
  8
0
100
AcDbLine
 62
7
  6
CONTINUOUS
 10
2.2119104327
 20
4.9394577227
 11
2.5830604545
 21
4.9394577227
  0
LINE
  5
254
100
AcDbEntity
  8
0
100
AcDbLine
 62
7
  6
CONTINUOUS
 10
7.8279104327
 20
4.9394577227
 11
8.1990604545
 21
4.9394577227
  0
LINE
  5
255
100
AcDbEntity
  8
0
100
AcDbLine
 62
7
  6
CONTINUOUS
 10
7.8340489809
 20
4.9328325701
 11
7.8182386603
 21
4.9236976251
  0
LINE
  5
256
100
AcDbEntity
  8
0
100
AcDbLine
 62
7
  6
CONTINUOUS
 10
7.8341938014
 20
4.9329162503
 11
7.8340489809
 21
4.9328325701
  0
LINE
  5
257
100
AcDbEntity
  8
0
100
AcDbLine
 62
7
  6
CONTINUOUS
 10
7.8340489809
 20
4.9068429701
 11
7.8182386603
 21
4.8977080251
  0
LINE
  5
258
100
AcDbEntity
  8
0
100
AcDbLine
 62
7
  6
CONTINUOUS
 10
7.8341938014
 20
4.9069266503
 11
7.8340489809
 21
4.9068429701
  0
LINE
  5
259
100
AcDbEntity
  8
0
100
AcDbLine
 62
7
  6
CONTINUOUS
 10
7.8340489809
 20
4.8808533701
 11
7.8182386603
 21
4.8717184251
  0
LINE
  5
25A
100
AcDbEntity
  8
0
100
AcDbLine
 62
7
  6
CONTINUOUS
 10
7.8341938014
 20
4.8809370503
 11
7.8340489809
 21
4.8808533701
  0
LINE
  5
25B
100
AcDbEntity
  8
0
100
AcDbLine
 62
7
  6
CONTINUOUS
 10
8.1880441809
 20
4.9229152537
 11
8.2038545015
 21
4.9320501987
  0
LINE
  5
25C
100
AcDbEntity
  8
0
100
AcDbLine
 62
7
  6
CONTINUOUS
 10
8.1878993605
 20
4.9228315735
 11
8.1880441809
 21
4.9229152537
  0
LINE
  5
25D
100
AcDbEntity
  8
0
100
AcDbLine
 62
7
  6
CONTINUOUS
 10
8.1880441809
 20
4.8969256537
 11
8.2038545015
 21
4.9060605987
  0
LINE
  5
25E
100
AcDbEntity
  8
0
100
AcDbLine
 62
7
  6
CONTINUOUS
 10
8.1878993605
 20
4.8968419735
 11
8.1880441809
 21
4.8969256537
  0
LINE
  5
25F
100
AcDbEntity
  8
0
100
AcDbLine
 62
7
  6
CONTINUOUS
 10
8.1880441809
 20
4.8709360537
 11
8.2038545015
 21
4.8800709987
  0
LINE
  5
260
100
AcDbEntity
  8
0
100
AcDbLine
 62
7
  6
CONTINUOUS
 10
8.1878993605
 20
4.8708523735
 11
8.1880441809
 21
4.8709360537
  0
LINE
  5
261
100
AcDbEntity
  8
0
100
AcDbLine
 62
7
  6
CONTINUOUS
 10
7.8182386603
 20
4.8670761987
 11
7.8340127411
 21
4.8579621938
  0
LINE
  5
262
100
AcDbEntity
  8
0
100
AcDbLine
 62
7
  6
CONTINUOUS
 10
7.8182386603
 20
4.8930657987
 11
7.8340127411
 21
4.8839517938
  0
LINE
  5
263
100
AcDbEntity
  8
0
100
AcDbLine
 62
7
  6
CONTINUOUS
 10
7.8181057809
 20
4.9235441011
 11
7.8182386603
 21
4.9236976251
  0
LINE
  5
264
100
AcDbEntity
  8
0
100
AcDbLine
 62
7
  6
CONTINUOUS
 10
7.8182386603
 20
4.8977080251
 11
7.8181057809
 21
4.8975545011
  0
LINE
  5
265
100
AcDbEntity
  8
0
100
AcDbLine
 62
7
  6
CONTINUOUS
 10
7.8182386603
 20
4.8717184251
 11
7.8181057809
 21
4.8715649011
  0
LINE
  5
266
100
AcDbEntity
  8
0
100
AcDbLine
 62
7
  6
CONTINUOUS
 10
7.8182386603
 20
4.9190553987
 11
7.8340127411
 21
4.9099413938
  0
LINE
  5
267
100
AcDbEntity
  8
0
100
AcDbLine
 62
7
  6
CONTINUOUS
 10
7.8279090902
 20
4.9394577227
 11
7.8340127411
 21
4.9359309938
  0
LINE
  5
268
100
AcDbEntity
  8
0
100
AcDbLine
 62
7
  6
CONTINUOUS
 10
8.2038545015
 20
4.8587236251
 11
8.1880804207
 21
4.86783763
  0
LINE
  5
269
100
AcDbEntity
  8
0
100
AcDbLine
 62
7
  6
CONTINUOUS
 10
8.2038545015
 20
4.8847132251
 11
8.1880804207
 21
4.89382723
  0
LINE
  5
26A
100
AcDbEntity
  8
0
100
AcDbLine
 62
7
  6
CONTINUOUS
 10
8.2038545015
 20
4.9107028251
 11
8.1880804207
 21
4.91981683
  0
LINE
  5
26B
100
AcDbEntity
  8
0
100
AcDbLine
 62
7
  6
CONTINUOUS
 10
8.2038545015
 20
4.9060605987
 11
8.2039873809
 21
4.9062141227
  0
LINE
  5
26C
100
AcDbEntity
  8
0
100
AcDbLine
 62
7
  6
CONTINUOUS
 10
8.2038545015
 20
4.8800709987
 11
8.2039873809
 21
4.8802245227
  0
LINE
  5
26D
100
AcDbEntity
  8
0
100
AcDbLine
 62
7
  6
CONTINUOUS
 10
8.2038545015
 20
4.9366924251
 11
8.1990682481
 21
4.9394577227
  0
LINE
  5
26E
100
AcDbEntity
  8
0
100
AcDbLine
 62
7
  6
CONTINUOUS
 10
7.8182386603
 20
4.9190553987
 11
7.8181112695
 21
4.9191777227
  0
LINE
  5
26F
100
AcDbEntity
  8
0
100
AcDbLine
 62
7
  6
CONTINUOUS
 10
7.8182386603
 20
4.8670761987
 11
7.8181057809
 21
4.8672297227
  0
LINE
  5
270
100
AcDbEntity
  8
0
100
AcDbLine
 62
7
  6
CONTINUOUS
 10
7.8182386603
 20
4.8930657987
 11
7.8181057809
 21
4.8932193227
  0
LINE
  5
271
100
AcDbEntity
  8
0
100
AcDbLine
 62
7
  6
CONTINUOUS
 10
7.5040465809
 20
4.4745777227
 11
7.5040465809
 21
4.0845777227
  0
LINE
  5
272
100
AcDbEntity
  8
0
100
AcDbLine
 62
7
  6
CONTINUOUS
 10
7.8160465809
 20
4.7865777227
 11
7.8160465809
 21
4.8255777227
  0
LINE
  5
273
100
AcDbEntity
  8
0
100
AcDbLine
 62
7
  6
CONTINUOUS
 10
7.8181057809
 20
4.9235441011
 11
7.8181057809
 21
4.9192089227
  0
LINE
  5
274
100
AcDbEntity
  8
0
100
AcDbLine
 62
7
  6
CONTINUOUS
 10
7.8181057809
 20
4.8975545011
 11
7.8181057809
 21
4.8932193227
  0
LINE
  5
275
100
AcDbEntity
  8
0
100
AcDbLine
 62
7
  6
CONTINUOUS
 10
7.8181057809
 20
4.8715649011
 11
7.8181057809
 21
4.8672297227
  0
LINE
  5
276
100
AcDbEntity
  8
0
100
AcDbLine
 62
7
  6
CONTINUOUS
 10
7.8181057809
 20
4.8255777227
 11
7.8181057809
 21
4.8411777227
  0
LINE
  5
277
100
AcDbEntity
  8
0
100
AcDbLine
 62
7
  6
CONTINUOUS
 10
7.8340489809
 20
4.9359937119
 11
7.8340489809
 21
4.9328325701
  0
LINE
  5
278
100
AcDbEntity
  8
0
100
AcDbLine
 62
7
  6
CONTINUOUS
 10
7.8340489809
 20
4.9100041119
 11
7.8340489809
 21
4.9068429701
  0
LINE
  5
279
100
AcDbEntity
  8
0
100
AcDbLine
 62
7
  6
CONTINUOUS
 10
7.8340489809
 20
4.8840145119
 11
7.8340489809
 21
4.8808533701
  0
LINE
  5
27A
100
AcDbEntity
  8
0
100
AcDbLine
 62
7
  6
CONTINUOUS
 10
7.8340489809
 20
4.8411777227
 11
7.8340489809
 21
4.8580249119
  0
LINE
  5
27B
100
AcDbEntity
  8
0
100
AcDbLine
 62
7
  6
CONTINUOUS
 10
8.2038545015
 20
4.8847132251
 11
8.2039873809
 21
4.8845597011
  0
LINE
  5
27C
100
AcDbEntity
  8
0
100
AcDbLine
 62
7
  6
CONTINUOUS
 10
8.2038545015
 20
4.9107028251
 11
8.2039873809
 21
4.9105493011
  0
LINE
  5
27D
100
AcDbEntity
  8
0
100
AcDbLine
 62
7
  6
CONTINUOUS
 10
8.1880441809
 20
4.8411777227
 11
8.1880441809
 21
4.8567777227
  0
LINE
  5
27E
100
AcDbEntity
  8
0
100
AcDbLine
 62
7
  6
CONTINUOUS
 10
8.1880441809
 20
4.8677749119
 11
8.1880441809
 21
4.8709360537
  0
LINE
  5
27F
100
AcDbEntity
  8
0
100
AcDbLine
 62
7
  6
CONTINUOUS
 10
8.1880441809
 20
4.8937645119
 11
8.1880441809
 21
4.8969256537
  0
LINE
  5
280
100
AcDbEntity
  8
0
100
AcDbLine
 62
7
  6
CONTINUOUS
 10
8.1880441809
 20
4.9197541119
 11
8.1880441809
 21
4.9229152537
  0
LINE
  5
281
100
AcDbEntity
  8
0
100
AcDbLine
 62
7
  6
CONTINUOUS
 10
8.2039873809
 20
4.9105493011
 11
8.2039873809
 21
4.9062141227
  0
LINE
  5
282
100
AcDbEntity
  8
0
100
AcDbLine
 62
7
  6
CONTINUOUS
 10
8.2039873809
 20
4.8845597011
 11
8.2039873809
 21
4.8802245227
  0
LINE
  5
283
100
AcDbEntity
  8
0
100
AcDbLine
 62
7
  6
CONTINUOUS
 10
8.2039873809
 20
4.8255777227
 11
8.2039873809
 21
4.8411777227
  0
LINE
  5
284
100
AcDbEntity
  8
0
100
AcDbLine
 62
7
  6
CONTINUOUS
 10
8.2039873809
 20
4.8567777227
 11
8.2039873809
 21
4.8585701011
  0
LINE
  5
285
100
AcDbEntity
  8
0
100
AcDbLine
 62
7
  6
CONTINUOUS
 10
8.2039873809
 20
4.9322037227
 11
8.2039873809
 21
4.9365389011
  0
LINE
  5
286
100
AcDbEntity
  8
0
100
AcDbLine
 62
7
  6
CONTINUOUS
 10
8.2060465809
 20
4.7865777227
 11
8.2060465809
 21
4.8255777227
  0
ARC
  5
287
100
AcDbEntity
  8
0
100
AcDbCircle
 62
7
  6
CONTINUOUS
 10
2.3931822815
 20
1.2210431513
 40
3.7202425927
100
AcDbArc
 50
91.7962236767
 51
92.052256384
  0
ARC
  5
288
100
AcDbEntity
  8
0
100
AcDbCircle
 62
7
  6
CONTINUOUS
 10
8.0091822815
 20
1.2210431515
 40
3.7202425926
100
AcDbArc
 50
91.7962236767
 51
92.052256384
  0
ARC
  5
289
100
AcDbEntity
  8
0
100
AcDbCircle
 62
7
  6
CONTINUOUS
 10
2.9020465809
 20
4.7865777227
 40
0.702
100
AcDbArc
 50
180.0
 51
270.0
  0
ARC
  5
28A
100
AcDbEntity
  8
0
100
AcDbCircle
 62
7
  6
CONTINUOUS
 10
7.5040465809
 20
4.7865777227
 40
0.702
100
AcDbArc
 50
270.0
 51
360.0
  0
ARC
  5
28B
100
AcDbEntity
  8
0
100
AcDbCircle
 62
7
  6
CONTINUOUS
 10
8.1512663575
 20
5.5403610009
 40
0.6844730235
100
AcDbArc
 50
272.9217252482
 51
273.0834870417
  0
ARC
  5
28C
100
AcDbEntity
  8
0
100
AcDbCircle
 62
7
  6
CONTINUOUS
 10
2.5352663575
 20
5.5403610006
 40
0.6844730232
100
AcDbArc
 50
272.9217252482
 51
273.0834870418
  0
ARC
  5
28D
100
AcDbEntity
  8
0
100
AcDbCircle
 62
7
  6
CONTINUOUS
 10
2.9020465809
 20
4.7865777227
 40
0.312
100
AcDbArc
 50
180.0
 51
270.0
  0
ARC
  5
28E
100
AcDbEntity
  8
0
100
AcDbCircle
 62
7
  6
CONTINUOUS
 10
7.5040465809
 20
4.7865777227
 40
0.312
100
AcDbArc
 50
270.0
 51
360.0
  0
LINE
  5
28F
100
AcDbEntity
  8
0
100
AcDbLine
 62
7
  6
CONTINUOUS
 10
8.2039873578
 20
4.9322037228
 11
8.2038544462
 21
4.9320501985
  0
LINE
  5
290
100
AcDbEntity
  8
0
100
AcDbLine
 62
7
  6
CONTINUOUS
 10
8.2039873429
 20
4.9365389009
 11
8.2038544603
 21
4.9366924253
  0
LINE
  5
291
100
AcDbEntity
  8
0
100
AcDbLine
 62
7
  6
CONTINUOUS
 10
8.2039873521
 20
4.8585701013
 11
8.2038543602
 21
4.8587236254
  0
SPLINE
  5
292
100
AcDbEntity
  8
0
100
AcDbSpline
 62
7
  6
CONTINUOUS
 70
0
 71
3
 72
47
 73
43
 74
0
 42
0.0000001
 43
0.0000001
 44
0.0000000001
 40
0.0
 40
0.0
 40
0.0
 40
0.0
 40
0.0001317365
 40
0.0002863296
 40
0.0004786019
 40
0.0007164061
 40
0.0010038662
 40
0.0013432828
 40
0.0021827902
 40
0.0032412957
 40
0.0045215343
 40
0.0060248653
 40
0.0077516116
 40
0.0097015037
 40
0.0118740572
 40
0.0168845437
 40
0.0227772436
 40
0.0295431967
 40
0.0371704915
 40
0.0456468621
 40
0.0549588751
 40
0.0650897863
 40
0.0877382315
 40
0.1134381698
 40
0.1420130488
 40
0.17326569
 40
0.2069821217
 40
0.242928881
 40
0.2808591874
 40
0.3205112089
 40
0.3616115598
 40
0.4038773023
 40
0.4907322572
 40
0.5786849104
 40
0.6653136737
 40
0.7482334353
 40
0.8251615109
 40
0.8939814937
 40
0.9247478957
 40
0.9527982438
 40
0.9779441026
 40
1.0
 40
1.0
 40
1.0
 40
1.0
 10
8.18804417
 20
4.8677749118
 30
0.0
 10
8.1880441622
 20
4.8677602411
 30
0.0
 10
8.1880362995
 20
4.8677281638
 30
0.0
 10
8.188004735
 20
4.8676842558
 30
0.0
 10
8.1879551479
 20
4.8676415103
 30
0.0
 10
8.1878872078
 20
4.8675990625
 30
0.0
 10
8.1878006615
 20
4.8675565896
 30
0.0
 10
8.1876491145
 20
4.8674954773
 30
0.0
 10
8.1874107918
 20
4.8674216106
 30
0.0
 10
8.187066946
 20
4.8673373035
 30
0.0
 10
8.1866474377
 20
4.8672526211
 30
0.0
 10
8.1861523511
 20
4.8671676135
 30
0.0
 10
8.1855817784
 20
4.8670824133
 30
0.0
 10
8.1849359824
 20
4.8669970529
 30
0.0
 10
8.1839259487
 20
4.8668773339
 30
0.0
 10
8.1824771369
 20
4.8667302369
 30
0.0
 10
8.1805167352
 20
4.8665603492
 30
0.0
 10
8.1782640002
 20
4.8663900663
 30
0.0
 10
8.1757228482
 20
4.8662194275
 30
0.0
 10
8.1728976007
 20
4.866048571
 30
0.0
 10
8.1697930902
 20
4.8658775591
 30
0.0
 10
8.1651116144
 20
4.8656404549
 30
0.0
 10
8.158605652
 20
4.8653478606
 30
0.0
 10
8.1500459053
 20
4.8650075621
 30
0.0
 10
8.1405273056
 20
4.8646666883
 30
0.0
 10
8.1301154573
 20
4.8643253363
 30
0.0
 10
8.1188822506
 20
4.8639836874
 30
0.0
 10
8.1069050799
 20
4.8636417824
 30
0.0
 10
8.0942666492
 20
4.8632997111
 30
0.0
 10
8.0810540975
 20
4.8629575037
 30
0.0
 10
8.0673585817
 20
4.8626151908
 30
0.0
 10
8.0484076788
 20
4.8621545156
 30
0.0
 10
8.0242402314
 20
4.8615847454
 30
0.0
 10
7.9951335206
 20
4.8609068091
 30
0.0
 10
7.966465161
 20
4.8602291544
 30
0.0
 10
7.9390248696
 20
4.8595523955
 30
0.0
 10
7.9135684409
 20
4.8588770928
 30
0.0
 10
7.8939195721
 20
4.8582973352
 30
0.0
 10
7.8797132824
 20
4.8578244838
 30
0.0
 10
7.8703690597
 20
4.8574836773
 30
0.0
 10
7.8619955643
 20
4.8571435067
 30
0.0
 10
7.8567445279
 20
4.8569011742
 30
0.0
 10
7.8542913988
 20
4.8567777227
 30
0.0
  0
SPLINE
  5
293
100
AcDbEntity
  8
0
100
AcDbSpline
 62
7
  6
CONTINUOUS
 70
0
 71
3
 72
66
 73
62
 74
0
 42
0.0000001
 43
0.0000001
 44
0.0000000001
 40
0.0
 40
0.0
 40
0.0
 40
0.0
 40
0.0001460612
 40
0.0003251189
 40
0.0005565203
 40
0.0008494324
 40
0.0012082874
 40
0.0016353988
 40
0.0021320835
 40
0.0026991356
 40
0.0040460651
 40
0.0056785013
 40
0.0075972681
 40
0.0098025376
 40
0.0122936758
 40
0.0150693716
 40
0.0181281659
 40
0.0214685164
 40
0.028987378
 40
0.0376099523
 40
0.0473154513
 40
0.0580824104
 40
0.0698861954
 40
0.0826982797
 40
0.0964897011
 40
0.1112283042
 40
0.1434052624
 40
0.1789288034
 40
0.2174662925
 40
0.258655905
 40
0.3021119552
 40
0.3474271788
 40
0.3941761593
 40
0.4419207296
 40
0.4902131655
 40
0.538600334
 40
0.5866286338
 40
0.6338474133
 40
0.6798138295
 40
0.7240971637
 40
0.7662817397
 40
0.8059720548
 40
0.8427966987
 40
0.8764101249
 40
0.9064973976
 40
0.9201301162
 40
0.9327781501
 40
0.9444125355
 40
0.9550068618
 40
0.9645353815
 40
0.9729770013
 40
0.9803131324
 40
0.986526364
 40
0.991604986
 40
0.9937162608
 40
0.9955411204
 40
0.9970793781
 40
0.9983322823
 40
0.9993030472
 40
0.9996849143
 40
1.0
 40
1.0
 40
1.0
 40
1.0
 10
8.1880440571
 20
4.9197541121
 30
0.0
 10
8.1880440723
 20
4.9197368619
 30
0.0
 10
8.1880328035
 20
4.9196983
 30
0.0
 10
8.18798952
 20
4.9196474853
 30
0.0
 10
8.1879223462
 20
4.9195979707
 30
0.0
 10
8.1878301478
 20
4.9195486878
 30
0.0
 10
8.1877125776
 20
4.9194992755
 30
0.0
 10
8.1875693411
 20
4.9194497345
 30
0.0
 10
8.1874003686
 20
4.9194000693
 30
0.0
 10
8.1871244648
 20
4.919329636
 30
0.0
 10
8.1867143772
 20
4.9192436345
 30
0.0
 10
8.1861443303
 20
4.9191448382
 30
0.0
 10
8.1854716805
 20
4.9190457213
 30
0.0
 10
8.184696725
 20
4.9189463449
 30
0.0
 10
8.1838198572
 20
4.9188468056
 30
0.0
 10
8.1828416267
 20
4.9187471352
 30
0.0
 10
8.1817626444
 20
4.9186473639
 30
0.0
 10
8.1801247376
 20
4.9185087065
 30
0.0
 10
8.1778302069
 20
4.9183375716
 30
0.0
 10
8.1747840581
 20
4.9181389384
 30
0.0
 10
8.1713536032
 20
4.9179399372
 30
0.0
 10
8.1675468922
 20
4.9177406746
 30
0.0
 10
8.1633728396
 20
4.917541235
 30
0.0
 10
8.1588412254
 20
4.9173416283
 30
0.0
 10
8.1539626959
 20
4.9171419138
 30
0.0
 10
8.1467982954
 20
4.9168674199
 30
0.0
 10
8.1370679289
 20
4.9165276574
 30
0.0
 10
8.1245272319
 20
4.916130221
 30
0.0
 10
8.110921642
 20
4.9157323148
 30
0.0
 10
8.0963788426
 20
4.9153340314
 30
0.0
 10
8.0810352997
 20
4.9149354956
 30
0.0
 10
8.065034975
 20
4.9145367787
 30
0.0
 10
8.048528017
 20
4.9141379303
 30
0.0
 10
8.0316693447
 20
4.9137390016
 30
0.0
 10
8.0146171459
 20
4.9133400313
 30
0.0
 10
7.997531429
 20
4.9129410512
 30
0.0
 10
7.9805725477
 20
4.9125421014
 30
0.0
 10
7.9638996418
 20
4.9121432156
 30
0.0
 10
7.9476691525
 20
4.9117444349
 30
0.0
 10
7.9320333962
 20
4.9113458168
 30
0.0
 10
7.9171391083
 20
4.9109474222
 30
0.0
 10
7.9031260341
 20
4.9105493314
 30
0.0
 10
7.8901256548
 20
4.9101517006
 30
0.0
 10
7.8782599767
 20
4.9097546503
 30
0.0
 10
7.869133008
 20
4.9094143163
 30
0.0
 10
7.8624814892
 20
4.9091389247
 30
0.0
 10
7.8580080551
 20
4.9089393383
 30
0.0
 10
7.8538938404
 20
4.9087399088
 30
0.0
 10
7.8501485072
 20
4.9085407015
 30
0.0
 10
7.8467808169
 20
4.9083417504
 30
0.0
 10
7.8437986533
 20
4.908143171
 30
0.0
 10
7.8412089488
 20
4.9079452724
 30
0.0
 10
7.8390177228
 20
4.9077481017
 30
0.0
 10
7.837443937
 20
4.9075762971
 30
0.0
 10
7.8363886202
 20
4.907435053
 30
0.0
 10
7.8357496644
 20
4.9073360042
 30
0.0
 10
7.8352133486
 20
4.9072374387
 30
0.0
 10
7.8347799299
 20
4.907139385
 30
0.0
 10
7.834483982
 20
4.9070532987
 30
0.0
 10
7.8343004471
 20
4.9069815094
 30
0.0
 10
7.8342263457
 20
4.9069452541
 30
0.0
 10
7.8341941175
 20
4.9069266501
 30
0.0
  0
LINE
  5
294
100
AcDbEntity
  8
0
100
AcDbLine
 62
7
  6
CONTINUOUS
 10
7.8759567766
 20
4.9388995113
 11
7.8754075151
 21
4.9388795892
  0
SPLINE
  5
295
100
AcDbEntity
  8
0
100
AcDbSpline
 62
7
  6
CONTINUOUS
 70
0
 71
3
 72
31
 73
27
 74
0
 42
0.0000001
 43
0.0000001
 44
0.0000000001
 40
0.0
 40
0.0
 40
0.0
 40
0.0
 40
0.2259679139
 40
0.3291057677
 40
0.4254233419
 40
0.5147454222
 40
0.5969044547
 40
0.6717351098
 40
0.7390990862
 40
0.7988799989
 40
0.8509642514
 40
0.8952599535
 40
0.9144679049
 40
0.9317069067
 40
0.9469715404
 40
0.960258143
 40
0.9715683049
 40
0.9809123379
 40
0.9848536522
 40
0.9883132096
 40
0.9912980087
 40
0.9938192318
 40
0.9958958402
 40
0.997562388
 40
0.9988863781
 40
1.0
 40
1.0
 40
1.0
 40
1.0
 10
7.8754075151
 20
4.9388795892
 30
0.0
 10
7.8722775712
 20
4.9387657373
 30
0.0
 10
7.8677193123
 20
4.9385919786
 30
0.0
 10
7.8618279427
 20
4.9383446379
 30
0.0
 10
7.8578293912
 20
4.9381648967
 30
0.0
 10
7.8541219252
 20
4.9379852579
 30
0.0
 10
7.8507126466
 20
4.9378057624
 30
0.0
 10
7.8476081654
 20
4.93762643
 30
0.0
 10
7.84481441
 20
4.9374473161
 30
0.0
 10
7.8423366176
 20
4.9372685771
 30
0.0
 10
7.8401794745
 20
4.9370902657
 30
0.0
 10
7.8385847384
 20
4.9369358752
 30
0.0
 10
7.8374726637
 20
4.936810214
 30
0.0
 10
7.8367615153
 20
4.9367206185
 30
0.0
 10
7.8361331432
 20
4.9366311843
 30
0.0
 10
7.835587836
 20
4.936541982
 30
0.0
 10
7.8351258206
 20
4.9364530467
 30
0.0
 10
7.8347936522
 20
4.936375634
 30
0.0
 10
7.8345703298
 20
4.936312273
 30
0.0
 10
7.8344334529
 20
4.9362675544
 30
0.0
 10
7.8343173969
 20
4.9362229289
 30
0.0
 10
7.8342220781
 20
4.9361783895
 30
0.0
 10
7.8341472696
 20
4.9361338961
 30
0.0
 10
7.8340926807
 20
4.9360891259
 30
0.0
 10
7.8340577869
 20
4.9360431254
 30
0.0
 10
7.8340489821
 20
4.9360091472
 30
0.0
 10
7.8340489811
 20
4.9359937119
 30
0.0
  0
SPLINE
  5
296
100
AcDbEntity
  8
0
100
AcDbSpline
 62
7
  6
CONTINUOUS
 70
0
 71
3
 72
32
 73
28
 74
0
 42
0.0000001
 43
0.0000001
 44
0.0000000001
 40
0.0
 40
0.0
 40
0.0
 40
0.0
 40
0.1875654674
 40
0.2797630368
 40
0.3697111446
 40
0.4565271011
 40
0.5393628439
 40
0.6174117603
 40
0.6899116365
 40
0.756157146
 40
0.8155030527
 40
0.8424043038
 40
0.8673704973
 40
0.8903407552
 40
0.9112577114
 40
0.9300734808
 40
0.9467420798
 40
0.9612229421
 40
0.9734854513
 40
0.9835016217
 40
0.9876611128
 40
0.9912537216
 40
0.994279689
 40
0.9967408097
 40
0.9986422824
 40
0.9993874129
 40
1.0
 40
1.0
 40
1.0
 40
1.0
 10
8.0200890232
 20
4.9394577227
 30
0.0
 10
8.0084579075
 20
4.9391855521
 30
0.0
 10
7.9911094824
 20
4.9387816823
 30
0.0
 10
7.9681835484
 20
4.9382362276
 30
0.0
 10
7.9515053678
 20
4.9378295623
 30
0.0
 10
7.9354080558
 20
4.9374230448
 30
0.0
 10
7.9200490645
 20
4.9370167559
 30
0.0
 10
7.9055783883
 20
4.9366107827
 30
0.0
 10
7.8921371861
 20
4.9362052631
 30
0.0
 10
7.8798566471
 20
4.9358003333
 30
0.0
 10
7.8704041715
 20
4.9354533303
 30
0.0
 10
7.8635115466
 20
4.9351724838
 30
0.0
 10
7.8588739741
 20
4.9349689292
 30
0.0
 10
7.8546079717
 20
4.9347655539
 30
0.0
 10
7.8507239298
 20
4.9345623538
 30
0.0
 10
7.8472313347
 20
4.9343594651
 30
0.0
 10
7.8441386836
 20
4.9341569725
 30
0.0
 10
7.8414534423
 20
4.9339550964
 30
0.0
 10
7.8391821394
 20
4.9337540332
 30
0.0
 10
7.8375514253
 20
4.9335788236
 30
0.0
 10
7.8364586951
 20
4.9334347156
 30
0.0
 10
7.8357977808
 20
4.9333337054
 30
0.0
 10
7.8352434801
 20
4.9332332342
 30
0.0
 10
7.8347961309
 20
4.9331333128
 30
0.0
 10
7.8344911648
 20
4.933045574
 30
0.0
 10
7.8343026268
 20
4.932972292
 30
0.0
 10
7.8342267681
 20
4.9329352685
 30
0.0
 10
7.8341938726
 20
4.9329162501
 30
0.0
  0
SPLINE
  5
297
100
AcDbEntity
  8
0
100
AcDbSpline
 62
7
  6
CONTINUOUS
 70
0
 71
3
 72
66
 73
62
 74
0
 42
0.0000001
 43
0.0000001
 44
0.0000000001
 40
0.0
 40
0.0
 40
0.0
 40
0.0
 40
0.0001349163
 40
0.0003052812
 40
0.0005303023
 40
0.0008184113
 40
0.0011735369
 40
0.0015977189
 40
0.0020921159
 40
0.0026574317
 40
0.0040023822
 40
0.0056347137
 40
0.0075549035
 40
0.0097623838
 40
0.0122562609
 40
0.0150354697
 40
0.0214450037
 40
0.0289777388
 40
0.0376157502
 40
0.0473402998
 40
0.0581287037
 40
0.0699552128
 40
0.0827933763
 40
0.0966125169
 40
0.1113800038
 40
0.1436214678
 40
0.1792143781
 40
0.2178241563
 40
0.2590884103
 40
0.3026193873
 40
0.3480082035
 40
0.3948287021
 40
0.4426405389
 40
0.4909936465
 40
0.5394339881
 40
0.5875068493
 40
0.6347598991
 40
0.6807488696
 40
0.7250410914
 40
0.7672197903
 40
0.8068896753
 40
0.8436785667
 40
0.8772400331
 40
0.9072590981
 40
0.9208512697
 40
0.9334548183
 40
0.9450404135
 40
0.9555818484
 40
0.9650535524
 40
0.9734343029
 40
0.9807054376
 40
0.9868495503
 40
0.9894951841
 40
0.991854969
 40
0.9939278954
 40
0.995713172
 40
0.9972106048
 40
0.9984213765
 40
0.9993484512
 40
0.9997078179
 40
1.0
 40
1.0
 40
1.0
 40
1.0
 10
8.2039873809
 20
4.9105493011
 30
0.0
 10
8.2039873809
 20
4.910531934
 30
0.0
 10
8.2039745173
 20
4.9104925918
 30
0.0
 10
8.2039269615
 20
4.9104421566
 30
0.0
 10
8.2038537096
 20
4.9103927972
 30
0.0
 10
8.2037530875
 20
4.9103435965
 30
0.0
 10
8.2036247692
 20
4.9102941794
 30
0.0
 10
8.2034684056
 20
4.9102446101
 30
0.0
 10
8.2032839285
 20
4.910194897
 30
0.0
 10
8.202982491
 20
4.9101243429
 30
0.0
 10
8.2025345163
 20
4.910038224
 30
0.0
 10
8.2019118344
 20
4.9099393279
 30
0.0
 10
8.2011769883
 20
4.9098401246
 30
0.0
 10
8.2003304231
 20
4.9097406489
 30
0.0
 10
8.1993726326
 20
4.9096409962
 30
0.0
 10
8.1978752725
 20
4.9095012236
 30
0.0
 10
8.1957295675
 20
4.9093295495
 30
0.0
 10
8.1928296506
 20
4.9091312288
 30
0.0
 10
8.1895021749
 20
4.9089323875
 30
0.0
 10
8.1857549815
 20
4.9087331786
 30
0.0
 10
8.1815968426
 20
4.9085337175
 30
0.0
 10
8.1770374966
 20
4.9083340406
 30
0.0
 10
8.1720876815
 20
4.9081342403
 30
0.0
 10
8.1667590086
 20
4.9079343107
 30
0.0
 10
8.1589337158
 20
4.907659503
 30
0.0
 10
8.1483061873
 20
4.9073193944
 30
0.0
 10
8.1346099031
 20
4.9069215247
 30
0.0
 10
8.1197517222
 20
4.9065231842
 30
0.0
 10
8.1038713816
 20
4.9061244812
 30
0.0
 10
8.0871181552
 20
4.9057255238
 30
0.0
 10
8.0696495113
 20
4.9053263782
 30
0.0
 10
8.051629677
 20
4.9049271051
 30
0.0
 10
8.0332281743
 20
4.9045277516
 30
0.0
 10
8.0146181096
 20
4.9041283544
 30
0.0
 10
7.9959744369
 20
4.9037289511
 30
0.0
 10
7.9774724014
 20
4.9033295745
 30
0.0
 10
7.9592859921
 20
4.9029302593
 30
0.0
 10
7.9415863638
 20
4.9025310548
 30
0.0
 10
7.9245400999
 20
4.9021320148
 30
0.0
 10
7.9083074881
 20
4.9017332022
 30
0.0
 10
7.8930410434
 20
4.9013347025
 30
0.0
 10
7.8788842427
 20
4.9009366663
 30
0.0
 10
7.8659702624
 20
4.9005392094
 30
0.0
 10
7.8560419983
 20
4.9001984845
 30
0.0
 10
7.8488109841
 20
4.8999227337
 30
0.0
 10
7.8439516719
 20
4.8997229478
 30
0.0
 10
7.8394854178
 20
4.8995233154
 30
0.0
 10
7.8354227374
 20
4.8993239142
 30
0.0
 10
7.831773135
 20
4.899124765
 30
0.0
 10
7.8285451694
 20
4.8989260407
 30
0.0
 10
7.8257464382
 20
4.8987278847
 30
0.0
 10
7.8236860476
 20
4.8985561162
 30
0.0
 10
7.8222576444
 20
4.8984160684
 30
0.0
 10
7.8213519165
 20
4.8983164829
 30
0.0
 10
7.8205576517
 20
4.8982171234
 30
0.0
 10
7.8198753598
 20
4.8981180384
 30
0.0
 10
7.8193052519
 20
4.8980194778
 30
0.0
 10
7.8188476104
 20
4.8979214819
 30
0.0
 10
7.8185373412
 20
4.8978354031
 30
0.0
 10
7.8183472321
 20
4.8977632883
 30
0.0
 10
7.8182714639
 20
4.8977268245
 30
0.0
 10
7.8182388881
 20
4.8977080251
 30
0.0
  0
SPLINE
  5
298
100
AcDbEntity
  8
0
100
AcDbSpline
 62
7
  6
CONTINUOUS
 70
0
 71
3
 72
25
 73
21
 74
0
 42
0.0000001
 43
0.0000001
 44
0.0000000001
 40
0.0
 40
0.0
 40
0.0
 40
0.0
 40
0.2295720969
 40
0.4299571696
 40
0.6005116875
 40
0.6744706663
 40
0.7408369478
 40
0.7995785152
 40
0.8506675019
 40
0.8733369775
 40
0.8940902267
 40
0.9129294835
 40
0.9298585586
 40
0.9580109728
 40
0.9692641291
 40
0.9786667994
 40
0.9862682252
 40
0.9921653296
 40
0.9965723208
 40
1.0
 40
1.0
 40
1.0
 40
1.0
 10
8.1880848644
 20
4.8568789474
 30
0.0
 10
8.1893139908
 20
4.8569452361
 30
0.0
 10
8.1916156289
 20
4.857076101
 30
0.0
 10
8.1948286845
 20
4.8572850409
 30
0.0
 10
8.1972073458
 20
4.8574659263
 30
0.0
 10
8.1988677149
 20
4.8576131891
 30
0.0
 10
8.1999299133
 20
4.8577181725
 30
0.0
 10
8.2008688378
 20
4.8578229683
 30
0.0
 10
8.2015735577
 20
4.8579132957
 30
0.0
 10
8.2020750126
 20
4.8579864553
 30
0.0
 10
8.2024046798
 20
4.858039092
 30
0.0
 10
8.2027031705
 20
4.8580916458
 30
0.0
 10
8.2030394298
 20
4.8581578584
 30
0.0
 10
8.2033340002
 20
4.8582258561
 30
0.0
 10
8.2035847382
 20
4.8583011772
 30
0.0
 10
8.2037271352
 20
4.8583532198
 30
0.0
 10
8.2038387686
 20
4.8584049723
 30
0.0
 10
8.203919942
 20
4.8584568758
 30
0.0
 10
8.2039727959
 20
4.8585097463
 30
0.0
 10
8.2039873658
 20
4.8585517229
 30
0.0
 10
8.2039873521
 20
4.8585701013
 30
0.0
  0
SPLINE
  5
299
100
AcDbEntity
  8
0
100
AcDbSpline
 62
7
  6
CONTINUOUS
 70
0
 71
3
 72
25
 73
21
 74
0
 42
0.0000001
 43
0.0000001
 44
0.0000000001
 40
0.0
 40
0.0
 40
0.0
 40
0.0
 40
0.2288375471
 40
0.4290612308
 40
0.59981555
 40
0.740536516
 40
0.7994910359
 40
0.8507863489
 40
0.8943953275
 40
0.9303021651
 40
0.9453701021
 40
0.9585230361
 40
0.9697753746
 40
0.9791513821
 40
0.9866948102
 40
0.9924928244
 40
0.9947966856
 40
0.9967586123
 40
0.9984544635
 40
1.0
 40
1.0
 40
1.0
 40
1.0
 10
7.8542913988
 20
4.8567777227
 30
0.0
 10
7.8527337247
 20
4.8566993341
 30
0.0
 10
7.8498135305
 20
4.8565445463
 30
0.0
 10
7.8457328693
 20
4.8562979157
 30
0.0
 10
7.8422539927
 20
4.8560521047
 30
0.0
 10
7.839738222
 20
4.8558382463
 30
0.0
 10
7.8380367163
 20
4.8556626752
 30
0.0
 10
7.836995321
 20
4.8555392261
 30
0.0
 10
7.8361122411
 20
4.8554162139
 30
0.0
 10
7.8354763877
 20
4.855309111
 30
0.0
 10
7.8350481935
 20
4.8552212848
 30
0.0
 10
7.8347863093
 20
4.8551594463
 30
0.0
 10
7.8345644153
 20
4.8550977975
 30
0.0
 10
7.834382304
 20
4.8550364071
 30
0.0
 10
7.8342399001
 20
4.8549753197
 30
0.0
 10
7.8341472499
 20
4.8549211798
 30
0.0
 10
7.8340951571
 20
4.8548762342
 30
0.0
 10
7.8340689828
 20
4.8548448313
 30
0.0
 10
7.8340527632
 20
4.8548128604
 30
0.0
 10
7.8340489809
 20
4.8547906455
 30
0.0
 10
7.8340489809
 20
4.8547801119
 30
0.0
  0
SPLINE
  5
29A
100
AcDbEntity
  8
0
100
AcDbSpline
 62
7
  6
CONTINUOUS
 70
0
 71
3
 72
66
 73
62
 74
0
 42
0.0000001
 43
0.0000001
 44
0.0000000001
 40
0.0
 40
0.0
 40
0.0
 40
0.0
 40
0.0001349164
 40
0.000305282
 40
0.0005303048
 40
0.0008184162
 40
0.0011735453
 40
0.0015977316
 40
0.0020921339
 40
0.002657456
 40
0.0040024224
 40
0.0056347757
 40
0.0075550034
 40
0.0097625308
 40
0.0122564529
 40
0.0150356939
 40
0.0214452226
 40
0.0289779385
 40
0.0376159293
 40
0.0473404538
 40
0.0581288657
 40
0.069955397
 40
0.0827935911
 40
0.0966127846
 40
0.1113803164
 40
0.1436218849
 40
0.1792149039
 40
0.2178247842
 40
0.2590891606
 40
0.3026204778
 40
0.3480093769
 40
0.3948294775
 40
0.4426409704
 40
0.4909939943
 40
0.5394344178
 40
0.5875073625
 40
0.6347604951
 40
0.6807495252
 40
0.7250417931
 40
0.7672206172
 40
0.8068904203
 40
0.8436789037
 40
0.8772399725
 40
0.9072588468
 40
0.9208510133
 40
0.9334545702
 40
0.9450402082
 40
0.9555816896
 40
0.9650534235
 40
0.9734342104
 40
0.9807053711
 40
0.9868495004
 40
0.9894951454
 40
0.9918549413
 40
0.9939278766
 40
0.9957131583
 40
0.9972105946
 40
0.9984213701
 40
0.9993484484
 40
0.9997078166
 40
1.0
 40
1.0
 40
1.0
 40
1.0
 10
7.8181057809
 20
4.8932193227
 30
0.0
 10
7.8181057809
 20
4.8932366899
 30
0.0
 10
7.8181186447
 20
4.8932760321
 30
0.0
 10
7.818166201
 20
4.8933264673
 30
0.0
 10
7.8182394536
 20
4.8933758267
 30
0.0
 10
7.8183400767
 20
4.8934250276
 30
0.0
 10
7.8184683964
 20
4.8934744449
 30
0.0
 10
7.8186247617
 20
4.8935240144
 30
0.0
 10
7.8188092408
 20
4.8935737278
 30
0.0
 10
7.8191106818
 20
4.8936442823
 30
0.0
 10
7.8195586622
 20
4.893730402
 30
0.0
 10
7.8201813536
 20
4.8938292996
 30
0.0
 10
7.8209162135
 20
4.8939285038
 30
0.0
 10
7.8217627955
 20
4.8940279804
 30
0.0
 10
7.8227206019
 20
4.8941276339
 30
0.0
 10
7.8242179713
 20
4.8942674066
 30
0.0
 10
7.8263636773
 20
4.8944390816
 30
0.0
 10
7.8292635884
 20
4.8946374005
 30
0.0
 10
7.8325910559
 20
4.89483624
 30
0.0
 10
7.8363382445
 20
4.8950354484
 30
0.0
 10
7.840496384
 20
4.895234909
 30
0.0
 10
7.8450557378
 20
4.8954345862
 30
0.0
 10
7.8500055665
 20
4.895634387
 30
0.0
 10
7.8553342559
 20
4.8958343167
 30
0.0
 10
7.8631595747
 20
4.8961091252
 30
0.0
 10
7.8737871364
 20
4.8964492342
 30
0.0
 10
7.8874834612
 20
4.8968471048
 30
0.0
 10
7.9023416849
 20
4.897245446
 30
0.0
 10
7.9182220981
 20
4.8976441504
 30
0.0
 10
7.9349753947
 20
4.8980431088
 30
0.0
 10
7.9524440418
 20
4.8984422546
 30
0.0
 10
7.9704637912
 20
4.8988415253
 30
0.0
 10
7.9888651876
 20
4.8992408765
 30
0.0
 10
8.0074752077
 20
4.8996402727
 30
0.0
 10
8.0261188909
 20
4.9000396763
 30
0.0
 10
8.0446209583
 20
4.9004390536
 30
0.0
 10
8.0628073965
 20
4.9008383696
 30
0.0
 10
8.0805070491
 20
4.9012375747
 30
0.0
 10
8.0975533426
 20
4.9016366156
 30
0.0
 10
8.1137859659
 20
4.9020354292
 30
0.0
 10
8.1290523636
 20
4.9024339277
 30
0.0
 10
8.14320905
 20
4.9028319615
 30
0.0
 10
8.156122902
 20
4.9032294144
 30
0.0
 10
8.1660510898
 20
4.9035701369
 30
0.0
 10
8.1732820799
 20
4.9038458861
 30
0.0
 10
8.178141398
 20
4.9040456722
 30
0.0
 10
8.1826076646
 20
4.9042453047
 30
0.0
 10
8.1866703604
 20
4.9044447061
 30
0.0
 10
8.1903199772
 20
4.9046438562
 30
0.0
 10
8.1935479547
 20
4.9048425805
 30
0.0
 10
8.1963466961
 20
4.9050407368
 30
0.0
 10
8.1984070936
 20
4.9052125058
 30
0.0
 10
8.1998355018
 20
4.9053525537
 30
0.0
 10
8.2007412337
 20
4.9054521395
 30
0.0
 10
8.2015355017
 20
4.9055514991
 30
0.0
 10
8.2022177958
 20
4.9056505846
 30
0.0
 10
8.2027879053
 20
4.9057491455
 30
0.0
 10
8.2032455482
 20
4.9058471417
 30
0.0
 10
8.2035558186
 20
4.9059332206
 30
0.0
 10
8.2037459285
 20
4.9060053355
 30
0.0
 10
8.203821697
 20
4.9060417993
 30
0.0
 10
8.2038542731
 20
4.9060605987
 30
0.0
  0
LINE
  5
29B
100
AcDbEntity
  8
0
100
AcDbLine
 62
7
  6
CONTINUOUS
 10
8.2038544462
 20
4.9320501985
 11
8.2036490351
 21
4.9319587716
  0
SPLINE
  5
29C
100
AcDbEntity
  8
0
100
AcDbSpline
 62
7
  6
CONTINUOUS
 70
0
 71
3
 72
63
 73
59
 74
0
 42
0.0000001
 43
0.0000001
 44
0.0000000001
 40
0.0
 40
0.0
 40
0.0
 40
0.0
 40
0.0008952024
 40
0.0020697685
 40
0.0035267665
 40
0.0052674864
 40
0.0072921474
 40
0.0095999911
 40
0.0150608045
 40
0.021640187
 40
0.0293247655
 40
0.0380963687
 40
0.0479360115
 40
0.058821364
 40
0.0707265546
 40
0.0974871475
 40
0.1279702655
 40
0.1618944251
 40
0.1989461975
 40
0.2387819288
 40
0.2810326404
 40
0.3253073521
 40
0.371195639
 40
0.418272137
 40
0.4661008388
 40
0.5142384614
 40
0.5622388367
 40
0.6096573304
 40
0.656054354
 40
0.7009999362
 40
0.7440779483
 40
0.7848891165
 40
0.8230550627
 40
0.8582228905
 40
0.8900671477
 40
0.9046490665
 40
0.9182926303
 40
0.9309658788
 40
0.9426391231
 40
0.9532865736
 40
0.9628830146
 40
0.9714065481
 40
0.9788389135
 40
0.9851626563
 40
0.9879046303
 40
0.9903650873
 40
0.9925429857
 40
0.9944374552
 40
0.9960479608
 40
0.9973750322
 40
0.9979328927
 40
0.9984208251
 40
0.9988395336
 40
0.9991901764
 40
0.9994747889
 40
0.9996972849
 40
0.9998660351
 40
1.0
 40
1.0
 40
1.0
 40
1.0
 10
8.2036490351
 20
4.9319587716
 30
0.0
 10
8.2035407489
 20
4.931919557
 30
0.0
 10
8.2032842673
 20
4.9318462063
 30
0.0
 10
8.2028410009
 20
4.9317490641
 30
0.0
 10
8.202286928
 20
4.9316512488
 30
0.0
 10
8.2016222578
 20
4.9315529092
 30
0.0
 10
8.2008471421
 20
4.9314542675
 30
0.0
 10
8.1995949709
 20
4.9313144943
 30
0.0
 10
8.1977568633
 20
4.9311437862
 30
0.0
 10
8.1952268228
 20
4.9309474263
 30
0.0
 10
8.1922697961
 20
4.9307504518
 30
0.0
 10
8.1888925777
 20
4.9305529064
 30
0.0
 10
8.1851029735
 20
4.9303550532
 30
0.0
 10
8.1809097545
 20
4.9301569474
 30
0.0
 10
8.1745409184
 20
4.9298817006
 30
0.0
 10
8.1656513036
 20
4.9295426457
 30
0.0
 10
8.1539291264
 20
4.9291486556
 30
0.0
 10
8.1408823423
 20
4.9287539037
 30
0.0
 10
8.1266318631
 20
4.9283585526
 30
0.0
 10
8.1113098012
 20
4.9279627964
 30
0.0
 10
8.0950582242
 20
4.9275667435
 30
0.0
 10
8.0780277701
 20
4.9271704854
 30
0.0
 10
8.0603763196
 20
4.9267740783
 30
0.0
 10
8.0422675378
 20
4.9263775696
 30
0.0
 10
8.0238693119
 20
4.9259810033
 30
0.0
 10
8.005352202
 20
4.9255844135
 30
0.0
 10
7.9868878775
 20
4.9251878326
 30
0.0
 10
7.9686475324
 20
4.9247912988
 30
0.0
 10
7.9508002798
 20
4.9243948479
 30
0.0
 10
7.9335115696
 20
4.9239985227
 30
0.0
 10
7.9169416723
 20
4.923602385
 30
0.0
 10
7.9012442315
 20
4.9232065031
 30
0.0
 10
7.8865647701
 20
4.9228109854
 30
0.0
 10
7.8730393417
 20
4.9224159375
 30
0.0
 10
7.8625476592
 20
4.9220782183
 30
0.0
 10
7.8548244834
 20
4.9218053404
 30
0.0
 10
7.84956659
 20
4.9216068341
 30
0.0
 10
7.8446831785
 20
4.9214084514
 30
0.0
 10
7.8401855548
 20
4.9212101925
 30
0.0
 10
7.8360841699
 20
4.9210121493
 30
0.0
 10
7.832388502
 20
4.9208143526
 30
0.0
 10
7.8291070867
 20
4.9206169251
 30
0.0
 10
7.8262475378
 20
4.9204200152
 30
0.0
 10
7.824131825
 20
4.9202495565
 30
0.0
 10
7.8226554664
 20
4.9201107762
 30
0.0
 10
7.8217111315
 20
4.920011831
 30
0.0
 10
7.820876476
 20
4.9199130611
 30
0.0
 10
7.8201519835
 20
4.9198145612
 30
0.0
 10
7.8195380852
 20
4.9197163642
 30
0.0
 10
7.8190964422
 20
4.9196308562
 30
0.0
 10
7.8187992742
 20
4.9195608049
 30
0.0
 10
7.8186174017
 20
4.9195114437
 30
0.0
 10
7.8184632443
 20
4.9194622241
 30
0.0
 10
7.8183367327
 20
4.9194131542
 30
0.0
 10
7.8182375243
 20
4.9193642925
 30
0.0
 10
7.8181652925
 20
4.9193152694
 30
0.0
 10
7.818118422
 20
4.9192651568
 30
0.0
 10
7.8181057809
 20
4.9192261573
 30
0.0
 10
7.8181057809
 20
4.9192089227
 30
0.0
  0
LINE
  5
29D
100
AcDbEntity
  8
0
100
AcDbLine
 62
7
  6
CONTINUOUS
 10
8.1878992656
 20
4.9228315737
 11
8.1875567079
 21
4.9226918499
  0
SPLINE
  5
29E
100
AcDbEntity
  8
0
100
AcDbSpline
 62
7
  6
CONTINUOUS
 70
0
 71
3
 72
62
 73
58
 74
0
 42
0.0000001
 43
0.0000001
 44
0.0000000001
 40
0.0
 40
0.0
 40
0.0
 40
0.0
 40
0.0010693783
 40
0.0024167236
 40
0.0040437982
 40
0.0059511462
 40
0.0106060143
 40
0.0163763826
 40
0.023249966
 40
0.0312125809
 40
0.0402476856
 40
0.0503338554
 40
0.0614487929
 40
0.0735679592
 40
0.1007033981
 40
0.1314933729
 40
0.1656557262
 40
0.2028770046
 40
0.2428166556
 40
0.2851083048
 40
0.3293635864
 40
0.3751768938
 40
0.4221278772
 40
0.4697854869
 40
0.5177126509
 40
0.5654694521
 40
0.6126176845
 40
0.6587249382
 40
0.703367781
 40
0.7461368381
 40
0.786640117
 40
0.8245055312
 40
0.8593861149
 40
0.8909628327
 40
0.905420053
 40
0.918945925
 40
0.9315086561
 40
0.9430796632
 40
0.9536335279
 40
0.9631452911
 40
0.9715938866
 40
0.9789614194
 40
0.9852308133
 40
0.9879497456
 40
0.9903900193
 40
0.9925506919
 40
0.994431023
 40
0.9960306401
 40
0.9973502732
 40
0.9979058553
 40
0.9983925813
 40
0.9988112868
 40
0.9991633245
 40
0.9994510276
 40
0.9996787662
 40
0.9998554811
 40
1.0
 40
1.0
 40
1.0
 40
1.0
 10
8.1875567079
 20
4.9226918499
 30
0.0
 10
8.1874363759
 20
4.9226539335
 30
0.0
 10
8.1871602724
 20
4.9225816269
 30
0.0
 10
8.186693116
 20
4.9224844278
 30
0.0
 10
8.1861254197
 20
4.9223867061
 30
0.0
 10
8.1851694272
 20
4.9222464467
 30
0.0
 10
8.1837241505
 20
4.9220764874
 30
0.0
 10
8.1816924888
 20
4.9218818069
 30
0.0
 10
8.1792691457
 20
4.9216862503
 30
0.0
 10
8.1764596428
 20
4.9214899727
 30
0.0
 10
8.1732703384
 20
4.9212933146
 30
0.0
 10
8.169708522
 20
4.921096322
 30
0.0
 10
8.1657823619
 20
4.9208991032
 30
0.0
 10
8.1598460948
 20
4.9206255334
 30
0.0
 10
8.1515891311
 20
4.9202882327
 30
0.0
 10
8.1407317548
 20
4.9198960159
 30
0.0
 10
8.1286837895
 20
4.9195030734
 30
0.0
 10
8.1155558525
 20
4.9191095577
 30
0.0
 10
8.101468441
 20
4.9187156687
 30
0.0
 10
8.086550868
 20
4.9183215025
 30
0.0
 10
8.070940102
 20
4.9179271333
 30
0.0
 10
8.054779467
 20
4.9175326266
 30
0.0
 10
8.0382173146
 20
4.9171380273
 30
0.0
 10
8.0214057034
 20
4.9167433703
 30
0.0
 10
8.004498997
 20
4.9163486952
 30
0.0
 10
7.9876524026
 20
4.9159540321
 30
0.0
 10
7.9710205778
 20
4.9155594145
 30
0.0
 10
7.9547562379
 20
4.915164885
 30
0.0
 10
7.9390087021
 20
4.9147704809
 30
0.0
 10
7.9239225281
 20
4.9143762604
 30
0.0
 10
7.909636228
 20
4.9139822994
 30
0.0
 10
7.896280966
 20
4.9135887028
 30
0.0
 10
7.88397933
 20
4.9131955669
 30
0.0
 10
7.8744389969
 20
4.9128594726
 30
0.0
 10
7.8674174261
 20
4.9125879062
 30
0.0
 10
7.8626379394
 20
4.912390371
 30
0.0
 10
7.8581992714
 20
4.9121929482
 30
0.0
 10
7.8541116055
 20
4.911995655
 30
0.0
 10
7.8503843333
 20
4.9117985782
 30
0.0
 10
7.8470259923
 20
4.9116017371
 30
0.0
 10
7.8440442595
 20
4.9114052684
 30
0.0
 10
7.8414459658
 20
4.9112093141
 30
0.0
 10
7.8395236929
 20
4.9110396829
 30
0.0
 10
7.838182424
 20
4.9109015851
 30
0.0
 10
7.837324438
 20
4.9108031179
 30
0.0
 10
7.8365660945
 20
4.910704823
 30
0.0
 10
7.8359078197
 20
4.9106067906
 30
0.0
 10
7.8353500034
 20
4.9105090557
 30
0.0
 10
7.8349488046
 20
4.9104239534
 30
0.0
 10
7.8346789521
 20
4.9103542639
 30
0.0
 10
7.834513687
 20
4.9103051227
 30
0.0
 10
7.8343735825
 20
4.9102561048
 30
0.0
 10
7.8342585537
 20
4.9102072138
 30
0.0
 10
7.8341683062
 20
4.9101584501
 30
0.0
 10
7.8341024987
 20
4.9101094646
 30
0.0
 10
7.8340600815
 20
4.9100592065
 30
0.0
 10
7.8340490111
 20
4.9100211621
 30
0.0
 10
7.8340489957
 20
4.9100041119
 30
0.0
  0
LINE
  5
29F
100
AcDbEntity
  8
0
100
AcDbLine
 62
7
  6
CONTINUOUS
 10
8.1880441809
 20
4.8417853119
 11
8.1874551608
 21
4.8414477624
  0
LINE
  5
2A0
100
AcDbEntity
  8
0
100
AcDbLine
 62
7
  6
CONTINUOUS
 10
8.1874551608
 20
4.8414477624
 11
8.1861381191
 21
4.8411777227
  0
SPLINE
  5
2A1
100
AcDbEntity
  8
0
100
AcDbSpline
 62
7
  6
CONTINUOUS
 70
0
 71
3
 72
65
 73
61
 74
0
 42
0.0000001
 43
0.0000001
 44
0.0000000001
 40
0.0
 40
0.0
 40
0.0
 40
0.0
 40
0.0003148074
 40
0.0006964221
 40
0.0016669399
 40
0.0029200484
 40
0.0044584578
 40
0.0062829943
 40
0.0083936861
 40
0.0134716471
 40
0.0196852188
 40
0.0270204025
 40
0.0354615734
 40
0.0449904088
 40
0.0555838114
 40
0.0672179559
 40
0.0798662368
 40
0.0934980966
 40
0.1235854944
 40
0.1571982823
 40
0.1940224132
 40
0.2337129994
 40
0.2758974106
 40
0.32018049
 40
0.3661472342
 40
0.4133661462
 40
0.4613945571
 40
0.5097820965
 40
0.5580747404
 40
0.6058197521
 40
0.6525692217
 40
0.6978845517
 40
0.7413411953
 40
0.7825315055
 40
0.8210689252
 40
0.8565929619
 40
0.8887708365
 40
0.9035090045
 40
0.9173006602
 40
0.9301134978
 40
0.9419167071
 40
0.9526840306
 40
0.962390172
 40
0.9710120483
 40
0.9785314062
 40
0.9849310143
 40
0.9877063361
 40
0.9901971333
 40
0.9924025123
 40
0.9943217804
 40
0.9959545888
 40
0.9973013366
 40
0.9978681479
 40
0.9983645707
 40
0.9987914573
 40
0.9991501799
 40
0.9994430996
 40
0.999674637
 40
0.9998538628
 40
1.0
 40
1.0
 40
1.0
 40
1.0
 10
8.1878992174
 20
4.8708523736
 30
0.0
 10
8.1878670288
 20
4.8708337668
 30
0.0
 10
8.187792998
 20
4.8707975079
 30
0.0
 10
8.1876095623
 20
4.8707257154
 30
0.0
 10
8.1873136423
 20
4.8706396495
 30
0.0
 10
8.1868801981
 20
4.8705416525
 30
0.0
 10
8.1863438725
 20
4.8704431208
 30
0.0
 10
8.1857050068
 20
4.8703440733
 30
0.0
 10
8.1846498784
 20
4.870202815
 30
0.0
 10
8.1830762014
 20
4.8700309903
 30
0.0
 10
8.1808851229
 20
4.8698338485
 30
0.0
 10
8.1782955464
 20
4.869635907
 30
0.0
 10
8.1753135094
 20
4.8694373348
 30
0.0
 10
8.1719459419
 20
4.8692384122
 30
0.0
 10
8.1682007099
 20
4.8690391774
 30
0.0
 10
8.1640866026
 20
4.8688397518
 30
0.0
 10
8.1596132679
 20
4.868640178
 30
0.0
 10
8.1529618065
 20
4.868364757
 30
0.0
 10
8.1438349973
 20
4.8680244492
 30
0.0
 10
8.1319694387
 20
4.8676273824
 30
0.0
 10
8.1189691609
 20
4.8672297477
 30
0.0
 10
8.104956132
 20
4.8668316622
 30
0.0
 10
8.0900618588
 20
4.8664332624
 30
0.0
 10
8.0744261106
 20
4.8660346384
 30
0.0
 10
8.0581955937
 20
4.8656358598
 30
0.0
 10
8.0415226172
 20
4.8652369703
 30
0.0
 10
8.02456366
 20
4.8648380166
 30
0.0
 10
8.0074778583
 20
4.8644390366
 30
0.0
 10
7.9904255358
 20
4.8640400615
 30
0.0
 10
7.9735667257
 20
4.8636411311
 30
0.0
 10
7.957059642
 20
4.8632422832
 30
0.0
 10
7.941059174
 20
4.8628435588
 30
0.0
 10
7.9257154631
 20
4.8624450222
 30
0.0
 10
7.9111725164
 20
4.8620467422
 30
0.0
 10
7.8975667914
 20
4.8616488261
 30
0.0
 10
7.8850259335
 20
4.8612513836
 30
0.0
 10
7.875295449
 20
4.8609116378
 30
0.0
 10
7.8681309633
 20
4.8606371251
 30
0.0
 10
7.8632523677
 20
4.8604374073
 30
0.0
 10
7.8587207029
 20
4.8602378214
 30
0.0
 10
7.854546587
 20
4.8600383547
 30
0.0
 10
7.8507398231
 20
4.8598390987
 30
0.0
 10
7.8473093327
 20
4.8596401097
 30
0.0
 10
7.8442631234
 20
4.8594414796
 30
0.0
 10
7.8416083325
 20
4.8592433548
 30
0.0
 10
7.8396440725
 20
4.8590718659
 30
0.0
 10
7.8382733902
 20
4.8589322357
 30
0.0
 10
7.8373965961
 20
4.8588326784
 30
0.0
 10
7.8366216086
 20
4.8587333012
 30
0.0
 10
7.83594884
 20
4.8586341946
 30
0.0
 10
7.835378707
 20
4.8585354154
 30
0.0
 10
7.8349686263
 20
4.858449406
 30
0.0
 10
7.8346928087
 20
4.8583789608
 30
0.0
 10
7.8345239267
 20
4.8583292918
 30
0.0
 10
7.8343807693
 20
4.858279746
 30
0.0
 10
7.8342632468
 20
4.8582303268
 30
0.0
 10
7.8341710512
 20
4.8581810385
 30
0.0
 10
7.8341038318
 20
4.8581315262
 30
0.0
 10
7.8340604677
 20
4.8580807319
 30
0.0
 10
7.8340491031
 20
4.858042171
 30
0.0
 10
7.8340490806
 20
4.8580249119
 30
0.0
  0
SPLINE
  5
2A2
100
AcDbEntity
  8
0
100
AcDbSpline
 62
7
  6
CONTINUOUS
 70
0
 71
3
 72
66
 73
62
 74
0
 42
0.0000001
 43
0.0000001
 44
0.0000000001
 40
0.0
 40
0.0
 40
0.0
 40
0.0
 40
0.0001349163
 40
0.0003052816
 40
0.0005303039
 40
0.000818415
 40
0.001173544
 40
0.0015977308
 40
0.0020921345
 40
0.0026574588
 40
0.0040024334
 40
0.0056348018
 40
0.0075550566
 40
0.0097626225
 40
0.0122565923
 40
0.0150358879
 40
0.0214455504
 40
0.028978505
 40
0.0376167339
 40
0.0473414063
 40
0.0581300054
 40
0.0699566099
 40
0.0827946897
 40
0.0966137427
 40
0.1113810467
 40
0.1436220342
 40
0.1792145234
 40
0.2178239893
 40
0.2590881012
 40
0.3026195192
 40
0.3480090177
 40
0.3948300592
 40
0.4426422188
 40
0.4909953791
 40
0.5394354144
 40
0.5875076593
 40
0.6347602051
 40
0.6807488371
 40
0.7250408514
 40
0.7672196009
 40
0.806889736
 40
0.8436789091
 40
0.8772404789
 40
0.9072595547
 40
0.920851688
 40
0.9334552058
 40
0.9450407269
 40
0.9555820858
 40
0.9650537411
 40
0.9734344345
 40
0.9807055278
 40
0.9868496156
 40
0.9894952339
 40
0.9918550042
 40
0.9939279188
 40
0.9957131885
 40
0.9972106167
 40
0.9984213838
 40
0.9993484543
 40
0.9997078192
 40
1.0
 40
1.0
 40
1.0
 40
1.0
 10
7.8181057809
 20
4.8672297227
 30
0.0
 10
7.8181057809
 20
4.8672470898
 30
0.0
 10
7.8181186446
 20
4.8672864321
 30
0.0
 10
7.8181662008
 20
4.8673368673
 30
0.0
 10
7.8182394532
 20
4.8673862267
 30
0.0
 10
7.8183400761
 20
4.8674354275
 30
0.0
 10
7.8184683958
 20
4.8674848448
 30
0.0
 10
7.8186247613
 20
4.8675344143
 30
0.0
 10
7.818809241
 20
4.8675841278
 30
0.0
 10
7.8191106835
 20
4.8676546826
 30
0.0
 10
7.8195586672
 20
4.8677408027
 30
0.0
 10
7.8201813651
 20
4.8678397012
 30
0.0
 10
7.8209162353
 20
4.8679389064
 30
0.0
 10
7.8217628318
 20
4.8680383842
 30
0.0
 10
7.8227206563
 20
4.868138039
 30
0.0
 10
7.8242180561
 20
4.8682778139
 30
0.0
 10
7.8263638169
 20
4.8684494929
 30
0.0
 10
7.8292638067
 20
4.8686478134
 30
0.0
 10
7.8325913546
 20
4.8688466555
 30
0.0
 10
7.8363386168
 20
4.8690458685
 30
0.0
 10
7.840496809
 20
4.8692453281
 30
0.0
 10
7.8450561817
 20
4.8694450042
 30
0.0
 10
7.8500059871
 20
4.8696448043
 30
0.0
 10
7.8553346145
 20
4.8698447297
 30
0.0
 10
7.8631598112
 20
4.8701195328
 30
0.0
 10
7.8737872008
 20
4.8704596362
 30
0.0
 10
7.8874833294
 20
4.870857501
 30
0.0
 10
7.9023413976
 20
4.8712558384
 30
0.0
 10
7.9182217365
 20
4.8716545418
 30
0.0
 10
7.9349750892
 20
4.8720535017
 30
0.0
 10
7.9524439475
 20
4.8724526525
 30
0.0
 10
7.970463981
 20
4.8728519295
 30
0.0
 10
7.988865602
 20
4.8732512854
 30
0.0
 10
8.0074756756
 20
4.8736506828
 30
0.0
 10
8.0261192364
 20
4.8740500837
 30
0.0
 10
8.0446210883
 20
4.8744494565
 30
0.0
 10
8.0628073098
 20
4.8748487676
 30
0.0
 10
8.0805068031
 20
4.8752479691
 30
0.0
 10
8.0975530033
 20
4.8756470076
 30
0.0
 10
8.1137856271
 20
4.8760458203
 30
0.0
 10
8.1290521467
 20
4.8764443222
 30
0.0
 10
8.1432090292
 20
4.8768423605
 30
0.0
 10
8.1561230604
 20
4.8772398199
 30
0.0
 10
8.1660513342
 20
4.8775805452
 30
0.0
 10
8.1732823409
 20
4.8778562969
 30
0.0
 10
8.1781416348
 20
4.8780560819
 30
0.0
 10
8.1826078655
 20
4.878255714
 30
0.0
 10
8.1866705203
 20
4.8784551148
 30
0.0
 10
8.1903200993
 20
4.8786542627
 30
0.0
 10
8.193548046
 20
4.8788529866
 30
0.0
 10
8.1963467613
 20
4.8790511423
 30
0.0
 10
8.1984071415
 20
4.8792229099
 30
0.0
 10
8.1998355376
 20
4.8793629574
 30
0.0
 10
8.20074126
 20
4.8794625427
 30
0.0
 10
8.2015355206
 20
4.8795619018
 30
0.0
 10
8.2022178095
 20
4.8796609865
 30
0.0
 10
8.2027879154
 20
4.8797595465
 30
0.0
 10
8.2032455552
 20
4.8798575422
 30
0.0
 10
8.203555823
 20
4.8799436209
 30
0.0
 10
8.2037459312
 20
4.8800157356
 30
0.0
 10
8.2038216989
 20
4.8800521993
 30
0.0
 10
8.2038542745
 20
4.8800709987
 30
0.0
  0
SPLINE
  5
2A3
100
AcDbEntity
  8
0
100
AcDbSpline
 62
7
  6
CONTINUOUS
 70
0
 71
3
 72
66
 73
62
 74
0
 42
0.0000001
 43
0.0000001
 44
0.0000000001
 40
0.0
 40
0.0
 40
0.0
 40
0.0
 40
0.0001461179
 40
0.0003252778
 40
0.0005567265
 40
0.0008495595
 40
0.0012082188
 40
0.0016350846
 40
0.0021315472
 40
0.0026984765
 40
0.0040455733
 40
0.0056784583
 40
0.0075975779
 40
0.0098027417
 40
0.0122934171
 40
0.0150688682
 40
0.0181279232
 40
0.0214687409
 40
0.0289877401
 40
0.0376097624
 40
0.0473160479
 40
0.058083041
 40
0.0698864522
 40
0.0826993345
 40
0.0964907062
 40
0.1112291158
 40
0.1434067369
 40
0.1789309491
 40
0.2174684156
 40
0.2586585294
 40
0.3021152685
 40
0.3474306548
 40
0.3941800367
 40
0.4419250958
 40
0.4902177585
 40
0.5386052873
 40
0.5866337582
 40
0.633852641
 40
0.6798193758
 40
0.724102582
 40
0.7662869359
 40
0.8059774671
 40
0.8428017828
 40
0.8764145223
 40
0.9065018132
 40
0.9201338205
 40
0.9327821375
 40
0.9444161193
 40
0.9550096844
 40
0.964538513
 40
0.9729795515
 40
0.9803149025
 40
0.9865284189
 40
0.9916062916
 40
0.9937170652
 40
0.9955416811
 40
0.9970801031
 40
0.9983331007
 40
0.9993035468
 40
0.9996851685
 40
1.0
 40
1.0
 40
1.0
 40
1.0
 10
8.1880440447
 20
4.8937645117
 30
0.0
 10
8.1880440313
 20
4.8937472548
 30
0.0
 10
8.1880326964
 20
4.8937086964
 30
0.0
 10
8.1879893694
 20
4.893657895
 30
0.0
 10
8.187922186
 20
4.893608381
 30
0.0
 10
8.1878300222
 20
4.8935590924
 30
0.0
 10
8.1877125211
 20
4.8935096737
 30
0.0
 10
8.1875693688
 20
4.8934601288
 30
0.0
 10
8.1874004696
 20
4.8934104607
 30
0.0
 10
8.1871245893
 20
4.8933400185
 30
0.0
 10
8.1867144397
 20
4.8932540256
 30
0.0
 10
8.1861442752
 20
4.893155239
 30
0.0
 10
8.1854715413
 20
4.893056129
 30
0.0
 10
8.1846966123
 20
4.8929567462
 30
0.0
 10
8.1838198424
 20
4.8928571936
 30
0.0
 10
8.182841665
 20
4.8927575193
 30
0.0
 10
8.1817626246
 20
4.8926577541
 30
0.0
 10
8.1801246138
 20
4.8925191099
 30
0.0
 10
8.1778300768
 20
4.8923479709
 30
0.0
 10
8.1747838851
 20
4.8921493083
 30
0.0
 10
8.171353396
 20
4.8919503375
 30
0.0
 10
8.1675466319
 20
4.8917510646
 30
0.0
 10
8.1633725249
 20
4.8915516082
 30
0.0
 10
8.1588408646
 20
4.8913520224
 30
0.0
 10
8.153962269
 20
4.8911522966
 30
0.0
 10
8.1467978176
 20
4.8908777954
 30
0.0
 10
8.137067314
 20
4.8905380379
 30
0.0
 10
8.1245264593
 20
4.8901406023
 30
0.0
 10
8.110920731
 20
4.8897426854
 30
0.0
 10
8.0963777905
 20
4.8893444023
 30
0.0
 10
8.0810340845
 20
4.8889458677
 30
0.0
 10
8.0650336086
 20
4.8885471436
 30
0.0
 10
8.0485265227
 20
4.888148294
 30
0.0
 10
8.0316677148
 20
4.8877493645
 30
0.0
 10
8.0146153854
 20
4.8873503893
 30
0.0
 10
7.9975295753
 20
4.8869514086
 30
0.0
 10
7.9805706154
 20
4.8865524557
 30
0.0
 10
7.963897636
 20
4.8861535655
 30
0.0
 10
7.9476671085
 20
4.885754786
 30
0.0
 10
7.9320313527
 20
4.8853561638
 30
0.0
 10
7.9171370776
 20
4.884957763
 30
0.0
 10
7.9031240399
 20
4.8845596754
 30
0.0
 10
7.8901237521
 20
4.8841620439
 30
0.0
 10
7.8782581899
 20
4.8837649766
 30
0.0
 10
7.8691313815
 20
4.8834246648
 30
0.0
 10
7.8624799108
 20
4.8831492471
 30
0.0
 10
7.8580065735
 20
4.8829496753
 30
0.0
 10
7.8538924621
 20
4.882750243
 30
0.0
 10
7.8501472306
 20
4.8825510139
 30
0.0
 10
7.8467796602
 20
4.882352092
 30
0.0
 10
7.8437976204
 20
4.8821535118
 30
0.0
 10
7.8412080456
 20
4.8819555792
 30
0.0
 10
7.8390169642
 20
4.8817584362
 30
0.0
 10
7.8374432955
 20
4.8815866036
 30
0.0
 10
7.8363881577
 20
4.8814453505
 30
0.0
 10
7.8357492711
 20
4.8813463043
 30
0.0
 10
7.8352129469
 20
4.881247777
 30
0.0
 10
7.8347795241
 20
4.8811497745
 30
0.0
 10
7.8344836273
 20
4.8810637044
 30
0.0
 10
7.8343001958
 20
4.8809919145
 30
0.0
 10
7.8342261607
 20
4.8809556565
 30
0.0
 10
7.8341939685
 20
4.8809370502
 30
0.0
  0
SPLINE
  5
2A4
100
AcDbEntity
  8
0
100
AcDbSpline
 62
7
  6
CONTINUOUS
 70
0
 71
3
 72
66
 73
62
 74
0
 42
0.0000001
 43
0.0000001
 44
0.0000000001
 40
0.0
 40
0.0
 40
0.0
 40
0.0
 40
0.0001349165
 40
0.0003052828
 40
0.0005303071
 40
0.0008184209
 40
0.0011735532
 40
0.0015977438
 40
0.0020921513
 40
0.0026574797
 40
0.0040024618
 40
0.005634837
 40
0.007555105
 40
0.0097626901
 40
0.0122566821
 40
0.0150359996
 40
0.0214456992
 40
0.0289787217
 40
0.0376170196
 40
0.0473417291
 40
0.058130402
 40
0.06995711
 40
0.0827953378
 40
0.0966146129
 40
0.111382087
 40
0.1436232445
 40
0.1792155605
 40
0.2178248587
 40
0.2590890987
 40
0.3026207206
 40
0.3480104294
 40
0.3948316942
 40
0.4426440458
 40
0.4909974394
 40
0.539437701
 40
0.5875099496
 40
0.6347619932
 40
0.6807500069
 40
0.7250417937
 40
0.7672205795
 40
0.8068908109
 40
0.8436800269
 40
0.8772415828
 40
0.907260656
 40
0.9208527384
 40
0.9334562562
 40
0.9450416782
 40
0.9555829105
 40
0.965054448
 40
0.97343491
 40
0.9807057938
 40
0.986849766
 40
0.989495337
 40
0.9918550683
 40
0.9939279535
 40
0.9957132048
 40
0.9972106231
 40
0.9984213851
 40
0.999348454
 40
0.9997078189
 40
1.0
 40
1.0
 40
1.0
 40
1.0
 10
8.2039873809
 20
4.8845597011
 30
0.0
 10
8.2039873809
 20
4.8845423339
 30
0.0
 10
8.203974517
 20
4.8845029915
 30
0.0
 10
8.2039269602
 20
4.8844525564
 30
0.0
 10
8.2038537069
 20
4.8844031969
 30
0.0
 10
8.2037530829
 20
4.884353996
 30
0.0
 10
8.2036247619
 20
4.8843045786
 30
0.0
 10
8.2034683949
 20
4.884255009
 30
0.0
 10
8.2032839137
 20
4.8842052953
 30
0.0
 10
8.2029824692
 20
4.8841347402
 30
0.0
 10
8.2025344833
 20
4.8840486197
 30
0.0
 10
8.201911782
 20
4.8839497204
 30
0.0
 10
8.2011769067
 20
4.8838505147
 30
0.0
 10
8.2003303032
 20
4.8837510365
 30
0.0
 10
8.1993724705
 20
4.8836513813
 30
0.0
 10
8.1978750603
 20
4.8835116061
 30
0.0
 10
8.1957292832
 20
4.8833399259
 30
0.0
 10
8.1928292709
 20
4.8831416053
 30
0.0
 10
8.1895017007
 20
4.8829427629
 30
0.0
 10
8.1857544153
 20
4.8827435483
 30
0.0
 10
8.1815961955
 20
4.8825440884
 30
0.0
 10
8.1770367809
 20
4.8823444113
 30
0.0
 10
8.1720869146
 20
4.8821446092
 30
0.0
 10
8.1667582177
 20
4.8819446828
 30
0.0
 10
8.1589329486
 20
4.8816698773
 30
0.0
 10
8.1483055376
 20
4.8813297751
 30
0.0
 10
8.134609431
 20
4.8809319113
 30
0.0
 10
8.1197513902
 20
4.8805335758
 30
0.0
 10
8.1038710302
 20
4.8801348725
 30
0.0
 10
8.0871176077
 20
4.8797359112
 30
0.0
 10
8.0696486674
 20
4.8793367589
 30
0.0
 10
8.0516285534
 20
4.8789374807
 30
0.0
 10
8.033226849
 20
4.8785381231
 30
0.0
 10
8.0146166915
 20
4.878138724
 30
0.0
 10
7.9959730712
 20
4.8777393219
 30
0.0
 10
7.9774712543
 20
4.8773399494
 30
0.0
 10
7.9592851766
 20
4.8769406412
 30
0.0
 10
7.9415858569
 20
4.8765414432
 30
0.0
 10
7.9245397609
 20
4.8761424067
 30
0.0
 10
7.9083071494
 20
4.8757435936
 30
0.0
 10
7.8930406072
 20
4.8753450906
 30
0.0
 10
7.8788837087
 20
4.8749470512
 30
0.0
 10
7.8659696742
 20
4.8745495894
 30
0.0
 10
7.856041409
 20
4.8742088642
 30
0.0
 10
7.8488104093
 20
4.8739331099
 30
0.0
 10
7.8439511348
 20
4.8737333257
 30
0.0
 10
7.8394849332
 20
4.8735336924
 30
0.0
 10
7.8354223227
 20
4.8733342915
 30
0.0
 10
7.8317728048
 20
4.8731351479
 30
0.0
 10
7.8285449301
 20
4.8729364256
 30
0.0
 10
7.8257462865
 20
4.8727382719
 30
0.0
 10
7.8236859541
 20
4.872566508
 30
0.0
 10
7.8222575839
 20
4.8724264623
 30
0.0
 10
7.8213518763
 20
4.8723268783
 30
0.0
 10
7.8205576269
 20
4.8722275201
 30
0.0
 10
7.8198753454
 20
4.8721284363
 30
0.0
 10
7.8193052438
 20
4.8720298768
 30
0.0
 10
7.818847606
 20
4.8719318814
 30
0.0
 10
7.8185373391
 20
4.8718458029
 30
0.0
 10
7.8183472311
 20
4.8717736882
 30
0.0
 10
7.8182714634
 20
4.8717372245
 30
0.0
 10
7.8182388877
 20
4.8717184251
 30
0.0
  0
LINE
  5
2A5
100
AcDbEntity
  8
0
100
AcDbLine
 62
7
  6
CONTINUOUS
 10
8.1878992405
 20
4.8968419737
 11
8.1874633346
 21
4.8966741146
  0
SPLINE
  5
2A6
100
AcDbEntity
  8
0
100
AcDbSpline
 62
7
  6
CONTINUOUS
 70
0
 71
3
 72
62
 73
58
 74
0
 42
0.0000001
 43
0.0000001
 44
0.0000000001
 40
0.0
 40
0.0
 40
0.0
 40
0.0
 40
0.0011453905
 40
0.0025683554
 40
0.0042701608
 40
0.0062510967
 40
0.0110491595
 40
0.0169568448
 40
0.0239614404
 40
0.0320484165
 40
0.0412010027
 40
0.0513975778
 40
0.0626156341
 40
0.0748305397
 40
0.1021348853
 40
0.1330633437
 40
0.1673336559
 40
0.2046328007
 40
0.2446210404
 40
0.2869331
 40
0.3311821839
 40
0.3769645577
 40
0.4238619568
 40
0.4714457611
 40
0.5192815082
 40
0.5669320349
 40
0.613962085
 40
0.6599422089
 40
0.7044519901
 40
0.747085167
 40
0.7874526492
 40
0.8251851845
 40
0.8599387329
 40
0.8913967201
 40
0.9057983869
 40
0.9192716347
 40
0.9317851112
 40
0.9433101476
 40
0.9538217115
 40
0.9632952257
 40
0.9717094346
 40
0.9790468227
 40
0.9852906094
 40
0.9879983197
 40
0.9904284775
 40
0.9925801985
 40
0.9944527995
 40
0.996045944
 40
0.997360216
 40
0.9979135291
 40
0.9983982689
 40
0.9988152777
 40
0.9991659153
 40
0.9994525228
 40
0.9996794768
 40
0.999855714
 40
1.0
 40
1.0
 40
1.0
 40
1.0
 10
8.1874633346
 20
4.8966741146
 30
0.0
 10
8.1873335404
 20
4.8966366429
 30
0.0
 10
8.1870390227
 20
4.8965647735
 30
0.0
 10
8.1865447593
 20
4.8964676093
 30
0.0
 10
8.1859504404
 20
4.8963699823
 30
0.0
 10
8.184959901
 20
4.8962303109
 30
0.0
 10
8.1834729676
 20
4.8960607244
 30
0.0
 10
8.1813930928
 20
4.8958663071
 30
0.0
 10
8.1789239385
 20
4.8956710639
 30
0.0
 10
8.1760711068
 20
4.895475149
 30
0.0
 10
8.1728410376
 20
4.8952788744
 30
0.0
 10
8.1692410836
 20
4.8950822827
 30
0.0
 10
8.1652794652
 20
4.8948854735
 30
0.0
 10
8.1593013801
 20
4.8946126423
 30
0.0
 10
8.1509990752
 20
4.89427615
 30
0.0
 10
8.1400956428
 20
4.8938847333
 30
0.0
 10
8.1280127003
 20
4.8934926102
 30
0.0
 10
8.114860695
 20
4.8930999301
 30
0.0
 10
8.1007598122
 20
4.8927068869
 30
0.0
 10
8.0858389165
 20
4.8923135726
 30
0.0
 10
8.0702344018
 20
4.8919200603
 30
0.0
 10
8.0540889001
 20
4.8915264144
 30
0.0
 10
8.0375499681
 20
4.8911326779
 30
0.0
 10
8.0207687817
 20
4.8907388859
 30
0.0
 10
8.0038987427
 20
4.8903450773
 30
0.0
 10
7.9870940345
 20
4.8899512814
 30
0.0
 10
7.9705082503
 20
4.8895575322
 30
0.0
 10
7.9542930104
 20
4.8891638715
 30
0.0
 10
7.9385965205
 20
4.8887703359
 30
0.0
 10
7.9235622334
 20
4.8883769847
 30
0.0
 10
7.9093275792
 20
4.8879838931
 30
0.0
 10
7.8960226644
 20
4.8875911637
 30
0.0
 10
7.8837690732
 20
4.8871988958
 30
0.0
 10
7.8742669055
 20
4.8868635362
 30
0.0
 10
7.8672740306
 20
4.8865925638
 30
0.0
 10
7.8625144283
 20
4.8863954637
 30
0.0
 10
7.8580944206
 20
4.8861984806
 30
0.0
 10
7.8540241013
 20
4.8860016216
 30
0.0
 10
7.8503127787
 20
4.8858049781
 30
0.0
 10
7.846968919
 20
4.8856085815
 30
0.0
 10
7.8440001306
 20
4.8854125497
 30
0.0
 10
7.8414131856
 20
4.8852170248
 30
0.0
 10
7.8394993434
 20
4.8850477631
 30
0.0
 10
7.8381639838
 20
4.8849099574
 30
0.0
 10
7.8373098088
 20
4.8848117025
 30
0.0
 10
7.8365548365
 20
4.8847136252
 30
0.0
 10
7.835899475
 20
4.8846158162
 30
0.0
 10
7.8353441174
 20
4.8845183235
 30
0.0
 10
7.8349446888
 20
4.884433436
 30
0.0
 10
7.8346760422
 20
4.8843639198
 30
0.0
 10
7.8345115232
 20
4.8843148991
 30
0.0
 10
7.8343720563
 20
4.8842659977
 30
0.0
 10
7.8342575549
 20
4.8842172177
 30
0.0
 10
7.8341677243
 20
4.8841685564
 30
0.0
 10
7.8341022217
 20
4.8841196639
 30
0.0
 10
7.8340600142
 20
4.8840694855
 30
0.0
 10
7.8340490185
 20
4.8840315301
 30
0.0
 10
7.8340490061
 20
4.884014512
 30
0.0
  0
SPLINE
  5
2A7
100
AcDbEntity
  8
0
100
AcDbSpline
 62
7
  6
CONTINUOUS
 70
0
 71
3
 72
32
 73
28
 74
0
 42
0.0000001
 43
0.0000001
 44
0.0000000001
 40
0.0
 40
0.0
 40
0.0
 40
0.0
 40
0.0008799616
 40
0.0014125806
 40
0.0020342959
 40
0.0035897234
 40
0.0056048914
 40
0.0081041638
 40
0.011099853
 40
0.0145988096
 40
0.0186051063
 40
0.028148334
 40
0.0397375238
 40
0.0533690722
 40
0.0690359334
 40
0.0867293323
 40
0.1064385044
 40
0.1518354667
 40
0.2050782362
 40
0.2659975596
 40
0.3343847731
 40
0.4100176582
 40
0.4926333138
 40
0.5819527925
 40
0.6776823901
 40
0.7795162577
 40
1.0
 40
1.0
 40
1.0
 40
1.0
 10
8.1880441809
 20
4.8450301119
 30
0.0
 10
8.1880441809
 20
4.8450091068
 30
0.0
 10
8.1880319222
 20
4.8449753122
 30
0.0
 10
8.1880013192
 20
4.8449376001
 30
0.0
 10
8.1879529791
 20
4.8448941895
 30
0.0
 10
8.1878668544
 20
4.8448420348
 30
0.0
 10
8.1877343588
 20
4.8447830527
 30
0.0
 10
8.1875649715
 20
4.8447238456
 30
0.0
 10
8.1873586152
 20
4.8446643843
 30
0.0
 10
8.187115094
 20
4.8446047496
 30
0.0
 10
8.1867170029
 20
4.8445200609
 30
0.0
 10
8.1861257133
 20
4.8444167619
 30
0.0
 10
8.1853043422
 20
4.8442981398
 30
0.0
 10
8.1843355626
 20
4.8441791154
 30
0.0
 10
8.1832201846
 20
4.8440597575
 30
0.0
 10
8.181959026
 20
4.8439401797
 30
0.0
 10
8.1799896642
 20
4.8437725487
 30
0.0
 10
8.1771720482
 20
4.8435666372
 30
0.0
 10
8.1733707069
 20
4.8433286574
 30
0.0
 10
8.169019675
 20
4.8430901398
 30
0.0
 10
8.1641335065
 20
4.8428511103
 30
0.0
 10
8.1587288947
 20
4.8426118081
 30
0.0
 10
8.1528241878
 20
4.8423722509
 30
0.0
 10
8.1464394078
 20
4.8421325339
 30
0.0
 10
8.1395955868
 20
4.84189266
 30
0.0
 10
8.1296220343
 20
4.8415639061
 30
0.0
 10
8.1219316885
 20
4.8413309378
 30
0.0
 10
8.1166708787
 20
4.8411777227
 30
0.0
  0
SPLINE
  5
2A8
100
AcDbEntity
  8
0
100
AcDbSpline
 62
7
  6
CONTINUOUS
 70
0
 71
3
 72
9
 73
5
 74
0
 42
0.0000001
 43
0.0000001
 44
0.0000000001
 40
0.0
 40
0.0
 40
0.0
 40
0.0
 40
0.2346164416
 40
1.0
 40
1.0
 40
1.0
 40
1.0
 10
7.8182388942
 20
4.9236976251
 30
0.0
 10
7.8182441962
 20
4.9237006847
 30
0.0
 10
7.8182669635
 20
4.9237134333
 30
0.0
 10
7.8182903324
 20
4.9237250902
 30
0.0
 10
7.8183084206
 20
4.923733553
 30
0.0
  0
SPLINE
  5
2A9
100
AcDbEntity
  8
0
100
AcDbSpline
 62
7
  6
CONTINUOUS
 70
0
 71
3
 72
65
 73
61
 74
0
 42
0.0000001
 43
0.0000001
 44
0.0000000001
 40
0.0
 40
0.0
 40
0.0
 40
0.0
 40
0.0003390864
 40
0.000746502
 40
0.0017708209
 40
0.0030786308
 40
0.0046721112
 40
0.0065519466
 40
0.0087176468
 40
0.0139028648
 40
0.0202190381
 40
0.0276535807
 40
0.0361887957
 40
0.0458060891
 40
0.05648362
 40
0.0681957062
 40
0.0809161454
 40
0.0946151759
 40
0.1248180348
 40
0.1585231492
 40
0.1954163557
 40
0.2351524357
 40
0.2773602496
 40
0.3216458371
 40
0.3675949711
 40
0.4147781079
 40
0.4627544709
 40
0.5110754627
 40
0.5592893806
 40
0.6069457026
 40
0.6535987185
 40
0.6988124725
 40
0.7421646478
 40
0.7832497191
 40
0.82168376
 40
0.8571082882
 40
0.889192268
 40
0.903886363
 40
0.917635871
 40
0.9304089638
 40
0.94217489
 40
0.9529074078
 40
0.9625815522
 40
0.9711742017
 40
0.9786670682
 40
0.9850429735
 40
0.9878074286
 40
0.9902879667
 40
0.9924836421
 40
0.9943936793
 40
0.9960175947
 40
0.9973555661
 40
0.9979178996
 40
0.9984096753
 40
0.9988316141
 40
0.9991848926
 40
0.9994715675
 40
0.9996955815
 40
0.999865359
 40
1.0
 40
1.0
 40
1.0
 40
1.0
 10
7.8183084206
 20
4.923733553
 30
0.0
 10
7.8183479485
 20
4.9237520464
 30
0.0
 10
7.8184371444
 20
4.9237881003
 30
0.0
 10
7.8186536594
 20
4.9238595201
 30
0.0
 10
7.8189959991
 20
4.9239454276
 30
0.0
 10
7.819491697
 20
4.924043439
 30
0.0
 10
7.820099198
 20
4.9241419289
 30
0.0
 10
7.8208182009
 20
4.9242408663
 30
0.0
 10
7.8219978661
 20
4.9243816884
 30
0.0
 10
7.8237485937
 20
4.9245531801
 30
0.0
 10
7.8261777211
 20
4.9247501119
 30
0.0
 10
7.8290391394
 20
4.9249477502
 30
0.0
 10
7.8323262248
 20
4.9251460385
 30
0.0
 10
7.8360313281
 20
4.925344673
 30
0.0
 10
7.840145801
 20
4.9255435651
 30
0.0
 10
7.8446600579
 20
4.9257426727
 30
0.0
 10
7.8495635188
 20
4.925941922
 30
0.0
 10
7.8568455883
 20
4.9262167634
 30
0.0
 10
7.8668277993
 20
4.9265564549
 30
0.0
 10
7.8797947852
 20
4.9269528701
 30
0.0
 10
7.8939891928
 20
4.9273498447
 30
0.0
 10
7.9092782707
 20
4.9277472694
 30
0.0
 10
7.9255190344
 20
4.9281449981
 30
0.0
 10
7.9425596343
 20
4.9285429433
 30
0.0
 10
7.9602407177
 20
4.9289410457
 30
0.0
 10
7.9783969148
 20
4.9293392548
 30
0.0
 10
7.9968584385
 20
4.9297375251
 30
0.0
 10
8.0154526527
 20
4.9301358226
 30
0.0
 10
8.0340056687
 20
4.930534113
 30
0.0
 10
8.0523439688
 20
4.9309323575
 30
0.0
 10
8.0702960598
 20
4.9313305215
 30
0.0
 10
8.0876940739
 20
4.9317285594
 30
0.0
 10
8.1043753088
 20
4.9321264087
 30
0.0
 10
8.1201837469
 20
4.9325240049
 30
0.0
 10
8.1349715727
 20
4.9329212349
 30
0.0
 10
8.1486005292
 20
4.9333179892
 30
0.0
 10
8.1591745221
 20
4.9336571607
 30
0.0
 10
8.1669595555
 20
4.9339312024
 30
0.0
 10
8.1722603675
 20
4.9341305776
 30
0.0
 10
8.1771840473
 20
4.934329817
 30
0.0
 10
8.1817191059
 20
4.9345289367
 30
0.0
 10
8.1858549254
 20
4.9347278499
 30
0.0
 10
8.1895818425
 20
4.9349264916
 30
0.0
 10
8.1928911878
 20
4.9351247736
 30
0.0
 10
8.1957752187
 20
4.9353225522
 30
0.0
 10
8.1979091307
 20
4.9354937444
 30
0.0
 10
8.1993982419
 20
4.9356331412
 30
0.0
 10
8.2003507018
 20
4.9357325231
 30
0.0
 10
8.2011925517
 20
4.9358317229
 30
0.0
 10
8.2019233392
 20
4.9359306467
 30
0.0
 10
8.2025426108
 20
4.9360292369
 30
0.0
 10
8.2029881345
 20
4.9361150879
 30
0.0
 10
8.2032878941
 20
4.9361854301
 30
0.0
 10
8.2034713252
 20
4.9362349948
 30
0.0
 10
8.2036267932
 20
4.9362844206
 30
0.0
 10
8.203754373
 20
4.9363337006
 30
0.0
 10
8.2038544163
 20
4.9363827751
 30
0.0
 10
8.2039272564
 20
4.9364320179
 30
0.0
 10
8.2039745397
 20
4.9364823543
 30
0.0
 10
8.2039873282
 20
4.9365215728
 30
0.0
 10
8.2039873429
 20
4.9365389009
 30
0.0
  0
LINE
  5
2AA
100
AcDbEntity
  8
0
100
AcDbLine
 62
7
  6
CONTINUOUS
 10
2.5879873578
 20
4.9322037228
 11
2.5878544462
 21
4.9320501985
  0
LINE
  5
2AB
100
AcDbEntity
  8
0
100
AcDbLine
 62
7
  6
CONTINUOUS
 10
2.5879873429
 20
4.9365389009
 11
2.5878544603
 21
4.9366924253
  0
LINE
  5
2AC
100
AcDbEntity
  8
0
100
AcDbLine
 62
7
  6
CONTINUOUS
 10
2.5879873521
 20
4.8585701013
 11
2.5878543602
 21
4.8587236254
  0
SPLINE
  5
2AD
100
AcDbEntity
  8
0
100
AcDbSpline
 62
7
  6
CONTINUOUS
 70
0
 71
3
 72
47
 73
43
 74
0
 42
0.0000001
 43
0.0000001
 44
0.0000000001
 40
0.0
 40
0.0
 40
0.0
 40
0.0
 40
0.0001317365
 40
0.0002863296
 40
0.0004786019
 40
0.0007164061
 40
0.0010038662
 40
0.0013432828
 40
0.0021827902
 40
0.0032412957
 40
0.0045215343
 40
0.0060248653
 40
0.0077516116
 40
0.0097015037
 40
0.0118740572
 40
0.0168845437
 40
0.0227772436
 40
0.0295431967
 40
0.0371704915
 40
0.0456468621
 40
0.0549588751
 40
0.0650897863
 40
0.0877382315
 40
0.1134381698
 40
0.1420130488
 40
0.17326569
 40
0.2069821217
 40
0.242928881
 40
0.2808591874
 40
0.3205112089
 40
0.3616115598
 40
0.4038773023
 40
0.4907322572
 40
0.5786849104
 40
0.6653136737
 40
0.7482334353
 40
0.8251615109
 40
0.8939814937
 40
0.9247478957
 40
0.9527982438
 40
0.9779441026
 40
1.0
 40
1.0
 40
1.0
 40
1.0
 10
2.57204417
 20
4.8677749118
 30
0.0
 10
2.5720441622
 20
4.8677602411
 30
0.0
 10
2.5720362995
 20
4.8677281638
 30
0.0
 10
2.572004735
 20
4.8676842558
 30
0.0
 10
2.5719551479
 20
4.8676415103
 30
0.0
 10
2.5718872078
 20
4.8675990625
 30
0.0
 10
2.5718006615
 20
4.8675565896
 30
0.0
 10
2.5716491145
 20
4.8674954773
 30
0.0
 10
2.5714107918
 20
4.8674216106
 30
0.0
 10
2.571066946
 20
4.8673373035
 30
0.0
 10
2.5706474377
 20
4.8672526211
 30
0.0
 10
2.5701523511
 20
4.8671676135
 30
0.0
 10
2.5695817784
 20
4.8670824133
 30
0.0
 10
2.5689359824
 20
4.8669970529
 30
0.0
 10
2.5679259487
 20
4.8668773339
 30
0.0
 10
2.5664771369
 20
4.8667302369
 30
0.0
 10
2.5645167352
 20
4.8665603492
 30
0.0
 10
2.5622640002
 20
4.8663900663
 30
0.0
 10
2.5597228482
 20
4.8662194275
 30
0.0
 10
2.5568976007
 20
4.866048571
 30
0.0
 10
2.5537930902
 20
4.8658775591
 30
0.0
 10
2.5491116144
 20
4.8656404549
 30
0.0
 10
2.542605652
 20
4.8653478606
 30
0.0
 10
2.5340459053
 20
4.8650075621
 30
0.0
 10
2.5245273056
 20
4.8646666883
 30
0.0
 10
2.5141154573
 20
4.8643253363
 30
0.0
 10
2.5028822506
 20
4.8639836874
 30
0.0
 10
2.4909050799
 20
4.8636417824
 30
0.0
 10
2.4782666492
 20
4.8632997111
 30
0.0
 10
2.4650540975
 20
4.8629575037
 30
0.0
 10
2.4513585817
 20
4.8626151908
 30
0.0
 10
2.4324076788
 20
4.8621545156
 30
0.0
 10
2.4082402314
 20
4.8615847454
 30
0.0
 10
2.3791335206
 20
4.8609068091
 30
0.0
 10
2.350465161
 20
4.8602291544
 30
0.0
 10
2.3230248696
 20
4.8595523955
 30
0.0
 10
2.2975684409
 20
4.8588770928
 30
0.0
 10
2.2779195721
 20
4.8582973352
 30
0.0
 10
2.2637132824
 20
4.8578244838
 30
0.0
 10
2.2543690597
 20
4.8574836773
 30
0.0
 10
2.2459955643
 20
4.8571435067
 30
0.0
 10
2.2407445279
 20
4.8569011742
 30
0.0
 10
2.2382913988
 20
4.8567777227
 30
0.0
  0
SPLINE
  5
2AE
100
AcDbEntity
  8
0
100
AcDbSpline
 62
7
  6
CONTINUOUS
 70
0
 71
3
 72
66
 73
62
 74
0
 42
0.0000001
 43
0.0000001
 44
0.0000000001
 40
0.0
 40
0.0
 40
0.0
 40
0.0
 40
0.0001460612
 40
0.0003251189
 40
0.0005565203
 40
0.0008494324
 40
0.0012082874
 40
0.0016353988
 40
0.0021320835
 40
0.0026991356
 40
0.0040460651
 40
0.0056785013
 40
0.0075972681
 40
0.0098025376
 40
0.0122936758
 40
0.0150693716
 40
0.0181281659
 40
0.0214685164
 40
0.028987378
 40
0.0376099523
 40
0.0473154513
 40
0.0580824104
 40
0.0698861954
 40
0.0826982797
 40
0.0964897011
 40
0.1112283042
 40
0.1434052624
 40
0.1789288034
 40
0.2174662925
 40
0.258655905
 40
0.3021119552
 40
0.3474271788
 40
0.3941761593
 40
0.4419207296
 40
0.4902131655
 40
0.538600334
 40
0.5866286338
 40
0.6338474133
 40
0.6798138295
 40
0.7240971637
 40
0.7662817397
 40
0.8059720548
 40
0.8427966987
 40
0.8764101249
 40
0.9064973976
 40
0.9201301162
 40
0.9327781501
 40
0.9444125355
 40
0.9550068618
 40
0.9645353815
 40
0.9729770013
 40
0.9803131324
 40
0.986526364
 40
0.991604986
 40
0.9937162608
 40
0.9955411204
 40
0.9970793781
 40
0.9983322823
 40
0.9993030472
 40
0.9996849143
 40
1.0
 40
1.0
 40
1.0
 40
1.0
 10
2.5720440571
 20
4.9197541121
 30
0.0
 10
2.5720440723
 20
4.9197368619
 30
0.0
 10
2.5720328035
 20
4.9196983
 30
0.0
 10
2.57198952
 20
4.9196474853
 30
0.0
 10
2.5719223462
 20
4.9195979707
 30
0.0
 10
2.5718301478
 20
4.9195486878
 30
0.0
 10
2.5717125776
 20
4.9194992755
 30
0.0
 10
2.5715693411
 20
4.9194497345
 30
0.0
 10
2.5714003686
 20
4.9194000693
 30
0.0
 10
2.5711244648
 20
4.919329636
 30
0.0
 10
2.5707143772
 20
4.9192436345
 30
0.0
 10
2.5701443303
 20
4.9191448382
 30
0.0
 10
2.5694716805
 20
4.9190457213
 30
0.0
 10
2.568696725
 20
4.9189463449
 30
0.0
 10
2.5678198572
 20
4.9188468056
 30
0.0
 10
2.5668416267
 20
4.9187471352
 30
0.0
 10
2.5657626444
 20
4.9186473639
 30
0.0
 10
2.5641247376
 20
4.9185087065
 30
0.0
 10
2.5618302069
 20
4.9183375716
 30
0.0
 10
2.5587840581
 20
4.9181389384
 30
0.0
 10
2.5553536032
 20
4.9179399372
 30
0.0
 10
2.5515468922
 20
4.9177406746
 30
0.0
 10
2.5473728396
 20
4.917541235
 30
0.0
 10
2.5428412254
 20
4.9173416283
 30
0.0
 10
2.5379626959
 20
4.9171419138
 30
0.0
 10
2.5307982954
 20
4.9168674199
 30
0.0
 10
2.5210679289
 20
4.9165276574
 30
0.0
 10
2.5085272319
 20
4.916130221
 30
0.0
 10
2.494921642
 20
4.9157323148
 30
0.0
 10
2.4803788426
 20
4.9153340314
 30
0.0
 10
2.4650352997
 20
4.9149354956
 30
0.0
 10
2.449034975
 20
4.9145367787
 30
0.0
 10
2.432528017
 20
4.9141379303
 30
0.0
 10
2.4156693447
 20
4.9137390016
 30
0.0
 10
2.3986171459
 20
4.9133400313
 30
0.0
 10
2.381531429
 20
4.9129410512
 30
0.0
 10
2.3645725477
 20
4.9125421014
 30
0.0
 10
2.3478996418
 20
4.9121432156
 30
0.0
 10
2.3316691525
 20
4.9117444349
 30
0.0
 10
2.3160333962
 20
4.9113458168
 30
0.0
 10
2.3011391083
 20
4.9109474222
 30
0.0
 10
2.2871260341
 20
4.9105493314
 30
0.0
 10
2.2741256548
 20
4.9101517006
 30
0.0
 10
2.2622599767
 20
4.9097546503
 30
0.0
 10
2.253133008
 20
4.9094143163
 30
0.0
 10
2.2464814892
 20
4.9091389247
 30
0.0
 10
2.2420080551
 20
4.9089393383
 30
0.0
 10
2.2378938404
 20
4.9087399088
 30
0.0
 10
2.2341485072
 20
4.9085407015
 30
0.0
 10
2.2307808169
 20
4.9083417504
 30
0.0
 10
2.2277986533
 20
4.908143171
 30
0.0
 10
2.2252089488
 20
4.9079452724
 30
0.0
 10
2.2230177228
 20
4.9077481017
 30
0.0
 10
2.221443937
 20
4.9075762971
 30
0.0
 10
2.2203886202
 20
4.907435053
 30
0.0
 10
2.2197496644
 20
4.9073360042
 30
0.0
 10
2.2192133486
 20
4.9072374387
 30
0.0
 10
2.2187799299
 20
4.907139385
 30
0.0
 10
2.218483982
 20
4.9070532987
 30
0.0
 10
2.2183004471
 20
4.9069815094
 30
0.0
 10
2.2182263457
 20
4.9069452541
 30
0.0
 10
2.2181941175
 20
4.9069266501
 30
0.0
  0
LINE
  5
2AF
100
AcDbEntity
  8
0
100
AcDbLine
 62
7
  6
CONTINUOUS
 10
2.2599567766
 20
4.9388995113
 11
2.2594075151
 21
4.9388795892
  0
SPLINE
  5
2B0
100
AcDbEntity
  8
0
100
AcDbSpline
 62
7
  6
CONTINUOUS
 70
0
 71
3
 72
31
 73
27
 74
0
 42
0.0000001
 43
0.0000001
 44
0.0000000001
 40
0.0
 40
0.0
 40
0.0
 40
0.0
 40
0.2259679139
 40
0.3291057677
 40
0.4254233419
 40
0.5147454222
 40
0.5969044547
 40
0.6717351098
 40
0.7390990862
 40
0.7988799989
 40
0.8509642514
 40
0.8952599535
 40
0.9144679049
 40
0.9317069067
 40
0.9469715404
 40
0.960258143
 40
0.9715683049
 40
0.9809123379
 40
0.9848536522
 40
0.9883132096
 40
0.9912980087
 40
0.9938192318
 40
0.9958958402
 40
0.997562388
 40
0.9988863781
 40
1.0
 40
1.0
 40
1.0
 40
1.0
 10
2.2594075151
 20
4.9388795892
 30
0.0
 10
2.2562775712
 20
4.9387657373
 30
0.0
 10
2.2517193123
 20
4.9385919786
 30
0.0
 10
2.2458279427
 20
4.9383446379
 30
0.0
 10
2.2418293912
 20
4.9381648967
 30
0.0
 10
2.2381219252
 20
4.9379852579
 30
0.0
 10
2.2347126466
 20
4.9378057624
 30
0.0
 10
2.2316081654
 20
4.93762643
 30
0.0
 10
2.22881441
 20
4.9374473161
 30
0.0
 10
2.2263366176
 20
4.9372685771
 30
0.0
 10
2.2241794745
 20
4.9370902657
 30
0.0
 10
2.2225847384
 20
4.9369358752
 30
0.0
 10
2.2214726637
 20
4.936810214
 30
0.0
 10
2.2207615153
 20
4.9367206185
 30
0.0
 10
2.2201331432
 20
4.9366311843
 30
0.0
 10
2.219587836
 20
4.936541982
 30
0.0
 10
2.2191258206
 20
4.9364530467
 30
0.0
 10
2.2187936522
 20
4.936375634
 30
0.0
 10
2.2185703298
 20
4.936312273
 30
0.0
 10
2.2184334529
 20
4.9362675544
 30
0.0
 10
2.2183173969
 20
4.9362229289
 30
0.0
 10
2.2182220781
 20
4.9361783895
 30
0.0
 10
2.2181472696
 20
4.9361338961
 30
0.0
 10
2.2180926807
 20
4.9360891259
 30
0.0
 10
2.2180577869
 20
4.9360431254
 30
0.0
 10
2.2180489821
 20
4.9360091472
 30
0.0
 10
2.2180489811
 20
4.9359937119
 30
0.0
  0
SPLINE
  5
2B1
100
AcDbEntity
  8
0
100
AcDbSpline
 62
7
  6
CONTINUOUS
 70
0
 71
3
 72
32
 73
28
 74
0
 42
0.0000001
 43
0.0000001
 44
0.0000000001
 40
0.0
 40
0.0
 40
0.0
 40
0.0
 40
0.1875654674
 40
0.2797630368
 40
0.3697111446
 40
0.4565271011
 40
0.5393628439
 40
0.6174117603
 40
0.6899116365
 40
0.756157146
 40
0.8155030527
 40
0.8424043038
 40
0.8673704973
 40
0.8903407552
 40
0.9112577114
 40
0.9300734808
 40
0.9467420798
 40
0.9612229421
 40
0.9734854513
 40
0.9835016217
 40
0.9876611128
 40
0.9912537216
 40
0.994279689
 40
0.9967408097
 40
0.9986422824
 40
0.9993874129
 40
1.0
 40
1.0
 40
1.0
 40
1.0
 10
2.4040890232
 20
4.9394577227
 30
0.0
 10
2.3924579075
 20
4.9391855521
 30
0.0
 10
2.3751094824
 20
4.9387816823
 30
0.0
 10
2.3521835484
 20
4.9382362276
 30
0.0
 10
2.3355053678
 20
4.9378295623
 30
0.0
 10
2.3194080558
 20
4.9374230448
 30
0.0
 10
2.3040490645
 20
4.9370167559
 30
0.0
 10
2.2895783883
 20
4.9366107827
 30
0.0
 10
2.2761371861
 20
4.9362052631
 30
0.0
 10
2.2638566471
 20
4.9358003333
 30
0.0
 10
2.2544041715
 20
4.9354533303
 30
0.0
 10
2.2475115466
 20
4.9351724838
 30
0.0
 10
2.2428739741
 20
4.9349689292
 30
0.0
 10
2.2386079717
 20
4.9347655539
 30
0.0
 10
2.2347239298
 20
4.9345623538
 30
0.0
 10
2.2312313347
 20
4.9343594651
 30
0.0
 10
2.2281386836
 20
4.9341569725
 30
0.0
 10
2.2254534423
 20
4.9339550964
 30
0.0
 10
2.2231821394
 20
4.9337540332
 30
0.0
 10
2.2215514253
 20
4.9335788236
 30
0.0
 10
2.2204586951
 20
4.9334347156
 30
0.0
 10
2.2197977808
 20
4.9333337054
 30
0.0
 10
2.2192434801
 20
4.9332332342
 30
0.0
 10
2.2187961309
 20
4.9331333128
 30
0.0
 10
2.2184911648
 20
4.933045574
 30
0.0
 10
2.2183026268
 20
4.932972292
 30
0.0
 10
2.2182267681
 20
4.9329352685
 30
0.0
 10
2.2181938726
 20
4.9329162501
 30
0.0
  0
SPLINE
  5
2B2
100
AcDbEntity
  8
0
100
AcDbSpline
 62
7
  6
CONTINUOUS
 70
0
 71
3
 72
66
 73
62
 74
0
 42
0.0000001
 43
0.0000001
 44
0.0000000001
 40
0.0
 40
0.0
 40
0.0
 40
0.0
 40
0.0001349163
 40
0.0003052812
 40
0.0005303023
 40
0.0008184113
 40
0.0011735369
 40
0.0015977189
 40
0.0020921159
 40
0.0026574317
 40
0.0040023822
 40
0.0056347137
 40
0.0075549035
 40
0.0097623838
 40
0.0122562609
 40
0.0150354697
 40
0.0214450037
 40
0.0289777388
 40
0.0376157502
 40
0.0473402998
 40
0.0581287037
 40
0.0699552128
 40
0.0827933763
 40
0.0966125169
 40
0.1113800038
 40
0.1436214678
 40
0.1792143781
 40
0.2178241563
 40
0.2590884103
 40
0.3026193873
 40
0.3480082035
 40
0.3948287021
 40
0.4426405389
 40
0.4909936465
 40
0.5394339881
 40
0.5875068493
 40
0.6347598991
 40
0.6807488696
 40
0.7250410914
 40
0.7672197903
 40
0.8068896753
 40
0.8436785667
 40
0.8772400331
 40
0.9072590981
 40
0.9208512697
 40
0.9334548183
 40
0.9450404135
 40
0.9555818484
 40
0.9650535524
 40
0.9734343029
 40
0.9807054376
 40
0.9868495503
 40
0.9894951841
 40
0.991854969
 40
0.9939278954
 40
0.995713172
 40
0.9972106048
 40
0.9984213765
 40
0.9993484512
 40
0.9997078179
 40
1.0
 40
1.0
 40
1.0
 40
1.0
 10
2.5879873809
 20
4.9105493011
 30
0.0
 10
2.5879873809
 20
4.910531934
 30
0.0
 10
2.5879745173
 20
4.9104925918
 30
0.0
 10
2.5879269615
 20
4.9104421566
 30
0.0
 10
2.5878537096
 20
4.9103927972
 30
0.0
 10
2.5877530875
 20
4.9103435965
 30
0.0
 10
2.5876247692
 20
4.9102941794
 30
0.0
 10
2.5874684056
 20
4.9102446101
 30
0.0
 10
2.5872839285
 20
4.910194897
 30
0.0
 10
2.586982491
 20
4.9101243429
 30
0.0
 10
2.5865345163
 20
4.910038224
 30
0.0
 10
2.5859118344
 20
4.9099393279
 30
0.0
 10
2.5851769883
 20
4.9098401246
 30
0.0
 10
2.5843304231
 20
4.9097406489
 30
0.0
 10
2.5833726326
 20
4.9096409962
 30
0.0
 10
2.5818752725
 20
4.9095012236
 30
0.0
 10
2.5797295675
 20
4.9093295495
 30
0.0
 10
2.5768296506
 20
4.9091312288
 30
0.0
 10
2.5735021749
 20
4.9089323875
 30
0.0
 10
2.5697549815
 20
4.9087331786
 30
0.0
 10
2.5655968426
 20
4.9085337175
 30
0.0
 10
2.5610374966
 20
4.9083340406
 30
0.0
 10
2.5560876815
 20
4.9081342403
 30
0.0
 10
2.5507590086
 20
4.9079343107
 30
0.0
 10
2.5429337158
 20
4.907659503
 30
0.0
 10
2.5323061873
 20
4.9073193944
 30
0.0
 10
2.5186099031
 20
4.9069215247
 30
0.0
 10
2.5037517222
 20
4.9065231842
 30
0.0
 10
2.4878713816
 20
4.9061244812
 30
0.0
 10
2.4711181552
 20
4.9057255238
 30
0.0
 10
2.4536495113
 20
4.9053263782
 30
0.0
 10
2.435629677
 20
4.9049271051
 30
0.0
 10
2.4172281743
 20
4.9045277516
 30
0.0
 10
2.3986181096
 20
4.9041283544
 30
0.0
 10
2.3799744369
 20
4.9037289511
 30
0.0
 10
2.3614724014
 20
4.9033295745
 30
0.0
 10
2.3432859921
 20
4.9029302593
 30
0.0
 10
2.3255863638
 20
4.9025310548
 30
0.0
 10
2.3085400999
 20
4.9021320148
 30
0.0
 10
2.2923074881
 20
4.9017332022
 30
0.0
 10
2.2770410434
 20
4.9013347025
 30
0.0
 10
2.2628842427
 20
4.9009366663
 30
0.0
 10
2.2499702624
 20
4.9005392094
 30
0.0
 10
2.2400419983
 20
4.9001984845
 30
0.0
 10
2.2328109841
 20
4.8999227337
 30
0.0
 10
2.2279516719
 20
4.8997229478
 30
0.0
 10
2.2234854178
 20
4.8995233154
 30
0.0
 10
2.2194227374
 20
4.8993239142
 30
0.0
 10
2.215773135
 20
4.899124765
 30
0.0
 10
2.2125451694
 20
4.8989260407
 30
0.0
 10
2.2097464382
 20
4.8987278847
 30
0.0
 10
2.2076860476
 20
4.8985561162
 30
0.0
 10
2.2062576444
 20
4.8984160684
 30
0.0
 10
2.2053519165
 20
4.8983164829
 30
0.0
 10
2.2045576517
 20
4.8982171234
 30
0.0
 10
2.2038753598
 20
4.8981180384
 30
0.0
 10
2.2033052519
 20
4.8980194778
 30
0.0
 10
2.2028476104
 20
4.8979214819
 30
0.0
 10
2.2025373412
 20
4.8978354031
 30
0.0
 10
2.2023472321
 20
4.8977632883
 30
0.0
 10
2.2022714639
 20
4.8977268245
 30
0.0
 10
2.2022388881
 20
4.8977080251
 30
0.0
  0
SPLINE
  5
2B3
100
AcDbEntity
  8
0
100
AcDbSpline
 62
7
  6
CONTINUOUS
 70
0
 71
3
 72
25
 73
21
 74
0
 42
0.0000001
 43
0.0000001
 44
0.0000000001
 40
0.0
 40
0.0
 40
0.0
 40
0.0
 40
0.2295720969
 40
0.4299571696
 40
0.6005116875
 40
0.6744706663
 40
0.7408369478
 40
0.7995785152
 40
0.8506675019
 40
0.8733369775
 40
0.8940902267
 40
0.9129294835
 40
0.9298585586
 40
0.9580109728
 40
0.9692641291
 40
0.9786667994
 40
0.9862682252
 40
0.9921653296
 40
0.9965723208
 40
1.0
 40
1.0
 40
1.0
 40
1.0
 10
2.5720848644
 20
4.8568789474
 30
0.0
 10
2.5733139908
 20
4.8569452361
 30
0.0
 10
2.5756156289
 20
4.857076101
 30
0.0
 10
2.5788286845
 20
4.8572850409
 30
0.0
 10
2.5812073458
 20
4.8574659263
 30
0.0
 10
2.5828677149
 20
4.8576131891
 30
0.0
 10
2.5839299133
 20
4.8577181725
 30
0.0
 10
2.5848688378
 20
4.8578229683
 30
0.0
 10
2.5855735577
 20
4.8579132957
 30
0.0
 10
2.5860750126
 20
4.8579864553
 30
0.0
 10
2.5864046798
 20
4.858039092
 30
0.0
 10
2.5867031705
 20
4.8580916458
 30
0.0
 10
2.5870394298
 20
4.8581578584
 30
0.0
 10
2.5873340002
 20
4.8582258561
 30
0.0
 10
2.5875847382
 20
4.8583011772
 30
0.0
 10
2.5877271352
 20
4.8583532198
 30
0.0
 10
2.5878387686
 20
4.8584049723
 30
0.0
 10
2.587919942
 20
4.8584568758
 30
0.0
 10
2.5879727959
 20
4.8585097463
 30
0.0
 10
2.5879873658
 20
4.8585517229
 30
0.0
 10
2.5879873521
 20
4.8585701013
 30
0.0
  0
SPLINE
  5
2B4
100
AcDbEntity
  8
0
100
AcDbSpline
 62
7
  6
CONTINUOUS
 70
0
 71
3
 72
25
 73
21
 74
0
 42
0.0000001
 43
0.0000001
 44
0.0000000001
 40
0.0
 40
0.0
 40
0.0
 40
0.0
 40
0.2288375471
 40
0.4290612308
 40
0.59981555
 40
0.740536516
 40
0.7994910359
 40
0.8507863489
 40
0.8943953275
 40
0.9303021651
 40
0.9453701021
 40
0.9585230361
 40
0.9697753746
 40
0.9791513821
 40
0.9866948102
 40
0.9924928244
 40
0.9947966856
 40
0.9967586123
 40
0.9984544635
 40
1.0
 40
1.0
 40
1.0
 40
1.0
 10
2.2382913988
 20
4.8567777227
 30
0.0
 10
2.2367337247
 20
4.8566993341
 30
0.0
 10
2.2338135305
 20
4.8565445463
 30
0.0
 10
2.2297328693
 20
4.8562979157
 30
0.0
 10
2.2262539927
 20
4.8560521047
 30
0.0
 10
2.223738222
 20
4.8558382463
 30
0.0
 10
2.2220367163
 20
4.8556626752
 30
0.0
 10
2.220995321
 20
4.8555392261
 30
0.0
 10
2.2201122411
 20
4.8554162139
 30
0.0
 10
2.2194763877
 20
4.855309111
 30
0.0
 10
2.2190481935
 20
4.8552212848
 30
0.0
 10
2.2187863093
 20
4.8551594463
 30
0.0
 10
2.2185644153
 20
4.8550977975
 30
0.0
 10
2.218382304
 20
4.8550364071
 30
0.0
 10
2.2182399001
 20
4.8549753197
 30
0.0
 10
2.2181472499
 20
4.8549211798
 30
0.0
 10
2.2180951571
 20
4.8548762342
 30
0.0
 10
2.2180689828
 20
4.8548448313
 30
0.0
 10
2.2180527632
 20
4.8548128604
 30
0.0
 10
2.2180489809
 20
4.8547906455
 30
0.0
 10
2.2180489809
 20
4.8547801119
 30
0.0
  0
SPLINE
  5
2B5
100
AcDbEntity
  8
0
100
AcDbSpline
 62
7
  6
CONTINUOUS
 70
0
 71
3
 72
66
 73
62
 74
0
 42
0.0000001
 43
0.0000001
 44
0.0000000001
 40
0.0
 40
0.0
 40
0.0
 40
0.0
 40
0.0001349164
 40
0.000305282
 40
0.0005303048
 40
0.0008184162
 40
0.0011735453
 40
0.0015977316
 40
0.0020921339
 40
0.002657456
 40
0.0040024224
 40
0.0056347757
 40
0.0075550034
 40
0.0097625308
 40
0.0122564529
 40
0.0150356939
 40
0.0214452226
 40
0.0289779385
 40
0.0376159293
 40
0.0473404538
 40
0.0581288657
 40
0.069955397
 40
0.0827935911
 40
0.0966127846
 40
0.1113803164
 40
0.1436218849
 40
0.1792149039
 40
0.2178247842
 40
0.2590891606
 40
0.3026204778
 40
0.3480093769
 40
0.3948294775
 40
0.4426409704
 40
0.4909939943
 40
0.5394344178
 40
0.5875073625
 40
0.6347604951
 40
0.6807495252
 40
0.7250417931
 40
0.7672206172
 40
0.8068904203
 40
0.8436789037
 40
0.8772399725
 40
0.9072588468
 40
0.9208510133
 40
0.9334545702
 40
0.9450402082
 40
0.9555816896
 40
0.9650534235
 40
0.9734342104
 40
0.9807053711
 40
0.9868495004
 40
0.9894951454
 40
0.9918549413
 40
0.9939278766
 40
0.9957131583
 40
0.9972105946
 40
0.9984213701
 40
0.9993484484
 40
0.9997078166
 40
1.0
 40
1.0
 40
1.0
 40
1.0
 10
2.2021057809
 20
4.8932193227
 30
0.0
 10
2.2021057809
 20
4.8932366899
 30
0.0
 10
2.2021186447
 20
4.8932760321
 30
0.0
 10
2.202166201
 20
4.8933264673
 30
0.0
 10
2.2022394536
 20
4.8933758267
 30
0.0
 10
2.2023400767
 20
4.8934250276
 30
0.0
 10
2.2024683964
 20
4.8934744449
 30
0.0
 10
2.2026247617
 20
4.8935240144
 30
0.0
 10
2.2028092408
 20
4.8935737278
 30
0.0
 10
2.2031106818
 20
4.8936442823
 30
0.0
 10
2.2035586622
 20
4.893730402
 30
0.0
 10
2.2041813536
 20
4.8938292996
 30
0.0
 10
2.2049162135
 20
4.8939285038
 30
0.0
 10
2.2057627955
 20
4.8940279804
 30
0.0
 10
2.2067206019
 20
4.8941276339
 30
0.0
 10
2.2082179713
 20
4.8942674066
 30
0.0
 10
2.2103636773
 20
4.8944390816
 30
0.0
 10
2.2132635884
 20
4.8946374005
 30
0.0
 10
2.2165910559
 20
4.89483624
 30
0.0
 10
2.2203382445
 20
4.8950354484
 30
0.0
 10
2.224496384
 20
4.895234909
 30
0.0
 10
2.2290557378
 20
4.8954345862
 30
0.0
 10
2.2340055665
 20
4.895634387
 30
0.0
 10
2.2393342559
 20
4.8958343167
 30
0.0
 10
2.2471595747
 20
4.8961091252
 30
0.0
 10
2.2577871364
 20
4.8964492342
 30
0.0
 10
2.2714834612
 20
4.8968471048
 30
0.0
 10
2.2863416849
 20
4.897245446
 30
0.0
 10
2.3022220981
 20
4.8976441504
 30
0.0
 10
2.3189753947
 20
4.8980431088
 30
0.0
 10
2.3364440418
 20
4.8984422546
 30
0.0
 10
2.3544637912
 20
4.8988415253
 30
0.0
 10
2.3728651876
 20
4.8992408765
 30
0.0
 10
2.3914752077
 20
4.8996402727
 30
0.0
 10
2.4101188909
 20
4.9000396763
 30
0.0
 10
2.4286209583
 20
4.9004390536
 30
0.0
 10
2.4468073965
 20
4.9008383696
 30
0.0
 10
2.4645070491
 20
4.9012375747
 30
0.0
 10
2.4815533426
 20
4.9016366156
 30
0.0
 10
2.4977859659
 20
4.9020354292
 30
0.0
 10
2.5130523636
 20
4.9024339277
 30
0.0
 10
2.52720905
 20
4.9028319615
 30
0.0
 10
2.540122902
 20
4.9032294144
 30
0.0
 10
2.5500510898
 20
4.9035701369
 30
0.0
 10
2.5572820799
 20
4.9038458861
 30
0.0
 10
2.562141398
 20
4.9040456722
 30
0.0
 10
2.5666076646
 20
4.9042453047
 30
0.0
 10
2.5706703604
 20
4.9044447061
 30
0.0
 10
2.5743199772
 20
4.9046438562
 30
0.0
 10
2.5775479547
 20
4.9048425805
 30
0.0
 10
2.5803466961
 20
4.9050407368
 30
0.0
 10
2.5824070936
 20
4.9052125058
 30
0.0
 10
2.5838355018
 20
4.9053525537
 30
0.0
 10
2.5847412337
 20
4.9054521395
 30
0.0
 10
2.5855355017
 20
4.9055514991
 30
0.0
 10
2.5862177958
 20
4.9056505846
 30
0.0
 10
2.5867879053
 20
4.9057491455
 30
0.0
 10
2.5872455482
 20
4.9058471417
 30
0.0
 10
2.5875558186
 20
4.9059332206
 30
0.0
 10
2.5877459285
 20
4.9060053355
 30
0.0
 10
2.587821697
 20
4.9060417993
 30
0.0
 10
2.5878542731
 20
4.9060605987
 30
0.0
  0
LINE
  5
2B6
100
AcDbEntity
  8
0
100
AcDbLine
 62
7
  6
CONTINUOUS
 10
2.5878544462
 20
4.9320501985
 11
2.5876490351
 21
4.9319587716
  0
SPLINE
  5
2B7
100
AcDbEntity
  8
0
100
AcDbSpline
 62
7
  6
CONTINUOUS
 70
0
 71
3
 72
63
 73
59
 74
0
 42
0.0000001
 43
0.0000001
 44
0.0000000001
 40
0.0
 40
0.0
 40
0.0
 40
0.0
 40
0.0008952024
 40
0.0020697685
 40
0.0035267665
 40
0.0052674864
 40
0.0072921474
 40
0.0095999911
 40
0.0150608045
 40
0.021640187
 40
0.0293247655
 40
0.0380963687
 40
0.0479360115
 40
0.058821364
 40
0.0707265546
 40
0.0974871475
 40
0.1279702655
 40
0.1618944251
 40
0.1989461975
 40
0.2387819288
 40
0.2810326404
 40
0.3253073521
 40
0.371195639
 40
0.418272137
 40
0.4661008388
 40
0.5142384614
 40
0.5622388367
 40
0.6096573304
 40
0.656054354
 40
0.7009999362
 40
0.7440779483
 40
0.7848891165
 40
0.8230550627
 40
0.8582228905
 40
0.8900671477
 40
0.9046490665
 40
0.9182926303
 40
0.9309658788
 40
0.9426391231
 40
0.9532865736
 40
0.9628830146
 40
0.9714065481
 40
0.9788389135
 40
0.9851626563
 40
0.9879046303
 40
0.9903650873
 40
0.9925429857
 40
0.9944374552
 40
0.9960479608
 40
0.9973750322
 40
0.9979328927
 40
0.9984208251
 40
0.9988395336
 40
0.9991901764
 40
0.9994747889
 40
0.9996972849
 40
0.9998660351
 40
1.0
 40
1.0
 40
1.0
 40
1.0
 10
2.5876490351
 20
4.9319587716
 30
0.0
 10
2.5875407489
 20
4.931919557
 30
0.0
 10
2.5872842673
 20
4.9318462063
 30
0.0
 10
2.5868410009
 20
4.9317490641
 30
0.0
 10
2.586286928
 20
4.9316512488
 30
0.0
 10
2.5856222578
 20
4.9315529092
 30
0.0
 10
2.5848471421
 20
4.9314542675
 30
0.0
 10
2.5835949709
 20
4.9313144943
 30
0.0
 10
2.5817568633
 20
4.9311437862
 30
0.0
 10
2.5792268228
 20
4.9309474263
 30
0.0
 10
2.5762697961
 20
4.9307504518
 30
0.0
 10
2.5728925777
 20
4.9305529064
 30
0.0
 10
2.5691029735
 20
4.9303550532
 30
0.0
 10
2.5649097545
 20
4.9301569474
 30
0.0
 10
2.5585409184
 20
4.9298817006
 30
0.0
 10
2.5496513036
 20
4.9295426457
 30
0.0
 10
2.5379291264
 20
4.9291486556
 30
0.0
 10
2.5248823423
 20
4.9287539037
 30
0.0
 10
2.5106318631
 20
4.9283585526
 30
0.0
 10
2.4953098012
 20
4.9279627964
 30
0.0
 10
2.4790582242
 20
4.9275667435
 30
0.0
 10
2.4620277701
 20
4.9271704854
 30
0.0
 10
2.4443763196
 20
4.9267740783
 30
0.0
 10
2.4262675378
 20
4.9263775696
 30
0.0
 10
2.4078693119
 20
4.9259810033
 30
0.0
 10
2.389352202
 20
4.9255844135
 30
0.0
 10
2.3708878775
 20
4.9251878326
 30
0.0
 10
2.3526475324
 20
4.9247912988
 30
0.0
 10
2.3348002798
 20
4.9243948479
 30
0.0
 10
2.3175115696
 20
4.9239985227
 30
0.0
 10
2.3009416723
 20
4.923602385
 30
0.0
 10
2.2852442315
 20
4.9232065031
 30
0.0
 10
2.2705647701
 20
4.9228109854
 30
0.0
 10
2.2570393417
 20
4.9224159375
 30
0.0
 10
2.2465476592
 20
4.9220782183
 30
0.0
 10
2.2388244834
 20
4.9218053404
 30
0.0
 10
2.23356659
 20
4.9216068341
 30
0.0
 10
2.2286831785
 20
4.9214084514
 30
0.0
 10
2.2241855548
 20
4.9212101925
 30
0.0
 10
2.2200841699
 20
4.9210121493
 30
0.0
 10
2.216388502
 20
4.9208143526
 30
0.0
 10
2.2131070867
 20
4.9206169251
 30
0.0
 10
2.2102475378
 20
4.9204200152
 30
0.0
 10
2.208131825
 20
4.9202495565
 30
0.0
 10
2.2066554664
 20
4.9201107762
 30
0.0
 10
2.2057111315
 20
4.920011831
 30
0.0
 10
2.204876476
 20
4.9199130611
 30
0.0
 10
2.2041519835
 20
4.9198145612
 30
0.0
 10
2.2035380852
 20
4.9197163642
 30
0.0
 10
2.2030964422
 20
4.9196308562
 30
0.0
 10
2.2027992742
 20
4.9195608049
 30
0.0
 10
2.2026174017
 20
4.9195114437
 30
0.0
 10
2.2024632443
 20
4.9194622241
 30
0.0
 10
2.2023367327
 20
4.9194131542
 30
0.0
 10
2.2022375243
 20
4.9193642925
 30
0.0
 10
2.2021652925
 20
4.9193152694
 30
0.0
 10
2.202118422
 20
4.9192651568
 30
0.0
 10
2.2021057809
 20
4.9192261573
 30
0.0
 10
2.2021057809
 20
4.9192089227
 30
0.0
  0
LINE
  5
2B8
100
AcDbEntity
  8
0
100
AcDbLine
 62
7
  6
CONTINUOUS
 10
2.5718992656
 20
4.9228315737
 11
2.5715567079
 21
4.9226918499
  0
SPLINE
  5
2B9
100
AcDbEntity
  8
0
100
AcDbSpline
 62
7
  6
CONTINUOUS
 70
0
 71
3
 72
62
 73
58
 74
0
 42
0.0000001
 43
0.0000001
 44
0.0000000001
 40
0.0
 40
0.0
 40
0.0
 40
0.0
 40
0.0010693783
 40
0.0024167236
 40
0.0040437982
 40
0.0059511462
 40
0.0106060143
 40
0.0163763826
 40
0.023249966
 40
0.0312125809
 40
0.0402476856
 40
0.0503338554
 40
0.0614487929
 40
0.0735679592
 40
0.1007033981
 40
0.1314933729
 40
0.1656557262
 40
0.2028770046
 40
0.2428166556
 40
0.2851083048
 40
0.3293635864
 40
0.3751768938
 40
0.4221278772
 40
0.4697854869
 40
0.5177126509
 40
0.5654694521
 40
0.6126176845
 40
0.6587249382
 40
0.703367781
 40
0.7461368381
 40
0.786640117
 40
0.8245055312
 40
0.8593861149
 40
0.8909628327
 40
0.905420053
 40
0.918945925
 40
0.9315086561
 40
0.9430796632
 40
0.9536335279
 40
0.9631452911
 40
0.9715938866
 40
0.9789614194
 40
0.9852308133
 40
0.9879497456
 40
0.9903900193
 40
0.9925506919
 40
0.994431023
 40
0.9960306401
 40
0.9973502732
 40
0.9979058553
 40
0.9983925813
 40
0.9988112868
 40
0.9991633245
 40
0.9994510276
 40
0.9996787662
 40
0.9998554811
 40
1.0
 40
1.0
 40
1.0
 40
1.0
 10
2.5715567079
 20
4.9226918499
 30
0.0
 10
2.5714363759
 20
4.9226539335
 30
0.0
 10
2.5711602724
 20
4.9225816269
 30
0.0
 10
2.570693116
 20
4.9224844278
 30
0.0
 10
2.5701254197
 20
4.9223867061
 30
0.0
 10
2.5691694272
 20
4.9222464467
 30
0.0
 10
2.5677241505
 20
4.9220764874
 30
0.0
 10
2.5656924888
 20
4.9218818069
 30
0.0
 10
2.5632691457
 20
4.9216862503
 30
0.0
 10
2.5604596428
 20
4.9214899727
 30
0.0
 10
2.5572703384
 20
4.9212933146
 30
0.0
 10
2.553708522
 20
4.921096322
 30
0.0
 10
2.5497823619
 20
4.9208991032
 30
0.0
 10
2.5438460948
 20
4.9206255334
 30
0.0
 10
2.5355891311
 20
4.9202882327
 30
0.0
 10
2.5247317548
 20
4.9198960159
 30
0.0
 10
2.5126837895
 20
4.9195030734
 30
0.0
 10
2.4995558525
 20
4.9191095577
 30
0.0
 10
2.485468441
 20
4.9187156687
 30
0.0
 10
2.470550868
 20
4.9183215025
 30
0.0
 10
2.454940102
 20
4.9179271333
 30
0.0
 10
2.438779467
 20
4.9175326266
 30
0.0
 10
2.4222173146
 20
4.9171380273
 30
0.0
 10
2.4054057034
 20
4.9167433703
 30
0.0
 10
2.388498997
 20
4.9163486952
 30
0.0
 10
2.3716524026
 20
4.9159540321
 30
0.0
 10
2.3550205778
 20
4.9155594145
 30
0.0
 10
2.3387562379
 20
4.915164885
 30
0.0
 10
2.3230087021
 20
4.9147704809
 30
0.0
 10
2.3079225281
 20
4.9143762604
 30
0.0
 10
2.293636228
 20
4.9139822994
 30
0.0
 10
2.280280966
 20
4.9135887028
 30
0.0
 10
2.26797933
 20
4.9131955669
 30
0.0
 10
2.2584389969
 20
4.9128594726
 30
0.0
 10
2.2514174261
 20
4.9125879062
 30
0.0
 10
2.2466379394
 20
4.912390371
 30
0.0
 10
2.2421992714
 20
4.9121929482
 30
0.0
 10
2.2381116055
 20
4.911995655
 30
0.0
 10
2.2343843333
 20
4.9117985782
 30
0.0
 10
2.2310259923
 20
4.9116017371
 30
0.0
 10
2.2280442595
 20
4.9114052684
 30
0.0
 10
2.2254459658
 20
4.9112093141
 30
0.0
 10
2.2235236929
 20
4.9110396829
 30
0.0
 10
2.222182424
 20
4.9109015851
 30
0.0
 10
2.221324438
 20
4.9108031179
 30
0.0
 10
2.2205660945
 20
4.910704823
 30
0.0
 10
2.2199078197
 20
4.9106067906
 30
0.0
 10
2.2193500034
 20
4.9105090557
 30
0.0
 10
2.2189488046
 20
4.9104239534
 30
0.0
 10
2.2186789521
 20
4.9103542639
 30
0.0
 10
2.218513687
 20
4.9103051227
 30
0.0
 10
2.2183735825
 20
4.9102561048
 30
0.0
 10
2.2182585537
 20
4.9102072138
 30
0.0
 10
2.2181683062
 20
4.9101584501
 30
0.0
 10
2.2181024987
 20
4.9101094646
 30
0.0
 10
2.2180600815
 20
4.9100592065
 30
0.0
 10
2.2180490111
 20
4.9100211621
 30
0.0
 10
2.2180489957
 20
4.9100041119
 30
0.0
  0
LINE
  5
2BA
100
AcDbEntity
  8
0
100
AcDbLine
 62
7
  6
CONTINUOUS
 10
2.5720441809
 20
4.8417853119
 11
2.5714551608
 21
4.8414477624
  0
LINE
  5
2BB
100
AcDbEntity
  8
0
100
AcDbLine
 62
7
  6
CONTINUOUS
 10
2.5714551608
 20
4.8414477624
 11
2.5701381191
 21
4.8411777227
  0
SPLINE
  5
2BC
100
AcDbEntity
  8
0
100
AcDbSpline
 62
7
  6
CONTINUOUS
 70
0
 71
3
 72
65
 73
61
 74
0
 42
0.0000001
 43
0.0000001
 44
0.0000000001
 40
0.0
 40
0.0
 40
0.0
 40
0.0
 40
0.0003148074
 40
0.0006964221
 40
0.0016669399
 40
0.0029200484
 40
0.0044584578
 40
0.0062829943
 40
0.0083936861
 40
0.0134716471
 40
0.0196852188
 40
0.0270204025
 40
0.0354615734
 40
0.0449904088
 40
0.0555838114
 40
0.0672179559
 40
0.0798662368
 40
0.0934980966
 40
0.1235854944
 40
0.1571982823
 40
0.1940224132
 40
0.2337129994
 40
0.2758974106
 40
0.32018049
 40
0.3661472342
 40
0.4133661462
 40
0.4613945571
 40
0.5097820965
 40
0.5580747404
 40
0.6058197521
 40
0.6525692217
 40
0.6978845517
 40
0.7413411953
 40
0.7825315055
 40
0.8210689252
 40
0.8565929619
 40
0.8887708365
 40
0.9035090045
 40
0.9173006602
 40
0.9301134978
 40
0.9419167071
 40
0.9526840306
 40
0.962390172
 40
0.9710120483
 40
0.9785314062
 40
0.9849310143
 40
0.9877063361
 40
0.9901971333
 40
0.9924025123
 40
0.9943217804
 40
0.9959545888
 40
0.9973013366
 40
0.9978681479
 40
0.9983645707
 40
0.9987914573
 40
0.9991501799
 40
0.9994430996
 40
0.999674637
 40
0.9998538628
 40
1.0
 40
1.0
 40
1.0
 40
1.0
 10
2.5718992174
 20
4.8708523736
 30
0.0
 10
2.5718670288
 20
4.8708337668
 30
0.0
 10
2.571792998
 20
4.8707975079
 30
0.0
 10
2.5716095623
 20
4.8707257154
 30
0.0
 10
2.5713136423
 20
4.8706396495
 30
0.0
 10
2.5708801981
 20
4.8705416525
 30
0.0
 10
2.5703438725
 20
4.8704431208
 30
0.0
 10
2.5697050068
 20
4.8703440733
 30
0.0
 10
2.5686498784
 20
4.870202815
 30
0.0
 10
2.5670762014
 20
4.8700309903
 30
0.0
 10
2.5648851229
 20
4.8698338485
 30
0.0
 10
2.5622955464
 20
4.869635907
 30
0.0
 10
2.5593135094
 20
4.8694373348
 30
0.0
 10
2.5559459419
 20
4.8692384122
 30
0.0
 10
2.5522007099
 20
4.8690391774
 30
0.0
 10
2.5480866026
 20
4.8688397518
 30
0.0
 10
2.5436132679
 20
4.868640178
 30
0.0
 10
2.5369618065
 20
4.868364757
 30
0.0
 10
2.5278349973
 20
4.8680244492
 30
0.0
 10
2.5159694387
 20
4.8676273824
 30
0.0
 10
2.5029691609
 20
4.8672297477
 30
0.0
 10
2.488956132
 20
4.8668316622
 30
0.0
 10
2.4740618588
 20
4.8664332624
 30
0.0
 10
2.4584261106
 20
4.8660346384
 30
0.0
 10
2.4421955937
 20
4.8656358598
 30
0.0
 10
2.4255226172
 20
4.8652369703
 30
0.0
 10
2.40856366
 20
4.8648380166
 30
0.0
 10
2.3914778583
 20
4.8644390366
 30
0.0
 10
2.3744255358
 20
4.8640400615
 30
0.0
 10
2.3575667257
 20
4.8636411311
 30
0.0
 10
2.341059642
 20
4.8632422832
 30
0.0
 10
2.325059174
 20
4.8628435588
 30
0.0
 10
2.3097154631
 20
4.8624450222
 30
0.0
 10
2.2951725164
 20
4.8620467422
 30
0.0
 10
2.2815667914
 20
4.8616488261
 30
0.0
 10
2.2690259335
 20
4.8612513836
 30
0.0
 10
2.259295449
 20
4.8609116378
 30
0.0
 10
2.2521309633
 20
4.8606371251
 30
0.0
 10
2.2472523677
 20
4.8604374073
 30
0.0
 10
2.2427207029
 20
4.8602378214
 30
0.0
 10
2.238546587
 20
4.8600383547
 30
0.0
 10
2.2347398231
 20
4.8598390987
 30
0.0
 10
2.2313093327
 20
4.8596401097
 30
0.0
 10
2.2282631234
 20
4.8594414796
 30
0.0
 10
2.2256083325
 20
4.8592433548
 30
0.0
 10
2.2236440725
 20
4.8590718659
 30
0.0
 10
2.2222733902
 20
4.8589322357
 30
0.0
 10
2.2213965961
 20
4.8588326784
 30
0.0
 10
2.2206216086
 20
4.8587333012
 30
0.0
 10
2.21994884
 20
4.8586341946
 30
0.0
 10
2.219378707
 20
4.8585354154
 30
0.0
 10
2.2189686263
 20
4.858449406
 30
0.0
 10
2.2186928087
 20
4.8583789608
 30
0.0
 10
2.2185239267
 20
4.8583292918
 30
0.0
 10
2.2183807693
 20
4.858279746
 30
0.0
 10
2.2182632468
 20
4.8582303268
 30
0.0
 10
2.2181710512
 20
4.8581810385
 30
0.0
 10
2.2181038318
 20
4.8581315262
 30
0.0
 10
2.2180604677
 20
4.8580807319
 30
0.0
 10
2.2180491031
 20
4.858042171
 30
0.0
 10
2.2180490806
 20
4.8580249119
 30
0.0
  0
SPLINE
  5
2BD
100
AcDbEntity
  8
0
100
AcDbSpline
 62
7
  6
CONTINUOUS
 70
0
 71
3
 72
66
 73
62
 74
0
 42
0.0000001
 43
0.0000001
 44
0.0000000001
 40
0.0
 40
0.0
 40
0.0
 40
0.0
 40
0.0001349163
 40
0.0003052816
 40
0.0005303039
 40
0.000818415
 40
0.001173544
 40
0.0015977308
 40
0.0020921345
 40
0.0026574588
 40
0.0040024334
 40
0.0056348018
 40
0.0075550566
 40
0.0097626225
 40
0.0122565923
 40
0.0150358879
 40
0.0214455504
 40
0.028978505
 40
0.0376167339
 40
0.0473414063
 40
0.0581300054
 40
0.0699566099
 40
0.0827946897
 40
0.0966137427
 40
0.1113810467
 40
0.1436220342
 40
0.1792145234
 40
0.2178239893
 40
0.2590881012
 40
0.3026195192
 40
0.3480090177
 40
0.3948300592
 40
0.4426422188
 40
0.4909953791
 40
0.5394354144
 40
0.5875076593
 40
0.6347602051
 40
0.6807488371
 40
0.7250408514
 40
0.7672196009
 40
0.806889736
 40
0.8436789091
 40
0.8772404789
 40
0.9072595547
 40
0.920851688
 40
0.9334552058
 40
0.9450407269
 40
0.9555820858
 40
0.9650537411
 40
0.9734344345
 40
0.9807055278
 40
0.9868496156
 40
0.9894952339
 40
0.9918550042
 40
0.9939279188
 40
0.9957131885
 40
0.9972106167
 40
0.9984213838
 40
0.9993484543
 40
0.9997078192
 40
1.0
 40
1.0
 40
1.0
 40
1.0
 10
2.2021057809
 20
4.8672297227
 30
0.0
 10
2.2021057809
 20
4.8672470898
 30
0.0
 10
2.2021186446
 20
4.8672864321
 30
0.0
 10
2.2021662008
 20
4.8673368673
 30
0.0
 10
2.2022394532
 20
4.8673862267
 30
0.0
 10
2.2023400761
 20
4.8674354275
 30
0.0
 10
2.2024683958
 20
4.8674848448
 30
0.0
 10
2.2026247613
 20
4.8675344143
 30
0.0
 10
2.202809241
 20
4.8675841278
 30
0.0
 10
2.2031106835
 20
4.8676546826
 30
0.0
 10
2.2035586672
 20
4.8677408027
 30
0.0
 10
2.2041813651
 20
4.8678397012
 30
0.0
 10
2.2049162353
 20
4.8679389064
 30
0.0
 10
2.2057628318
 20
4.8680383842
 30
0.0
 10
2.2067206563
 20
4.868138039
 30
0.0
 10
2.2082180561
 20
4.8682778139
 30
0.0
 10
2.2103638169
 20
4.8684494929
 30
0.0
 10
2.2132638067
 20
4.8686478134
 30
0.0
 10
2.2165913546
 20
4.8688466555
 30
0.0
 10
2.2203386168
 20
4.8690458685
 30
0.0
 10
2.224496809
 20
4.8692453281
 30
0.0
 10
2.2290561817
 20
4.8694450042
 30
0.0
 10
2.2340059871
 20
4.8696448043
 30
0.0
 10
2.2393346145
 20
4.8698447297
 30
0.0
 10
2.2471598112
 20
4.8701195328
 30
0.0
 10
2.2577872008
 20
4.8704596362
 30
0.0
 10
2.2714833294
 20
4.870857501
 30
0.0
 10
2.2863413976
 20
4.8712558384
 30
0.0
 10
2.3022217365
 20
4.8716545418
 30
0.0
 10
2.3189750892
 20
4.8720535017
 30
0.0
 10
2.3364439475
 20
4.8724526525
 30
0.0
 10
2.354463981
 20
4.8728519295
 30
0.0
 10
2.372865602
 20
4.8732512854
 30
0.0
 10
2.3914756756
 20
4.8736506828
 30
0.0
 10
2.4101192364
 20
4.8740500837
 30
0.0
 10
2.4286210883
 20
4.8744494565
 30
0.0
 10
2.4468073098
 20
4.8748487676
 30
0.0
 10
2.4645068031
 20
4.8752479691
 30
0.0
 10
2.4815530033
 20
4.8756470076
 30
0.0
 10
2.4977856271
 20
4.8760458203
 30
0.0
 10
2.5130521467
 20
4.8764443222
 30
0.0
 10
2.5272090292
 20
4.8768423605
 30
0.0
 10
2.5401230604
 20
4.8772398199
 30
0.0
 10
2.5500513342
 20
4.8775805452
 30
0.0
 10
2.5572823409
 20
4.8778562969
 30
0.0
 10
2.5621416348
 20
4.8780560819
 30
0.0
 10
2.5666078655
 20
4.878255714
 30
0.0
 10
2.5706705203
 20
4.8784551148
 30
0.0
 10
2.5743200993
 20
4.8786542627
 30
0.0
 10
2.577548046
 20
4.8788529866
 30
0.0
 10
2.5803467613
 20
4.8790511423
 30
0.0
 10
2.5824071415
 20
4.8792229099
 30
0.0
 10
2.5838355376
 20
4.8793629574
 30
0.0
 10
2.58474126
 20
4.8794625427
 30
0.0
 10
2.5855355206
 20
4.8795619018
 30
0.0
 10
2.5862178095
 20
4.8796609865
 30
0.0
 10
2.5867879154
 20
4.8797595465
 30
0.0
 10
2.5872455552
 20
4.8798575422
 30
0.0
 10
2.587555823
 20
4.8799436209
 30
0.0
 10
2.5877459312
 20
4.8800157356
 30
0.0
 10
2.5878216989
 20
4.8800521993
 30
0.0
 10
2.5878542745
 20
4.8800709987
 30
0.0
  0
SPLINE
  5
2BE
100
AcDbEntity
  8
0
100
AcDbSpline
 62
7
  6
CONTINUOUS
 70
0
 71
3
 72
66
 73
62
 74
0
 42
0.0000001
 43
0.0000001
 44
0.0000000001
 40
0.0
 40
0.0
 40
0.0
 40
0.0
 40
0.0001461179
 40
0.0003252778
 40
0.0005567265
 40
0.0008495595
 40
0.0012082188
 40
0.0016350846
 40
0.0021315472
 40
0.0026984765
 40
0.0040455733
 40
0.0056784583
 40
0.0075975779
 40
0.0098027417
 40
0.0122934171
 40
0.0150688682
 40
0.0181279232
 40
0.0214687409
 40
0.0289877401
 40
0.0376097624
 40
0.0473160479
 40
0.058083041
 40
0.0698864522
 40
0.0826993345
 40
0.0964907062
 40
0.1112291158
 40
0.1434067369
 40
0.1789309491
 40
0.2174684156
 40
0.2586585294
 40
0.3021152685
 40
0.3474306548
 40
0.3941800367
 40
0.4419250958
 40
0.4902177585
 40
0.5386052873
 40
0.5866337582
 40
0.633852641
 40
0.6798193758
 40
0.724102582
 40
0.7662869359
 40
0.8059774671
 40
0.8428017828
 40
0.8764145223
 40
0.9065018132
 40
0.9201338205
 40
0.9327821375
 40
0.9444161193
 40
0.9550096844
 40
0.964538513
 40
0.9729795515
 40
0.9803149025
 40
0.9865284189
 40
0.9916062916
 40
0.9937170652
 40
0.9955416811
 40
0.9970801031
 40
0.9983331007
 40
0.9993035468
 40
0.9996851685
 40
1.0
 40
1.0
 40
1.0
 40
1.0
 10
2.5720440447
 20
4.8937645117
 30
0.0
 10
2.5720440313
 20
4.8937472548
 30
0.0
 10
2.5720326964
 20
4.8937086964
 30
0.0
 10
2.5719893694
 20
4.893657895
 30
0.0
 10
2.571922186
 20
4.893608381
 30
0.0
 10
2.5718300222
 20
4.8935590924
 30
0.0
 10
2.5717125211
 20
4.8935096737
 30
0.0
 10
2.5715693688
 20
4.8934601288
 30
0.0
 10
2.5714004696
 20
4.8934104607
 30
0.0
 10
2.5711245893
 20
4.8933400185
 30
0.0
 10
2.5707144397
 20
4.8932540256
 30
0.0
 10
2.5701442752
 20
4.893155239
 30
0.0
 10
2.5694715413
 20
4.893056129
 30
0.0
 10
2.5686966123
 20
4.8929567462
 30
0.0
 10
2.5678198424
 20
4.8928571936
 30
0.0
 10
2.566841665
 20
4.8927575193
 30
0.0
 10
2.5657626246
 20
4.8926577541
 30
0.0
 10
2.5641246138
 20
4.8925191099
 30
0.0
 10
2.5618300768
 20
4.8923479709
 30
0.0
 10
2.5587838851
 20
4.8921493083
 30
0.0
 10
2.555353396
 20
4.8919503375
 30
0.0
 10
2.5515466319
 20
4.8917510646
 30
0.0
 10
2.5473725249
 20
4.8915516082
 30
0.0
 10
2.5428408646
 20
4.8913520224
 30
0.0
 10
2.537962269
 20
4.8911522966
 30
0.0
 10
2.5307978176
 20
4.8908777954
 30
0.0
 10
2.521067314
 20
4.8905380379
 30
0.0
 10
2.5085264593
 20
4.8901406023
 30
0.0
 10
2.494920731
 20
4.8897426854
 30
0.0
 10
2.4803777905
 20
4.8893444023
 30
0.0
 10
2.4650340845
 20
4.8889458677
 30
0.0
 10
2.4490336086
 20
4.8885471436
 30
0.0
 10
2.4325265227
 20
4.888148294
 30
0.0
 10
2.4156677148
 20
4.8877493645
 30
0.0
 10
2.3986153854
 20
4.8873503893
 30
0.0
 10
2.3815295753
 20
4.8869514086
 30
0.0
 10
2.3645706154
 20
4.8865524557
 30
0.0
 10
2.347897636
 20
4.8861535655
 30
0.0
 10
2.3316671085
 20
4.885754786
 30
0.0
 10
2.3160313527
 20
4.8853561638
 30
0.0
 10
2.3011370776
 20
4.884957763
 30
0.0
 10
2.2871240399
 20
4.8845596754
 30
0.0
 10
2.2741237521
 20
4.8841620439
 30
0.0
 10
2.2622581899
 20
4.8837649766
 30
0.0
 10
2.2531313815
 20
4.8834246648
 30
0.0
 10
2.2464799108
 20
4.8831492471
 30
0.0
 10
2.2420065735
 20
4.8829496753
 30
0.0
 10
2.2378924621
 20
4.882750243
 30
0.0
 10
2.2341472306
 20
4.8825510139
 30
0.0
 10
2.2307796602
 20
4.882352092
 30
0.0
 10
2.2277976204
 20
4.8821535118
 30
0.0
 10
2.2252080456
 20
4.8819555792
 30
0.0
 10
2.2230169642
 20
4.8817584362
 30
0.0
 10
2.2214432955
 20
4.8815866036
 30
0.0
 10
2.2203881577
 20
4.8814453505
 30
0.0
 10
2.2197492711
 20
4.8813463043
 30
0.0
 10
2.2192129469
 20
4.881247777
 30
0.0
 10
2.2187795241
 20
4.8811497745
 30
0.0
 10
2.2184836273
 20
4.8810637044
 30
0.0
 10
2.2183001958
 20
4.8809919145
 30
0.0
 10
2.2182261607
 20
4.8809556565
 30
0.0
 10
2.2181939685
 20
4.8809370502
 30
0.0
  0
SPLINE
  5
2BF
100
AcDbEntity
  8
0
100
AcDbSpline
 62
7
  6
CONTINUOUS
 70
0
 71
3
 72
66
 73
62
 74
0
 42
0.0000001
 43
0.0000001
 44
0.0000000001
 40
0.0
 40
0.0
 40
0.0
 40
0.0
 40
0.0001349165
 40
0.0003052828
 40
0.0005303071
 40
0.0008184209
 40
0.0011735532
 40
0.0015977438
 40
0.0020921513
 40
0.0026574797
 40
0.0040024618
 40
0.005634837
 40
0.007555105
 40
0.0097626901
 40
0.0122566821
 40
0.0150359996
 40
0.0214456992
 40
0.0289787217
 40
0.0376170196
 40
0.0473417291
 40
0.058130402
 40
0.06995711
 40
0.0827953378
 40
0.0966146129
 40
0.111382087
 40
0.1436232445
 40
0.1792155605
 40
0.2178248587
 40
0.2590890987
 40
0.3026207206
 40
0.3480104294
 40
0.3948316942
 40
0.4426440458
 40
0.4909974394
 40
0.539437701
 40
0.5875099496
 40
0.6347619932
 40
0.6807500069
 40
0.7250417937
 40
0.7672205795
 40
0.8068908109
 40
0.8436800269
 40
0.8772415828
 40
0.907260656
 40
0.9208527384
 40
0.9334562562
 40
0.9450416782
 40
0.9555829105
 40
0.965054448
 40
0.97343491
 40
0.9807057938
 40
0.986849766
 40
0.989495337
 40
0.9918550683
 40
0.9939279535
 40
0.9957132048
 40
0.9972106231
 40
0.9984213851
 40
0.999348454
 40
0.9997078189
 40
1.0
 40
1.0
 40
1.0
 40
1.0
 10
2.5879873809
 20
4.8845597011
 30
0.0
 10
2.5879873809
 20
4.8845423339
 30
0.0
 10
2.587974517
 20
4.8845029915
 30
0.0
 10
2.5879269602
 20
4.8844525564
 30
0.0
 10
2.5878537069
 20
4.8844031969
 30
0.0
 10
2.5877530829
 20
4.884353996
 30
0.0
 10
2.5876247619
 20
4.8843045786
 30
0.0
 10
2.5874683949
 20
4.884255009
 30
0.0
 10
2.5872839137
 20
4.8842052953
 30
0.0
 10
2.5869824692
 20
4.8841347402
 30
0.0
 10
2.5865344833
 20
4.8840486197
 30
0.0
 10
2.585911782
 20
4.8839497204
 30
0.0
 10
2.5851769067
 20
4.8838505147
 30
0.0
 10
2.5843303032
 20
4.8837510365
 30
0.0
 10
2.5833724705
 20
4.8836513813
 30
0.0
 10
2.5818750603
 20
4.8835116061
 30
0.0
 10
2.5797292832
 20
4.8833399259
 30
0.0
 10
2.5768292709
 20
4.8831416053
 30
0.0
 10
2.5735017007
 20
4.8829427629
 30
0.0
 10
2.5697544153
 20
4.8827435483
 30
0.0
 10
2.5655961955
 20
4.8825440884
 30
0.0
 10
2.5610367809
 20
4.8823444113
 30
0.0
 10
2.5560869146
 20
4.8821446092
 30
0.0
 10
2.5507582177
 20
4.8819446828
 30
0.0
 10
2.5429329486
 20
4.8816698773
 30
0.0
 10
2.5323055376
 20
4.8813297751
 30
0.0
 10
2.518609431
 20
4.8809319113
 30
0.0
 10
2.5037513902
 20
4.8805335758
 30
0.0
 10
2.4878710302
 20
4.8801348725
 30
0.0
 10
2.4711176077
 20
4.8797359112
 30
0.0
 10
2.4536486674
 20
4.8793367589
 30
0.0
 10
2.4356285534
 20
4.8789374807
 30
0.0
 10
2.417226849
 20
4.8785381231
 30
0.0
 10
2.3986166915
 20
4.878138724
 30
0.0
 10
2.3799730712
 20
4.8777393219
 30
0.0
 10
2.3614712543
 20
4.8773399494
 30
0.0
 10
2.3432851766
 20
4.8769406412
 30
0.0
 10
2.3255858569
 20
4.8765414432
 30
0.0
 10
2.3085397609
 20
4.8761424067
 30
0.0
 10
2.2923071494
 20
4.8757435936
 30
0.0
 10
2.2770406072
 20
4.8753450906
 30
0.0
 10
2.2628837087
 20
4.8749470512
 30
0.0
 10
2.2499696742
 20
4.8745495894
 30
0.0
 10
2.240041409
 20
4.8742088642
 30
0.0
 10
2.2328104093
 20
4.8739331099
 30
0.0
 10
2.2279511348
 20
4.8737333257
 30
0.0
 10
2.2234849332
 20
4.8735336924
 30
0.0
 10
2.2194223227
 20
4.8733342915
 30
0.0
 10
2.2157728048
 20
4.8731351479
 30
0.0
 10
2.2125449301
 20
4.8729364256
 30
0.0
 10
2.2097462865
 20
4.8727382719
 30
0.0
 10
2.2076859541
 20
4.872566508
 30
0.0
 10
2.2062575839
 20
4.8724264623
 30
0.0
 10
2.2053518763
 20
4.8723268783
 30
0.0
 10
2.2045576269
 20
4.8722275201
 30
0.0
 10
2.2038753454
 20
4.8721284363
 30
0.0
 10
2.2033052438
 20
4.8720298768
 30
0.0
 10
2.202847606
 20
4.8719318814
 30
0.0
 10
2.2025373391
 20
4.8718458029
 30
0.0
 10
2.2023472311
 20
4.8717736882
 30
0.0
 10
2.2022714634
 20
4.8717372245
 30
0.0
 10
2.2022388877
 20
4.8717184251
 30
0.0
  0
LINE
  5
2C0
100
AcDbEntity
  8
0
100
AcDbLine
 62
7
  6
CONTINUOUS
 10
2.5718992405
 20
4.8968419737
 11
2.5714633346
 21
4.8966741146
  0
SPLINE
  5
2C1
100
AcDbEntity
  8
0
100
AcDbSpline
 62
7
  6
CONTINUOUS
 70
0
 71
3
 72
62
 73
58
 74
0
 42
0.0000001
 43
0.0000001
 44
0.0000000001
 40
0.0
 40
0.0
 40
0.0
 40
0.0
 40
0.0011453905
 40
0.0025683554
 40
0.0042701608
 40
0.0062510967
 40
0.0110491595
 40
0.0169568448
 40
0.0239614404
 40
0.0320484165
 40
0.0412010027
 40
0.0513975778
 40
0.0626156341
 40
0.0748305397
 40
0.1021348853
 40
0.1330633437
 40
0.1673336559
 40
0.2046328007
 40
0.2446210404
 40
0.2869331
 40
0.3311821839
 40
0.3769645577
 40
0.4238619568
 40
0.4714457611
 40
0.5192815082
 40
0.5669320349
 40
0.613962085
 40
0.6599422089
 40
0.7044519901
 40
0.747085167
 40
0.7874526492
 40
0.8251851845
 40
0.8599387329
 40
0.8913967201
 40
0.9057983869
 40
0.9192716347
 40
0.9317851112
 40
0.9433101476
 40
0.9538217115
 40
0.9632952257
 40
0.9717094346
 40
0.9790468227
 40
0.9852906094
 40
0.9879983197
 40
0.9904284775
 40
0.9925801985
 40
0.9944527995
 40
0.996045944
 40
0.997360216
 40
0.9979135291
 40
0.9983982689
 40
0.9988152777
 40
0.9991659153
 40
0.9994525228
 40
0.9996794768
 40
0.999855714
 40
1.0
 40
1.0
 40
1.0
 40
1.0
 10
2.5714633346
 20
4.8966741146
 30
0.0
 10
2.5713335404
 20
4.8966366429
 30
0.0
 10
2.5710390227
 20
4.8965647735
 30
0.0
 10
2.5705447593
 20
4.8964676093
 30
0.0
 10
2.5699504404
 20
4.8963699823
 30
0.0
 10
2.568959901
 20
4.8962303109
 30
0.0
 10
2.5674729676
 20
4.8960607244
 30
0.0
 10
2.5653930928
 20
4.8958663071
 30
0.0
 10
2.5629239385
 20
4.8956710639
 30
0.0
 10
2.5600711068
 20
4.895475149
 30
0.0
 10
2.5568410376
 20
4.8952788744
 30
0.0
 10
2.5532410836
 20
4.8950822827
 30
0.0
 10
2.5492794652
 20
4.8948854735
 30
0.0
 10
2.5433013801
 20
4.8946126423
 30
0.0
 10
2.5349990752
 20
4.89427615
 30
0.0
 10
2.5240956428
 20
4.8938847333
 30
0.0
 10
2.5120127003
 20
4.8934926102
 30
0.0
 10
2.498860695
 20
4.8930999301
 30
0.0
 10
2.4847598122
 20
4.8927068869
 30
0.0
 10
2.4698389165
 20
4.8923135726
 30
0.0
 10
2.4542344018
 20
4.8919200603
 30
0.0
 10
2.4380889001
 20
4.8915264144
 30
0.0
 10
2.4215499681
 20
4.8911326779
 30
0.0
 10
2.4047687817
 20
4.8907388859
 30
0.0
 10
2.3878987427
 20
4.8903450773
 30
0.0
 10
2.3710940345
 20
4.8899512814
 30
0.0
 10
2.3545082503
 20
4.8895575322
 30
0.0
 10
2.3382930104
 20
4.8891638715
 30
0.0
 10
2.3225965205
 20
4.8887703359
 30
0.0
 10
2.3075622334
 20
4.8883769847
 30
0.0
 10
2.2933275792
 20
4.8879838931
 30
0.0
 10
2.2800226644
 20
4.8875911637
 30
0.0
 10
2.2677690732
 20
4.8871988958
 30
0.0
 10
2.2582669055
 20
4.8868635362
 30
0.0
 10
2.2512740306
 20
4.8865925638
 30
0.0
 10
2.2465144283
 20
4.8863954637
 30
0.0
 10
2.2420944206
 20
4.8861984806
 30
0.0
 10
2.2380241013
 20
4.8860016216
 30
0.0
 10
2.2343127787
 20
4.8858049781
 30
0.0
 10
2.230968919
 20
4.8856085815
 30
0.0
 10
2.2280001306
 20
4.8854125497
 30
0.0
 10
2.2254131856
 20
4.8852170248
 30
0.0
 10
2.2234993434
 20
4.8850477631
 30
0.0
 10
2.2221639838
 20
4.8849099574
 30
0.0
 10
2.2213098088
 20
4.8848117025
 30
0.0
 10
2.2205548365
 20
4.8847136252
 30
0.0
 10
2.219899475
 20
4.8846158162
 30
0.0
 10
2.2193441174
 20
4.8845183235
 30
0.0
 10
2.2189446888
 20
4.884433436
 30
0.0
 10
2.2186760422
 20
4.8843639198
 30
0.0
 10
2.2185115232
 20
4.8843148991
 30
0.0
 10
2.2183720563
 20
4.8842659977
 30
0.0
 10
2.2182575549
 20
4.8842172177
 30
0.0
 10
2.2181677243
 20
4.8841685564
 30
0.0
 10
2.2181022217
 20
4.8841196639
 30
0.0
 10
2.2180600142
 20
4.8840694855
 30
0.0
 10
2.2180490185
 20
4.8840315301
 30
0.0
 10
2.2180490061
 20
4.884014512
 30
0.0
  0
SPLINE
  5
2C2
100
AcDbEntity
  8
0
100
AcDbSpline
 62
7
  6
CONTINUOUS
 70
0
 71
3
 72
32
 73
28
 74
0
 42
0.0000001
 43
0.0000001
 44
0.0000000001
 40
0.0
 40
0.0
 40
0.0
 40
0.0
 40
0.0008799616
 40
0.0014125806
 40
0.0020342959
 40
0.0035897234
 40
0.0056048914
 40
0.0081041638
 40
0.011099853
 40
0.0145988096
 40
0.0186051063
 40
0.028148334
 40
0.0397375238
 40
0.0533690722
 40
0.0690359334
 40
0.0867293323
 40
0.1064385044
 40
0.1518354667
 40
0.2050782362
 40
0.2659975596
 40
0.3343847731
 40
0.4100176582
 40
0.4926333138
 40
0.5819527925
 40
0.6776823901
 40
0.7795162577
 40
1.0
 40
1.0
 40
1.0
 40
1.0
 10
2.5720441809
 20
4.8450301119
 30
0.0
 10
2.5720441809
 20
4.8450091068
 30
0.0
 10
2.5720319222
 20
4.8449753122
 30
0.0
 10
2.5720013192
 20
4.8449376001
 30
0.0
 10
2.5719529791
 20
4.8448941895
 30
0.0
 10
2.5718668544
 20
4.8448420348
 30
0.0
 10
2.5717343588
 20
4.8447830527
 30
0.0
 10
2.5715649715
 20
4.8447238456
 30
0.0
 10
2.5713586152
 20
4.8446643843
 30
0.0
 10
2.571115094
 20
4.8446047496
 30
0.0
 10
2.5707170029
 20
4.8445200609
 30
0.0
 10
2.5701257133
 20
4.8444167619
 30
0.0
 10
2.5693043422
 20
4.8442981398
 30
0.0
 10
2.5683355626
 20
4.8441791154
 30
0.0
 10
2.5672201846
 20
4.8440597575
 30
0.0
 10
2.565959026
 20
4.8439401797
 30
0.0
 10
2.5639896642
 20
4.8437725487
 30
0.0
 10
2.5611720482
 20
4.8435666372
 30
0.0
 10
2.5573707069
 20
4.8433286574
 30
0.0
 10
2.553019675
 20
4.8430901398
 30
0.0
 10
2.5481335065
 20
4.8428511103
 30
0.0
 10
2.5427288947
 20
4.8426118081
 30
0.0
 10
2.5368241878
 20
4.8423722509
 30
0.0
 10
2.5304394078
 20
4.8421325339
 30
0.0
 10
2.5235955868
 20
4.84189266
 30
0.0
 10
2.5136220343
 20
4.8415639061
 30
0.0
 10
2.5059316885
 20
4.8413309378
 30
0.0
 10
2.5006708787
 20
4.8411777227
 30
0.0
  0
SPLINE
  5
2C3
100
AcDbEntity
  8
0
100
AcDbSpline
 62
7
  6
CONTINUOUS
 70
0
 71
3
 72
9
 73
5
 74
0
 42
0.0000001
 43
0.0000001
 44
0.0000000001
 40
0.0
 40
0.0
 40
0.0
 40
0.0
 40
0.2346164416
 40
1.0
 40
1.0
 40
1.0
 40
1.0
 10
2.2022388942
 20
4.9236976251
 30
0.0
 10
2.2022441962
 20
4.9237006847
 30
0.0
 10
2.2022669635
 20
4.9237134333
 30
0.0
 10
2.2022903324
 20
4.9237250902
 30
0.0
 10
2.2023084206
 20
4.923733553
 30
0.0
  0
SPLINE
  5
2C4
100
AcDbEntity
  8
0
100
AcDbSpline
 62
7
  6
CONTINUOUS
 70
0
 71
3
 72
65
 73
61
 74
0
 42
0.0000001
 43
0.0000001
 44
0.0000000001
 40
0.0
 40
0.0
 40
0.0
 40
0.0
 40
0.0003390864
 40
0.000746502
 40
0.0017708209
 40
0.0030786308
 40
0.0046721112
 40
0.0065519466
 40
0.0087176468
 40
0.0139028648
 40
0.0202190381
 40
0.0276535807
 40
0.0361887957
 40
0.0458060891
 40
0.05648362
 40
0.0681957062
 40
0.0809161454
 40
0.0946151759
 40
0.1248180348
 40
0.1585231492
 40
0.1954163557
 40
0.2351524357
 40
0.2773602496
 40
0.3216458371
 40
0.3675949711
 40
0.4147781079
 40
0.4627544709
 40
0.5110754627
 40
0.5592893806
 40
0.6069457026
 40
0.6535987185
 40
0.6988124725
 40
0.7421646478
 40
0.7832497191
 40
0.82168376
 40
0.8571082882
 40
0.889192268
 40
0.903886363
 40
0.917635871
 40
0.9304089638
 40
0.94217489
 40
0.9529074078
 40
0.9625815522
 40
0.9711742017
 40
0.9786670682
 40
0.9850429735
 40
0.9878074286
 40
0.9902879667
 40
0.9924836421
 40
0.9943936793
 40
0.9960175947
 40
0.9973555661
 40
0.9979178996
 40
0.9984096753
 40
0.9988316141
 40
0.9991848926
 40
0.9994715675
 40
0.9996955815
 40
0.999865359
 40
1.0
 40
1.0
 40
1.0
 40
1.0
 10
2.2023084206
 20
4.923733553
 30
0.0
 10
2.2023479485
 20
4.9237520464
 30
0.0
 10
2.2024371444
 20
4.9237881003
 30
0.0
 10
2.2026536594
 20
4.9238595201
 30
0.0
 10
2.2029959991
 20
4.9239454276
 30
0.0
 10
2.203491697
 20
4.924043439
 30
0.0
 10
2.204099198
 20
4.9241419289
 30
0.0
 10
2.2048182009
 20
4.9242408663
 30
0.0
 10
2.2059978661
 20
4.9243816884
 30
0.0
 10
2.2077485937
 20
4.9245531801
 30
0.0
 10
2.2101777211
 20
4.9247501119
 30
0.0
 10
2.2130391394
 20
4.9249477502
 30
0.0
 10
2.2163262248
 20
4.9251460385
 30
0.0
 10
2.2200313281
 20
4.925344673
 30
0.0
 10
2.224145801
 20
4.9255435651
 30
0.0
 10
2.2286600579
 20
4.9257426727
 30
0.0
 10
2.2335635188
 20
4.925941922
 30
0.0
 10
2.2408455883
 20
4.9262167634
 30
0.0
 10
2.2508277993
 20
4.9265564549
 30
0.0
 10
2.2637947852
 20
4.9269528701
 30
0.0
 10
2.2779891928
 20
4.9273498447
 30
0.0
 10
2.2932782707
 20
4.9277472694
 30
0.0
 10
2.3095190344
 20
4.9281449981
 30
0.0
 10
2.3265596343
 20
4.9285429433
 30
0.0
 10
2.3442407177
 20
4.9289410457
 30
0.0
 10
2.3623969148
 20
4.9293392548
 30
0.0
 10
2.3808584385
 20
4.9297375251
 30
0.0
 10
2.3994526527
 20
4.9301358226
 30
0.0
 10
2.4180056687
 20
4.930534113
 30
0.0
 10
2.4363439688
 20
4.9309323575
 30
0.0
 10
2.4542960598
 20
4.9313305215
 30
0.0
 10
2.4716940739
 20
4.9317285594
 30
0.0
 10
2.4883753088
 20
4.9321264087
 30
0.0
 10
2.5041837469
 20
4.9325240049
 30
0.0
 10
2.5189715727
 20
4.9329212349
 30
0.0
 10
2.5326005292
 20
4.9333179892
 30
0.0
 10
2.5431745221
 20
4.9336571607
 30
0.0
 10
2.5509595555
 20
4.9339312024
 30
0.0
 10
2.5562603675
 20
4.9341305776
 30
0.0
 10
2.5611840473
 20
4.934329817
 30
0.0
 10
2.5657191059
 20
4.9345289367
 30
0.0
 10
2.5698549254
 20
4.9347278499
 30
0.0
 10
2.5735818425
 20
4.9349264916
 30
0.0
 10
2.5768911878
 20
4.9351247736
 30
0.0
 10
2.5797752187
 20
4.9353225522
 30
0.0
 10
2.5819091307
 20
4.9354937444
 30
0.0
 10
2.5833982419
 20
4.9356331412
 30
0.0
 10
2.5843507018
 20
4.9357325231
 30
0.0
 10
2.5851925517
 20
4.9358317229
 30
0.0
 10
2.5859233392
 20
4.9359306467
 30
0.0
 10
2.5865426108
 20
4.9360292369
 30
0.0
 10
2.5869881345
 20
4.9361150879
 30
0.0
 10
2.5872878941
 20
4.9361854301
 30
0.0
 10
2.5874713252
 20
4.9362349948
 30
0.0
 10
2.5876267932
 20
4.9362844206
 30
0.0
 10
2.587754373
 20
4.9363337006
 30
0.0
 10
2.5878544163
 20
4.9363827751
 30
0.0
 10
2.5879272564
 20
4.9364320179
 30
0.0
 10
2.5879745397
 20
4.9364823543
 30
0.0
 10
2.5879873282
 20
4.9365215728
 30
0.0
 10
2.5879873429
 20
4.9365389009
 30
0.0
  0
ENDSEC
  0
SECTION
  2
OBJECTS
  0
DICTIONARY
  5
C
100
AcDbDictionary
280
0
281
1
  3
ACAD_GROUP
350
D
  3
ACAD_MLINESTYLE
350
17
  3
ACAD_LAYOUT
350
1A
  3
ACAD_PLOTSETTINGS
350
19
  3
ACAD_PLOTSTYLENAME
350
E
  0
DICTIONARY
  5
D
102
{ACAD_REACTORS
330
C
102
}
100
AcDbDictionary
280
0
281
1
  0
ACDBDICTIONARYWDFLT
  5
E
102
{ACAD_REACTORS
330
C
102
}
100
AcDbDictionary
281
1
  3
Normal
350
F
100
AcDbDictionaryWithDefault
340
F
  0
DICTIONARY
  5
17
102
{ACAD_REACTORS
330
C
102
}
100
AcDbDictionary
280
0
281
1
  3
Standard
350
18
  0
DICTIONARY
  5
19
102
{ACAD_REACTORS
330
C
102
}
100
AcDbDictionary
281
1
  0
DICTIONARY
  5
1A
102
{ACAD_REACTORS
330
C
102
}
100
AcDbDictionary
281
1
  3
Model
350
2C5
  3
Layout1
350
2C6
  0
ACDBPLACEHOLDER
  5
F
102
{ACAD_REACTORS
330
E
102
}
  0
MLINESTYLE
  5
18
102
{ACAD_REACTORS
330
17
102
}
100
AcDbMlineStyle
  2
STANDARD
 70
0
  3

 62
256
 51
90.0
 52
90.0
 71
2
 49
0.5
 62
256
  6
BYLAYER
 49
-0.5
 62
256
  6
BYLAYER
  0
LAYOUT
  5
2C5
102
{ACAD_REACTORS
330
1A
102
}
100
AcDbPlotSettings
  1

  2
none_device
  4
ANSI_A_(11.00_x_8.50_Inches)
  6

 40
0.0
 41
0.0
 42
0.0
 43
0.0
 44
279.4
 45
215.9
 46
0.0
 47
0.0
 48
0.0
 49
0.0
140
0.0
141
0.0
142
1.0
143
1.0
 70
1024
 72
0
 73
0
 74
0
  7

 75
0
147
1.0
148
0.0
149
0.0
100
AcDbLayout
  1
Model
 70
0
 71
0
 10
0.0
 20
0.0
 11
11.0
 21
8.5
 12
0.0
 22
0.0
 32
0.0
 14
0.0
 24
0.0
 34
0.0
 15
0.0
 25
0.0
 35
0.0
146
0.0
 13
0.0
 23
0.0
 33
0.0
 16
1.0
 26
0.0
 36
0.0
 17
0.0
 27
1.0
 37
0.0
 76
0
330
20E
345
0
346
0
  0
LAYOUT
  5
2C6
102
{ACAD_REACTORS
330
1A
102
}
100
AcDbPlotSettings
  1

  2
none_device
  4
ANSI_A_(11.00_x_8.50_Inches)
  6

 40
0.0
 41
0.0
 42
0.0
 43
0.0
 44
279.4
 45
215.9
 46
0.0
 47
0.0
 48
0.0
 49
0.0
140
0.0
141
0.0
142
1.0
143
1.0
 70
0
 72
0
 73
0
 74
0
  7

 75
0
147
1.0
148
0.0
149
0.0
100
AcDbLayout
  1
Layout1
 70
0
 71
1
 10
0.0
 20
0.0
 11
11.0
 21
8.5
 12
0.0
 22
0.0
 32
0.0
 14
0.0
 24
0.0
 34
0.0
 15
0.0
 25
0.0
 35
0.0
146
0.0
 13
0.0
 23
0.0
 33
0.0
 16
1.0
 26
0.0
 36
0.0
 17
0.0
 27
1.0
 37
0.0
 76
0
330
20F
345
0
346
0
  0
ENDSEC
  0
EOF
