999
DXF file: 5083sq_top.dxf
999
Pro/ENGINEER 2019352 by Parametric Technology Corporation
  0
SECTION
  2
HEADER
  9
$ACADVER
  1
AC1032
  9
$DWGCODEPAGE
  3
ANSI_1252
  9
$EXTMAX
 10
11.0
 20
8.5
 30
0.0
  9
$EXTMIN
 10
0.0
 20
0.0
 30
0.0
  9
$LIMMIN
 10
0.0
 20
0.0
  9
$LIMMAX
 10
11.0
 20
8.5
  9
$VIEWCTR
 10
5.5
 20
4.25
  9
$VIEWSIZE
 40
8.5
  9
$CLAYER
  8
0
  9
$LTSCALE
 40
0.605
  9
$CELTYPE
  6
BYLAYER
  9
$DIMSCALE
 40
1.0
  9
$DIMASZ
 40
0.1
  9
$DIMEXO
 40
0.0625
  9
$DIMDLI
 40
0.418
  9
$DIMEXE
 40
0.125
  9
$DIMCEN
 40
0.099
  9
$DIMLFAC
 40
1.0
  9
$DIMBLK
  1
_FILLED
  9
$DIMALT
 70
1
  9
$DIMALTD
 70
2
  9
$DIMALTTD
 70
2
  9
$DIMALTF
 40
25.4
  9
$DIMTXT
 40
0.08
  9
$DIMTOL
 70
1
  9
$DIMLIM
 70
0
  9
$DIMTFAC
 40
1.0
  9
$DIMTP
 40
0.001
  9
$DIMTM
 40
0.001
  9
$DIMGAP
 40
0.09
  9
$DIMDSEP
 70
46
  9
$AUNITS
 70
0
  9
$PDMODE
 70
3
  9
$PDSIZE
 40
0.3125
  9
$HANDSEED
  5
2F9
  9
$TILEMODE
 70
1
  9
$MEASUREMENT
 70
0
  9
$INSUNITS
 70
1
  0
ENDSEC
  0
SECTION
  2
CLASSES
  0
CLASS
  1
ACDBDICTIONARYWDFLT
  2
AcDbDictionaryWithDefault
  3
AutoCAD 2000
 90
0
 91
1
280
0
281
0
  0
CLASS
  1
ACDBPLACEHOLDER
  2
AcDbPlaceHolder
  3
AutoCAD 2000
 90
0
 91
1
280
0
281
0
  0
CLASS
  1
LAYOUT
  2
AcDbLayout
  3
AutoCAD 2000
 90
0
 91
0
280
0
281
0
  0
ENDSEC
  0
SECTION
  2
TABLES
  0
TABLE
  2
VPORT
  5
8
100
AcDbSymbolTable
 70
2
  0
VPORT
  5
1F4
100
AcDbSymbolTableRecord
100
AcDbViewportTableRecord
  2
*ACTIVE
 70
0
 10
0.0
 20
0.0
 11
1.0
 21
1.0
 12
5.5
 22
4.25
 13
0.0
 23
0.0
 14
1.0
 24
1.0
 15
0.0
 25
0.0
 16
0.0
 26
0.0
 36
1.0
 17
0.0
 27
0.0
 37
0.0
 40
8.5
 41
1.2941176471
 42
50.0
 43
0.0
 44
0.0
 50
0.0
 51
0.0
 71
0
 72
100
 73
1
 74
1
 75
0
 76
0
 77
0
 78
0
  0
ENDTAB
  0
TABLE
  2
LTYPE
  5
5
100
AcDbSymbolTable
 70
6
  0
LTYPE
  5
14
100
AcDbSymbolTableRecord
100
AcDbLinetypeTableRecord
  2
BYBLOCK
 70
0
  3

 72
65
 73
0
 40
0.0
  0
LTYPE
  5
15
100
AcDbSymbolTableRecord
100
AcDbLinetypeTableRecord
  2
BYLAYER
 70
0
  3

 72
65
 73
0
 40
0.0
  0
LTYPE
  5
16
100
AcDbSymbolTableRecord
100
AcDbLinetypeTableRecord
  2
CONTINUOUS
 70
64
  3
Solid line
 72
65
 73
0
 40
0.0
  0
LTYPE
  5
1F5
100
AcDbSymbolTableRecord
100
AcDbLinetypeTableRecord
  2
CENTER
 70
64
  3
____ _ ____ _ ____ _ ____ _ ____ _ ____ _ ____
 72
65
 73
4
 40
0.6
 49
0.375
 74
0
 49
-0.075
 74
0
 49
0.075
 74
0
 49
-0.075
 74
0
  0
LTYPE
  5
1F6
100
AcDbSymbolTableRecord
100
AcDbLinetypeTableRecord
  2
HIDDEN
 70
64
  3
- - - - - - - - - - - - - - - - - - - -
 72
65
 73
2
 40
0.2
 49
0.1
 74
0
 49
-0.1
 74
0
  0
LTYPE
  5
1F7
100
AcDbSymbolTableRecord
100
AcDbLinetypeTableRecord
  2
PHANTOM
 70
64
  3
_____ _ _ _____ _ _ _____ _ _ _____
 72
65
 73
6
 40
0.8
 49
0.45
 74
0
 49
-0.05
 74
0
 49
0.1
 74
0
 49
-0.05
 74
0
 49
0.1
 74
0
 49
-0.05
 74
0
  0
LTYPE
  5
1F8
100
AcDbSymbolTableRecord
100
AcDbLinetypeTableRecord
  2
DOT
 70
64
  3
. . . . . . . . . . . . . . . . . . . .
 72
65
 73
2
 40
0.2
 49
0.1
 74
0
 49
-0.1
 74
0
  0
LTYPE
  5
1F9
100
AcDbSymbolTableRecord
100
AcDbLinetypeTableRecord
  2
DASHED
 70
64
  3
- - - - - - - - - - - - - - - - - - - -
 72
65
 73
2
 40
0.2
 49
0.1
 74
0
 49
-0.1
 74
0
  0
ENDTAB
  0
TABLE
  2
LAYER
  5
2
100
AcDbSymbolTable
 70
36
  0
LAYER
  5
10
100
AcDbSymbolTableRecord
100
AcDbLayerTableRecord
  2
0
 70
0
 62
7
  6
CONTINUOUS
370
-3
390
F
  0
LAYER
  5
1FA
100
AcDbSymbolTableRecord
100
AcDbLayerTableRecord
  2
DEFAULT_1
 70
0
 62
7
  6
CENTER
370
-3
390
F
  0
LAYER
  5
1FB
100
AcDbSymbolTableRecord
100
AcDbLayerTableRecord
  2
DEFAULT_2
 70
0
 62
8
  6
HIDDEN
370
-3
390
F
  0
LAYER
  5
1FC
100
AcDbSymbolTableRecord
100
AcDbLayerTableRecord
  2
DEFAULT_3
 70
0
 62
7
  6
PHANTOM
370
-3
390
F
  0
LAYER
  5
1FD
100
AcDbSymbolTableRecord
100
AcDbLayerTableRecord
  2
ALL_FEATURES
 70
0
 62
7
  6
CONTINUOUS
370
-3
390
F
  0
LAYER
  5
1FE
100
AcDbSymbolTableRecord
100
AcDbLayerTableRecord
  2
AXES_FEATURES
 70
0
 62
7
  6
CONTINUOUS
370
-3
390
F
  0
LAYER
  5
1FF
100
AcDbSymbolTableRecord
100
AcDbLayerTableRecord
  2
DEFAULT_COORDINATE_SYSTEM
 70
0
 62
7
  6
CONTINUOUS
370
-3
390
F
  0
LAYER
  5
200
100
AcDbSymbolTableRecord
100
AcDbLayerTableRecord
  2
DEFAULT_DATUM_AXES
 70
0
 62
7
  6
CONTINUOUS
370
-3
390
F
  0
LAYER
  5
201
100
AcDbSymbolTableRecord
100
AcDbLayerTableRecord
  2
DEFAULT_DATUM_CURVES
 70
0
 62
7
  6
CONTINUOUS
370
-3
390
F
  0
LAYER
  5
202
100
AcDbSymbolTableRecord
100
AcDbLayerTableRecord
  2
DEFAULT_DATUM_PLANES
 70
0
 62
7
  6
CONTINUOUS
370
-3
390
F
  0
LAYER
  5
203
100
AcDbSymbolTableRecord
100
AcDbLayerTableRecord
  2
DEFAULT_SURFACES
 70
0
 62
7
  6
CONTINUOUS
370
-3
390
F
  0
LAYER
  5
204
100
AcDbSymbolTableRecord
100
AcDbLayerTableRecord
  2
DIMENSIONS
 70
0
 62
7
  6
CONTINUOUS
370
-3
390
F
  0
ENDTAB
  0
TABLE
  2
STYLE
  5
3
100
AcDbSymbolTable
 70
1
  0
STYLE
  5
11
100
AcDbSymbolTableRecord
100
AcDbTextStyleTableRecord
  2
STANDARD
 70
0
 40
0.0
 41
0.8
 50
0.0
 71
0
 42
0.2
  3
txt
  4

  0
STYLE
  5
205
100
AcDbSymbolTableRecord
100
AcDbTextStyleTableRecord
  2
TEXTSTYLE_1
 70
0
 40
0.0
 41
0.8
 50
0.0
 71
0
 42
0.2
  3
gdt
  4

  0
ENDTAB
  0
TABLE
  2
VIEW
  5
6
100
AcDbSymbolTable
 70
0
  0
ENDTAB
  0
TABLE
  2
UCS
  5
7
100
AcDbSymbolTable
 70
0
  0
ENDTAB
  0
TABLE
  2
APPID
  5
9
100
AcDbSymbolTable
 70
1
  0
APPID
  5
206
100
AcDbSymbolTableRecord
100
AcDbRegAppTableRecord
  2
ACAD
 70
0
  0
ENDTAB
  0
TABLE
  2
BLOCK_RECORD
  5
1
100
AcDbSymbolTable
 70
0
  0
BLOCK_RECORD
  5
207
100
AcDbSymbolTableRecord
100
AcDbBlockTableRecord
  2
*Model_Space
  0
BLOCK_RECORD
  5
208
100
AcDbSymbolTableRecord
100
AcDbBlockTableRecord
  2
*Paper_Space
  0
BLOCK_RECORD
  5
209
100
AcDbSymbolTableRecord
100
AcDbBlockTableRecord
  2
_FILLED
  0
ENDTAB
  0
TABLE
  2
DIMSTYLE
  5
A
100
AcDbSymbolTable
 70
1
100
AcDbDimStyleTable
 71
0
  0
DIMSTYLE
105
20A
100
AcDbSymbolTableRecord
100
AcDbDimStyleTableRecord
  2
STANDARD
 70
0
  3

  4

 40
1.0
 41
0.1
 42
0.0625
 43
0.38
 44
0.125
 45
0.0
 46
0.0
 47
0.001
 48
0.001
140
0.08
141
0.09
142
0.0
143
25.4
144
1.0
145
0.0
146
1.0
147
0.09
 71
1.0
 72
0.0
 73
1
 74
1
 75
0
 76
0
 77
0
 78
4
 79
1
170
1
171
2
172
0
173
0
174
0
175
0
176
0
177
0
178
0
270
2
179
3
271
3
272
3
273
2
274
2
275
0
280
0
281
0
282
0
283
1
284
4
285
0
286
0
287
3
288
0
340
11
278
46
341
209
342
209
343
209
344
209
  0
ENDTAB
  0
ENDSEC
  0
SECTION
  2
BLOCKS
  0
BLOCK
  5
20
100
AcDbEntity
  8
0
100
AcDbBlockBegin
  2
*Model_Space
 70
0
 10
0.0
 20
0.0
 30
0.0
  3
*Model_Space
  1

  0
ENDBLK
  5
21
100
AcDbEntity
  8
0
100
AcDbBlockEnd
  0
BLOCK
  5
1C
100
AcDbEntity
  8
0
100
AcDbBlockBegin
  2
*Paper_Space
 70
0
 10
0.0
 20
0.0
 30
0.0
  3
*Paper_Space
  1

  0
ENDBLK
  5
1D
100
AcDbEntity
  8
0
100
AcDbBlockEnd
  0
BLOCK
  5
20B
100
AcDbEntity
  8
0
100
AcDbBlockBegin
  2
_FILLED
 70
64
 10
0.0
 20
0.0
  3
_FILLED
  1

  0
SOLID
  5
20C
100
AcDbEntity
  8
0
  6
BYBLOCK
 62
0
100
AcDbTrace
 10
0.0
 20
0.0
 11
-1.0
 21
0.2
 12
-1.0
 22
-0.2
 13
-1.0
 23
-0.2
  0
ENDBLK
  5
20D
100
AcDbEntity
  8
0
  6
BYBLOCK
 62
0
100
AcDbBlockEnd
  0
ENDSEC
  0
SECTION
  2
ENTITIES
  0
MTEXT
  5
20E
100
AcDbEntity
  8
0
100
AcDbMText
 62
2
  6
CONTINUOUS
  7
STANDARD
 71
3
 72
1
 10
5.4243059912
 20
2.6311249216
 30
0.0
 11
1.0
 21
0.0
 31
0.0
 73
2
 44
0.9
  1
SCALE 0.375
 40
0.08
 41
0.704
  0
LINE
  5
20F
100
AcDbEntity
  8
0
100
AcDbLine
 62
7
  6
CONTINUOUS
 10
0.0
 20
0.0
 11
0.0
 21
8.5
  0
LINE
  5
210
100
AcDbEntity
  8
0
100
AcDbLine
 62
7
  6
CONTINUOUS
 10
0.0
 20
0.0
 11
11.0
 21
0.0
  0
LINE
  5
211
100
AcDbEntity
  8
0
100
AcDbLine
 62
7
  6
CONTINUOUS
 10
0.0
 20
8.5
 11
11.0
 21
8.5
  0
LINE
  5
212
100
AcDbEntity
  8
0
100
AcDbLine
 62
7
  6
CONTINUOUS
 10
11.0
 20
0.0
 11
11.0
 21
8.5
  0
LINE
  5
213
100
AcDbEntity
  8
0
100
AcDbLine
 62
7
  6
CONTINUOUS
 10
0.5268977415
 20
4.1477254548
 11
0.5268977415
 21
4.9165944803
  0
LINE
  5
214
100
AcDbEntity
  8
0
100
AcDbLine
 62
7
  6
CONTINUOUS
 10
0.5268977415
 20
4.9426214294
 11
0.5268977415
 21
4.9478432303
  0
LINE
  5
215
100
AcDbEntity
  8
0
100
AcDbLine
 62
7
  6
CONTINUOUS
 10
0.5268977415
 20
4.9738701794
 11
0.5268977415
 21
4.9790919803
  0
LINE
  5
216
100
AcDbEntity
  8
0
100
AcDbLine
 62
7
  6
CONTINUOUS
 10
0.5268977415
 20
5.0051189294
 11
0.5268977415
 21
5.0103407303
  0
LINE
  5
217
100
AcDbEntity
  8
0
100
AcDbLine
 62
7
  6
CONTINUOUS
 10
0.5268977415
 20
5.0363676794
 11
0.5268977415
 21
5.0402254548
  0
LINE
  5
218
100
AcDbEntity
  8
0
100
AcDbLine
 62
7
  6
CONTINUOUS
 10
0.5460602415
 20
5.0253042048
 11
0.5460602415
 21
5.0214042048
  0
LINE
  5
219
100
AcDbEntity
  8
0
100
AcDbLine
 62
7
  6
CONTINUOUS
 10
0.5460602415
 20
4.9940554548
 11
0.5460602415
 21
4.9901554548
  0
LINE
  5
21A
100
AcDbEntity
  8
0
100
AcDbLine
 62
7
  6
CONTINUOUS
 10
0.5460602415
 20
4.9628067048
 11
0.5460602415
 21
4.9589067048
  0
LINE
  5
21B
100
AcDbEntity
  8
0
100
AcDbLine
 62
7
  6
CONTINUOUS
 10
0.5460602415
 20
4.9315579548
 11
0.5460602415
 21
4.9276579548
  0
LINE
  5
21C
100
AcDbEntity
  8
0
100
AcDbLine
 62
7
  6
CONTINUOUS
 10
0.8865257223
 20
4.8959619803
 11
0.8865257223
 21
4.9219889294
  0
LINE
  5
21D
100
AcDbEntity
  8
0
100
AcDbLine
 62
7
  6
CONTINUOUS
 10
0.9764852415
 20
4.9120335798
 11
0.9764852415
 21
4.9159335798
  0
LINE
  5
21E
100
AcDbEntity
  8
0
100
AcDbLine
 62
7
  6
CONTINUOUS
 10
0.9764852415
 20
4.9432823298
 11
0.9764852415
 21
4.9471823298
  0
LINE
  5
21F
100
AcDbEntity
  8
0
100
AcDbLine
 62
7
  6
CONTINUOUS
 10
0.9764852415
 20
4.9745310798
 11
0.9764852415
 21
4.9784310798
  0
LINE
  5
220
100
AcDbEntity
  8
0
100
AcDbLine
 62
7
  6
CONTINUOUS
 10
0.9764852415
 20
5.0057798298
 11
0.9764852415
 21
5.0094808694
  0
LINE
  5
221
100
AcDbEntity
  8
0
100
AcDbLine
 62
7
  6
CONTINUOUS
 10
0.9764852415
 20
5.0370285798
 11
0.9764852415
 21
5.0402254548
  0
LINE
  5
222
100
AcDbEntity
  8
0
100
AcDbLine
 62
7
  6
CONTINUOUS
 10
0.9956477415
 20
4.4991004548
 11
0.9956477415
 21
4.9009701053
  0
LINE
  5
223
100
AcDbEntity
  8
0
100
AcDbLine
 62
7
  6
CONTINUOUS
 10
0.9956477415
 20
4.9269970544
 11
0.9956477415
 21
4.9322188553
  0
LINE
  5
224
100
AcDbEntity
  8
0
100
AcDbLine
 62
7
  6
CONTINUOUS
 10
0.9956477415
 20
4.9582458044
 11
0.9956477415
 21
4.9634676053
  0
LINE
  5
225
100
AcDbEntity
  8
0
100
AcDbLine
 62
7
  6
CONTINUOUS
 10
0.9956477415
 20
4.9894945544
 11
0.9956477415
 21
4.9947163553
  0
LINE
  5
226
100
AcDbEntity
  8
0
100
AcDbLine
 62
7
  6
CONTINUOUS
 10
0.9956477415
 20
5.0207433044
 11
0.9956477415
 21
5.0259651053
  0
LINE
  5
227
100
AcDbEntity
  8
0
100
AcDbLine
 62
7
  6
CONTINUOUS
 10
1.1756477415
 20
4.0071004548
 11
1.1756477415
 21
4.4758504548
  0
LINE
  5
228
100
AcDbEntity
  8
0
100
AcDbLine
 62
7
  6
CONTINUOUS
 10
1.1831477415
 20
4.0146004548
 11
1.1831477415
 21
4.4683504548
  0
LINE
  5
229
100
AcDbEntity
  8
0
100
AcDbLine
 62
7
  6
CONTINUOUS
 10
1.1906477415
 20
4.0071004548
 11
1.1906477415
 21
4.4758504548
  0
LINE
  5
22A
100
AcDbEntity
  8
0
100
AcDbLine
 62
7
  6
CONTINUOUS
 10
0.5270558829
 20
5.010523439
 11
0.5268977415
 21
5.0103407303
  0
LINE
  5
22B
100
AcDbEntity
  8
0
100
AcDbLine
 62
7
  6
CONTINUOUS
 10
0.5270558829
 20
4.979274689
 11
0.5268977415
 21
4.9790919803
  0
LINE
  5
22C
100
AcDbEntity
  8
0
100
AcDbLine
 62
7
  6
CONTINUOUS
 10
0.5270558829
 20
4.948025939
 11
0.5268977415
 21
4.9478432303
  0
LINE
  5
22D
100
AcDbEntity
  8
0
100
AcDbLine
 62
7
  6
CONTINUOUS
 10
0.5270558829
 20
4.916777189
 11
0.5268977415
 21
4.9165944803
  0
LWPOLYLINE
  5
22E
100
AcDbEntity
  8
0
100
AcDbPolyline
 62
7
  6
CONTINUOUS
 90
8
 70
0
 10
0.9956477415
 20
4.4991004548
 10
0.9954629082
 20
4.4988253589
 10
0.9949360967
 20
4.4982612073
 10
0.99410796
 20
4.497408
 10
0.9930173604
 20
4.4962248704
 10
0.9917024447
 20
4.4947526852
 10
0.9902015919
 20
4.4931140442
 10
0.9885743461
 20
4.4913540178
  0
LINE
  5
22F
100
AcDbEntity
  8
0
100
AcDbLine
 62
7
  6
CONTINUOUS
 10
0.9954896002
 20
5.0205605956
 11
0.9956477415
 21
5.0207433044
  0
LINE
  5
230
100
AcDbEntity
  8
0
100
AcDbLine
 62
7
  6
CONTINUOUS
 10
0.9954896002
 20
4.9893118456
 11
0.9956477415
 21
4.9894945544
  0
LINE
  5
231
100
AcDbEntity
  8
0
100
AcDbLine
 62
7
  6
CONTINUOUS
 10
0.9954896002
 20
4.9580630956
 11
0.9956477415
 21
4.9582458044
  0
LINE
  5
232
100
AcDbEntity
  8
0
100
AcDbLine
 62
7
  6
CONTINUOUS
 10
0.9954896002
 20
4.9268143456
 11
0.9956477415
 21
4.9269970544
  0
LINE
  5
233
100
AcDbEntity
  8
0
100
AcDbLine
 62
7
  6
CONTINUOUS
 10
0.9956477415
 20
4.4991004548
 11
0.7612727415
 21
4.2414754548
  0
LINE
  5
234
100
AcDbEntity
  8
0
100
AcDbLine
 62
7
  6
CONTINUOUS
 10
0.8664644414
 20
4.3571014453
 11
0.8589042385
 21
4.3487923022
  0
LINE
  5
235
100
AcDbEntity
  8
0
100
AcDbLine
 62
7
  6
CONTINUOUS
 10
0.8996522873
 20
4.3935808912
 11
0.8935613321
 21
4.3868870698
  0
LINE
  5
236
100
AcDbEntity
  8
0
100
AcDbLine
 62
7
  6
CONTINUOUS
 10
0.8872274304
 20
4.3799245028
 11
0.880623945
 21
4.3726675456
  0
LINE
  5
237
100
AcDbEntity
  8
0
100
AcDbLine
 62
7
  6
CONTINUOUS
 10
1.1831477399
 20
4.0146004564
 11
1.1906477399
 21
4.0071004565
  0
LINE
  5
238
100
AcDbEntity
  8
0
100
AcDbLine
 62
7
  6
CONTINUOUS
 10
0.5270558829
 20
4.9424387206
 11
0.5268977415
 21
4.9426214294
  0
LINE
  5
239
100
AcDbEntity
  8
0
100
AcDbLine
 62
7
  6
CONTINUOUS
 10
0.5270558829
 20
4.9736874706
 11
0.5268977415
 21
4.9738701794
  0
LINE
  5
23A
100
AcDbEntity
  8
0
100
AcDbLine
 62
7
  6
CONTINUOUS
 10
0.5270558829
 20
5.0049362206
 11
0.5268977415
 21
5.0051189294
  0
LINE
  5
23B
100
AcDbEntity
  8
0
100
AcDbLine
 62
7
  6
CONTINUOUS
 10
0.9849322446
 20
4.4873219873
 11
0.9828590945
 21
4.4850544665
  0
LINE
  5
23C
100
AcDbEntity
  8
0
100
AcDbLine
 62
7
  6
CONTINUOUS
 10
1.1831477399
 20
4.4683504532
 11
1.1906477399
 21
4.4758504532
  0
LWPOLYLINE
  5
23D
100
AcDbEntity
  8
0
100
AcDbPolyline
 62
7
  6
CONTINUOUS
 90
3
 70
0
 10
1.0129113305
 20
4.4704043039
 10
1.0111513046
 20
4.4687770583
 10
1.0071192756
 20
4.4651349576
  0
LINE
  5
23E
100
AcDbEntity
  8
0
100
AcDbLine
 62
7
  6
CONTINUOUS
 10
1.0188977415
 20
4.4758504548
 11
0.7612727415
 21
4.2414754548
  0
LINE
  5
23F
100
AcDbEntity
  8
0
100
AcDbLine
 62
7
  6
CONTINUOUS
 10
0.9561758691
 20
4.4187890715
 11
0.9517621147
 21
4.4147742041
  0
LINE
  5
240
100
AcDbEntity
  8
0
100
AcDbLine
 62
7
  6
CONTINUOUS
 10
0.8924648325
 20
4.3608266582
 11
0.8768987322
 21
4.3466671545
  0
LINE
  5
241
100
AcDbEntity
  8
0
100
AcDbLine
 62
7
  6
CONTINUOUS
 10
0.8506579055
 20
4.3227963818
 11
0.8410353649
 21
4.3140438969
  0
LINE
  5
242
100
AcDbEntity
  8
0
100
AcDbLine
 62
7
  6
CONTINUOUS
 10
1.0048517555
 20
4.4630618076
 11
1.0024051689
 21
4.4608364832
  0
LINE
  5
243
100
AcDbEntity
  8
0
100
AcDbLine
 62
7
  6
CONTINUOUS
 10
0.8309581756
 20
4.3048719501
 11
0.8204049059
 21
4.2952732853
  0
LINE
  5
244
100
AcDbEntity
  8
0
100
AcDbLine
 62
7
  6
CONTINUOUS
 10
1.1756477415
 20
4.4758504548
 11
1.1831477415
 21
4.4683504548
  0
LINE
  5
245
100
AcDbEntity
  8
0
100
AcDbLine
 62
7
  6
CONTINUOUS
 10
0.9954896001
 20
4.901152814
 11
0.9956477415
 21
4.9009701053
  0
LINE
  5
246
100
AcDbEntity
  8
0
100
AcDbLine
 62
7
  6
CONTINUOUS
 10
0.9954896001
 20
4.932401564
 11
0.9956477415
 21
4.9322188553
  0
LINE
  5
247
100
AcDbEntity
  8
0
100
AcDbLine
 62
7
  6
CONTINUOUS
 10
0.9954896001
 20
4.963650314
 11
0.9956477415
 21
4.9634676053
  0
LINE
  5
248
100
AcDbEntity
  8
0
100
AcDbLine
 62
7
  6
CONTINUOUS
 10
0.9954896001
 20
4.994899064
 11
0.9956477415
 21
4.9947163553
  0
LINE
  5
249
100
AcDbEntity
  8
0
100
AcDbLine
 62
7
  6
CONTINUOUS
 10
0.9954896001
 20
5.026147814
 11
0.9956477415
 21
5.0259651053
  0
LINE
  5
24A
100
AcDbEntity
  8
0
100
AcDbLine
 62
7
  6
CONTINUOUS
 10
1.1756477415
 20
4.0071004548
 11
1.1831477415
 21
4.0146004548
  0
LINE
  5
24B
100
AcDbEntity
  8
0
100
AcDbLine
 62
7
  6
CONTINUOUS
 10
1.0024051689
 20
4.4608364832
 11
0.9967292207
 21
4.4556936367
  0
LINE
  5
24C
100
AcDbEntity
  8
0
100
AcDbLine
 62
7
  6
CONTINUOUS
 10
0.5462324314
 20
5.0216031653
 11
0.5270558829
 21
5.010523439
  0
LINE
  5
24D
100
AcDbEntity
  8
0
100
AcDbLine
 62
7
  6
CONTINUOUS
 10
0.5462324314
 20
4.9903544153
 11
0.5270558829
 21
4.979274689
  0
LINE
  5
24E
100
AcDbEntity
  8
0
100
AcDbLine
 62
7
  6
CONTINUOUS
 10
0.5462324314
 20
4.9591056653
 11
0.5270558829
 21
4.948025939
  0
LINE
  5
24F
100
AcDbEntity
  8
0
100
AcDbLine
 62
7
  6
CONTINUOUS
 10
0.5462324314
 20
4.9278569153
 11
0.5270558829
 21
4.916777189
  0
LINE
  5
250
100
AcDbEntity
  8
0
100
AcDbLine
 62
7
  6
CONTINUOUS
 10
0.9763130516
 20
5.0094808694
 11
0.9954896002
 21
5.0205605956
  0
LINE
  5
251
100
AcDbEntity
  8
0
100
AcDbLine
 62
7
  6
CONTINUOUS
 10
0.9763130516
 20
4.9782321194
 11
0.9954896002
 21
4.9893118456
  0
LINE
  5
252
100
AcDbEntity
  8
0
100
AcDbLine
 62
7
  6
CONTINUOUS
 10
0.9763130516
 20
4.9469833694
 11
0.9954896002
 21
4.9580630956
  0
LWPOLYLINE
  5
253
100
AcDbEntity
  8
0
100
AcDbPolyline
 62
7
  6
CONTINUOUS
 90
6
 70
0
 10
1.0188977415
 20
4.4758504548
 10
1.0186226462
 20
4.4756656214
 10
1.0180584949
 20
4.4751388097
 10
1.0172052877
 20
4.4743106727
 10
1.0160221577
 20
4.4732200728
 10
1.0145499717
 20
4.4719051569
  0
LINE
  5
254
100
AcDbEntity
  8
0
100
AcDbLine
 62
7
  6
CONTINUOUS
 10
0.9763130516
 20
4.9157346194
 11
0.9954896002
 21
4.9268143456
  0
LINE
  5
255
100
AcDbEntity
  8
0
100
AcDbLine
 62
7
  6
CONTINUOUS
 10
0.5270558829
 20
4.9424387206
 11
0.5460171538
 21
4.9314833842
  0
LINE
  5
256
100
AcDbEntity
  8
0
100
AcDbLine
 62
7
  6
CONTINUOUS
 10
0.5270558829
 20
4.9736874706
 11
0.5460171538
 21
4.9627321342
  0
LINE
  5
257
100
AcDbEntity
  8
0
100
AcDbLine
 62
7
  6
CONTINUOUS
 10
0.5270558829
 20
5.0049362206
 11
0.5460171538
 21
4.9939808842
  0
LINE
  5
258
100
AcDbEntity
  8
0
100
AcDbLine
 62
7
  6
CONTINUOUS
 10
0.5270558829
 20
5.0361849706
 11
0.5460171538
 21
5.0252296342
  0
LINE
  5
259
100
AcDbEntity
  8
0
100
AcDbLine
 62
7
  6
CONTINUOUS
 10
0.9954896001
 20
4.901152814
 11
0.9765283293
 21
4.9121081504
  0
LINE
  5
25A
100
AcDbEntity
  8
0
100
AcDbLine
 62
7
  6
CONTINUOUS
 10
0.9954896001
 20
4.932401564
 11
0.9765283293
 21
4.9433569004
  0
LINE
  5
25B
100
AcDbEntity
  8
0
100
AcDbLine
 62
7
  6
CONTINUOUS
 10
0.9954896001
 20
4.963650314
 11
0.9765283293
 21
4.9746056504
  0
LINE
  5
25C
100
AcDbEntity
  8
0
100
AcDbLine
 62
7
  6
CONTINUOUS
 10
0.9954896001
 20
4.994899064
 11
0.9765283293
 21
5.0058544004
  0
LINE
  5
25D
100
AcDbEntity
  8
0
100
AcDbLine
 62
7
  6
CONTINUOUS
 10
0.9954896001
 20
5.026147814
 11
0.9765283293
 21
5.0371031504
  0
LINE
  5
25E
100
AcDbEntity
  8
0
100
AcDbLine
 62
7
  6
CONTINUOUS
 10
9.3318977415
 20
4.0071004548
 11
1.1906477415
 21
4.0071004548
  0
LINE
  5
25F
100
AcDbEntity
  8
0
100
AcDbLine
 62
7
  6
CONTINUOUS
 10
1.1756477415
 20
4.0071004548
 11
0.6675227415
 21
4.0071004548
  0
LINE
  5
260
100
AcDbEntity
  8
0
100
AcDbLine
 62
7
  6
CONTINUOUS
 10
9.3468977415
 20
4.0071004548
 11
9.8550227415
 21
4.0071004548
  0
LINE
  5
261
100
AcDbEntity
  8
0
100
AcDbLine
 62
7
  6
CONTINUOUS
 10
9.3318977415
 20
4.4758504548
 11
1.1906477415
 21
4.4758504548
  0
LINE
  5
262
100
AcDbEntity
  8
0
100
AcDbLine
 62
7
  6
CONTINUOUS
 10
1.1756477415
 20
4.4758504548
 11
1.0188977415
 21
4.4758504548
  0
LINE
  5
263
100
AcDbEntity
  8
0
100
AcDbLine
 62
7
  6
CONTINUOUS
 10
9.3468977415
 20
4.4758504548
 11
9.5036477415
 21
4.4758504548
  0
LINE
  5
264
100
AcDbEntity
  8
0
100
AcDbLine
 62
7
  6
CONTINUOUS
 10
0.5268985558
 20
5.0402254548
 11
0.9764850886
 21
5.0402254548
  0
LINE
  5
265
100
AcDbEntity
  8
0
100
AcDbLine
 62
7
  6
CONTINUOUS
 10
9.5460603945
 20
5.0402254548
 11
9.9956469272
 21
5.0402254548
  0
LINE
  5
266
100
AcDbEntity
  8
0
100
AcDbLine
 62
7
  6
CONTINUOUS
 10
9.5462324314
 20
5.0372275403
 11
9.5270558829
 21
5.026147814
  0
LINE
  5
267
100
AcDbEntity
  8
0
100
AcDbLine
 62
7
  6
CONTINUOUS
 10
9.5462324314
 20
5.0059787903
 11
9.5270558829
 21
4.994899064
  0
LINE
  5
268
100
AcDbEntity
  8
0
100
AcDbLine
 62
7
  6
CONTINUOUS
 10
9.5462324314
 20
4.9747300403
 11
9.5270558829
 21
4.963650314
  0
LINE
  5
269
100
AcDbEntity
  8
0
100
AcDbLine
 62
7
  6
CONTINUOUS
 10
9.5462324314
 20
4.9434812903
 11
9.5270558829
 21
4.932401564
  0
LINE
  5
26A
100
AcDbEntity
  8
0
100
AcDbLine
 62
7
  6
CONTINUOUS
 10
9.5462324314
 20
4.9122325403
 11
9.5270558829
 21
4.901152814
  0
LINE
  5
26B
100
AcDbEntity
  8
0
100
AcDbLine
 62
7
  6
CONTINUOUS
 10
9.9763130516
 20
5.0251052444
 11
9.9954896002
 21
5.0361849706
  0
LINE
  5
26C
100
AcDbEntity
  8
0
100
AcDbLine
 62
7
  6
CONTINUOUS
 10
9.9763130516
 20
4.9938564944
 11
9.9954896002
 21
5.0049362206
  0
LINE
  5
26D
100
AcDbEntity
  8
0
100
AcDbLine
 62
7
  6
CONTINUOUS
 10
9.9763130516
 20
4.9626077444
 11
9.9954896002
 21
4.9736874706
  0
LINE
  5
26E
100
AcDbEntity
  8
0
100
AcDbLine
 62
7
  6
CONTINUOUS
 10
9.9763130516
 20
4.9313589944
 11
9.9954896002
 21
4.9424387206
  0
LINE
  5
26F
100
AcDbEntity
  8
0
100
AcDbLine
 62
7
  6
CONTINUOUS
 10
9.5270558829
 20
4.9268143456
 11
9.5460171538
 21
4.9158590092
  0
LINE
  5
270
100
AcDbEntity
  8
0
100
AcDbLine
 62
7
  6
CONTINUOUS
 10
9.5270558829
 20
4.9580630956
 11
9.5460171538
 21
4.9471077592
  0
LINE
  5
271
100
AcDbEntity
  8
0
100
AcDbLine
 62
7
  6
CONTINUOUS
 10
9.5270558829
 20
4.9893118456
 11
9.5460171538
 21
4.9783565092
  0
LINE
  5
272
100
AcDbEntity
  8
0
100
AcDbLine
 62
7
  6
CONTINUOUS
 10
9.5270558829
 20
5.0205605956
 11
9.5460171538
 21
5.0096052592
  0
LINE
  5
273
100
AcDbEntity
  8
0
100
AcDbLine
 62
7
  6
CONTINUOUS
 10
9.3468977415
 20
4.0071004548
 11
9.3393977415
 21
4.0146004548
  0
LINE
  5
274
100
AcDbEntity
  8
0
100
AcDbLine
 62
7
  6
CONTINUOUS
 10
9.5270558829
 20
5.026147814
 11
9.5268977415
 21
5.0259651053
  0
LINE
  5
275
100
AcDbEntity
  8
0
100
AcDbLine
 62
7
  6
CONTINUOUS
 10
9.9954896001
 20
4.916777189
 11
9.9765283293
 21
4.9277325254
  0
LINE
  5
276
100
AcDbEntity
  8
0
100
AcDbLine
 62
7
  6
CONTINUOUS
 10
9.9954896001
 20
4.948025939
 11
9.9765283293
 21
4.9589812754
  0
LINE
  5
277
100
AcDbEntity
  8
0
100
AcDbLine
 62
7
  6
CONTINUOUS
 10
9.9954896001
 20
4.979274689
 11
9.9765283293
 21
4.9902300254
  0
LINE
  5
278
100
AcDbEntity
  8
0
100
AcDbLine
 62
7
  6
CONTINUOUS
 10
9.9954896001
 20
5.010523439
 11
9.9765283293
 21
5.0214787754
  0
LWPOLYLINE
  5
279
100
AcDbEntity
  8
0
100
AcDbPolyline
 62
7
  6
CONTINUOUS
 90
6
 70
0
 10
9.5076115343
 20
4.4722536277
 10
9.5062646295
 20
4.473457679
 10
9.5051840267
 20
4.4744527578
 10
9.5044056295
 20
4.4752057536
 10
9.5038935345
 20
4.4756833244
 10
9.5036477415
 20
4.4758504548
  0
LINE
  5
27A
100
AcDbEntity
  8
0
100
AcDbLine
 62
7
  6
CONTINUOUS
 10
9.7612727415
 20
4.2414754548
 11
9.503647741
 21
4.4758504548
  0
LINE
  5
27B
100
AcDbEntity
  8
0
100
AcDbLine
 62
7
  6
CONTINUOUS
 10
9.635203031
 20
4.356166868
 11
9.6281229314
 21
4.3626091794
  0
LINE
  5
27C
100
AcDbEntity
  8
0
100
AcDbLine
 62
7
  6
CONTINUOUS
 10
9.6213176683
 20
4.3687999417
 11
9.5968047035
 21
4.3910990857
  0
LINE
  5
27D
100
AcDbEntity
  8
0
100
AcDbLine
 62
7
  6
CONTINUOUS
 10
9.7374066287
 20
4.2631682062
 11
9.6849365964
 21
4.3109260078
  0
LINE
  5
27E
100
AcDbEntity
  8
0
100
AcDbLine
 62
7
  6
CONTINUOUS
 10
9.5862412038
 20
4.400710843
 11
9.5164850165
 21
4.4641547373
  0
LWPOLYLINE
  5
27F
100
AcDbEntity
  8
0
100
AcDbPolyline
 62
7
  6
CONTINUOUS
 90
3
 70
0
 10
9.5164850165
 20
4.4641547373
 10
9.5144773561
 20
4.4659981761
 10
9.5107563335
 20
4.4693651523
  0
LINE
  5
280
100
AcDbEntity
  8
0
100
AcDbLine
 62
7
  6
CONTINUOUS
 10
9.5107563335
 20
4.4693651523
 11
9.5076115343
 21
4.4722536277
  0
LINE
  5
281
100
AcDbEntity
  8
0
100
AcDbLine
 62
7
  6
CONTINUOUS
 10
9.3393977435
 20
4.4683504529
 11
9.3318977436
 21
4.4758504528
  0
LINE
  5
282
100
AcDbEntity
  8
0
100
AcDbLine
 62
7
  6
CONTINUOUS
 10
9.5270558829
 20
4.994899064
 11
9.5268977415
 21
4.9947163553
  0
LINE
  5
283
100
AcDbEntity
  8
0
100
AcDbLine
 62
7
  6
CONTINUOUS
 10
9.5270558829
 20
4.963650314
 11
9.5268977415
 21
4.9634676053
  0
LINE
  5
284
100
AcDbEntity
  8
0
100
AcDbLine
 62
7
  6
CONTINUOUS
 10
9.5270558829
 20
4.932401564
 11
9.5268977415
 21
4.9322188553
  0
LINE
  5
285
100
AcDbEntity
  8
0
100
AcDbLine
 62
7
  6
CONTINUOUS
 10
9.5270558829
 20
4.901152814
 11
9.5268977415
 21
4.9009701053
  0
LINE
  5
286
100
AcDbEntity
  8
0
100
AcDbLine
 62
7
  6
CONTINUOUS
 10
9.3468977415
 20
4.4758504548
 11
9.3393977415
 21
4.4683504548
  0
LINE
  5
287
100
AcDbEntity
  8
0
100
AcDbLine
 62
7
  6
CONTINUOUS
 10
9.5385934586
 20
4.4862631785
 11
9.5367500197
 21
4.4882708391
  0
LWPOLYLINE
  5
288
100
AcDbEntity
  8
0
100
AcDbPolyline
 62
7
  6
CONTINUOUS
 90
7
 70
0
 10
9.5333830432
 20
4.4919918631
 10
9.5304945679
 20
4.4951366626
 10
9.5292905167
 20
4.4964835669
 10
9.5282954381
 20
4.4975641693
 10
9.5275424426
 20
4.4983425664
 10
9.5270648719
 20
4.4988546616
 10
9.5268977415
 20
4.4991004548
  0
LINE
  5
289
100
AcDbEntity
  8
0
100
AcDbLine
 62
7
  6
CONTINUOUS
 10
9.7612727415
 20
4.2414754548
 11
9.5268977414
 21
4.4991004554
  0
LINE
  5
28A
100
AcDbEntity
  8
0
100
AcDbLine
 62
7
  6
CONTINUOUS
 10
9.6603520126
 20
4.3524067072
 11
9.6465813283
 21
4.3675451652
  0
LINE
  5
28B
100
AcDbEntity
  8
0
100
AcDbLine
 62
7
  6
CONTINUOUS
 10
9.7097828418
 20
4.2980715033
 11
9.7006102979
 21
4.3081556185
  0
LINE
  5
28C
100
AcDbEntity
  8
0
100
AcDbLine
 62
7
  6
CONTINUOUS
 10
9.6918221886
 20
4.3178115999
 11
9.6753694842
 21
4.3359003078
  0
LINE
  5
28D
100
AcDbEntity
  8
0
100
AcDbLine
 62
7
  6
CONTINUOUS
 10
9.5350034381
 20
4.490193968
 11
9.5333830432
 21
4.4919918631
  0
LINE
  5
28E
100
AcDbEntity
  8
0
100
AcDbLine
 62
7
  6
CONTINUOUS
 10
9.9954896002
 20
5.0049362206
 11
9.9956477415
 21
5.0051189294
  0
LINE
  5
28F
100
AcDbEntity
  8
0
100
AcDbLine
 62
7
  6
CONTINUOUS
 10
9.9954896002
 20
4.9736874706
 11
9.9956477415
 21
4.9738701794
  0
LINE
  5
290
100
AcDbEntity
  8
0
100
AcDbLine
 62
7
  6
CONTINUOUS
 10
9.9954896002
 20
4.9424387206
 11
9.9956477415
 21
4.9426214294
  0
LINE
  5
291
100
AcDbEntity
  8
0
100
AcDbLine
 62
7
  6
CONTINUOUS
 10
9.3393977435
 20
4.0146004568
 11
9.3318977436
 21
4.0071004569
  0
LINE
  5
292
100
AcDbEntity
  8
0
100
AcDbLine
 62
7
  6
CONTINUOUS
 10
9.5270558829
 20
4.9268143456
 11
9.5268977415
 21
4.9269970544
  0
LINE
  5
293
100
AcDbEntity
  8
0
100
AcDbLine
 62
7
  6
CONTINUOUS
 10
9.5270558829
 20
4.9580630956
 11
9.5268977415
 21
4.9582458044
  0
LINE
  5
294
100
AcDbEntity
  8
0
100
AcDbLine
 62
7
  6
CONTINUOUS
 10
9.5270558829
 20
4.9893118456
 11
9.5268977415
 21
4.9894945544
  0
LINE
  5
295
100
AcDbEntity
  8
0
100
AcDbLine
 62
7
  6
CONTINUOUS
 10
9.5270558829
 20
5.0205605956
 11
9.5268977415
 21
5.0207433044
  0
LINE
  5
296
100
AcDbEntity
  8
0
100
AcDbLine
 62
7
  6
CONTINUOUS
 10
9.9954896001
 20
4.916777189
 11
9.9956477415
 21
4.9165944803
  0
LINE
  5
297
100
AcDbEntity
  8
0
100
AcDbLine
 62
7
  6
CONTINUOUS
 10
9.3318977415
 20
4.4758504548
 11
9.3318977415
 21
4.0071004548
  0
LINE
  5
298
100
AcDbEntity
  8
0
100
AcDbLine
 62
7
  6
CONTINUOUS
 10
9.3393977415
 20
4.4683504548
 11
9.3393977415
 21
4.0146004548
  0
LINE
  5
299
100
AcDbEntity
  8
0
100
AcDbLine
 62
7
  6
CONTINUOUS
 10
9.3468977415
 20
4.4758504548
 11
9.3468977415
 21
4.0071004548
  0
LINE
  5
29A
100
AcDbEntity
  8
0
100
AcDbLine
 62
7
  6
CONTINUOUS
 10
9.9954896001
 20
4.948025939
 11
9.9956477415
 21
4.9478432303
  0
LINE
  5
29B
100
AcDbEntity
  8
0
100
AcDbLine
 62
7
  6
CONTINUOUS
 10
9.9954896001
 20
4.979274689
 11
9.9956477415
 21
4.9790919803
  0
LINE
  5
29C
100
AcDbEntity
  8
0
100
AcDbLine
 62
7
  6
CONTINUOUS
 10
9.9954896001
 20
5.010523439
 11
9.9956477415
 21
5.0103407303
  0
LINE
  5
29D
100
AcDbEntity
  8
0
100
AcDbLine
 62
7
  6
CONTINUOUS
 10
9.5268977415
 20
4.4991004548
 11
9.5268977415
 21
4.9009701053
  0
LINE
  5
29E
100
AcDbEntity
  8
0
100
AcDbLine
 62
7
  6
CONTINUOUS
 10
9.5268977415
 20
4.9269970544
 11
9.5268977415
 21
4.9322188553
  0
LINE
  5
29F
100
AcDbEntity
  8
0
100
AcDbLine
 62
7
  6
CONTINUOUS
 10
9.5268977415
 20
4.9582458044
 11
9.5268977415
 21
4.9634676053
  0
LINE
  5
2A0
100
AcDbEntity
  8
0
100
AcDbLine
 62
7
  6
CONTINUOUS
 10
9.5268977415
 20
4.9894945544
 11
9.5268977415
 21
4.9947163553
  0
LINE
  5
2A1
100
AcDbEntity
  8
0
100
AcDbLine
 62
7
  6
CONTINUOUS
 10
9.5268977415
 20
5.0207433044
 11
9.5268977415
 21
5.0259651053
  0
LINE
  5
2A2
100
AcDbEntity
  8
0
100
AcDbLine
 62
7
  6
CONTINUOUS
 10
9.5460602415
 20
5.0402254548
 11
9.5460602415
 21
5.0370285798
  0
LINE
  5
2A3
100
AcDbEntity
  8
0
100
AcDbLine
 62
7
  6
CONTINUOUS
 10
9.5460602415
 20
5.0096798298
 11
9.5460602415
 21
5.0057798298
  0
LINE
  5
2A4
100
AcDbEntity
  8
0
100
AcDbLine
 62
7
  6
CONTINUOUS
 10
9.5460602415
 20
4.9784310798
 11
9.5460602415
 21
4.9745310798
  0
LINE
  5
2A5
100
AcDbEntity
  8
0
100
AcDbLine
 62
7
  6
CONTINUOUS
 10
9.5460602415
 20
4.9471823298
 11
9.5460602415
 21
4.9432823298
  0
LINE
  5
2A6
100
AcDbEntity
  8
0
100
AcDbLine
 62
7
  6
CONTINUOUS
 10
9.5460602415
 20
4.9159335798
 11
9.5460602415
 21
4.9120335798
  0
LINE
  5
2A7
100
AcDbEntity
  8
0
100
AcDbLine
 62
7
  6
CONTINUOUS
 10
9.9764852415
 20
4.9276579548
 11
9.9764852415
 21
4.9315579548
  0
LINE
  5
2A8
100
AcDbEntity
  8
0
100
AcDbLine
 62
7
  6
CONTINUOUS
 10
9.9764852415
 20
4.9589067048
 11
9.9764852415
 21
4.9628067048
  0
LINE
  5
2A9
100
AcDbEntity
  8
0
100
AcDbLine
 62
7
  6
CONTINUOUS
 10
9.9764852415
 20
4.9901554548
 11
9.9764852415
 21
4.9940554548
  0
LINE
  5
2AA
100
AcDbEntity
  8
0
100
AcDbLine
 62
7
  6
CONTINUOUS
 10
9.9764852415
 20
5.0214042048
 11
9.9764852415
 21
5.0253042048
  0
LINE
  5
2AB
100
AcDbEntity
  8
0
100
AcDbLine
 62
7
  6
CONTINUOUS
 10
9.9956477415
 20
4.1477254548
 11
9.9956477415
 21
4.9165944803
  0
LINE
  5
2AC
100
AcDbEntity
  8
0
100
AcDbLine
 62
7
  6
CONTINUOUS
 10
9.9956477415
 20
4.9426214294
 11
9.9956477415
 21
4.9478432303
  0
LINE
  5
2AD
100
AcDbEntity
  8
0
100
AcDbLine
 62
7
  6
CONTINUOUS
 10
9.9956477415
 20
4.9738701794
 11
9.9956477415
 21
4.9790919803
  0
LINE
  5
2AE
100
AcDbEntity
  8
0
100
AcDbLine
 62
7
  6
CONTINUOUS
 10
9.9956477415
 20
5.0051189294
 11
9.9956477415
 21
5.0103407303
  0
LINE
  5
2AF
100
AcDbEntity
  8
0
100
AcDbLine
 62
7
  6
CONTINUOUS
 10
9.9956477415
 20
5.0363676794
 11
9.9956477415
 21
5.0402254548
  0
ARC
  5
2B0
100
AcDbEntity
  8
0
100
AcDbCircle
 62
7
  6
CONTINUOUS
 10
9.8550227011
 20
4.1477254953
 40
0.1406249393
100
AcDbArc
 50
270.0000164854
 51
359.9999835146
  0
ARC
  5
2B1
100
AcDbEntity
  8
0
100
AcDbCircle
 62
7
  6
CONTINUOUS
 10
0.667522782
 20
4.1477254953
 40
0.1406249393
100
AcDbArc
 50
180.0000164854
 51
269.9999835146
  0
ARC
  5
2B2
100
AcDbEntity
  8
0
100
AcDbCircle
 62
7
  6
CONTINUOUS
 10
9.5036478526
 20
4.4991003438
 40
0.02324999
100
AcDbArc
 50
269.9997263728
 51
0.0002736272
  0
ARC
  5
2B3
100
AcDbEntity
  8
0
100
AcDbCircle
 62
7
  6
CONTINUOUS
 10
1.0188976305
 20
4.4991003438
 40
0.02324999
100
AcDbArc
 50
179.9997263728
 51
270.0002736272
  0
ARC
  5
2B4
100
AcDbEntity
  8
0
100
AcDbCircle
 62
7
  6
CONTINUOUS
 10
0.9743130032
 20
4.9831591738
 40
0.005336339
100
AcDbArc
 50
285.6284520517
 51
286.5668230858
  0
LINE
  5
2B5
100
AcDbEntity
  8
0
100
AcDbLine
 62
7
  6
CONTINUOUS
 10
9.9956476868
 20
5.0363676797
 11
9.9954895238
 21
5.0361849703
  0
LINE
  5
2B6
100
AcDbEntity
  8
0
100
AcDbLine
 62
7
  6
CONTINUOUS
 10
9.9763130035
 20
4.9626077447
 11
9.9756066442
 21
4.962357208
  0
LINE
  5
2B7
100
AcDbEntity
  8
0
100
AcDbLine
 62
7
  6
CONTINUOUS
 10
9.9756066442
 20
4.962357208
 11
9.9751460732
 21
4.9622516739
  0
SPLINE
  5
2B8
100
AcDbEntity
  8
0
100
AcDbSpline
 62
7
  6
CONTINUOUS
 70
0
 71
3
 72
55
 73
51
 74
0
 42
0.0000001
 43
0.0000001
 44
0.0000000001
 40
0.0
 40
0.0
 40
0.0
 40
0.0
 40
0.0014858394
 40
0.0032454928
 40
0.0075863894
 40
0.0130201342
 40
0.0195366114
 40
0.0271210331
 40
0.0357579975
 40
0.0561152535
 40
0.0804254196
 40
0.1084755801
 40
0.1400132733
 40
0.1747579899
 40
0.2123987771
 40
0.2525983012
 40
0.3392167419
 40
0.4315185945
 40
0.5262053681
 40
0.5733858411
 40
0.6198932728
 40
0.6653120841
 40
0.7092344006
 40
0.7512686438
 40
0.7910366068
 40
0.8281844011
 40
0.8623779794
 40
0.8933127321
 40
0.9074699698
 40
0.9207121579
 40
0.9330085414
 40
0.9443311158
 40
0.9546565188
 40
0.9639619152
 40
0.972225097
 40
0.9794290688
 40
0.9855600784
 40
0.9882191384
 40
0.9906051607
 40
0.992717079
 40
0.9945547074
 40
0.9961182782
 40
0.9974086422
 40
0.9984279321
 40
0.9988374971
 40
0.9991818333
 40
0.999463196
 40
0.9996858494
 40
0.9998585939
 40
1.0
 40
1.0
 40
1.0
 40
1.0
 10
9.9751460732
 20
4.9622516739
 30
0.0
 10
9.974937749
 20
4.9622084579
 30
0.0
 10
9.9744806207
 20
4.9621241363
 30
0.0
 10
9.9734071553
 20
4.9619570816
 30
0.0
 10
9.9717675743
 20
4.9617552238
 30
0.0
 10
9.969446203
 20
4.9615242662
 30
0.0
 10
9.9666585454
 20
4.9612922529
 30
0.0
 10
9.9634109841
 20
4.9610592142
 30
0.0
 10
9.9581835726
 20
4.960729499
 30
0.0
 10
9.9505612759
 20
4.9603273056
 30
0.0
 10
9.9401589999
 20
4.959863868
 30
0.0
 10
9.9281544686
 20
4.9593989398
 30
0.0
 10
9.9146548769
 20
4.9589326654
 30
0.0
 10
9.8997812774
 20
4.9584656457
 30
0.0
 10
9.8836668386
 20
4.9579980276
 30
0.0
 10
9.8601264441
 20
4.9573580115
 30
0.0
 10
9.8287601984
 20
4.9565714079
 30
0.0
 10
9.7895929163
 20
4.9556470089
 30
0.0
 10
9.7560707916
 20
4.9548752252
 30
0.0
 10
9.7291044122
 20
4.9542494529
 30
0.0
 10
9.7091910384
 20
4.9537807161
 30
0.0
 10
9.6897443331
 20
4.9533121018
 30
0.0
 10
9.6709383379
 20
4.952843618
 30
0.0
 10
9.6529417493
 20
4.9523753897
 30
0.0
 10
9.635915551
 20
4.9519074275
 30
0.0
 10
9.6200125031
 20
4.951439942
 30
0.0
 10
9.6053748679
 20
4.9509729802
 30
0.0
 10
9.5940288436
 20
4.9505737294
 30
0.0
 10
9.5856821133
 20
4.9502511311
 30
0.0
 10
9.5800028498
 20
4.9500165163
 30
0.0
 10
9.5747298499
 20
4.9497820407
 30
0.0
 10
9.5698749469
 20
4.9495477018
 30
0.0
 10
9.5654488558
 20
4.9493136097
 30
0.0
 10
9.561461497
 20
4.9490798518
 30
0.0
 10
9.5579219194
 20
4.9488465162
 30
0.0
 10
9.5548379712
 20
4.9486137233
 30
0.0
 10
9.5525565309
 20
4.948412245
 30
0.0
 10
9.5509646082
 20
4.9482482337
 30
0.0
 10
9.5499464539
 20
4.9481312832
 30
0.0
 10
9.5490467536
 20
4.948014537
 30
0.0
 10
9.5482659085
 20
4.9478980636
 30
0.0
 10
9.54760408
 20
4.9477820828
 30
0.0
 10
9.5470615082
 20
4.9476666493
 30
0.0
 10
9.5466850704
 20
4.9475655261
 30
0.0
 10
9.5464452627
 20
4.9474816982
 30
0.0
 10
9.5463087222
 20
4.9474236268
 30
0.0
 10
9.5462016211
 20
4.9473657136
 30
0.0
 10
9.5461235661
 20
4.9473075249
 30
0.0
 10
9.5460733263
 20
4.9472477758
 30
0.0
 10
9.5460603258
 20
4.9472025775
 30
0.0
 10
9.5460603577
 20
4.9471823294
 30
0.0
  0
SPLINE
  5
2B9
100
AcDbEntity
  8
0
100
AcDbSpline
 62
7
  6
CONTINUOUS
 70
0
 71
3
 72
64
 73
60
 74
0
 42
0.0000001
 43
0.0000001
 44
0.0000000001
 40
0.0
 40
0.0
 40
0.0
 40
0.0
 40
0.0001336265
 40
0.0003030286
 40
0.0005273924
 40
0.0008150549
 40
0.001169874
 40
0.0015938403
 40
0.002088077
 40
0.0026532599
 40
0.0039979397
 40
0.0056298763
 40
0.0075498187
 40
0.0097576481
 40
0.015032186
 40
0.0214424068
 40
0.0289757727
 40
0.0376165033
 40
0.04734299
 40
0.0581327682
 40
0.0699624728
 40
0.082803413
 40
0.0966247115
 40
0.111395339
 40
0.1436432143
 40
0.1792430382
 40
0.217860352
 40
0.2591327237
 40
0.3026709155
 40
0.3480675527
 40
0.3948954037
 40
0.4427150862
 40
0.4910763268
 40
0.5395240305
 40
0.5876018503
 40
0.6348578632
 40
0.6808480224
 40
0.7251409902
 40
0.7673214515
 40
0.8069903583
 40
0.8437766427
 40
0.8773322704
 40
0.9073437456
 40
0.9209306357
 40
0.9335296473
 40
0.9451099542
 40
0.9556446258
 40
0.9651106819
 40
0.9734854343
 40
0.9807482975
 40
0.986884987
 40
0.9918830396
 40
0.9939516205
 40
0.9957320781
 40
0.9972247848
 40
0.9984309184
 40
0.9993533107
 40
0.999710276
 40
1.0
 40
1.0
 40
1.0
 40
1.0
 10
9.9956477415
 20
4.9165944803
 30
0.0
 10
9.9956477415
 20
4.9165735855
 30
0.0
 10
9.99563202
 20
4.9165261701
 30
0.0
 10
9.9955741834
 20
4.9164656124
 30
0.0
 10
9.9954851702
 20
4.9164062995
 30
0.0
 10
9.9953628814
 20
4.9163471675
 30
0.0
 10
9.995206937
 20
4.9162877588
 30
0.0
 10
9.9950169158
 20
4.9162281618
 30
0.0
 10
9.9947927446
 20
4.9161683863
 30
0.0
 10
9.994426469
 20
4.9160835447
 30
0.0
 10
9.9938822297
 20
4.9159799811
 30
0.0
 10
9.9931257971
 20
4.9158610264
 30
0.0
 10
9.9922330462
 20
4.9157416778
 30
0.0
 10
9.9907726171
 20
4.9155719391
 30
0.0
 10
9.988609944
 20
4.9153651828
 30
0.0
 10
9.9856142029
 20
4.9151276381
 30
0.0
 10
9.9820907533
 20
4.9148892558
 30
0.0
 10
9.9780477884
 20
4.9146501824
 30
0.0
 10
9.9734948712
 20
4.9144106307
 30
0.0
 10
9.968442707
 20
4.9141707363
 30
0.0
 10
9.9629030575
 20
4.9139306554
 30
0.0
 10
9.9568889792
 20
4.9136903956
 30
0.0
 10
9.9504147055
 20
4.91344997
 30
0.0
 10
9.9409071071
 20
4.9131195379
 30
0.0
 10
9.9279947807
 20
4.9127105566
 30
0.0
 10
9.9113540367
 20
4.9122321244
 30
0.0
 10
9.8933016416
 20
4.9117531207
 30
0.0
 10
9.8740075552
 20
4.9112736942
 30
0.0
 10
9.853653107
 20
4.9107939393
 30
0.0
 10
9.8324297408
 20
4.9103139838
 30
0.0
 10
9.8105367302
 20
4.9098338543
 30
0.0
 10
9.7881800473
 20
4.9093536286
 30
0.0
 10
9.7655700169
 20
4.9088733425
 30
0.0
 10
9.7429196134
 20
4.9083930531
 30
0.0
 10
9.7204420692
 20
4.9079127986
 30
0.0
 10
9.6983488903
 20
4.9074326332
 30
0.0
 10
9.6768476765
 20
4.9069526025
 30
0.0
 10
9.656140311
 20
4.9064727456
 30
0.0
 10
9.6364216491
 20
4.9059931827
 30
0.0
 10
9.6178771414
 20
4.9055139526
 30
0.0
 10
9.6006817342
 20
4.905035323
 30
0.0
 10
9.584997046
 20
4.9045573567
 30
0.0
 10
9.5729396321
 20
4.9041476647
 30
0.0
 10
9.5641584716
 20
4.9038160457
 30
0.0
 10
9.5582579642
 20
4.9035758227
 30
0.0
 10
9.5528351413
 20
4.9033357781
 30
0.0
 10
9.5479027212
 20
4.9030959498
 30
0.0
 10
9.5434721725
 20
4.9028565047
 30
0.0
 10
9.5395540315
 20
4.9026175631
 30
0.0
 10
9.5361575197
 20
4.9023793745
 30
0.0
 10
9.5332904676
 20
4.9021421342
 30
0.0
 10
9.5312360652
 20
4.9019353362
 30
0.0
 10
9.5298631152
 20
4.9017650823
 30
0.0
 10
9.5290363408
 20
4.9016458704
 30
0.0
 10
9.5283458557
 20
4.9015273514
 30
0.0
 10
9.5277919328
 20
4.9014095276
 30
0.0
 10
9.5274166445
 20
4.9013060422
 30
0.0
 10
9.5271869828
 20
4.9012193043
 30
0.0
 10
9.5270955786
 20
4.9011754416
 30
0.0
 10
9.527056331
 20
4.9011528139
 30
0.0
  0
LINE
  5
2BA
100
AcDbEntity
  8
0
100
AcDbLine
 62
7
  6
CONTINUOUS
 10
9.7612727415
 20
4.2414754548
 11
9.9956477415
 21
4.1477254548
  0
LINE
  5
2BB
100
AcDbEntity
  8
0
100
AcDbLine
 62
7
  6
CONTINUOUS
 10
9.9763129261
 20
4.9313589948
 11
9.9760184523
 21
4.9312303329
  0
LINE
  5
2BC
100
AcDbEntity
  8
0
100
AcDbLine
 62
7
  6
CONTINUOUS
 10
9.9760184523
 20
4.9312303329
 11
9.9757080664
 21
4.9311351853
  0
SPLINE
  5
2BD
100
AcDbEntity
  8
0
100
AcDbSpline
 62
7
  6
CONTINUOUS
 70
0
 71
3
 72
57
 73
53
 74
0
 42
0.0000001
 43
0.0000001
 44
0.0000000001
 40
0.0
 40
0.0
 40
0.0
 40
0.0
 40
0.0011893466
 40
0.0026559453
 40
0.0064238354
 40
0.0113041544
 40
0.0172913316
 40
0.0243723484
 40
0.0325310911
 40
0.0417510085
 40
0.0520124913
 40
0.0755600406
 40
0.1029637027
 40
0.1339718132
 40
0.1683056832
 40
0.2056501929
 40
0.245667357
 40
0.287991589
 40
0.3322377575
 40
0.4248697292
 40
0.5201949507
 40
0.5677846138
 40
0.6147468218
 40
0.6606539029
 40
0.7050870677
 40
0.7476425514
 40
0.7879310666
 40
0.8255878979
 40
0.8602676652
 40
0.8916573152
 40
0.9060266372
 40
0.9194695518
 40
0.9319549783
 40
0.9434531066
 40
0.9539395243
 40
0.963391353
 40
0.9717859433
 40
0.9791045124
 40
0.9853332504
 40
0.9880349114
 40
0.99045939
 40
0.9926053743
 40
0.9944724172
 40
0.9960608017
 40
0.9973714343
 40
0.9984065032
 40
0.9988222916
 40
0.9991717508
 40
0.9994571463
 40
0.9996827624
 40
0.9998574439
 40
1.0
 40
1.0
 40
1.0
 40
1.0
 10
9.9757080664
 20
4.9311351853
 30
0.0
 10
9.9755435152
 20
4.9310904142
 30
0.0
 10
9.9751723187
 20
4.9310042681
 30
0.0
 10
9.9742669823
 20
4.9308340468
 30
0.0
 10
9.9728303916
 20
4.9306308301
 30
0.0
 10
9.9707447049
 20
4.9303987978
 30
0.0
 10
9.9681816126
 20
4.9301655371
 30
0.0
 10
9.9651470177
 20
4.9299309327
 30
0.0
 10
9.9616477461
 20
4.9296956584
 30
0.0
 10
9.9576915877
 20
4.9294598762
 30
0.0
 10
9.9515307382
 20
4.9291297846
 30
0.0
 10
9.9427630769
 20
4.9287246138
 30
0.0
 10
9.9310207394
 20
4.9282559003
 30
0.0
 10
9.917730783
 20
4.9277858867
 30
0.0
 10
9.9030147096
 20
4.9273149935
 30
0.0
 10
9.8870063014
 20
4.9268434307
 30
0.0
 10
9.8698517569
 20
4.9263714582
 30
0.0
 10
9.8517072839
 20
4.9258991359
 30
0.0
 10
9.8260205185
 20
4.9252593048
 30
0.0
 10
9.7927356242
 20
4.9244711454
 30
0.0
 10
9.7589709652
 20
4.9236932855
 30
0.0
 10
9.7317529622
 20
4.9230624711
 30
0.0
 10
9.711618965
 20
4.9225896524
 30
0.0
 10
9.6919376829
 20
4.922116945
 30
0.0
 10
9.6728884375
 20
4.9216443769
 30
0.0
 10
9.654645054
 20
4.9211720577
 30
0.0
 10
9.6373736214
 20
4.9207000045
 30
0.0
 10
9.6212318706
 20
4.9202284429
 30
0.0
 10
9.6063666446
 20
4.9197573835
 30
0.0
 10
9.5948400264
 20
4.9193546936
 30
0.0
 10
9.5863576623
 20
4.9190292957
 30
0.0
 10
9.5805844692
 20
4.918792615
 30
0.0
 10
9.5752233218
 20
4.9185560931
 30
0.0
 10
9.5702865263
 20
4.9183197029
 30
0.0
 10
9.5657852283
 20
4.9180835501
 30
0.0
 10
9.5617295809
 20
4.9178477337
 30
0.0
 10
9.5581289683
 20
4.917612374
 30
0.0
 10
9.5549915809
 20
4.9173775334
 30
0.0
 10
9.5526705133
 20
4.9171742829
 30
0.0
 10
9.5510508067
 20
4.9170088331
 30
0.0
 10
9.5500147687
 20
4.9168908607
 30
0.0
 10
9.5490992326
 20
4.916773099
 30
0.0
 10
9.5483046679
 20
4.9166556033
 30
0.0
 10
9.547631257
 20
4.9165386061
 30
0.0
 10
9.5470792171
 20
4.9164221618
 30
0.0
 10
9.5466961999
 20
4.9163201528
 30
0.0
 10
9.5464521697
 20
4.9162355847
 30
0.0
 10
9.5463132322
 20
4.9161770089
 30
0.0
 10
9.5462042354
 20
4.9161186012
 30
0.0
 10
9.5461247874
 20
4.916059925
 30
0.0
 10
9.5460735766
 20
4.9159997068
 30
0.0
 10
9.5460602594
 20
4.9159540198
 30
0.0
 10
9.5460602816
 20
4.9159335795
 30
0.0
  0
SPLINE
  5
2BE
100
AcDbEntity
  8
0
100
AcDbSpline
 62
7
  6
CONTINUOUS
 70
0
 71
3
 72
37
 73
33
 74
0
 42
0.0000001
 43
0.0000001
 44
0.0000000001
 40
0.0
 40
0.0
 40
0.0
 40
0.0
 40
0.0005312998
 40
0.0012206419
 40
0.0020726443
 40
0.0030895818
 40
0.0056223805
 40
0.0088237837
 40
0.0126945916
 40
0.0172322888
 40
0.0224324753
 40
0.0282903711
 40
0.0348009841
 40
0.0419589983
 40
0.0581866816
 40
0.0769063006
 40
0.0980463331
 40
0.1215191759
 40
0.1472309912
 40
0.1750790042
 40
0.2049482992
 40
0.2367207708
 40
0.2702657831
 40
0.3421263162
 40
0.4193669917
 40
0.5007381348
 40
0.584922834
 40
0.6705580052
 40
0.7562590811
 40
0.8406311289
 40
0.9223290183
 40
1.0
 40
1.0
 40
1.0
 40
1.0
 10
9.9954895238
 20
5.0361849703
 30
0.0
 10
9.9954362203
 20
5.0361541975
 30
0.0
 10
9.9953068117
 20
5.0360958164
 30
0.0
 10
9.9950794086
 20
5.0360184349
 30
0.0
 10
9.9947932812
 20
5.035940563
 30
0.0
 10
9.9942958714
 20
5.0358279049
 30
0.0
 10
9.9935252904
 20
5.0356920827
 30
0.0
 10
9.9924233946
 20
5.0355368499
 30
0.0
 10
9.9910874044
 20
5.0353809032
 30
0.0
 10
9.9895186569
 20
5.0352242776
 30
0.0
 10
9.9877187569
 20
5.0350672679
 30
0.0
 10
9.9856895707
 20
5.0349099731
 30
0.0
 10
9.9834329876
 20
5.034752469
 30
0.0
 10
9.9799765843
 20
5.0345330125
 30
0.0
 10
9.9751063095
 20
5.0342626649
 30
0.0
 10
9.9686163898
 20
5.0339491851
 30
0.0
 10
9.9612863154
 20
5.0336351578
 30
0.0
 10
9.9531455921
 20
5.0333205816
 30
0.0
 10
9.9442272681
 20
5.0330056721
 30
0.0
 10
9.9345675308
 20
5.0326905283
 30
0.0
 10
9.9242053566
 20
5.0323751511
 30
0.0
 10
9.9131829301
 20
5.0320596524
 30
0.0
 10
9.8972973441
 20
5.0316288653
 30
0.0
 10
9.8761453502
 20
5.0310956123
 30
0.0
 10
9.849453582
 20
5.0304685071
 30
0.0
 10
9.8213337594
 20
5.0298408379
 30
0.0
 10
9.7922412515
 20
5.0292127941
 30
0.0
 10
9.7626470313
 20
5.028584579
 30
0.0
 10
9.7330311031
 20
5.0279563564
 30
0.0
 10
9.7038713898
 20
5.0273282867
 30
0.0
 10
9.6756421387
 20
5.0267005479
 30
0.0
 10
9.6571850413
 20
5.0262693483
 30
0.0
 10
9.6481898665
 20
5.0260514294
 30
0.0
  0
SPLINE
  5
2BF
100
AcDbEntity
  8
0
100
AcDbSpline
 62
7
  6
CONTINUOUS
 70
0
 71
3
 72
35
 73
31
 74
0
 42
0.0000001
 43
0.0000001
 44
0.0000000001
 40
0.0
 40
0.0
 40
0.0
 40
0.0
 40
0.0005703812
 40
0.0012979557
 40
0.0032400035
 40
0.0058424933
 40
0.0091094887
 40
0.0130415588
 40
0.0176377109
 40
0.0228944386
 40
0.0288062093
 40
0.0425713201
 40
0.0588839573
 40
0.0776789778
 40
0.0988795198
 40
0.1224045775
 40
0.1481563831
 40
0.1760320987
 40
0.205921337
 40
0.2377005281
 40
0.2712439708
 40
0.3430725177
 40
0.420249217
 40
0.5015281812
 40
0.5855977126
 40
0.6711028948
 40
0.7566645089
 40
0.8408929396
 40
0.9224587149
 40
1.0
 40
1.0
 40
1.0
 40
1.0
 10
9.9763130467
 20
5.0251052445
 30
0.0
 10
9.9762605143
 20
5.0250748829
 30
0.0
 10
9.9761347128
 20
5.0250168145
 30
0.0
 10
9.9758094305
 20
5.0249023173
 30
0.0
 10
9.9752640902
 20
5.0247672352
 30
0.0
 10
9.9744474587
 20
5.0246134173
 30
0.0
 10
9.9734161153
 20
5.0244585889
 30
0.0
 10
9.9721710566
 20
5.0243026533
 30
0.0
 10
9.9707129572
 20
5.0241462546
 30
0.0
 10
9.9690432821
 20
5.0239894487
 30
0.0
 10
9.9664000983
 20
5.0237686686
 30
0.0
 10
9.9625810949
 20
5.0234981271
 30
0.0
 10
9.9573914925
 20
5.023186136
 30
0.0
 10
9.9514097497
 20
5.0228732565
 30
0.0
 10
9.9446599021
 20
5.0225596002
 30
0.0
 10
9.9371693192
 20
5.0222455617
 30
0.0
 10
9.9289681064
 20
5.0219311327
 30
0.0
 10
9.9200894473
 20
5.0216164509
 30
0.0
 10
9.9105692483
 20
5.0213016142
 30
0.0
 10
9.9004458342
 20
5.0209865773
 30
0.0
 10
9.8858624999
 20
5.0205565527
 30
0.0
 10
9.8664508822
 20
5.020024162
 30
0.0
 10
9.8419620395
 20
5.0193980458
 30
0.0
 10
9.8161706565
 20
5.0187713584
 30
0.0
 10
9.7894930777
 20
5.0181442991
 30
0.0
 10
9.7623598067
 20
5.0175170734
 30
0.0
 10
9.7352096282
 20
5.0168898468
 30
0.0
 10
9.7084786189
 20
5.0162627624
 30
0.0
 10
9.6826010173
 20
5.0156360045
 30
0.0
 10
9.6656812266
 20
5.0152055038
 30
0.0
 10
9.6574355224
 20
5.0149879548
 30
0.0
  0
SPLINE
  5
2C0
100
AcDbEntity
  8
0
100
AcDbSpline
 62
7
  6
CONTINUOUS
 70
0
 71
3
 72
32
 73
28
 74
0
 42
0.0000001
 43
0.0000001
 44
0.0000000001
 40
0.0
 40
0.0
 40
0.0
 40
0.0
 40
0.0007326943
 40
0.0012110264
 40
0.00179133
 40
0.0032957641
 40
0.0052920615
 40
0.0077973747
 40
0.0108198428
 40
0.0143637357
 40
0.0184314143
 40
0.02814234
 40
0.0399526211
 40
0.053851712
 40
0.0698266283
 40
0.0878632567
 40
0.107945661
 40
0.1541523124
 40
0.20824155
 40
0.2699840064
 40
0.3391001591
 40
0.4152934056
 40
0.4982152046
 40
0.5874968494
 40
0.6827513266
 40
0.7835764544
 40
1.0
 40
1.0
 40
1.0
 40
1.0
 10
9.5268977415
 20
5.0207433044
 30
0.0
 10
9.5268977415
 20
5.0207729943
 30
0.0
 10
9.5269211383
 20
5.0208213146
 30
0.0
 10
9.5269732399
 20
5.0208714298
 30
0.0
 10
9.527058367
 20
5.0209318448
 30
0.0
 10
9.5272083754
 20
5.02100318
 30
0.0
 10
9.5274380384
 20
5.0210841699
 30
0.0
 10
9.5277320835
 20
5.0211655126
 30
0.0
 10
9.5280905212
 20
5.0212473693
 30
0.0
 10
9.5285135966
 20
5.0213294862
 30
0.0
 10
9.529205803
 20
5.0214462408
 30
0.0
 10
9.5302330881
 20
5.0215885407
 30
0.0
 10
9.5316591109
 20
5.0217519275
 30
0.0
 10
9.5333403117
 20
5.0219158881
 30
0.0
 10
9.5352747829
 20
5.0220803233
 30
0.0
 10
9.5374605807
 20
5.0222450677
 30
0.0
 10
9.5408698051
 20
5.0224759253
 30
0.0
 10
9.5457395693
 20
5.0227594797
 30
0.0
 10
9.5522974672
 20
5.0230873151
 30
0.0
 10
9.5597846707
 20
5.0234158801
 30
0.0
 10
9.5681682884
 20
5.0237451681
 30
0.0
 10
9.5774107075
 20
5.0240748212
 30
0.0
 10
9.5874707238
 20
5.0244048334
 30
0.0
 10
9.5983035069
 20
5.0247350603
 30
0.0
 10
9.6098620681
 20
5.0250655029
 30
0.0
 10
9.6265712373
 20
5.0255170257
 30
0.0
 10
9.6394226231
 20
5.0258390323
 30
0.0
 10
9.6481898665
 20
5.0260514294
 30
0.0
  0
SPLINE
  5
2C1
100
AcDbEntity
  8
0
100
AcDbSpline
 62
7
  6
CONTINUOUS
 70
0
 71
3
 72
42
 73
38
 74
0
 42
0.0000001
 43
0.0000001
 44
0.0000000001
 40
0.0
 40
0.0
 40
0.0
 40
0.0
 40
0.0065930406
 40
0.0141339178
 40
0.0319906188
 40
0.0534244144
 40
0.0782697722
 40
0.1063372585
 40
0.1374069977
 40
0.2075608468
 40
0.2865427683
 40
0.3718869977
 40
0.4609332278
 40
0.550904999
 40
0.6389927619
 40
0.6814658705
 40
0.7224473173
 40
0.7616160297
 40
0.7986669163
 40
0.8333098614
 40
0.8652744379
 40
0.8943117974
 40
0.9201939369
 40
0.9427215713
 40
0.9526705215
 40
0.961717359
 40
0.9698453047
 40
0.9770377368
 40
0.9832806775
 40
0.9885643655
 40
0.99288002
 40
0.9946725205
 40
0.9962209062
 40
0.9975256876
 40
0.9985880625
 40
0.9994106828
 40
1.0
 40
1.0
 40
1.0
 40
1.0
 10
9.9868878922
 20
5.0402254548
 30
0.0
 10
9.9858797324
 20
5.0401464671
 30
0.0
 10
9.9837173839
 20
5.0399910347
 30
0.0
 10
9.9788202846
 20
5.0396825768
 30
0.0
 10
9.9716469092
 20
5.0393064135
 30
0.0
 10
9.9618191349
 20
5.0388736186
 30
0.0
 10
9.9504239685
 20
5.0384392876
 30
0.0
 10
9.9375499495
 20
5.0380036561
 30
0.0
 10
9.9177283664
 20
5.0373970098
 30
0.0
 10
9.8900980787
 20
5.0366552469
 30
0.0
 10
9.8541435488
 20
5.0357926543
 30
0.0
 10
9.8152905627
 20
5.0349279602
 30
0.0
 10
9.7747515772
 20
5.0340620115
 30
0.0
 10
9.7337916975
 20
5.0331957758
 30
0.0
 10
9.6999739776
 20
5.0324658695
 30
0.0
 10
9.6736692274
 20
5.0318747018
 30
0.0
 10
9.6548662011
 20
5.0314368572
 30
0.0
 10
9.6368950722
 20
5.0309991958
 30
0.0
 10
9.6198964465
 20
5.0305618062
 30
0.0
 10
9.6040031783
 20
5.0301247725
 30
0.0
 10
9.5893395205
 20
5.0296882075
 30
0.0
 10
9.5760202255
 20
5.029252403
 30
0.0
 10
9.5641492125
 20
5.0288174655
 30
0.0
 10
9.555205854
 20
5.0284425917
 30
0.0
 10
9.5488442065
 20
5.0281379653
 30
0.0
 10
9.5446896649
 20
5.0279192806
 30
0.0
 10
9.540958543
 20
5.0277009575
 30
0.0
 10
9.5376582824
 20
5.0274830579
 30
0.0
 10
9.5347952852
 20
5.0272658306
 30
0.0
 10
9.5323749607
 20
5.027049438
 30
0.0
 10
9.5306376451
 20
5.0268608832
 30
0.0
 10
9.52947351
 20
5.0267057832
 30
0.0
 10
9.5287692042
 20
5.0265970614
 30
0.0
 10
9.5281784274
 20
5.0264888078
 30
0.0
 10
9.5277007364
 20
5.0263814096
 30
0.0
 10
9.5273364847
 20
5.026275074
 30
0.0
 10
9.5271345911
 20
5.0261929693
 30
0.0
 10
9.5270562879
 20
5.026147814
 30
0.0
  0
SPLINE
  5
2C2
100
AcDbEntity
  8
0
100
AcDbSpline
 62
7
  6
CONTINUOUS
 70
0
 71
3
 72
39
 73
35
 74
0
 42
0.0000001
 43
0.0000001
 44
0.0000000001
 40
0.0
 40
0.0
 40
0.0
 40
0.0
 40
0.0005831826
 40
0.0008136343
 40
0.0010832157
 40
0.0017444636
 40
0.0025732842
 40
0.0035725121
 40
0.004743643
 40
0.0060875099
 40
0.0092950158
 40
0.0131960234
 40
0.0177874021
 40
0.0230648285
 40
0.0356586205
 40
0.0509317838
 40
0.0688182402
 40
0.089246441
 40
0.1121307433
 40
0.1373748587
 40
0.1648758755
 40
0.1945156886
 40
0.226172644
 40
0.2597126794
 40
0.2949945468
 40
0.331871787
 40
0.4097811959
 40
0.4921340431
 40
0.5775509254
 40
0.6646002664
 40
0.7518223949
 40
0.8377445854
 40
0.9209444477
 40
1.0
 40
1.0
 40
1.0
 40
1.0
 10
9.9956477415
 20
5.0103407303
 30
0.0
 10
9.9956477415
 20
5.0102731239
 30
0.0
 10
9.9955582084
 20
5.0101967357
 30
0.0
 10
9.9954522228
 20
5.0101365929
 30
0.0
 10
9.9953293484
 20
5.0100787415
 30
0.0
 10
9.9951377076
 20
5.0100097767
 30
0.0
 10
9.9948598651
 20
5.0099304313
 30
0.0
 10
9.99452137
 20
5.0098509803
 30
0.0
 10
9.9941217942
 20
5.0097711438
 30
0.0
 10
9.9934681324
 20
5.0096577048
 30
0.0
 10
9.9924978905
 20
5.0095193808
 30
0.0
 10
9.9911508214
 20
5.0093606048
 30
0.0
 10
9.989562442
 20
5.0092012464
 30
0.0
 10
9.9869682627
 20
5.0089746069
 30
0.0
 10
9.9831356868
 20
5.0086985509
 30
0.0
 10
9.9778410804
 20
5.0083813544
 30
0.0
 10
9.9716369344
 20
5.0080628921
 30
0.0
 10
9.9645495092
 20
5.0077435304
 30
0.0
 10
9.9566083941
 20
5.0074235931
 30
0.0
 10
9.947846774
 20
5.0071031951
 30
0.0
 10
9.9383015434
 20
5.0067825322
 30
0.0
 10
9.9280125174
 20
5.0064615823
 30
0.0
 10
9.9170230963
 20
5.0061404857
 30
0.0
 10
9.9053793535
 20
5.0058192402
 30
0.0
 10
9.8931302266
 20
5.0054978666
 30
0.0
 10
9.875738775
 20
5.0050612614
 30
0.0
 10
9.8528914665
 20
5.0045201253
 30
0.0
 10
9.8244178865
 20
5.0038813858
 30
0.0
 10
9.7948844993
 20
5.0032422533
 30
0.0
 10
9.7647865096
 20
5.0026029033
 30
0.0
 10
9.7346299286
 20
5.0019635311
 30
0.0
 10
9.7049197015
 20
5.001324321
 30
0.0
 10
9.6761564142
 20
5.0006854663
 30
0.0
 10
9.6573518172
 20
5.0002464396
 30
0.0
 10
9.6481898665
 20
5.0000244803
 30
0.0
  0
SPLINE
  5
2C3
100
AcDbEntity
  8
0
100
AcDbSpline
 62
7
  6
CONTINUOUS
 70
0
 71
3
 72
64
 73
60
 74
0
 42
0.0000001
 43
0.0000001
 44
0.0000000001
 40
0.0
 40
0.0
 40
0.0
 40
0.0
 40
0.0001336263
 40
0.0003030279
 40
0.0005273909
 40
0.0008150527
 40
0.0011698715
 40
0.0015938382
 40
0.0020880764
 40
0.0026532623
 40
0.0039979535
 40
0.0056299112
 40
0.0075498871
 40
0.009757771
 40
0.0150324536
 40
0.0214427924
 40
0.0289761651
 40
0.0376168585
 40
0.0473433041
 40
0.0581330222
 40
0.0699626594
 40
0.082803566
 40
0.0966248619
 40
0.1113955171
 40
0.1436436012
 40
0.1792438496
 40
0.2178618551
 40
0.2591350383
 40
0.3026737776
 40
0.3480704499
 40
0.3948982919
 40
0.4427182704
 40
0.4910798559
 40
0.5395280505
 40
0.5876065063
 40
0.6348629537
 40
0.6808528256
 40
0.7251452159
 40
0.7673249255
 40
0.806993283
 40
0.8437791395
 40
0.8773343282
 40
0.907345617
 40
0.920932363
 40
0.933531225
 40
0.9451114165
 40
0.9556457887
 40
0.9651114697
 40
0.973485947
 40
0.9807486327
 40
0.9868851725
 40
0.9918831264
 40
0.9939516835
 40
0.9957321236
 40
0.9972248148
 40
0.9984309354
 40
0.9993533175
 40
0.9997102789
 40
1.0
 40
1.0
 40
1.0
 40
1.0
 10
9.5268977415
 20
4.9894945544
 30
0.0
 10
9.5268977415
 20
4.9895154491
 30
0.0
 10
9.5269134628
 20
4.9895628644
 30
0.0
 10
9.526971299
 20
4.9896234222
 30
0.0
 10
9.5270603119
 20
4.9896827351
 30
0.0
 10
9.5271826003
 20
4.9897418672
 30
0.0
 10
9.5273385446
 20
4.9898012759
 30
0.0
 10
9.527528566
 20
4.989860873
 30
0.0
 10
9.5277527379
 20
4.9899206487
 30
0.0
 10
9.5281190161
 20
4.9900054906
 30
0.0
 10
9.5286632609
 20
4.9901090548
 30
0.0
 10
9.5294197038
 20
4.9902280105
 30
0.0
 10
9.5303124717
 20
4.9903473608
 30
0.0
 10
9.5317729372
 20
4.9905171019
 30
0.0
 10
9.5339356599
 20
4.9907238602
 30
0.0
 10
9.5369314431
 20
4.9909614068
 30
0.0
 10
9.5404549063
 20
4.9911997915
 30
0.0
 10
9.5444978602
 20
4.9914388633
 30
0.0
 10
9.5490507559
 20
4.9916784118
 30
0.0
 10
9.5541028938
 20
4.9919183034
 30
0.0
 10
9.5596425183
 20
4.9921583829
 30
0.0
 10
9.5656565803
 20
4.9923986418
 30
0.0
 10
9.5721308527
 20
4.9926390672
 30
0.0
 10
9.5816384877
 20
4.9929695007
 30
0.0
 10
9.5945509176
 20
4.9933784844
 30
0.0
 10
9.6111918688
 20
4.9938569221
 30
0.0
 10
9.6292445654
 20
4.9943359324
 30
0.0
 10
9.6485389725
 20
4.9948153656
 30
0.0
 10
9.6688936387
 20
4.9952951247
 30
0.0
 10
9.6901170947
 20
4.9957750809
 30
0.0
 10
9.7120101559
 20
4.9962552109
 30
0.0
 10
9.7343669377
 20
4.9967354379
 30
0.0
 10
9.7569771451
 20
4.997215728
 30
0.0
 10
9.7796277788
 20
4.9976960218
 30
0.0
 10
9.8021055672
 20
4.9981762829
 30
0.0
 10
9.8241988687
 20
4.9986564508
 30
0.0
 10
9.8457000152
 20
4.9991364832
 30
0.0
 10
9.8664071282
 20
4.9996163346
 30
0.0
 10
9.8861254964
 20
5.0000958941
 30
0.0
 10
9.9046697339
 20
5.0005751197
 30
0.0
 10
9.9218649198
 20
5.0010537448
 30
0.0
 10
9.9375494433
 20
5.0015317111
 30
0.0
 10
9.9496067369
 20
5.0019414005
 30
0.0
 10
9.9583878223
 20
5.0022730217
 30
0.0
 10
9.9642882657
 20
5.0025132456
 30
0.0
 10
9.9697110005
 20
5.0027532847
 30
0.0
 10
9.9746432972
 20
5.0029931097
 30
0.0
 10
9.9790736973
 20
5.0032325521
 30
0.0
 10
9.9829917089
 20
5.0034714894
 30
0.0
 10
9.9863881267
 20
5.0037096726
 30
0.0
 10
9.9892551123
 20
5.0039469095
 30
0.0
 10
9.9913094721
 20
5.004153705
 30
0.0
 10
9.9926824005
 20
5.0043239559
 30
0.0
 10
9.9935091661
 20
5.0044431664
 30
0.0
 10
9.994199644
 20
5.0045616845
 30
0.0
 10
9.9947535609
 20
5.0046795077
 30
0.0
 10
9.995128845
 20
5.0047829928
 30
0.0
 10
9.9953585039
 20
5.0048697305
 30
0.0
 10
9.9954499069
 20
5.0049135931
 30
0.0
 10
9.995489154
 20
5.0049362207
 30
0.0
  0
LINE
  5
2C4
100
AcDbEntity
  8
0
100
AcDbLine
 62
7
  6
CONTINUOUS
 10
9.7612727415
 20
4.2414754548
 11
9.8550227415
 21
4.0071004548
  0
SPLINE
  5
2C5
100
AcDbEntity
  8
0
100
AcDbSpline
 62
7
  6
CONTINUOUS
 70
0
 71
3
 72
29
 73
25
 74
0
 42
0.0000001
 43
0.0000001
 44
0.0000000001
 40
0.0
 40
0.0
 40
0.0
 40
0.0
 40
0.2097161604
 40
0.3077161432
 40
0.4005513178
 40
0.4878579335
 40
0.5692832533
 40
0.6444934902
 40
0.7131653926
 40
0.7750226363
 40
0.8298075534
 40
0.8772969535
 40
0.8982465102
 40
0.9173015181
 40
0.9344423068
 40
0.9496551084
 40
0.9629272846
 40
0.974247239
 40
0.9836056246
 40
0.9910021318
 40
0.9939686344
 40
0.9964514647
 40
0.9984573766
 40
1.0
 40
1.0
 40
1.0
 40
1.0
 10
9.6481898665
 20
5.0000244803
 30
0.0
 10
9.6397118401
 20
4.9998190899
 30
0.0
 10
9.6272722814
 20
4.9995077162
 30
0.0
 10
9.6110806194
 20
4.9990720844
 30
0.0
 10
9.5998376312
 20
4.9987529107
 30
0.0
 10
9.5892651695
 20
4.9984339376
 30
0.0
 10
9.579405766
 20
4.9981151268
 30
0.0
 10
9.5703003259
 20
4.997796622
 30
0.0
 10
9.5619866949
 20
4.997478409
 30
0.0
 10
9.554499661
 20
4.9971607461
 30
0.0
 10
9.5478700413
 20
4.9968436949
 30
0.0
 10
9.5428945474
 20
4.9965701862
 30
0.0
 10
9.539363414
 20
4.9963482086
 30
0.0
 10
9.5370580452
 20
4.9961889173
 30
0.0
 10
9.5349852544
 20
4.99602982
 30
0.0
 10
9.533147046
 20
4.9958710094
 30
0.0
 10
9.5315451834
 20
4.9957125718
 30
0.0
 10
9.5301812727
 20
4.9955548301
 30
0.0
 10
9.5290568089
 20
4.9953978082
 30
0.0
 10
9.5282708639
 20
4.9952603636
 30
0.0
 10
9.527763982
 20
4.9951463371
 30
0.0
 10
9.5274727992
 20
4.9950675655
 30
0.0
 10
9.5272416903
 20
4.9949893102
 30
0.0
 10
9.527110286
 20
4.9949302317
 30
0.0
 10
9.5270562497
 20
4.994899064
 30
0.0
  0
SPLINE
  5
2C6
100
AcDbEntity
  8
0
100
AcDbSpline
 62
7
  6
CONTINUOUS
 70
0
 71
3
 72
64
 73
60
 74
0
 42
0.0000001
 43
0.0000001
 44
0.0000000001
 40
0.0
 40
0.0
 40
0.0
 40
0.0
 40
0.0001336263
 40
0.000303028
 40
0.0005273912
 40
0.0008150535
 40
0.0011698732
 40
0.0015938414
 40
0.0020880816
 40
0.0026532704
 40
0.0039979698
 40
0.0056299399
 40
0.0075499333
 40
0.0097578465
 40
0.015032616
 40
0.0214430489
 40
0.0289764895
 40
0.0376172802
 40
0.0473438373
 40
0.0581336136
 40
0.0699632526
 40
0.0828041875
 40
0.096625517
 40
0.1113962
 40
0.1436445199
 40
0.179245069
 40
0.2178636151
 40
0.2591375802
 40
0.3026770539
 40
0.3480740464
 40
0.3949019359
 40
0.4427219913
 40
0.4910835915
 40
0.5395317837
 40
0.5876101755
 40
0.6348665952
 40
0.6808562506
 40
0.7251480971
 40
0.7673269276
 40
0.8069946839
 40
0.8437801616
 40
0.8773350774
 40
0.907346264
 40
0.9209329755
 40
0.9335318141
 40
0.9451120016
 40
0.9556462965
 40
0.9651118633
 40
0.9734862568
 40
0.9807488672
 40
0.9868853112
 40
0.9918831856
 40
0.99395172
 40
0.9957321453
 40
0.9972248263
 40
0.9984309404
 40
0.9993533189
 40
0.9997102795
 40
1.0
 40
1.0
 40
1.0
 40
1.0
 10
9.9956477415
 20
4.9790919803
 30
0.0
 10
9.9956477415
 20
4.9790710856
 30
0.0
 10
9.9956320203
 20
4.9790236702
 30
0.0
 10
9.995574184
 20
4.9789631124
 30
0.0
 10
9.995485171
 20
4.9789037995
 30
0.0
 10
9.9953628822
 20
4.9788446674
 30
0.0
 10
9.9952069375
 20
4.9787852587
 30
0.0
 10
9.9950169154
 20
4.9787256615
 30
0.0
 10
9.9947927424
 20
4.9786658857
 30
0.0
 10
9.9944264623
 20
4.9785810436
 30
0.0
 10
9.9938822138
 20
4.9784774789
 30
0.0
 10
9.9931257649
 20
4.9783585226
 30
0.0
 10
9.9922329879
 20
4.9782391711
 30
0.0
 10
9.9907725015
 20
4.9780694284
 30
0.0
 10
9.9886097459
 20
4.9778626684
 30
0.0
 10
9.9856139238
 20
4.9776251199
 30
0.0
 10
9.9820904202
 20
4.9773867323
 30
0.0
 10
9.978047423
 20
4.9771476599
 30
0.0
 10
9.9734944855
 20
4.9769081115
 30
0.0
 10
9.9684423208
 20
4.9766682196
 30
0.0
 10
9.9629026825
 20
4.9764281393
 30
0.0
 10
9.9568886104
 20
4.9761878815
 30
0.0
 10
9.950414324
 20
4.9759474567
 30
0.0
 10
9.9409066425
 20
4.9756170219
 30
0.0
 10
9.9279941244
 20
4.9752080377
 30
0.0
 10
9.9113530048
 20
4.974729595
 30
0.0
 10
9.8933000544
 20
4.9742505805
 30
0.0
 10
9.8740053258
 20
4.9737711405
 30
0.0
 10
9.8536503724
 20
4.9732913758
 30
0.0
 10
9.8324267441
 20
4.9728114174
 30
0.0
 10
9.8105336134
 20
4.9723312863
 30
0.0
 10
9.7881768098
 20
4.9718510601
 30
0.0
 10
9.7655665885
 20
4.9713707694
 30
0.0
 10
9.7429159629
 20
4.9708904761
 30
0.0
 10
9.7204381891
 20
4.9704102143
 30
0.0
 10
9.6983449358
 20
4.9699300475
 30
0.0
 10
9.6768439126
 20
4.9694500153
 30
0.0
 10
9.6561370558
 20
4.9689701701
 30
0.0
 10
9.6364190041
 20
4.9684906155
 30
0.0
 10
9.6178750572
 20
4.9680113964
 30
0.0
 10
9.6006800672
 20
4.9675327757
 30
0.0
 10
9.5849956616
 20
4.9670548112
 30
0.0
 10
9.572938432
 20
4.9666451233
 30
0.0
 10
9.5641573716
 20
4.9663135013
 30
0.0
 10
9.558256938
 20
4.9660732766
 30
0.0
 10
9.5528342196
 20
4.9658332386
 30
0.0
 10
9.5479019535
 20
4.9655934136
 30
0.0
 10
9.5434715965
 20
4.965353971
 30
0.0
 10
9.5395536276
 20
4.9651150352
 30
0.0
 10
9.5361572496
 20
4.9648768546
 30
0.0
 10
9.5332903031
 20
4.9646396196
 30
0.0
 10
9.5312359743
 20
4.9644328256
 30
0.0
 10
9.5298630641
 20
4.9642625767
 30
0.0
 10
9.5290363059
 20
4.9641433671
 30
0.0
 10
9.5283458329
 20
4.9640248495
 30
0.0
 10
9.5277919192
 20
4.9639070266
 30
0.0
 10
9.5274166368
 20
4.9638035418
 30
0.0
 10
9.5271869787
 20
4.9637168041
 30
0.0
 10
9.5270955759
 20
4.9636729415
 30
0.0
 10
9.5270563289
 20
4.9636503139
 30
0.0
  0
SPLINE
  5
2C7
100
AcDbEntity
  8
0
100
AcDbSpline
 62
7
  6
CONTINUOUS
 70
0
 71
3
 72
57
 73
53
 74
0
 42
0.0000001
 43
0.0000001
 44
0.0000000001
 40
0.0
 40
0.0
 40
0.0
 40
0.0
 40
0.000142592
 40
0.0003171959
 40
0.000542629
 40
0.000827831
 40
0.001177193
 40
0.0015930847
 40
0.002629037
 40
0.0039411984
 40
0.0055314133
 40
0.0074002362
 40
0.0095476011
 40
0.0119731077
 40
0.0146761594
 40
0.0209101108
 40
0.0282352001
 40
0.0366351768
 40
0.0460932605
 40
0.056588386
 40
0.0680952804
 40
0.0805884091
 40
0.094041104
 40
0.1084214987
 40
0.1398315304
 40
0.1745356614
 40
0.2122157395
 40
0.2525296275
 40
0.2951095709
 40
0.3395670342
 40
0.3854974422
 40
0.4324810887
 40
0.4800903081
 40
0.5754457491
 40
0.6680934782
 40
0.7123406153
 40
0.7546618618
 40
0.7946694403
 40
0.8320009548
 40
0.8663140994
 40
0.8972981477
 40
0.9246704188
 40
0.9481821453
 40
0.9584227634
 40
0.9676224506
 40
0.9757588784
 40
0.9828148867
 40
0.9887770089
 40
0.9936326231
 40
0.9973728185
 40
0.9988249672
 40
1.0
 40
1.0
 40
1.0
 40
1.0
 10
9.9764848157
 20
4.9276579552
 30
0.0
 10
9.9764848353
 20
4.9276375087
 30
0.0
 10
9.976471546
 20
4.927591826
 30
0.0
 10
9.9764204302
 20
4.9275315663
 30
0.0
 10
9.97634108
 20
4.927472853
 30
0.0
 10
9.9762321685
 20
4.9274144144
 30
0.0
 10
9.9760932618
 20
4.927355811
 30
0.0
 10
9.9758490979
 20
4.9272711948
 30
0.0
 10
9.9754656905
 20
4.9271691602
 30
0.0
 10
9.9749130058
 20
4.9270526838
 30
0.0
 10
9.9742388167
 20
4.9269356497
 30
0.0
 10
9.9734434919
 20
4.9268181127
 30
0.0
 10
9.9725273081
 20
4.9267002975
 30
0.0
 10
9.9714906739
 20
4.9265822566
 30
0.0
 10
9.9698697899
 20
4.9264167127
 30
0.0
 10
9.9675467132
 20
4.9262134119
 30
0.0
 10
9.9644067018
 20
4.9259785118
 30
0.0
 10
9.9608032969
 20
4.9257430149
 30
0.0
 10
9.9567445173
 20
4.9255070859
 30
0.0
 10
9.9522395761
 20
4.9252708708
 30
0.0
 10
9.9472989086
 20
4.9250343937
 30
0.0
 10
9.9419337149
 20
4.9247977373
 30
0.0
 10
9.9361561207
 20
4.9245609736
 30
0.0
 10
9.9276673931
 20
4.9242354766
 30
0.0
 10
9.9161321623
 20
4.9238325678
 30
0.0
 10
9.9012563975
 20
4.9233613731
 30
0.0
 10
9.8851033279
 20
4.9228895783
 30
0.0
 10
9.8678205008
 20
4.9224173609
 30
0.0
 10
9.8495655219
 20
4.9219448361
 30
0.0
 10
9.8305049314
 20
4.9214720808
 30
0.0
 10
9.8108127041
 20
4.9209991838
 30
0.0
 10
9.7906684182
 20
4.9205261701
 30
0.0
 10
9.7634387631
 20
4.9198951242
 30
0.0
 10
9.729662921
 20
4.919116977
 30
0.0
 10
9.6963695359
 20
4.9183284908
 30
0.0
 10
9.670679445
 20
4.9176883577
 30
0.0
 10
9.6525356783
 20
4.917215871
 30
0.0
 10
9.6353838975
 20
4.916743677
 30
0.0
 10
9.6193808565
 20
4.9162719754
 30
0.0
 10
9.6046722997
 20
4.915800849
 30
0.0
 10
9.5913925722
 20
4.9153307126
 30
0.0
 10
9.5796627188
 20
4.9148617799
 30
0.0
 10
9.5709072395
 20
4.9144564893
 30
0.0
 10
9.5647571203
 20
4.9141261606
 30
0.0
 10
9.5608098626
 20
4.9138903336
 30
0.0
 10
9.5573201165
 20
4.9136549979
 30
0.0
 10
9.5542957778
 20
4.9134202784
 30
0.0
 10
9.5517433199
 20
4.9131869268
 30
0.0
 10
9.5496686905
 20
4.9129549647
 30
0.0
 10
9.548241696
 20
4.91275167
 30
0.0
 10
9.547344583
 20
4.9125812518
 30
0.0
 10
9.5469776144
 20
4.9124950085
 30
0.0
 10
9.546815204
 20
4.9124501575
 30
0.0
  0
LINE
  5
2C8
100
AcDbEntity
  8
0
100
AcDbLine
 62
7
  6
CONTINUOUS
 10
9.546815204
 20
4.9124501575
 11
9.5462325621
 21
4.9122325408
  0
SPLINE
  5
2C9
100
AcDbEntity
  8
0
100
AcDbSpline
 62
7
  6
CONTINUOUS
 70
0
 71
3
 72
22
 73
18
 74
0
 42
0.0000001
 43
0.0000001
 44
0.0000000001
 40
0.0
 40
0.0
 40
0.0
 40
0.0
 40
0.2148591716
 40
0.4059476944
 40
0.5719489753
 40
0.6452405031
 40
0.7119355333
 40
0.7719425741
 40
0.8251788778
 40
0.8715850564
 40
0.9111088493
 40
0.9437042376
 40
0.9693407026
 40
0.9795565755
 40
0.9880518111
 40
0.9948499974
 40
1.0
 40
1.0
 40
1.0
 40
1.0
 10
9.5890116798
 20
5.0402254548
 30
0.0
 10
9.5859387788
 20
5.0401069895
 30
0.0
 10
9.5801333349
 20
5.0398726603
 30
0.0
 10
9.5719556459
 20
5.0395019613
 30
0.0
 10
9.5658040158
 20
5.0391822126
 30
0.0
 10
9.5614322292
 20
5.0389226215
 30
0.0
 10
9.5585758597
 20
5.0387363073
 30
0.0
 10
9.5560071853
 20
5.0385502499
 30
0.0
 10
9.5537297121
 20
5.0383644957
 30
0.0
 10
9.551746476
 20
5.0381791944
 30
0.0
 10
9.5500600051
 20
5.0379947556
 30
0.0
 10
9.5486728672
 20
5.0378112871
 30
0.0
 10
9.5477060096
 20
5.0376506591
 30
0.0
 10
9.5470853938
 20
5.0375170935
 30
0.0
 10
9.546731843
 20
5.0374250931
 30
0.0
 10
9.546453762
 20
5.0373337585
 30
0.0
 10
9.5462966054
 20
5.0372644061
 30
0.0
 10
9.5462327774
 20
5.0372275402
 30
0.0
  0
SPLINE
  5
2CA
100
AcDbEntity
  8
0
100
AcDbSpline
 62
7
  6
CONTINUOUS
 70
0
 71
3
 72
64
 73
60
 74
0
 42
0.0000001
 43
0.0000001
 44
0.0000000001
 40
0.0
 40
0.0
 40
0.0
 40
0.0
 40
0.0001336263
 40
0.000303028
 40
0.0005273914
 40
0.0008150538
 40
0.0011698738
 40
0.0015938424
 40
0.0020880831
 40
0.0026532725
 40
0.0039979736
 40
0.005629946
 40
0.0075499427
 40
0.0097578613
 40
0.0150326483
 40
0.0214431037
 40
0.0289765674
 40
0.0376173958
 40
0.0473439955
 40
0.058133796
 40
0.069963437
 40
0.0828043785
 40
0.096625714
 40
0.1113964006
 40
0.143644782
 40
0.1792454111
 40
0.2178640952
 40
0.2591382474
 40
0.3026779241
 40
0.3480750578
 40
0.3949029949
 40
0.4427230599
 40
0.4910846486
 40
0.5395328249
 40
0.5876111707
 40
0.6348675735
 40
0.6808572044
 40
0.7251489309
 40
0.7673275168
 40
0.8069950958
 40
0.843780456
 40
0.8773352844
 40
0.9073464281
 40
0.9209331248
 40
0.9335319546
 40
0.9451121431
 40
0.9556464266
 40
0.9651119751
 40
0.9734863568
 40
0.9807489494
 40
0.9868853622
 40
0.991883208
 40
0.9939517339
 40
0.9957321537
 40
0.9972248308
 40
0.9984309424
 40
0.9993533196
 40
0.9997102797
 40
1.0
 40
1.0
 40
1.0
 40
1.0
 10
9.5268977415
 20
4.9582458044
 30
0.0
 10
9.5268977415
 20
4.9582666991
 30
0.0
 10
9.5269134628
 20
4.9583141144
 30
0.0
 10
9.5269712991
 20
4.9583746723
 30
0.0
 10
9.5270603122
 20
4.9584339852
 30
0.0
 10
9.527182601
 20
4.9584931173
 30
0.0
 10
9.5273385459
 20
4.958552526
 30
0.0
 10
9.5275285682
 20
4.9586121232
 30
0.0
 10
9.5277527414
 20
4.958671899
 30
0.0
 10
9.528119022
 20
4.9587567412
 30
0.0
 10
9.5286632712
 20
4.9588603059
 30
0.0
 10
9.5294197212
 20
4.9589792624
 30
0.0
 10
9.5303125
 20
4.9590986141
 30
0.0
 10
9.5317729904
 20
4.9592683572
 30
0.0
 10
9.5339357531
 20
4.9594751176
 30
0.0
 10
9.536931585
 20
4.9597126666
 30
0.0
 10
9.5404551017
 20
4.959951055
 30
0.0
 10
9.544498115
 20
4.9601901278
 30
0.0
 10
9.5490510689
 20
4.9604296764
 30
0.0
 10
9.5541032444
 20
4.9606695687
 30
0.0
 10
9.5596428877
 20
4.9609096493
 30
0.0
 10
9.5656569621
 20
4.9611499067
 30
0.0
 10
9.5721312511
 20
4.9613903312
 30
0.0
 10
9.5816389437
 20
4.9617207663
 30
0.0
 10
9.5945514846
 20
4.9621297505
 30
0.0
 10
9.6111926478
 20
4.9626081945
 30
0.0
 10
9.6292456615
 20
4.9630872101
 30
0.0
 10
9.6485404727
 20
4.9635666518
 30
0.0
 10
9.6688955091
 20
4.964046418
 30
0.0
 10
9.6901191988
 20
4.9645263775
 30
0.0
 10
9.7120123604
 20
4.9650065091
 30
0.0
 10
9.7343691712
 20
4.9654867351
 30
0.0
 10
9.7569793898
 20
4.9659670258
 30
0.0
 10
9.7796300039
 20
4.9664473188
 30
0.0
 10
9.8021077653
 20
4.9669275805
 30
0.0
 10
9.824201005
 20
4.9674077471
 30
0.0
 10
9.845702003
 20
4.9678877794
 30
0.0
 10
9.8664087989
 20
4.9683676231
 30
0.0
 10
9.8861267659
 20
4.9688471765
 30
0.0
 10
9.9046706285
 20
4.9693263937
 30
0.0
 10
9.9218655587
 20
4.9698050131
 30
0.0
 10
9.9375499256
 20
4.9702829769
 30
0.0
 10
9.9496071325
 20
4.9706926642
 30
0.0
 10
9.9583881825
 20
4.9710242861
 30
0.0
 10
9.9642886125
 20
4.9712645111
 30
0.0
 10
9.969711328
 20
4.9715045489
 30
0.0
 10
9.9746435896
 20
4.9717443741
 30
0.0
 10
9.97907394
 20
4.971983817
 30
0.0
 10
9.9829919015
 20
4.9722227526
 30
0.0
 10
9.98638827
 20
4.9724609325
 30
0.0
 10
9.9892552043
 20
4.972698167
 30
0.0
 10
9.9913095225
 20
4.9729049606
 30
0.0
 10
9.992682426
 20
4.9730752088
 30
0.0
 10
9.9935091814
 20
4.9731944181
 30
0.0
 10
9.9941996526
 20
4.9733129355
 30
0.0
 10
9.9947535651
 20
4.9734307582
 30
0.0
 10
9.9951288468
 20
4.973534243
 30
0.0
 10
9.9953585046
 20
4.9736209805
 30
0.0
 10
9.9954499073
 20
4.9736648431
 30
0.0
 10
9.9954891542
 20
4.9736874707
 30
0.0
  0
SPLINE
  5
2CB
100
AcDbEntity
  8
0
100
AcDbSpline
 62
7
  6
CONTINUOUS
 70
0
 71
3
 72
58
 73
54
 74
0
 42
0.0000001
 43
0.0000001
 44
0.0000000001
 40
0.0
 40
0.0
 40
0.0
 40
0.0
 40
0.0001426385
 40
0.0003173263
 40
0.0005429228
 40
0.0008283886
 40
0.0011781264
 40
0.0015944604
 40
0.0026313264
 40
0.003944483
 40
0.0055358434
 40
0.0074060339
 40
0.0095550609
 40
0.0119825969
 40
0.014688081
 40
0.0209271618
 40
0.0282578854
 40
0.0366645483
 40
0.0461305324
 40
0.0566338324
 40
0.0681495229
 40
0.0806525605
 40
0.0941157523
 40
0.1085068561
 40
0.1399404677
 40
0.1746693764
 40
0.2123758762
 40
0.2527162883
 40
0.2953232139
 40
0.3398067891
 40
0.3857623516
 40
0.4327692985
 40
0.4803995101
 40
0.5757876208
 40
0.6684521098
 40
0.7127004535
 40
0.7550176911
 40
0.795015825
 40
0.8323317999
 40
0.8666239761
 40
0.897580394
 40
0.9249197284
 40
0.9483918988
 40
0.9586110173
 40
0.967787449
 40
0.975898982
 40
0.9829293507
 40
0.9888645689
 40
0.9936915188
 40
0.9956866089
 40
0.9974025664
 40
0.9988398929
 40
1.0
 40
1.0
 40
1.0
 40
1.0
 10
9.9764848803
 20
4.9589067053
 30
0.0
 10
9.9764849087
 20
4.958886251
 30
0.0
 10
9.9764716211
 20
4.9588405408
 30
0.0
 10
9.9764204612
 20
4.9587802536
 30
0.0
 10
9.9763410305
 20
4.9587215159
 30
0.0
 10
9.9762319928
 20
4.9586630526
 30
0.0
 10
9.9760929168
 20
4.9586044288
 30
0.0
 10
9.9758484842
 20
4.9585197843
 30
0.0
 10
9.9754647178
 20
4.9584177003
 30
0.0
 10
9.974911563
 20
4.9583011691
 30
0.0
 10
9.9742368321
 20
4.9581840803
 30
0.0
 10
9.9734408623
 20
4.9580664898
 30
0.0
 10
9.9725238992
 20
4.9579486215
 30
0.0
 10
9.9714863255
 20
4.957830528
 30
0.0
 10
9.9698639689
 20
4.9576649253
 30
0.0
 10
9.9675388638
 20
4.9574615298
 30
0.0
 10
9.9643961662
 20
4.9572265174
 30
0.0
 10
9.96078965
 20
4.9569909146
 30
0.0
 10
9.9567273673
 20
4.956754896
 30
0.0
 10
9.9522185957
 20
4.9565185689
 30
0.0
 10
9.9472737839
 20
4.9562819824
 30
0.0
 10
9.9419040876
 20
4.9560452276
 30
0.0
 10
9.9361216925
 20
4.9558083624
 30
0.0
 10
9.927626045
 20
4.9554827137
 30
0.0
 10
9.916081667
 20
4.9550796422
 30
0.0
 10
9.901194307
 20
4.9546082284
 30
0.0
 10
9.8850291444
 20
4.9541362373
 30
0.0
 10
9.8677338427
 20
4.9536638033
 30
0.0
 10
9.8494663763
 20
4.9531910782
 30
0.0
 10
9.830393448
 20
4.9527181107
 30
0.0
 10
9.8106893738
 20
4.9522450092
 30
0.0
 10
9.790533949
 20
4.951771787
 30
0.0
 10
9.7632916623
 20
4.9511404861
 30
0.0
 10
9.7295037436
 20
4.9503620342
 30
0.0
 10
9.6962011497
 20
4.9495731827
 30
0.0
 10
9.6705075564
 20
4.9489327389
 30
0.0
 10
9.6523644868
 20
4.9484600472
 30
0.0
 10
9.6352158636
 20
4.9479876564
 30
0.0
 10
9.6192184816
 20
4.9475157456
 30
0.0
 10
9.6045182689
 20
4.9470444373
 30
0.0
 10
9.591249468
 20
4.9465740924
 30
0.0
 10
9.579533301
 20
4.9461049985
 30
0.0
 10
9.570790808
 20
4.9456994953
 30
0.0
 10
9.5646524453
 20
4.945368989
 30
0.0
 10
9.5607149619
 20
4.9451330828
 30
0.0
 10
9.5572356351
 20
4.9448976086
 30
0.0
 10
9.5542222216
 20
4.9446629252
 30
0.0
 10
9.5516814222
 20
4.9444292225
 30
0.0
 10
9.5498631564
 20
4.9442254635
 30
0.0
 10
9.5486502986
 20
4.9440576439
 30
0.0
 10
9.5479213137
 20
4.9439402811
 30
0.0
 10
9.5473138199
 20
4.9438234585
 30
0.0
 10
9.5469512173
 20
4.9437371474
 30
0.0
 10
9.5467910454
 20
4.943692199
 30
0.0
  0
LINE
  5
2CC
100
AcDbEntity
  8
0
100
AcDbLine
 62
7
  6
CONTINUOUS
 10
9.5467910454
 20
4.943692199
 11
9.5462324822
 21
4.9434812906
  0
SPLINE
  5
2CD
100
AcDbEntity
  8
0
100
AcDbSpline
 62
7
  6
CONTINUOUS
 70
0
 71
3
 72
38
 73
34
 74
0
 42
0.0000001
 43
0.0000001
 44
0.0000000001
 40
0.0
 40
0.0
 40
0.0
 40
0.0
 40
0.0006159773
 40
0.0008514559
 40
0.0011253037
 40
0.0017935821
 40
0.0026283537
 40
0.0036328614
 40
0.004808704
 40
0.0061567036
 40
0.0093703822
 40
0.0132747106
 40
0.0178684443
 40
0.0231491475
 40
0.0357490133
 40
0.0510225127
 40
0.068912009
 40
0.0893409394
 40
0.1122246271
 40
0.1374700864
 40
0.164968224
 40
0.1946068588
 40
0.2262607515
 40
0.2597960495
 40
0.3319462473
 40
0.409846903
 40
0.4921914664
 40
0.5775989447
 40
0.6646373579
 40
0.7518477464
 40
0.8377580426
 40
0.9209542489
 40
1.0
 40
1.0
 40
1.0
 40
1.0
 10
9.9764848389
 20
5.0214042052
 30
0.0
 10
9.9764848965
 20
5.0213386248
 30
0.0
 10
9.9764053104
 20
5.0212614248
 30
0.0
 10
9.9763059144
 20
5.0212000218
 30
0.0
 10
9.9761935575
 20
5.02114226
 30
0.0
 10
9.9760175877
 20
5.0210732098
 30
0.0
 10
9.9757623536
 20
5.0209938487
 30
0.0
 10
9.9754512955
 20
5.0209143882
 30
0.0
 10
9.9750841459
 20
5.0208345716
 30
0.0
 10
9.9744838575
 20
5.0207212149
 30
0.0
 10
9.9735929765
 20
5.0205829459
 30
0.0
 10
9.9723561616
 20
5.0204241344
 30
0.0
 10
9.9708978102
 20
5.0202647465
 30
0.0
 10
9.9685157732
 20
5.0200381309
 30
0.0
 10
9.9649966089
 20
5.0197621074
 30
0.0
 10
9.9601347167
 20
5.0194447795
 30
0.0
 10
9.9544378445
 20
5.0191264092
 30
0.0
 10
9.9479297267
 20
5.018807019
 30
0.0
 10
9.9406376443
 20
5.0184870447
 30
0.0
 10
9.9325923029
 20
5.0181666917
 30
0.0
 10
9.9238272874
 20
5.0178459709
 30
0.0
 10
9.9143795809
 20
5.0175250591
 30
0.0
 10
9.9042887863
 20
5.0172039535
 30
0.0
 10
9.8896734624
 20
5.0167648453
 30
0.0
 10
9.8701353887
 20
5.0162216763
 30
0.0
 10
9.845401504
 20
5.0155836007
 30
0.0
 10
9.8192557509
 20
5.0149448832
 30
0.0
 10
9.7921368759
 20
5.0143057363
 30
0.0
 10
9.7644998228
 20
5.0136663918
 30
0.0
 10
9.7368092235
 20
5.0130270281
 30
0.0
 10
9.7095277924
 20
5.0123878136
 30
0.0
 10
9.6831158502
 20
5.0117489441
 30
0.0
 10
9.6658482438
 20
5.0113099102
 30
0.0
 10
9.6574355224
 20
5.0110879548
 30
0.0
  0
LINE
  5
2CE
100
AcDbEntity
  8
0
100
AcDbLine
 62
7
  6
CONTINUOUS
 10
9.9763130478
 20
4.9938564944
 11
9.9753963243
 21
4.9935550275
  0
SPLINE
  5
2CF
100
AcDbEntity
  8
0
100
AcDbSpline
 62
7
  6
CONTINUOUS
 70
0
 71
3
 72
56
 73
52
 74
0
 42
0.0000001
 43
0.0000001
 44
0.0000000001
 40
0.0
 40
0.0
 40
0.0
 40
0.0
 40
0.0013635774
 40
0.0030024603
 40
0.0071075622
 40
0.0123144032
 40
0.0186136547
 40
0.0259911032
 40
0.0344318372
 40
0.0544300922
 40
0.0784276536
 40
0.1062128527
 40
0.1375340247
 40
0.1721103649
 40
0.2096304702
 40
0.2497553943
 40
0.2921248381
 40
0.3363551665
 40
0.4287932087
 40
0.5237422787
 40
0.571090758
 40
0.6177846758
 40
0.6634038236
 40
0.7075355114
 40
0.7497833828
 40
0.7897647803
 40
0.8271208926
 40
0.8615140149
 40
0.8926346894
 40
0.906879071
 40
0.9202036731
 40
0.9325770619
 40
0.9439715386
 40
0.9543632438
 40
0.9637285741
 40
0.9720451237
 40
0.9792962839
 40
0.9854676195
 40
0.9881440452
 40
0.9905455005
 40
0.9926711839
 40
0.9945209053
 40
0.9960948156
 40
0.9973936849
 40
0.9984195661
 40
0.9988316858
 40
0.9991780727
 40
0.9994609799
 40
0.9996847023
 40
0.9998581451
 40
1.0
 40
1.0
 40
1.0
 40
1.0
 10
9.9753963243
 20
4.9935550275
 30
0.0
 10
9.9752059258
 20
4.9935112388
 30
0.0
 10
9.9747840773
 20
4.9934261989
 30
0.0
 10
9.9737796356
 20
4.9932578879
 30
0.0
 10
9.972223326
 20
4.9930553922
 30
0.0
 10
9.9699985211
 20
4.9928239929
 30
0.0
 10
9.967302841
 20
4.9925914298
 30
0.0
 10
9.9641425095
 20
4.9923577063
 30
0.0
 10
9.959021498
 20
4.9920263398
 30
0.0
 10
9.9515192292
 20
4.9916226222
 30
0.0
 10
9.9412451241
 20
4.9911577814
 30
0.0
 10
9.9293473419
 20
4.9906913612
 30
0.0
 10
9.915932913
 20
4.990223524
 30
0.0
 10
9.9011229629
 20
4.9897548942
 30
0.0
 10
9.8850510834
 20
4.9892856683
 30
0.0
 10
9.8678622043
 20
4.9888160104
 30
0.0
 10
9.8497115767
 20
4.9883460637
 30
0.0
 10
9.8240675043
 20
4.9877098055
 30
0.0
 10
9.7908913568
 20
4.9869258904
 30
0.0
 10
9.7572681146
 20
4.9861515551
 30
0.0
 10
9.7301973062
 20
4.9855237065
 30
0.0
 10
9.7101925803
 20
4.9850532809
 30
0.0
 10
9.6906488726
 20
4.9845829794
 30
0.0
 10
9.6717423661
 20
4.984112808
 30
0.0
 10
9.6536438705
 20
4.9836428892
 30
0.0
 10
9.636516493
 20
4.9831732438
 30
0.0
 10
9.6205149522
 20
4.9827040642
 30
0.0
 10
9.6057835184
 20
4.9822354271
 30
0.0
 10
9.5943630179
 20
4.9818347396
 30
0.0
 10
9.5859603796
 20
4.9815109924
 30
0.0
 10
9.5802424033
 20
4.9812755325
 30
0.0
 10
9.5749331168
 20
4.9810401997
 30
0.0
 10
9.5700444838
 20
4.980805014
 30
0.0
 10
9.5655873635
 20
4.98057008
 30
0.0
 10
9.5615718923
 20
4.9803354769
 30
0.0
 10
9.558007208
 20
4.980101284
 30
0.0
 10
9.5549012319
 20
4.9798676561
 30
0.0
 10
9.5526033998
 20
4.9796654551
 30
0.0
 10
9.5510000468
 20
4.9795008506
 30
0.0
 10
9.549974612
 20
4.9793834683
 30
0.0
 10
9.5490684558
 20
4.9792662987
 30
0.0
 10
9.5482819542
 20
4.9791494049
 30
0.0
 10
9.5476152923
 20
4.9790330069
 30
0.0
 10
9.5470687448
 20
4.9789171598
 30
0.0
 10
9.5466895448
 20
4.9788156751
 30
0.0
 10
9.5464479842
 20
4.9787315408
 30
0.0
 10
9.5463104778
 20
4.9786732634
 30
0.0
 10
9.5462026416
 20
4.9786151486
 30
0.0
 10
9.5461240789
 20
4.9785567482
 30
0.0
 10
9.5460735095
 20
4.9784967933
 30
0.0
 10
9.5460604139
 20
4.9784514037
 30
0.0
 10
9.5460604489
 20
4.9784310793
 30
0.0
  0
SPLINE
  5
2D0
100
AcDbEntity
  8
0
100
AcDbSpline
 62
7
  6
CONTINUOUS
 70
0
 71
3
 72
30
 73
26
 74
0
 42
0.0000001
 43
0.0000001
 44
0.0000000001
 40
0.0
 40
0.0
 40
0.0
 40
0.0
 40
0.2163508916
 40
0.3171662396
 40
0.4124009501
 40
0.5016594309
 40
0.5845562049
 40
0.6607333914
 40
0.7298433077
 40
0.7915734186
 40
0.8456634002
 40
0.8918659585
 40
0.9299917152
 40
0.9459759891
 40
0.9598825705
 40
0.9716998628
 40
0.9814244484
 40
0.9855025415
 40
0.989059055
 40
0.9920963945
 40
0.9946191954
 40
0.9966365768
 40
0.9974616212
 40
0.9981694528
 40
1.0
 40
1.0
 40
1.0
 40
1.0
 10
9.6574355224
 20
5.0149879548
 30
0.0
 10
9.6493856455
 20
5.0147755725
 30
0.0
 10
9.6375849525
 20
5.0144535498
 30
0.0
 10
9.622241839
 20
5.0140020485
 30
0.0
 10
9.6116276633
 20
5.0136715723
 30
0.0
 10
9.6016807586
 20
5.0133413694
 30
0.0
 10
9.5924435941
 20
5.0130113547
 30
0.0
 10
9.5839568712
 20
5.0126816801
 30
0.0
 10
9.5762586076
 20
5.0123524564
 30
0.0
 10
9.5693832481
 20
5.0120237567
 30
0.0
 10
9.5633615295
 20
5.0116961518
 30
0.0
 10
9.5582198255
 20
5.0113696422
 30
0.0
 10
9.5544967602
 20
5.0110855815
 30
0.0
 10
9.5519758587
 20
5.0108524105
 30
0.0
 10
9.5504320765
 20
5.0106884179
 30
0.0
 10
9.5491227567
 20
5.010524989
 30
0.0
 10
9.5481796331
 20
5.0103826965
 30
0.0
 10
9.5475440862
 20
5.0102660366
 30
0.0
 10
9.5471553736
 20
5.0101839012
 30
0.0
 10
9.5468260122
 20
5.0101021416
 30
0.0
 10
9.5465556935
 20
5.0100204811
 30
0.0
 10
9.5463692705
 20
5.0099494677
 30
0.0
 10
9.5462500847
 20
5.0098899839
 30
0.0
 10
9.5461455797
 20
5.0098272524
 30
0.0
 10
9.5460604333
 20
5.009747963
 30
0.0
 10
9.5460605431
 20
5.0096798293
 30
0.0
  0
SPLINE
  5
2D1
100
AcDbEntity
  8
0
100
AcDbSpline
 62
7
  6
CONTINUOUS
 70
0
 71
3
 72
27
 73
23
 74
0
 42
0.0000001
 43
0.0000001
 44
0.0000000001
 40
0.0
 40
0.0
 40
0.0
 40
0.0
 40
0.2090803625
 40
0.3068335446
 40
0.3994476821
 40
0.4865663351
 40
0.5678425361
 40
0.6429514907
 40
0.7115816023
 40
0.773437564
 40
0.8282785938
 40
0.875877286
 40
0.9160406164
 40
0.9332877153
 40
0.9486215152
 40
0.9620254135
 40
0.9734891047
 40
0.983009437
 40
0.9905877303
 40
0.9962354552
 40
0.9983475355
 40
1.0
 40
1.0
 40
1.0
 40
1.0
 10
9.6574355224
 20
5.0110879548
 30
0.0
 10
9.6496747413
 20
5.0108831998
 30
0.0
 10
9.638285748
 20
5.0105727526
 30
0.0
 10
9.6234599818
 20
5.0101385427
 30
0.0
 10
9.6131614022
 20
5.0098203336
 30
0.0
 10
9.6034749394
 20
5.0095023653
 30
0.0
 10
9.5944388381
 20
5.0091845621
 30
0.0
 10
9.5860896917
 20
5.0088670051
 30
0.0
 10
9.578462197
 20
5.0085498377
 30
0.0
 10
9.5715879789
 20
5.0082330537
 30
0.0
 10
9.5654955633
 20
5.0079170595
 30
0.0
 10
9.5602098157
 20
5.007601964
 30
0.0
 10
9.5563201133
 20
5.0073287301
 30
0.0
 10
9.5536281885
 20
5.0071057411
 30
0.0
 10
9.5519280275
 20
5.0069473748
 30
0.0
 10
9.5504435985
 20
5.0067894202
 30
0.0
 10
9.5491764187
 20
5.0066319369
 30
0.0
 10
9.548127192
 20
5.0064755853
 30
0.0
 10
9.5472969658
 20
5.0063202588
 30
0.0
 10
9.5467429719
 20
5.0061838608
 30
0.0
 10
9.5464129842
 20
5.0060681764
 30
0.0
 10
9.546285565
 20
5.0060094964
 30
0.0
 10
9.5462324425
 20
5.0059787902
 30
0.0
  0
SPLINE
  5
2D2
100
AcDbEntity
  8
0
100
AcDbSpline
 62
7
  6
CONTINUOUS
 70
0
 71
3
 72
57
 73
53
 74
0
 42
0.0000001
 43
0.0000001
 44
0.0000000001
 40
0.0
 40
0.0
 40
0.0
 40
0.0
 40
0.0001422046
 40
0.0003162001
 40
0.000540756
 40
0.0008248149
 40
0.001172735
 40
0.0015867755
 40
0.0026176397
 40
0.0039229674
 40
0.0055047515
 40
0.0073637002
 40
0.0094999026
 40
0.0119131137
 40
0.0146026979
 40
0.0208046594
 40
0.0280917349
 40
0.0364489424
 40
0.0458597804
 40
0.0563018933
 40
0.0677510923
 40
0.0801830394
 40
0.0935702681
 40
0.1078809154
 40
0.1391429513
 40
0.1736877609
 40
0.2112021909
 40
0.2513457925
 40
0.2937559367
 40
0.3380466555
 40
0.3838178901
 40
0.4306533413
 40
0.4781292468
 40
0.5732770205
 40
0.6658177872
 40
0.7100564707
 40
0.752402544
 40
0.7924703924
 40
0.829898442
 40
0.8643465516
 40
0.8955030039
 40
0.9230867967
 40
0.9468469109
 40
0.9572260376
 40
0.966572742
 40
0.9748645995
 40
0.9820850773
 40
0.9882196498
 40
0.993254565
 40
0.9971811532
 40
0.9987287164
 40
1.0
 40
1.0
 40
1.0
 40
1.0
 10
9.9764849643
 20
4.9901554554
 30
0.0
 10
9.976484998
 20
4.9901350725
 30
0.0
 10
9.9764718204
 20
4.9900895377
 30
0.0
 10
9.9764209891
 20
4.9900294311
 30
0.0
 10
9.9763420381
 20
4.9899708762
 30
0.0
 10
9.9762336566
 20
4.9899126022
 30
0.0
 10
9.9760954317
 20
4.9898541708
 30
0.0
 10
9.9758525602
 20
4.9897698046
 30
0.0
 10
9.9754712834
 20
4.9896680482
 30
0.0
 10
9.974921738
 20
4.98955189
 30
0.0
 10
9.9742514213
 20
4.9894351781
 30
0.0
 10
9.9734606349
 20
4.9893179679
 30
0.0
 10
9.9725495893
 20
4.989200481
 30
0.0
 10
9.9715186539
 20
4.9890827741
 30
0.0
 10
9.9699066803
 20
4.9889177196
 30
0.0
 10
9.9675964789
 20
4.9887149753
 30
0.0
 10
9.964473861
 20
4.9884807188
 30
0.0
 10
9.9608902153
 20
4.9882458838
 30
0.0
 10
9.9568535208
 20
4.9880106405
 30
0.0
 10
9.9523729802
 20
4.9877750734
 30
0.0
 10
9.9474588799
 20
4.9875392512
 30
0.0
 10
9.9421222029
 20
4.9873032728
 30
0.0
 10
9.936375014
 20
4.9870671757
 30
0.0
 10
9.927930194
 20
4.9867425644
 30
0.0
 10
9.9164535103
 20
4.986340795
 30
0.0
 10
9.9016513425
 20
4.9858708968
 30
0.0
 10
9.8855755611
 20
4.9854004413
 30
0.0
 10
9.868371965
 20
4.9849295293
 30
0.0
 10
9.8501967517
 20
4.9844583369
 30
0.0
 10
9.8312146475
 20
4.9839868956
 30
0.0
 10
9.811598055
 20
4.9835153232
 30
0.0
 10
9.7915247869
 20
4.9830436277
 30
0.0
 10
9.7643758618
 20
4.982414211
 30
0.0
 10
9.7306773867
 20
4.981638005
 30
0.0
 10
9.6974432698
 20
4.9808518493
 30
0.0
 10
9.6717761507
 20
4.9802136919
 30
0.0
 10
9.6536284469
 20
4.9797424988
 30
0.0
 10
9.6364572855
 20
4.979271599
 30
0.0
 10
9.6204186198
 20
4.978801156
 30
0.0
 10
9.6056578459
 20
4.9783312993
 30
0.0
 10
9.5923088456
 20
4.9778623536
 30
0.0
 10
9.5804928267
 20
4.977394615
 30
0.0
 10
9.5716548572
 20
4.9769905217
 30
0.0
 10
9.5654304449
 20
4.9766614062
 30
0.0
 10
9.5614213842
 20
4.9764261724
 30
0.0
 10
9.5578659005
 20
4.976191373
 30
0.0
 10
9.5547719322
 20
4.9759571757
 30
0.0
 10
9.552146173
 20
4.975724219
 30
0.0
 10
9.5499947278
 20
4.9754925181
 30
0.0
 10
9.5485016244
 20
4.9752895954
 30
0.0
 10
9.5475495902
 20
4.9751202849
 30
0.0
 10
9.5471545269
 20
4.9750346718
 30
0.0
 10
9.5469777681
 20
4.9749903943
 30
0.0
  0
LINE
  5
2D3
100
AcDbEntity
  8
0
100
AcDbLine
 62
7
  6
CONTINUOUS
 10
9.5469777681
 20
4.9749903943
 11
9.5462324361
 21
4.9747300404
  0
SPLINE
  5
2D4
100
AcDbEntity
  8
0
100
AcDbSpline
 62
7
  6
CONTINUOUS
 70
0
 71
3
 72
64
 73
60
 74
0
 42
0.0000001
 43
0.0000001
 44
0.0000000001
 40
0.0
 40
0.0
 40
0.0
 40
0.0
 40
0.0001336263
 40
0.0003030279
 40
0.0005273907
 40
0.0008150523
 40
0.0011698706
 40
0.0015938368
 40
0.0020880741
 40
0.002653259
 40
0.003997947
 40
0.0056299001
 40
0.0075498694
 40
0.0097577425
 40
0.0150323944
 40
0.0214427036
 40
0.0289760631
 40
0.0376167419
 40
0.0473431696
 40
0.0581328799
 40
0.0699625172
 40
0.0828034128
 40
0.0966246936
 40
0.1113953336
 40
0.1436433391
 40
0.1792434925
 40
0.2178613361
 40
0.2591342956
 40
0.3026728497
 40
0.348069473
 40
0.3948973118
 40
0.4427172418
 40
0.4910788029
 40
0.539526985
 40
0.5876054413
 40
0.6348619094
 40
0.6808518974
 40
0.7251444617
 40
0.7673243878
 40
0.8069928931
 40
0.8437788492
 40
0.877334111
 40
0.9073454211
 40
0.9209321739
 40
0.9335310415
 40
0.945111237
 40
0.95564564
 40
0.9651113646
 40
0.973485875
 40
0.9807485837
 40
0.9868851452
 40
0.9918831147
 40
0.993951676
 40
0.9957321188
 40
0.9972248121
 40
0.998430934
 40
0.999353317
 40
0.9997102787
 40
1.0
 40
1.0
 40
1.0
 40
1.0
 10
9.9956477415
 20
4.9478432303
 30
0.0
 10
9.9956477415
 20
4.9478223356
 30
0.0
 10
9.9956320203
 20
4.9477749203
 30
0.0
 10
9.9955741841
 20
4.9477143624
 30
0.0
 10
9.9954851713
 20
4.9476550496
 30
0.0
 10
9.995362883
 20
4.9475959175
 30
0.0
 10
9.9952069389
 20
4.9475365088
 30
0.0
 10
9.9950169178
 20
4.9474769117
 30
0.0
 10
9.9947927462
 20
4.9474171361
 30
0.0
 10
9.9944264689
 20
4.9473322943
 30
0.0
 10
9.9938822255
 20
4.9472287302
 30
0.0
 10
9.9931257848
 20
4.9471097748
 30
0.0
 10
9.9922330203
 20
4.9469904249
 30
0.0
 10
9.9907725623
 20
4.9468206844
 30
0.0
 10
9.9886098507
 20
4.9466139266
 30
0.0
 10
9.985614079
 20
4.9463763804
 30
0.0
 10
9.9820906247
 20
4.9461379965
 30
0.0
 10
9.9780476781
 20
4.9458989246
 30
0.0
 10
9.9734947886
 20
4.9456593758
 30
0.0
 10
9.9684426548
 20
4.9454194841
 30
0.0
 10
9.9629030332
 20
4.9451794047
 30
0.0
 10
9.9568889752
 20
4.9449391456
 30
0.0
 10
9.9504147093
 20
4.9446987202
 30
0.0
 10
9.9409070913
 20
4.9443682873
 30
0.0
 10
9.927994691
 20
4.9439593039
 30
0.0
 10
9.9113537922
 20
4.9434808676
 30
0.0
 10
9.8933011708
 20
4.9430018587
 30
0.0
 10
9.874006853
 20
4.9425224273
 30
0.0
 10
9.8536522583
 20
4.9420426696
 30
0.0
 10
9.8324288394
 20
4.9415627138
 30
0.0
 10
9.810535794
 20
4.9410825839
 30
0.0
 10
9.7881790241
 20
4.9406023569
 30
0.0
 10
9.7655688301
 20
4.9401220672
 30
0.0
 10
9.7429182021
 20
4.9396417734
 30
0.0
 10
9.7204404123
 20
4.9391615125
 30
0.0
 10
9.6983470893
 20
4.9386813442
 30
0.0
 10
9.6768458942
 20
4.9382013114
 30
0.0
 10
9.6561387021
 20
4.9377214582
 30
0.0
 10
9.6364202497
 20
4.9372418973
 30
0.0
 10
9.6178759397
 20
4.9367626701
 30
0.0
 10
9.6006807037
 20
4.9362840439
 30
0.0
 10
9.5849961498
 20
4.9358060771
 30
0.0
 10
9.5729388404
 20
4.9353963874
 30
0.0
 10
9.5641577497
 20
4.9350647666
 30
0.0
 10
9.5582573038
 20
4.934824543
 30
0.0
 10
9.5528345627
 20
4.9345845034
 30
0.0
 10
9.5479022537
 20
4.9343446781
 30
0.0
 10
9.5434718368
 20
4.9341052355
 30
0.0
 10
9.5395538095
 20
4.9338662978
 30
0.0
 10
9.5361573796
 20
4.9336281138
 30
0.0
 10
9.5332903846
 20
4.9333908763
 30
0.0
 10
9.5312360183
 20
4.9331840805
 30
0.0
 10
9.5298630864
 20
4.9330138292
 30
0.0
 10
9.5290363194
 20
4.9328946185
 30
0.0
 10
9.5283458405
 20
4.9327761003
 30
0.0
 10
9.527791923
 20
4.932658277
 30
0.0
 10
9.5274166385
 20
4.9325547919
 30
0.0
 10
9.5271869794
 20
4.9324680542
 30
0.0
 10
9.5270955763
 20
4.9324241916
 30
0.0
 10
9.5270563292
 20
4.9324015639
 30
0.0
  0
SPLINE
  5
2D5
100
AcDbEntity
  8
0
100
AcDbSpline
 62
7
  6
CONTINUOUS
 70
0
 71
3
 72
64
 73
60
 74
0
 42
0.0000001
 43
0.0000001
 44
0.0000000001
 40
0.0
 40
0.0
 40
0.0
 40
0.0
 40
0.0001336265
 40
0.0003030292
 40
0.0005273944
 40
0.0008150597
 40
0.0011698834
 40
0.0015938563
 40
0.0020881021
 40
0.0026532971
 40
0.003998011
 40
0.0056299978
 40
0.0075500101
 40
0.0097579558
 40
0.0150328389
 40
0.0214434307
 40
0.0289770562
 40
0.0376181622
 40
0.0473450926
 40
0.0581351237
 40
0.069964869
 40
0.0828059606
 40
0.0966274197
 40
0.1113981487
 40
0.1436468771
 40
0.1792477859
 40
0.2178669187
 40
0.259141504
 40
0.3026816813
 40
0.3480791081
 40
0.3949068113
 40
0.4427262629
 40
0.4910872869
 40
0.5395351031
 40
0.5876131584
 40
0.6348694765
 40
0.6808591587
 40
0.7251507099
 40
0.7673287156
 40
0.8069957453
 40
0.8437806807
 40
0.8773353146
 40
0.907346416
 40
0.9209331371
 40
0.9335320171
 40
0.9451122757
 40
0.9556466245
 40
0.9651122298
 40
0.9734866616
 40
0.9807492336
 40
0.9868855449
 40
0.9918832814
 40
0.9939517721
 40
0.9957321704
 40
0.9972248352
 40
0.9984309415
 40
0.999353318
 40
0.9997102787
 40
1.0
 40
1.0
 40
1.0
 40
1.0
 10
9.5268977415
 20
4.9269970544
 30
0.0
 10
9.5268977415
 20
4.9270179491
 30
0.0
 10
9.5269134631
 20
4.9270653646
 30
0.0
 10
9.5269713002
 20
4.9271259224
 30
0.0
 10
9.5270603143
 20
4.9271852353
 30
0.0
 10
9.5271826046
 20
4.9272443675
 30
0.0
 10
9.5273385512
 20
4.9273037763
 30
0.0
 10
9.5275285756
 20
4.9273633737
 30
0.0
 10
9.5277527512
 20
4.9274231496
 30
0.0
 10
9.5281190355
 20
4.9275079922
 30
0.0
 10
9.5286632898
 20
4.9276115575
 30
0.0
 10
9.5294197464
 20
4.9277305148
 30
0.0
 10
9.530312534
 20
4.9278498682
 30
0.0
 10
9.531773046
 20
4.9280196135
 30
0.0
 10
9.5339358492
 20
4.9282263762
 30
0.0
 10
9.5369317428
 20
4.9284639282
 30
0.0
 10
9.5404553493
 20
4.9287023218
 30
0.0
 10
9.5444984831
 20
4.9289413976
 30
0.0
 10
9.5490515682
 20
4.9291809488
 30
0.0
 10
9.5541038476
 20
4.9294208448
 30
0.0
 10
9.5596435667
 20
4.9296609294
 30
0.0
 10
9.5656577003
 20
4.9299011857
 30
0.0
 10
9.5721320388
 20
4.9301416089
 30
0.0
 10
9.5816398115
 20
4.9304720461
 30
0.0
 10
9.594552457
 20
4.930881028
 30
0.0
 10
9.6111937883
 20
4.9313594774
 30
0.0
 10
9.6292469836
 20
4.931838493
 30
0.0
 10
9.6485420109
 20
4.9323179394
 30
0.0
 10
9.668897239
 20
4.9327977078
 30
0.0
 10
9.6901210161
 20
4.9332776677
 30
0.0
 10
9.7120140911
 20
4.9337577969
 30
0.0
 10
9.734370681
 20
4.9342380172
 30
0.0
 10
9.756980659
 20
4.9347183028
 30
0.0
 10
9.7796310831
 20
4.9351985917
 30
0.0
 10
9.8021087294
 20
4.9356788513
 30
0.0
 10
9.8242019184
 20
4.936159017
 30
0.0
 10
9.8457028836
 20
4.9366390499
 30
0.0
 10
9.8664095694
 20
4.9371188908
 30
0.0
 10
9.8861273323
 20
4.9375984411
 30
0.0
 10
9.9046709518
 20
4.9380776521
 30
0.0
 10
9.9218656993
 20
4.9385562674
 30
0.0
 10
9.9375499627
 20
4.9390342282
 30
0.0
 10
9.9496071364
 20
4.9394439144
 30
0.0
 10
9.9583881913
 20
4.9397755362
 30
0.0
 10
9.964288644
 20
4.9400157621
 30
0.0
 10
9.9697113884
 20
4.9402558017
 30
0.0
 10
9.9746436799
 20
4.9404956298
 30
0.0
 10
9.9790740572
 20
4.9407350755
 30
0.0
 10
9.9829920321
 20
4.9409740116
 30
0.0
 10
9.9863883894
 20
4.9412121899
 30
0.0
 10
9.9892552876
 20
4.9414494228
 30
0.0
 10
9.9913095672
 20
4.9416562149
 30
0.0
 10
9.9926824448
 20
4.9418264611
 30
0.0
 10
9.9935091895
 20
4.9419456693
 30
0.0
 10
9.9941996546
 20
4.9420641862
 30
0.0
 10
9.9947535642
 20
4.9421820085
 30
0.0
 10
9.995128845
 20
4.9422854931
 30
0.0
 10
9.995358503
 20
4.9423722306
 30
0.0
 10
9.995449906
 20
4.9424160931
 30
0.0
 10
9.9954891531
 20
4.9424387207
 30
0.0
  0
LINE
  5
2D6
100
AcDbEntity
  8
0
100
AcDbLine
 62
7
  6
CONTINUOUS
 10
0.5268977963
 20
5.0363676797
 11
0.5270559593
 21
5.0361849703
  0
SPLINE
  5
2D7
100
AcDbEntity
  8
0
100
AcDbSpline
 62
7
  6
CONTINUOUS
 70
0
 71
3
 72
27
 73
23
 74
0
 42
0.0000001
 43
0.0000001
 44
0.0000000001
 40
0.0
 40
0.0
 40
0.0
 40
0.0
 40
0.2112227743
 40
0.3095607773
 40
0.402521784
 40
0.4897834996
 40
0.5710336937
 40
0.6459775195
 40
0.714329545
 40
0.775846177
 40
0.8303005718
 40
0.8774961992
 40
0.917267465
 40
0.93432124
 40
0.9494693667
 40
0.9627012046
 40
0.9740072211
 40
0.9833801177
 40
0.9908208449
 40
0.9963440943
 40
0.9983997235
 40
1.0
 40
1.0
 40
1.0
 40
1.0
 10
0.8865257223
 20
4.9219889294
 30
0.0
 10
0.894207607
 20
4.9221817873
 30
0.0
 10
0.9054656658
 20
4.9224745525
 30
0.0
 10
0.9201036915
 20
4.9228852604
 30
0.0
 10
0.9302333062
 20
4.9231857863
 30
0.0
 10
0.9397409808
 20
4.9234861264
 30
0.0
 10
0.9485928453
 20
4.9237863107
 30
0.0
 10
0.9567563585
 20
4.9240862166
 30
0.0
 10
0.9642014494
 20
4.9243858358
 30
0.0
 10
0.9709004899
 20
4.9246849838
 30
0.0
 10
0.9768290464
 20
4.9249834495
 30
0.0
 10
0.9819654017
 20
4.9252810969
 30
0.0
 10
0.9857410018
 20
4.9255391332
 30
0.0
 10
0.9883509371
 20
4.9257498315
 30
0.0
 10
0.9899970705
 20
4.9258994023
 30
0.0
 10
0.9914331891
 20
4.9260485666
 30
0.0
 10
0.9926579186
 20
4.9261972511
 30
0.0
 10
0.9936704488
 20
4.9263448718
 30
0.0
 10
0.9944697287
 20
4.926491567
 30
0.0
 10
0.9950017482
 20
4.9266203713
 30
0.0
 10
0.9953174428
 20
4.9267297653
 30
0.0
 10
0.9954388575
 20
4.9267852517
 30
0.0
 10
0.9954892847
 20
4.9268143457
 30
0.0
  0
LINE
  5
2D8
100
AcDbEntity
  8
0
100
AcDbLine
 62
7
  6
CONTINUOUS
 10
0.6675227415
 20
4.0071004548
 11
0.7612727415
 21
4.2414754548
  0
SPLINE
  5
2D9
100
AcDbEntity
  8
0
100
AcDbSpline
 62
7
  6
CONTINUOUS
 70
0
 71
3
 72
30
 73
26
 74
0
 42
0.0000001
 43
0.0000001
 44
0.0000000001
 40
0.0
 40
0.0
 40
0.0
 40
0.0
 40
0.0017811237
 40
0.0024770402
 40
0.0032894666
 40
0.0052785935
 40
0.007768586
 40
0.010768508
 40
0.0142832098
 40
0.0183154489
 40
0.0279378394
 40
0.0396380023
 40
0.053407876
 40
0.0692367782
 40
0.1070218336
 40
0.1528571411
 40
0.2065626197
 40
0.2679363717
 40
0.3367311544
 40
0.4126844531
 40
0.4954872669
 40
0.5848119894
 40
0.6803142573
 40
0.7816355973
 40
1.0
 40
1.0
 40
1.0
 40
1.0
 10
0.9956477415
 20
4.9009701053
 30
0.0
 10
0.9956477415
 20
4.9009051625
 30
0.0
 10
0.9955641884
 20
4.9008307073
 30
0.0
 10
0.9954635091
 20
4.9007719049
 30
0.0
 10
0.9953478127
 20
4.9007157664
 30
0.0
 10
0.9951671415
 20
4.9006487783
 30
0.0
 10
0.994905197
 20
4.9005717255
 30
0.0
 10
0.9945860461
 20
4.900494573
 30
0.0
 10
0.9942093036
 20
4.900417057
 30
0.0
 10
0.9935929994
 20
4.9003069269
 30
0.0
 10
0.9926781256
 20
4.9001726519
 30
0.0
 10
0.9914078496
 20
4.9000184926
 30
0.0
 10
0.989909923
 20
4.8998637671
 30
0.0
 10
0.9874628202
 20
4.8996436893
 30
0.0
 10
0.9838464566
 20
4.8993756665
 30
0.0
 10
0.9788487412
 20
4.8990676292
 30
0.0
 10
0.9729896115
 20
4.898758425
 30
0.0
 10
0.9662923917
 20
4.8984483516
 30
0.0
 10
0.9587832363
 20
4.8981376597
 30
0.0
 10
0.950492157
 20
4.8978266003
 30
0.0
 10
0.9414520536
 20
4.8975152117
 30
0.0
 10
0.9316987793
 20
4.8972036156
 30
0.0
 10
0.9212699736
 20
4.8968918172
 30
0.0
 10
0.9061375136
 20
4.8964651745
 30
0.0
 10
0.8944851555
 20
4.8961618063
 30
0.0
 10
0.8865257223
 20
4.8959619803
 30
0.0
  0
LINE
  5
2DA
100
AcDbEntity
  8
0
100
AcDbLine
 62
7
  6
CONTINUOUS
 10
0.9763125908
 20
4.9782321192
 11
0.9758345717
 21
4.9780443578
  0
SPLINE
  5
2DB
100
AcDbEntity
  8
0
100
AcDbSpline
 62
7
  6
CONTINUOUS
 70
0
 71
3
 72
57
 73
53
 74
0
 42
0.0000001
 43
0.0000001
 44
0.0000000001
 40
0.0
 40
0.0
 40
0.0
 40
0.0
 40
0.0011619002
 40
0.0026014478
 40
0.0043203476
 40
0.0063186686
 40
0.0111504141
 40
0.0170886805
 40
0.0241233979
 40
0.0322402946
 40
0.0414197118
 40
0.0516413596
 40
0.0751214828
 40
0.1024649154
 40
0.1334265986
 40
0.1677219404
 40
0.2050402653
 40
0.2450404523
 40
0.2873576558
 40
0.3316064782
 40
0.4242681049
 40
0.5196508853
 40
0.5672774485
 40
0.614281008
 40
0.6602319581
 40
0.7047120357
 40
0.7473138548
 40
0.7876506697
 40
0.8253524647
 40
0.8600773649
 40
0.8915076319
 40
0.9193574613
 40
0.931859235
 40
0.9433746231
 40
0.953875925
 40
0.9633396668
 40
0.9717463434
 40
0.9790768003
 40
0.9853135905
 40
0.9880183594
 40
0.9904459331
 40
0.9925953833
 40
0.9944659784
 40
0.9960573244
 40
0.9973697592
 40
0.998405636
 40
0.9988216037
 40
0.9991711709
 40
0.9994566606
 40
0.999682407
 40
0.9998572773
 40
1.0
 40
1.0
 40
1.0
 40
1.0
 10
0.9757506026
 20
4.9780201251
 30
0.0
 10
0.9755901629
 20
4.9779751855
 30
0.0
 10
0.9752269736
 20
4.9778888727
 30
0.0
 10
0.9746184699
 20
4.9777720492
 30
0.0
 10
0.9738882688
 20
4.9776547133
 30
0.0
 10
0.9726738256
 20
4.9774869669
 30
0.0
 10
0.9708539823
 20
4.9772832042
 30
0.0
 10
0.9683114564
 20
4.9770494475
 30
0.0
 10
0.9652962342
 20
4.9768147963
 30
0.0
 10
0.9618151118
 20
4.9765793921
 30
0.0
 10
0.9578761056
 20
4.9763434594
 30
0.0
 10
0.9517358684
 20
4.9760129499
 30
0.0
 10
0.942991362
 20
4.9756075609
 30
0.0
 10
0.9312728255
 20
4.9751384177
 30
0.0
 10
0.9180023524
 20
4.9746681531
 30
0.0
 10
0.903300735
 20
4.9741968552
 30
0.0
 10
0.8873024211
 20
4.9737249763
 30
0.0
 10
0.8701533359
 20
4.9732526328
 30
0.0
 10
0.8520100833
 20
4.9727799533
 30
0.0
 10
0.8263170836
 20
4.972139582
 30
0.0
 10
0.7930159174
 20
4.9713507734
 30
0.0
 10
0.7592300227
 20
4.9705723801
 30
0.0
 10
0.7319897727
 20
4.9699411109
 30
0.0
 10
0.7118362126
 20
4.9694679358
 30
0.0
 10
0.692133978
 20
4.9689948483
 30
0.0
 10
0.6730631285
 20
4.9685219395
 30
0.0
 10
0.6547975891
 20
4.9680492197
 30
0.0
 10
0.6375043763
 20
4.9675768483
 30
0.0
 10
0.6213411372
 20
4.9671048599
 30
0.0
 10
0.6064556449
 20
4.9666335312
 30
0.0
 10
0.592983659
 20
4.9661629768
 30
0.0
 10
0.5826981298
 20
4.9657588066
 30
0.0
 10
0.5752676847
 20
4.9654312371
 30
0.0
 10
0.5703234304
 20
4.9651946914
 30
0.0
 10
0.5658153544
 20
4.9649583711
 30
0.0
 10
0.5617537198
 20
4.9647223258
 30
0.0
 10
0.5581475944
 20
4.9644867727
 30
0.0
 10
0.5550052876
 20
4.964251827
 30
0.0
 10
0.5526806798
 20
4.9640483889
 30
0.0
 10
0.5510587668
 20
4.9638827881
 30
0.0
 10
0.5500212385
 20
4.9637647097
 30
0.0
 10
0.5491041571
 20
4.963646859
 30
0.0
 10
0.5483080741
 20
4.9635292898
 30
0.0
 10
0.5476333926
 20
4.9634122308
 30
0.0
 10
0.5470804943
 20
4.9632957028
 30
0.0
 10
0.5466970448
 20
4.9631935974
 30
0.0
 10
0.546452848
 20
4.9631089492
 30
0.0
 10
0.5463138546
 20
4.9630503238
 30
0.0
 10
0.5462048176
 20
4.9629918649
 30
0.0
 10
0.5461253216
 20
4.9629331338
 30
0.0
 10
0.546074053
 20
4.962872876
 30
0.0
 10
0.5460606311
 20
4.9628271715
 30
0.0
 10
0.5460606028
 20
4.9628067053
 30
0.0
  0
LINE
  5
2DC
100
AcDbEntity
  8
0
100
AcDbLine
 62
7
  6
CONTINUOUS
 10
0.5939423284
 20
5.0402254548
 11
0.5855190463
 21
5.0399629895
  0
LINE
  5
2DD
100
AcDbEntity
  8
0
100
AcDbLine
 62
7
  6
CONTINUOUS
 10
0.5855190463
 20
5.0399629895
 11
0.5850183468
 21
5.039946899
  0
SPLINE
  5
2DE
100
AcDbEntity
  8
0
100
AcDbSpline
 62
7
  6
CONTINUOUS
 70
0
 71
3
 72
30
 73
26
 74
0
 42
0.0000001
 43
0.0000001
 44
0.0000000001
 40
0.0
 40
0.0
 40
0.0
 40
0.0
 40
0.2257454063
 40
0.3288791475
 40
0.4252191259
 40
0.5145909319
 40
0.596820849
 40
0.6717458521
 40
0.739226083
 40
0.7991255452
 40
0.851312838
 40
0.895693595
 40
0.9149350085
 40
0.9321997077
 40
0.9474806935
 40
0.9607723544
 40
0.9720739404
 40
0.9813929053
 40
0.9887457661
 40
0.9916962465
 40
0.9941732741
 40
0.9961925538
 40
0.9977837542
 40
0.9990085235
 40
1.0
 40
1.0
 40
1.0
 40
1.0
 10
0.5850183468
 20
5.039946899
 30
0.0
 10
0.580628351
 20
5.0398055625
 30
0.0
 10
0.5742330456
 20
5.0395899625
 30
0.0
 10
0.5659653469
 20
5.0392832448
 30
0.0
 10
0.5603497696
 20
5.0390603096
 30
0.0
 10
0.5551412486
 20
5.038837548
 30
0.0
 10
0.5503497961
 20
5.0386149544
 30
0.0
 10
0.545984772
 20
5.0383925444
 30
0.0
 10
0.5420548296
 20
5.0381704267
 30
0.0
 10
0.5385680386
 20
5.037948779
 30
0.0
 10
0.5355316866
 20
5.0377276321
 30
0.0
 10
0.533286459
 20
5.037536167
 30
0.0
 10
0.5317203729
 20
5.0373803214
 30
0.0
 10
0.5307188837
 20
5.0372692115
 30
0.0
 10
0.5298339185
 20
5.0371583191
 30
0.0
 10
0.5290659751
 20
5.0370476863
 30
0.0
 10
0.5284153027
 20
5.0369375093
 30
0.0
 10
0.5278820948
 20
5.0368278551
 30
0.0
 10
0.5275121957
 20
5.0367317897
 30
0.0
 10
0.5272765072
 20
5.0366521277
 30
0.0
 10
0.5271423889
 20
5.0365969785
 30
0.0
 10
0.5270371738
 20
5.0365420105
 30
0.0
 10
0.5269604822
 20
5.0364868082
 30
0.0
 10
0.5269109162
 20
5.0364302184
 30
0.0
 10
0.5268978193
 20
5.0363869705
 30
0.0
 10
0.5268977963
 20
5.0363676797
 30
0.0
  0
SPLINE
  5
2DF
100
AcDbEntity
  8
0
100
AcDbSpline
 62
7
  6
CONTINUOUS
 70
0
 71
3
 72
26
 73
22
 74
0
 42
0.0000001
 43
0.0000001
 44
0.0000000001
 40
0.0
 40
0.0
 40
0.0
 40
0.0
 40
0.0017841543
 40
0.0040111352
 40
0.0098384062
 40
0.0175338154
 40
0.0271147684
 40
0.0385869999
 40
0.0519455735
 40
0.0671811866
 40
0.0842832272
 40
0.1240402523
 40
0.1711107018
 40
0.2253383193
 40
0.2865518572
 40
0.3545680853
 40
0.4291552663
 40
0.510068015
 40
0.5970551215
 40
0.7881448899
 40
1.0
 40
1.0
 40
1.0
 40
1.0
 10
0.9763127045
 20
4.9157346189
 30
0.0
 10
0.9762663667
 20
4.9157078661
 30
0.0
 10
0.9761573209
 20
4.9156562506
 30
0.0
 10
0.9758802619
 20
4.9155543037
 30
0.0
 10
0.9754228884
 20
4.9154332021
 30
0.0
 10
0.974743801
 20
4.915295367
 30
0.0
 10
0.9738926595
 20
4.9151566886
 30
0.0
 10
0.9728700818
 20
4.9150171814
 30
0.0
 10
0.9716766207
 20
4.9148772495
 30
0.0
 10
0.9703133758
 20
4.9147369651
 30
0.0
 10
0.968160278
 20
4.9145395869
 30
0.0
 10
0.9650527522
 20
4.9142975948
 30
0.0
 10
0.9608317278
 20
4.9140185045
 30
0.0
 10
0.9559660668
 20
4.9137385932
 30
0.0
 10
0.9504713839
 20
4.9134580311
 30
0.0
 10
0.9443654325
 20
4.9131771339
 30
0.0
 10
0.9376681604
 20
4.9128959088
 30
0.0
 10
0.9304015101
 20
4.9126144394
 30
0.0
 10
0.9196425284
 20
4.9122267323
 30
0.0
 10
0.9049574357
 20
4.9117477064
 30
0.0
 10
0.892878523
 20
4.9113913316
 30
0.0
 10
0.8865276375
 20
4.9112108419
 30
0.0
  0
SPLINE
  5
2E0
100
AcDbEntity
  8
0
100
AcDbSpline
 62
7
  6
CONTINUOUS
 70
0
 71
3
 72
64
 73
60
 74
0
 42
0.0000001
 43
0.0000001
 44
0.0000000001
 40
0.0
 40
0.0
 40
0.0
 40
0.0
 40
0.0001336266
 40
0.0003030297
 40
0.0005273958
 40
0.0008150624
 40
0.0011698877
 40
0.0015938627
 40
0.002088111
 40
0.0026533088
 40
0.0039980294
 40
0.0056300241
 40
0.0075500457
 40
0.0097580072
 40
0.0150329451
 40
0.0214436135
 40
0.0289773273
 40
0.0376185864
 40
0.047345713
 40
0.05813591
 40
0.0699657814
 40
0.0828070479
 40
0.0966286555
 40
0.1113994395
 40
0.1436483597
 40
0.1792493651
 40
0.2178686733
 40
0.2591433268
 40
0.3026836488
 40
0.3480812409
 40
0.3949087781
 40
0.4427276883
 40
0.4910881981
 40
0.5395356835
 40
0.587613515
 40
0.6348697309
 40
0.6808594352
 40
0.7251510482
 40
0.7673290181
 40
0.8069958295
 40
0.8437804877
 40
0.8773350366
 40
0.9073461434
 40
0.9209329002
 40
0.9335318279
 40
0.9451121325
 40
0.9556465441
 40
0.9651122181
 40
0.9734867054
 40
0.9807492957
 40
0.9868855933
 40
0.991883308
 40
0.993951792
 40
0.9957321851
 40
0.9972248452
 40
0.9984309472
 40
0.9993533203
 40
0.9997102798
 40
1.0
 40
1.0
 40
1.0
 40
1.0
 10
0.9956477415
 20
5.0259651053
 30
0.0
 10
0.9956477415
 20
5.0259442105
 30
0.0
 10
0.9956320198
 20
5.025896795
 30
0.0
 10
0.9955741824
 20
5.0258362372
 30
0.0
 10
0.9954851678
 20
5.0257769243
 30
0.0
 10
0.9953628769
 20
5.0257177921
 30
0.0
 10
0.9952069294
 20
5.0256583832
 30
0.0
 10
0.995016904
 20
5.0255987858
 30
0.0
 10
0.9947927273
 20
5.0255390097
 30
0.0
 10
0.9944264411
 20
5.025454167
 30
0.0
 10
0.9938821841
 20
5.0253506014
 30
0.0
 10
0.9931257238
 20
5.0252316436
 30
0.0
 10
0.9922329311
 20
5.0251122894
 30
0.0
 10
0.9907724067
 20
5.0249425428
 30
0.0
 10
0.9886095804
 20
5.0247357787
 30
0.0
 10
0.9856136526
 20
5.0244982251
 30
0.0
 10
0.9820899964
 20
5.0242598285
 30
0.0
 10
0.9780467941
 20
5.0240207509
 30
0.0
 10
0.9734936284
 20
5.0237811978
 30
0.0
 10
0.9684412727
 20
5.0235412992
 30
0.0
 10
0.9629014807
 20
5.0233012112
 30
0.0
 10
0.9568872768
 20
5.0230609546
 30
0.0
 10
0.9504128791
 20
5.0228205312
 30
0.0
 10
0.9409050446
 20
5.0224900918
 30
0.0
 10
0.9279923452
 20
5.0220811122
 30
0.0
 10
0.9113509415
 20
5.0216026606
 30
0.0
 10
0.8932976929
 20
5.0211236468
 30
0.0
 10
0.8740026049
 20
5.0206441988
 30
0.0
 10
0.8536473176
 20
5.0201644306
 30
0.0
 10
0.832423518
 20
5.019684471
 30
0.0
 10
0.8105305277
 20
5.0192043439
 30
0.0
 10
0.7881741288
 20
5.0187241282
 30
0.0
 10
0.7655643674
 20
5.0182438472
 30
0.0
 10
0.7429141105
 20
5.0177635618
 30
0.0
 10
0.7204365668
 20
5.0172833043
 30
0.0
 10
0.6983434254
 20
5.0168031396
 30
0.0
 10
0.6768424629
 20
5.0163231067
 30
0.0
 10
0.6561357697
 20
5.0158432654
 30
0.0
 10
0.6364180368
 20
5.0153637154
 30
0.0
 10
0.6178745003
 20
5.0148845071
 30
0.0
 10
0.6006798436
 20
5.0144058937
 30
0.0
 10
0.5849956359
 20
5.0139279353
 30
0.0
 10
0.572938469
 20
5.0135182495
 30
0.0
 10
0.5641574002
 20
5.0131866279
 30
0.0
 10
0.5582569273
 20
5.0129464016
 30
0.0
 10
0.5528341585
 20
5.0127063607
 30
0.0
 10
0.5479018392
 20
5.0124665312
 30
0.0
 10
0.5434714327
 20
5.012227084
 30
0.0
 10
0.5395534355
 20
5.0119881471
 30
0.0
 10
0.5361570688
 20
5.0117499682
 30
0.0
 10
0.5332901734
 20
5.0115127352
 30
0.0
 10
0.5312359004
 20
5.011305943
 30
0.0
 10
0.529863028
 20
5.0111356975
 30
0.0
 10
0.5290362859
 20
5.0110164895
 30
0.0
 10
0.528345823
 20
5.010897973
 30
0.0
 10
0.5277919153
 20
5.0107801509
 30
0.0
 10
0.5274166359
 20
5.0106766664
 30
0.0
 10
0.5271869788
 20
5.010589929
 30
0.0
 10
0.5270955762
 20
5.0105460665
 30
0.0
 10
0.5270563293
 20
5.010523439
 30
0.0
  0
SPLINE
  5
2E1
100
AcDbEntity
  8
0
100
AcDbSpline
 62
7
  6
CONTINUOUS
 70
0
 71
3
 72
64
 73
60
 74
0
 42
0.0000001
 43
0.0000001
 44
0.0000000001
 40
0.0
 40
0.0
 40
0.0
 40
0.0
 40
0.0001336263
 40
0.0003030279
 40
0.0005273906
 40
0.0008150518
 40
0.0011698697
 40
0.001593835
 40
0.0020880713
 40
0.0026532546
 40
0.0039979382
 40
0.0056298844
 40
0.007549844
 40
0.0097577012
 40
0.0150323084
 40
0.0214425767
 40
0.028975922
 40
0.0376165886
 40
0.0473430002
 40
0.0581327052
 40
0.0699623435
 40
0.0828032241
 40
0.0966244843
 40
0.1113951043
 40
0.1436430101
 40
0.1792430303
 40
0.2178606534
 40
0.2591333383
 40
0.3026716753
 40
0.3480682367
 40
0.3948960686
 40
0.4427159407
 40
0.4910774707
 40
0.5395256213
 40
0.5876040498
 40
0.6348605402
 40
0.6808507128
 40
0.7251435265
 40
0.7673237302
 40
0.8069924185
 40
0.8437784924
 40
0.8773338339
 40
0.9073451557
 40
0.9209319124
 40
0.9335307855
 40
0.9451109882
 40
0.9556454392
 40
0.9651112308
 40
0.9734857931
 40
0.9807485339
 40
0.9868851199
 40
0.9918831049
 40
0.9939516701
 40
0.9957321155
 40
0.9972248104
 40
0.9984309333
 40
0.9993533168
 40
0.9997102787
 40
1.0
 40
1.0
 40
1.0
 40
1.0
 10
0.5268977415
 20
5.0051189294
 30
0.0
 10
0.5268977415
 20
5.0051398241
 30
0.0
 10
0.5269134628
 20
5.0051872394
 30
0.0
 10
0.5269712989
 20
5.0052477972
 30
0.0
 10
0.5270603117
 20
5.0053071101
 30
0.0
 10
0.5271825998
 20
5.0053662422
 30
0.0
 10
0.5273385437
 20
5.0054256508
 30
0.0
 10
0.5275285644
 20
5.0054852478
 30
0.0
 10
0.5277527354
 20
5.0055450234
 30
0.0
 10
0.5281190116
 20
5.0056298651
 30
0.0
 10
0.528663253
 20
5.0057334289
 30
0.0
 10
0.5294196905
 20
5.005852384
 30
0.0
 10
0.5303124499
 20
5.0059717333
 30
0.0
 10
0.5317728969
 20
5.006141473
 30
0.0
 10
0.5339355926
 20
5.0063482301
 30
0.0
 10
0.5369313487
 20
5.0065857756
 30
0.0
 10
0.5404547925
 20
5.0068241586
 30
0.0
 10
0.5444977325
 20
5.0070632306
 30
0.0
 10
0.5490506167
 20
5.00730278
 30
0.0
 10
0.5541027473
 20
5.007542672
 30
0.0
 10
0.5596423658
 20
5.0077827514
 30
0.0
 10
0.5656564184
 20
5.0080230106
 30
0.0
 10
0.5721306756
 20
5.0082634361
 30
0.0
 10
0.5816382717
 20
5.0085938682
 30
0.0
 10
0.5945506325
 20
5.0090028512
 30
0.0
 10
0.6111914604
 20
5.0094812855
 30
0.0
 10
0.6292439836
 20
5.0099602927
 30
0.0
 10
0.6485381901
 20
5.0104397217
 30
0.0
 10
0.6688926982
 20
5.0109194779
 30
0.0
 10
0.6901160724
 20
5.0113994332
 30
0.0
 10
0.712009098
 20
5.0118795629
 30
0.0
 10
0.7343658529
 20
5.0123597899
 30
0.0
 10
0.7569760281
 20
5.0128400791
 30
0.0
 10
0.7796266419
 20
5.0133203728
 30
0.0
 10
0.802104426
 20
5.0138006331
 30
0.0
 10
0.8241977769
 20
5.0142808021
 30
0.0
 10
0.8456990434
 20
5.0147608357
 30
0.0
 10
0.8664063468
 20
5.0152406914
 30
0.0
 10
0.8861249102
 20
5.0157202541
 30
0.0
 10
0.9046693106
 20
5.0161994833
 30
0.0
 10
0.9218646061
 20
5.0166781108
 30
0.0
 10
0.9375491926
 20
5.017156078
 30
0.0
 10
0.949606517
 20
5.0175657679
 30
0.0
 10
0.958387611
 20
5.017897388
 30
0.0
 10
0.9642880596
 20
5.0181376112
 30
0.0
 10
0.9697108101
 20
5.0183776516
 30
0.0
 10
0.9746431382
 20
5.0186174774
 30
0.0
 10
0.9790735812
 20
5.0188569205
 30
0.0
 10
0.9829916321
 20
5.019095859
 30
0.0
 10
0.9863880789
 20
5.019334044
 30
0.0
 10
0.9892550852
 20
5.0195712821
 30
0.0
 10
0.9913094584
 20
5.0197780784
 30
0.0
 10
0.9926823936
 20
5.0199483301
 30
0.0
 10
0.9935091619
 20
5.020067541
 30
0.0
 10
0.9941996416
 20
5.0201860593
 30
0.0
 10
0.9947535596
 20
5.0203038826
 30
0.0
 10
0.9951288444
 20
5.0204073677
 30
0.0
 10
0.9953585036
 20
5.0204941055
 30
0.0
 10
0.9954499067
 20
5.0205379681
 30
0.0
 10
0.9954891539
 20
5.0205605957
 30
0.0
  0
SPLINE
  5
2E2
100
AcDbEntity
  8
0
100
AcDbSpline
 62
7
  6
CONTINUOUS
 70
0
 71
3
 72
64
 73
60
 74
0
 42
0.0000001
 43
0.0000001
 44
0.0000000001
 40
0.0
 40
0.0
 40
0.0
 40
0.0
 40
0.0001336263
 40
0.000303028
 40
0.0005273914
 40
0.0008150539
 40
0.001169874
 40
0.0015938427
 40
0.0020880838
 40
0.0026532735
 40
0.0039979759
 40
0.0056299504
 40
0.00754995
 40
0.0097578738
 40
0.0150326785
 40
0.0214431604
 40
0.0289766584
 40
0.0376175454
 40
0.0473442106
 40
0.0581340493
 40
0.0699636937
 40
0.0828046407
 40
0.0966259787
 40
0.1113966622
 40
0.1436451066
 40
0.1792458272
 40
0.2178646802
 40
0.2591390682
 40
0.30267902
 40
0.3480763728
 40
0.394904385
 40
0.4427244372
 40
0.491085989
 40
0.5395341399
 40
0.5876124314
 40
0.6348688126
 40
0.6808584092
 40
0.7251499957
 40
0.7673282874
 40
0.8069956343
 40
0.8437808281
 40
0.8773355427
 40
0.9073466315
 40
0.920933308
 40
0.9335321259
 40
0.9451123175
 40
0.9556465917
 40
0.9651121238
 40
0.9734864964
 40
0.9807490675
 40
0.9868854362
 40
0.9918832403
 40
0.9939517538
 40
0.9957321654
 40
0.997224837
 40
0.9984309451
 40
0.9993533203
 40
0.99971028
 40
1.0
 40
1.0
 40
1.0
 40
1.0
 10
0.9956477415
 20
4.9947163553
 30
0.0
 10
0.9956477415
 20
4.9946954606
 30
0.0
 10
0.9956320202
 20
4.9946480452
 30
0.0
 10
0.9955741839
 20
4.9945874874
 30
0.0
 10
0.9954851709
 20
4.9945281745
 30
0.0
 10
0.995362882
 20
4.9944690424
 30
0.0
 10
0.995206937
 20
4.9944096337
 30
0.0
 10
0.9950169146
 20
4.9943500365
 30
0.0
 10
0.9947927413
 20
4.9942902607
 30
0.0
 10
0.9944264604
 20
4.9942054184
 30
0.0
 10
0.9938822107
 20
4.9941018537
 30
0.0
 10
0.9931257597
 20
4.9939828971
 30
0.0
 10
0.9922329793
 20
4.9938635451
 30
0.0
 10
0.9907724849
 20
4.9936938016
 30
0.0
 10
0.9886097145
 20
4.9934870407
 30
0.0
 10
0.9856138703
 20
4.993249491
 30
0.0
 10
0.982090335
 20
4.9930111015
 30
0.0
 10
0.9780472969
 20
4.9927720281
 30
0.0
 10
0.9734943176
 20
4.992532479
 30
0.0
 10
0.9684421254
 20
4.9922925861
 30
0.0
 10
0.9629024747
 20
4.992052505
 30
0.0
 10
0.9568883985
 20
4.991812248
 30
0.0
 10
0.9504141087
 20
4.9915718241
 30
0.0
 10
0.9409064063
 20
4.9912413889
 30
0.0
 10
0.9279938418
 20
4.9908324047
 30
0.0
 10
0.911352628
 20
4.9903539591
 30
0.0
 10
0.8932995367
 20
4.9898749424
 30
0.0
 10
0.8740046192
 20
4.9893954984
 30
0.0
 10
0.8536494687
 20
4.9889157299
 30
0.0
 10
0.83242569
 20
4.9884357691
 30
0.0
 10
0.8105324844
 20
4.9879556366
 30
0.0
 10
0.7881756696
 20
4.9874754109
 30
0.0
 10
0.7655654628
 20
4.9869951204
 30
0.0
 10
0.7429148668
 20
4.9865148279
 30
0.0
 10
0.7204371213
 20
4.9860345662
 30
0.0
 10
0.6983438989
 20
4.9855543999
 30
0.0
 10
0.6768429315
 20
4.9850743675
 30
0.0
 10
0.6561362088
 20
4.9845945256
 30
0.0
 10
0.636418346
 20
4.9841149737
 30
0.0
 10
0.6178745917
 20
4.983635759
 30
0.0
 10
0.6006797416
 20
4.9831571413
 30
0.0
 10
0.5849954271
 20
4.9826791785
 30
0.0
 10
0.5729382497
 20
4.982269492
 30
0.0
 10
0.5641572134
 20
4.9819378702
 30
0.0
 10
0.5582567878
 20
4.981697645
 30
0.0
 10
0.5528340752
 20
4.9814576072
 30
0.0
 10
0.5479018171
 20
4.9812177816
 30
0.0
 10
0.5434714722
 20
4.980978338
 30
0.0
 10
0.5395535181
 20
4.9807394027
 30
0.0
 10
0.5361571612
 20
4.9805012237
 30
0.0
 10
0.5332902436
 20
4.9802639899
 30
0.0
 10
0.5312359409
 20
4.980057197
 30
0.0
 10
0.529863047
 20
4.9798869497
 30
0.0
 10
0.5290362957
 20
4.9797677409
 30
0.0
 10
0.5283458272
 20
4.9796492238
 30
0.0
 10
0.5277919164
 20
4.9795314013
 30
0.0
 10
0.5274166356
 20
4.9794279166
 30
0.0
 10
0.5271869783
 20
4.9793411791
 30
0.0
 10
0.5270955757
 20
4.9792973165
 30
0.0
 10
0.5270563288
 20
4.9792746889
 30
0.0
  0
SPLINE
  5
2E3
100
AcDbEntity
  8
0
100
AcDbSpline
 62
7
  6
CONTINUOUS
 70
0
 71
3
 72
64
 73
60
 74
0
 42
0.0000001
 43
0.0000001
 44
0.0000000001
 40
0.0
 40
0.0
 40
0.0
 40
0.0
 40
0.0001336263
 40
0.000303028
 40
0.0005273912
 40
0.0008150534
 40
0.0011698728
 40
0.0015938406
 40
0.0020880803
 40
0.0026532682
 40
0.0039979653
 40
0.0056299317
 40
0.00754992
 40
0.0097578244
 40
0.015032567
 40
0.0214429682
 40
0.0289763807
 40
0.0376171281
 40
0.0473436364
 40
0.058133386
 40
0.0699630237
 40
0.0828039503
 40
0.0966252713
 40
0.1113959493
 40
0.143644193
 40
0.1792446401
 40
0.2178629997
 40
0.259136696
 40
0.302675898
 40
0.3480727401
 40
0.3949005969
 40
0.4427206416
 40
0.4910822505
 40
0.5395304518
 40
0.5876088788
 40
0.6348653018
 40
0.6808549985
 40
0.7251470237
 40
0.7673261881
 40
0.8069941745
 40
0.8437797941
 40
0.8773348116
 40
0.9073460408
 40
0.9209327669
 40
0.9335316147
 40
0.9451118017
 40
0.9556461183
 40
0.9651117183
 40
0.9734861353
 40
0.9807487714
 40
0.9868852533
 40
0.9918831608
 40
0.9939517048
 40
0.9957321364
 40
0.9972248216
 40
0.9984309384
 40
0.9993533184
 40
0.9997102793
 40
1.0
 40
1.0
 40
1.0
 40
1.0
 10
0.5268977415
 20
4.9738701794
 30
0.0
 10
0.5268977415
 20
4.9738910741
 30
0.0
 10
0.5269134628
 20
4.9739384894
 30
0.0
 10
0.5269712991
 20
4.9739990473
 30
0.0
 10
0.5270603121
 20
4.9740583602
 30
0.0
 10
0.5271826007
 20
4.9741174923
 30
0.0
 10
0.5273385454
 20
4.974176901
 30
0.0
 10
0.5275285673
 20
4.9742364981
 30
0.0
 10
0.5277527399
 20
4.9742962739
 30
0.0
 10
0.5281190195
 20
4.974381116
 30
0.0
 10
0.5286632669
 20
4.9744846805
 30
0.0
 10
0.5294197141
 20
4.9746036366
 30
0.0
 10
0.5303124884
 20
4.9747229877
 30
0.0
 10
0.5317729684
 20
4.97489273
 30
0.0
 10
0.5339357135
 20
4.9750994893
 30
0.0
 10
0.536931522
 20
4.9753370372
 30
0.0
 10
0.5404550096
 20
4.9755754237
 30
0.0
 10
0.5444979879
 20
4.9758144958
 30
0.0
 10
0.5490509069
 20
4.976054044
 30
0.0
 10
0.5541030596
 20
4.9762939356
 30
0.0
 10
0.5596426921
 20
4.9765340155
 30
0.0
 10
0.5656567614
 20
4.9767742738
 30
0.0
 10
0.5721310444
 20
4.977014699
 30
0.0
 10
0.5816387119
 20
4.9773451334
 30
0.0
 10
0.5945512013
 20
4.9777541175
 30
0.0
 10
0.6111922639
 20
4.9782325585
 30
0.0
 10
0.6292451271
 20
4.9787115716
 30
0.0
 10
0.6485397421
 20
4.9791910091
 30
0.0
 10
0.6688945874
 20
4.9796707717
 30
0.0
 10
0.6901181447
 20
4.9801507291
 30
0.0
 10
0.7120112451
 20
4.9806308597
 30
0.0
 10
0.7343680432
 20
4.9811110863
 30
0.0
 10
0.7569782657
 20
4.9815913769
 30
0.0
 10
0.7796288996
 20
4.9820716705
 30
0.0
 10
0.8021066807
 20
4.982551932
 30
0.0
 10
0.8241999465
 20
4.9830320992
 30
0.0
 10
0.8457010047
 20
4.9835121312
 30
0.0
 10
0.866407948
 20
4.9839919785
 30
0.0
 10
0.8861261159
 20
4.9844715349
 30
0.0
 10
0.9046701731
 20
4.9849507565
 30
0.0
 10
0.9218652372
 20
4.9854293789
 30
0.0
 10
0.9375496876
 20
4.9859073441
 30
0.0
 10
0.949606942
 20
4.9863170326
 30
0.0
 10
0.9583880127
 20
4.9866486544
 30
0.0
 10
0.96428845
 20
4.9868888789
 30
0.0
 10
0.9697111732
 20
4.9871289171
 30
0.0
 10
0.9746434478
 20
4.987368742
 30
0.0
 10
0.9790738171
 20
4.9876081843
 30
0.0
 10
0.9829917989
 20
4.9878471206
 30
0.0
 10
0.9863881905
 20
4.9880853021
 30
0.0
 10
0.989255152
 20
4.9883225378
 30
0.0
 10
0.9913094935
 20
4.9885293324
 30
0.0
 10
0.9926824113
 20
4.9886995821
 30
0.0
 10
0.9935091726
 20
4.9888187921
 30
0.0
 10
0.9941996477
 20
4.9889373099
 30
0.0
 10
0.9947535627
 20
4.9890551329
 30
0.0
 10
0.9951288458
 20
4.9891586178
 30
0.0
 10
0.9953585042
 20
4.9892453555
 30
0.0
 10
0.9954499071
 20
4.9892892181
 30
0.0
 10
0.9954891541
 20
4.9893118457
 30
0.0
  0
SPLINE
  5
2E4
100
AcDbEntity
  8
0
100
AcDbSpline
 62
7
  6
CONTINUOUS
 70
0
 71
3
 72
64
 73
60
 74
0
 42
0.0000001
 43
0.0000001
 44
0.0000000001
 40
0.0
 40
0.0
 40
0.0
 40
0.0
 40
0.0001336263
 40
0.000303028
 40
0.000527391
 40
0.000815053
 40
0.0011698721
 40
0.0015938394
 40
0.0020880784
 40
0.0026532655
 40
0.0039979601
 40
0.0056299231
 40
0.0075499065
 40
0.0097578028
 40
0.0150325212
 40
0.0214428964
 40
0.0289762906
 40
0.0376170118
 40
0.0473434899
 40
0.0581332237
 40
0.0699628606
 40
0.0828037785
 40
0.0966250889
 40
0.1113957573
 40
0.1436439306
 40
0.1792442913
 40
0.217862501
 40
0.2591359854
 40
0.302674988
 40
0.3480717403
 40
0.3948995783
 40
0.4427195938
 40
0.4910811944
 40
0.5395293982
 40
0.5876078501
 40
0.6348642879
 40
0.6808540475
 40
0.7251462211
 40
0.7673256238
 40
0.8069937749
 40
0.8437795016
 40
0.8773345994
 40
0.9073458611
 40
0.920932598
 40
0.9335314529
 40
0.9451116412
 40
0.9556459787
 40
0.9651116097
 40
0.9734860492
 40
0.9807487058
 40
0.9868852142
 40
0.9918831438
 40
0.993951694
 40
0.9957321298
 40
0.997224818
 40
0.9984309367
 40
0.9993533178
 40
0.9997102791
 40
1.0
 40
1.0
 40
1.0
 40
1.0
 10
0.9956477415
 20
4.9634676053
 30
0.0
 10
0.9956477415
 20
4.9634467106
 30
0.0
 10
0.9956320203
 20
4.9633992952
 30
0.0
 10
0.995574184
 20
4.9633387374
 30
0.0
 10
0.9954851711
 20
4.9632794245
 30
0.0
 10
0.9953628826
 20
4.9632202924
 30
0.0
 10
0.9952069381
 20
4.9631608837
 30
0.0
 10
0.9950169164
 20
4.9631012866
 30
0.0
 10
0.9947927441
 20
4.9630415109
 30
0.0
 10
0.9944264651
 20
4.9629566689
 30
0.0
 10
0.9938822188
 20
4.9628531045
 30
0.0
 10
0.9931257733
 20
4.9627341485
 30
0.0
 10
0.9922330015
 20
4.9626147977
 30
0.0
 10
0.9907725273
 20
4.962445056
 30
0.0
 10
0.9886097914
 20
4.9622382971
 30
0.0
 10
0.9856139936
 20
4.9620007497
 30
0.0
 10
0.982090517
 20
4.961762364
 30
0.0
 10
0.9780475503
 20
4.9615232921
 30
0.0
 10
0.9734946427
 20
4.9612837438
 30
0.0
 10
0.9684424973
 20
4.9610438522
 30
0.0
 10
0.9629028687
 20
4.9608037725
 30
0.0
 10
0.9568888026
 20
4.960563514
 30
0.0
 10
0.9504145241
 20
4.9603230887
 30
0.0
 10
0.9409068708
 20
4.9599926547
 30
0.0
 10
0.9279944073
 20
4.9595836708
 30
0.0
 10
0.9113533927
 20
4.9591052312
 30
0.0
 10
0.8933005995
 20
4.9586262192
 30
0.0
 10
0.8740060723
 20
4.9581467835
 30
0.0
 10
0.8536513053
 20
4.9576670225
 30
0.0
 10
0.8324277962
 20
4.9571870657
 30
0.0
 10
0.8105347174
 20
4.9567069354
 30
0.0
 10
0.7881779281
 20
4.9562267087
 30
0.0
 10
0.7655677111
 20
4.9557464183
 30
0.0
 10
0.7429170742
 20
4.9552661246
 30
0.0
 10
0.7204392864
 20
4.9547858631
 30
0.0
 10
0.6983460046
 20
4.9543056957
 30
0.0
 10
0.6768449111
 20
4.9538256636
 30
0.0
 10
0.6561378975
 20
4.9533458145
 30
0.0
 10
0.6364196434
 20
4.9528662568
 30
0.0
 10
0.6178755064
 20
4.9523870334
 30
0.0
 10
0.6006803873
 20
4.9519084098
 30
0.0
 10
0.5849959026
 20
4.9514304441
 30
0.0
 10
0.5729386288
 20
4.9510207551
 30
0.0
 10
0.5641575502
 20
4.9506891335
 30
0.0
 10
0.5582571099
 20
4.9504489092
 30
0.0
 10
0.5528343822
 20
4.9502088706
 30
0.0
 10
0.5479020992
 20
4.9499690458
 30
0.0
 10
0.5434717183
 20
4.9497296035
 30
0.0
 10
0.5395537249
 20
4.9494906669
 30
0.0
 10
0.5361573225
 20
4.9492524847
 30
0.0
 10
0.5332903501
 20
4.9490152484
 30
0.0
 10
0.5312360001
 20
4.9488084534
 30
0.0
 10
0.5298630773
 20
4.9486382032
 30
0.0
 10
0.5290363138
 20
4.9485189929
 30
0.0
 10
0.5283458373
 20
4.948400475
 30
0.0
 10
0.5277919214
 20
4.9482826519
 30
0.0
 10
0.5274166378
 20
4.9481791669
 30
0.0
 10
0.5271869791
 20
4.9480924292
 30
0.0
 10
0.5270955761
 20
4.9480485665
 30
0.0
 10
0.5270563291
 20
4.9480259389
 30
0.0
  0
SPLINE
  5
2E5
100
AcDbEntity
  8
0
100
AcDbSpline
 62
7
  6
CONTINUOUS
 70
0
 71
3
 72
64
 73
60
 74
0
 42
0.0000001
 43
0.0000001
 44
0.0000000001
 40
0.0
 40
0.0
 40
0.0
 40
0.0
 40
0.0001336264
 40
0.0003030284
 40
0.0005273923
 40
0.0008150557
 40
0.0011698769
 40
0.001593847
 40
0.0020880895
 40
0.0026532809
 40
0.0039979868
 40
0.005629965
 40
0.0075499685
 40
0.0097578988
 40
0.015032727
 40
0.0214432417
 40
0.0289767778
 40
0.03761773
 40
0.0473444723
 40
0.0581343636
 40
0.0699640302
 40
0.0828050102
 40
0.0966263759
 40
0.1113970707
 40
0.1436456035
 40
0.179246391
 40
0.2178653413
 40
0.2591398138
 40
0.3026798534
 40
0.3480772328
 40
0.3949051651
 40
0.4427250724
 40
0.4910864952
 40
0.5395345603
 40
0.5876127837
 40
0.6348691474
 40
0.6808587652
 40
0.7251503184
 40
0.7673284865
 40
0.8069957238
 40
0.8437808397
 40
0.8773355216
 40
0.9073466068
 40
0.9209332925
 40
0.9335321254
 40
0.9451123352
 40
0.9556466273
 40
0.9651121754
 40
0.9734865614
 40
0.9807491288
 40
0.9868854753
 40
0.9918832548
 40
0.9939517601
 40
0.995732167
 40
0.9972248362
 40
0.9984309437
 40
0.9993533194
 40
0.9997102795
 40
1.0
 40
1.0
 40
1.0
 40
1.0
 10
0.5268977415
 20
4.9426214294
 30
0.0
 10
0.5268977415
 20
4.9426423241
 30
0.0
 10
0.5269134629
 20
4.9426897395
 30
0.0
 10
0.5269712995
 20
4.9427502973
 30
0.0
 10
0.5270603129
 20
4.9428096102
 30
0.0
 10
0.5271826022
 20
4.9428687423
 30
0.0
 10
0.5273385477
 20
4.9429281511
 30
0.0
 10
0.5275285707
 20
4.9429877483
 30
0.0
 10
0.5277527447
 20
4.9430475242
 30
0.0
 10
0.5281190267
 20
4.9431323665
 30
0.0
 10
0.5286632778
 20
4.9432359315
 30
0.0
 10
0.5294197305
 20
4.9433548883
 30
0.0
 10
0.530312513
 20
4.9434742407
 30
0.0
 10
0.5317730127
 20
4.9436439847
 30
0.0
 10
0.533935793
 20
4.9438507461
 30
0.0
 10
0.5369316519
 20
4.9440882965
 30
0.0
 10
0.5404552084
 20
4.9443266873
 30
0.0
 10
0.5444982748
 20
4.9445657613
 30
0.0
 10
0.5490512845
 20
4.944805311
 30
0.0
 10
0.5541035005
 20
4.9450452047
 30
0.0
 10
0.559643168
 20
4.9452852868
 30
0.0
 10
0.5656572572
 20
4.9455255434
 30
0.0
 10
0.5721315582
 20
4.9457659671
 30
0.0
 10
0.5816392805
 20
4.9460964028
 30
0.0
 10
0.5945518711
 20
4.9465053864
 30
0.0
 10
0.6111931243
 20
4.9469838333
 30
0.0
 10
0.6292462545
 20
4.9474628499
 30
0.0
 10
0.6485412141
 20
4.9479422949
 30
0.0
 10
0.6688963957
 20
4.9484220635
 30
0.0
 10
0.6901201797
 20
4.9489020242
 30
0.0
 10
0.7120133544
 20
4.9493821558
 30
0.0
 10
0.7343701138
 20
4.9498623801
 30
0.0
 10
0.7569802643
 20
4.9503426694
 30
0.0
 10
0.779630816
 20
4.950822961
 30
0.0
 10
0.8021085348
 20
4.9513032221
 30
0.0
 10
0.8242017471
 20
4.9517833883
 30
0.0
 10
0.8457027098
 20
4.9522634208
 30
0.0
 10
0.8664094112
 20
4.9527432622
 30
0.0
 10
0.8861272324
 20
4.9532228135
 30
0.0
 10
0.904670938
 20
4.9537020269
 30
0.0
 10
0.9218657537
 20
4.9541806438
 30
0.0
 10
0.9375500503
 20
4.954658606
 30
0.0
 10
0.9496072235
 20
4.9550682924
 30
0.0
 10
0.958388263
 20
4.9553999142
 30
0.0
 10
0.9642886951
 20
4.9556401396
 30
0.0
 10
0.9697114157
 20
4.9558801778
 30
0.0
 10
0.9746436819
 20
4.9561200042
 30
0.0
 10
0.9790740342
 20
4.9563594484
 30
0.0
 10
0.9829919923
 20
4.9565983838
 30
0.0
 10
0.9863883473
 20
4.9568365625
 30
0.0
 10
0.9892552569
 20
4.9570737959
 30
0.0
 10
0.9913095511
 20
4.9572805885
 30
0.0
 10
0.9926824391
 20
4.9574508353
 30
0.0
 10
0.993509188
 20
4.957570044
 30
0.0
 10
0.9941996553
 20
4.957688561
 30
0.0
 10
0.9947535657
 20
4.9578063834
 30
0.0
 10
0.9951288465
 20
4.9579098681
 30
0.0
 10
0.9953585041
 20
4.9579966056
 30
0.0
 10
0.9954499069
 20
4.9580404681
 30
0.0
 10
0.9954891539
 20
4.9580630957
 30
0.0
  0
SPLINE
  5
2E6
100
AcDbEntity
  8
0
100
AcDbSpline
 62
7
  6
CONTINUOUS
 70
0
 71
3
 72
56
 73
52
 74
0
 42
0.0000001
 43
0.0000001
 44
0.0000000001
 40
0.0
 40
0.0
 40
0.0
 40
0.0
 40
0.0001419454
 40
0.0003155725
 40
0.0005395892
 40
0.0008228442
 40
0.001169612
 40
0.0015821499
 40
0.0026090089
 40
0.0039090992
 40
0.0054845433
 40
0.0073361817
 40
0.0094642366
 40
0.0118684901
 40
0.0145478216
 40
0.0207254494
 40
0.0279840706
 40
0.0363098003
 40
0.045684948
 40
0.0560870709
 40
0.0674932873
 40
0.0798797657
 40
0.093217552
 40
0.1074758141
 40
0.1386274173
 40
0.1730526045
 40
0.2104430787
 40
0.2504591978
 40
0.2927418943
 40
0.3369079242
 40
0.382559507
 40
0.4292840318
 40
0.4766597304
 40
0.5716515088
 40
0.6641114543
 40
0.7083440443
 40
0.7507077945
 40
0.7908212837
 40
0.8283207711
 40
0.8628702465
 40
0.8941555769
 40
0.9218973307
 40
0.9458444163
 40
0.9657828657
 40
0.9741920598
 40
0.9815368216
 40
0.987799781
 40
0.992968775
 40
0.9970366267
 40
0.9986563559
 40
1.0
 40
1.0
 40
1.0
 40
1.0
 10
0.9764851387
 20
5.0370285801
 30
0.0
 10
0.9764851662
 20
5.0370082408
 30
0.0
 10
0.9764720254
 20
5.036962814
 30
0.0
 10
0.9764213497
 20
5.0369028319
 30
0.0
 10
0.9763426469
 20
5.036844408
 30
0.0
 10
0.9762346506
 20
5.036786259
 30
0.0
 10
0.9760969657
 20
5.0367279464
 30
0.0
 10
0.9758551277
 20
5.0366437633
 30
0.0
 10
0.9754755189
 20
5.0365422166
 30
0.0
 10
0.9749283869
 20
5.0364262991
 30
0.0
 10
0.9742609942
 20
5.036309831
 30
0.0
 10
0.9734735854
 20
5.0361928674
 30
0.0
 10
0.9725663291
 20
5.0360756303
 30
0.0
 10
0.9715396406
 20
5.0359581881
 30
0.0
 10
0.9699344204
 20
5.0357934865
 30
0.0
 10
0.9676339896
 20
5.03559116
 30
0.0
 10
0.9645244411
 20
5.035357386
 30
0.0
 10
0.9609556351
 20
5.035123076
 30
0.0
 10
0.9569355788
 20
5.0348883312
 30
0.0
 10
0.9524734662
 20
5.0346532504
 30
0.0
 10
0.9475793317
 20
5.0344179265
 30
0.0
 10
0.942264108
 20
5.03418247
 30
0.0
 10
0.9365398513
 20
5.0339468629
 30
0.0
 10
0.9281281288
 20
5.03362292
 30
0.0
 10
0.9166955596
 20
5.0332220217
 30
0.0
 10
0.9019488187
 20
5.0327530898
 30
0.0
 10
0.8859313095
 20
5.0322836503
 30
0.0
 10
0.8687874651
 20
5.0318137247
 30
0.0
 10
0.850672416
 20
5.0313435312
 30
0.0
 10
0.8317496092
 20
5.0308730905
 30
0.0
 10
0.8121901475
 20
5.0304025082
 30
0.0
 10
0.7921706458
 20
5.029931815
 30
0.0
 10
0.7650829392
 20
5.0293036223
 30
0.0
 10
0.7314434432
 20
5.0285288905
 30
0.0
 10
0.6982546625
 20
5.0277444783
 30
0.0
 10
0.6726055869
 20
5.0271078302
 30
0.0
 10
0.6544554236
 20
5.0266375902
 30
0.0
 10
0.6372703759
 20
5.0261676952
 30
0.0
 10
0.6212054681
 20
5.0256981735
 30
0.0
 10
0.6064061043
 20
5.0252293096
 30
0.0
 10
0.593005666
 20
5.0247612079
 30
0.0
 10
0.581125403
 20
5.0242945321
 30
0.0
 10
0.5708724065
 20
5.0238295096
 30
0.0
 10
0.5633898087
 20
5.0234254957
 30
0.0
 10
0.5582861496
 20
5.0230938609
 30
0.0
 10
0.5551399717
 20
5.0228600828
 30
0.0
 10
0.5524594108
 20
5.0226274102
 30
0.0
 10
0.5502504624
 20
5.0223958666
 30
0.0
 10
0.5487076176
 20
5.0221933309
 30
0.0
 10
0.5477142021
 20
5.0220248331
 30
0.0
 10
0.5472980447
 20
5.0219396686
 30
0.0
 10
0.5471105866
 20
5.0218957646
 30
0.0
  0
LINE
  5
2E7
100
AcDbEntity
  8
0
100
AcDbLine
 62
7
  6
CONTINUOUS
 10
0.5471105866
 20
5.0218957646
 11
0.5462328155
 21
5.0216031649
  0
SPLINE
  5
2E8
100
AcDbEntity
  8
0
100
AcDbSpline
 62
7
  6
CONTINUOUS
 70
0
 71
3
 72
53
 73
49
 74
0
 42
0.0000001
 43
0.0000001
 44
0.0000000001
 40
0.0
 40
0.0
 40
0.0
 40
0.0
 40
0.003896822
 40
0.0088709144
 40
0.0149123346
 40
0.0220096996
 40
0.0301482765
 40
0.0393093902
 40
0.0606218606
 40
0.0857653515
 40
0.1145194895
 40
0.1466318391
 40
0.1818226812
 40
0.2197814455
 40
0.260177327
 40
0.3468395585
 40
0.438773571
 40
0.532758272
 40
0.5794899578
 40
0.6255004738
 40
0.670384923
 40
0.7137505118
 40
0.7552153119
 40
0.7944165685
 40
0.8310096166
 40
0.8646735457
 40
0.8951140828
 40
0.922062903
 40
0.93415403
 40
0.9452871945
 40
0.9554365568
 40
0.9645814596
 40
0.9727032137
 40
0.9797833655
 40
0.9858065463
 40
0.9884187149
 40
0.9907631806
 40
0.9928390323
 40
0.9946455568
 40
0.9961823854
 40
0.9974501625
 40
0.9984514388
 40
0.9988538587
 40
0.9991923648
 40
0.9994692573
 40
0.9996888121
 40
0.9998597046
 40
1.0
 40
1.0
 40
1.0
 40
1.0
 10
0.9743380365
 20
5.0402254548
 30
0.0
 10
0.9737884545
 20
5.0401353214
 30
0.0
 10
0.9725317127
 20
5.0399651408
 30
0.0
 10
0.9704126297
 20
5.0397371058
 30
0.0
 10
0.9678340474
 20
5.0395075939
 30
0.0
 10
0.9648018415
 20
5.0392770642
 30
0.0
 10
0.9613226968
 20
5.0390459968
 30
0.0
 10
0.9558139047
 20
5.0387206881
 30
0.0
 10
0.9478750863
 20
5.0383226551
 30
0.0
 10
0.9371360228
 20
5.0378631423
 30
0.0
 10
0.92485229
 20
5.0374022674
 30
0.0
 10
0.9111317701
 20
5.0369402751
 30
0.0
 10
0.8960950947
 20
5.0364776348
 30
0.0
 10
0.8798740612
 20
5.0360144233
 30
0.0
 10
0.8562987489
 20
5.0353815058
 30
0.0
 10
0.8250106027
 20
5.0346030395
 30
0.0
 10
0.7860647812
 20
5.0336872743
 30
0.0
 10
0.7528237716
 20
5.0329222639
 30
0.0
 10
0.7261444369
 20
5.0323021494
 30
0.0
 10
0.7064806577
 20
5.0318380036
 30
0.0
 10
0.6872980871
 20
5.0313739463
 30
0.0
 10
0.6687653697
 20
5.0309100682
 30
0.0
 10
0.6510451388
 20
5.0304463902
 30
0.0
 10
0.6342931606
 20
5.0299830357
 30
0.0
 10
0.6186565039
 20
5.0295200938
 30
0.0
 10
0.604272475
 20
5.0290577565
 30
0.0
 10
0.5912675274
 20
5.0285962336
 30
0.0
 10
0.5813454154
 20
5.0281997069
 30
0.0
 10
0.5741819897
 20
5.0278783752
 30
0.0
 10
0.5694179427
 20
5.0276463714
 30
0.0
 10
0.5650754937
 20
5.0274145685
 30
0.0
 10
0.5611640844
 20
5.0271830599
 30
0.0
 10
0.5576921338
 20
5.0269520402
 30
0.0
 10
0.5546674136
 20
5.0267215873
 30
0.0
 10
0.5524301648
 20
5.0265220407
 30
0.0
 10
0.5508693565
 20
5.0263596222
 30
0.0
 10
0.5498709578
 20
5.0262438119
 30
0.0
 10
0.5489885274
 20
5.0261282243
 30
0.0
 10
0.5482226068
 20
5.0260129148
 30
0.0
 10
0.5475735515
 20
5.0258980897
 30
0.0
 10
0.5470416657
 20
5.0257837789
 30
0.0
 10
0.5466728046
 20
5.0256836269
 30
0.0
 10
0.5464379189
 20
5.0256006182
 30
0.0
 10
0.5463041601
 20
5.0255431035
 30
0.0
 10
0.5461992118
 20
5.0254857343
 30
0.0
 10
0.5461226718
 20
5.0254280814
 30
0.0
 10
0.5460733789
 20
5.025368904
 30
0.0
 10
0.5460605516
 20
5.025324256
 30
0.0
 10
0.5460605192
 20
5.0253042054
 30
0.0
  0
LINE
  5
2E9
100
AcDbEntity
  8
0
100
AcDbLine
 62
7
  6
CONTINUOUS
 10
0.9763125773
 20
5.0094808694
 11
0.9760051805
 21
5.0093477114
  0
LINE
  5
2EA
100
AcDbEntity
  8
0
100
AcDbLine
 62
7
  6
CONTINUOUS
 10
0.9760051805
 20
5.0093477114
 11
0.975713149
 21
5.0092584904
  0
SPLINE
  5
2EB
100
AcDbEntity
  8
0
100
AcDbSpline
 62
7
  6
CONTINUOUS
 70
0
 71
3
 72
56
 73
52
 74
0
 42
0.0000001
 43
0.0000001
 44
0.0000000001
 40
0.0
 40
0.0
 40
0.0
 40
0.0
 40
0.0011852759
 40
0.0026482476
 40
0.0064108294
 40
0.0112860527
 40
0.01726616
 40
0.0243413425
 40
0.0324961259
 40
0.0417111164
 40
0.0519666114
 40
0.0755074424
 40
0.1029025592
 40
0.1339061691
 40
0.1682346733
 40
0.2055763588
 40
0.2455915106
 40
0.2879146458
 40
0.3321615909
 40
0.4247971776
 40
0.5201293643
 40
0.5677233853
 40
0.6146908737
 40
0.6606029234
 40
0.705042387
 40
0.7476027429
 40
0.7878979569
 40
0.8255594534
 40
0.8602453044
 40
0.8916396984
 40
0.9194562744
 40
0.9319432653
 40
0.943444682
 40
0.9539327799
 40
0.9633850117
 40
0.9717814818
 40
0.9791025311
 40
0.9853313777
 40
0.9880328757
 40
0.990457552
 40
0.992604408
 40
0.9944726426
 40
0.9960617972
 40
0.9973724235
 40
0.9984070363
 40
0.9988225522
 40
0.999171774
 40
0.9994570136
 40
0.9996825916
 40
0.9998573554
 40
1.0
 40
1.0
 40
1.0
 40
1.0
 10
0.975713149
 20
5.0092584904
 30
0.0
 10
0.975549207
 20
5.0092136965
 30
0.0
 10
0.9751791471
 20
5.0091275032
 30
0.0
 10
0.9742757074
 20
5.0089572194
 30
0.0
 10
0.9728411172
 20
5.0087540668
 30
0.0
 10
0.9707579272
 20
5.008522056
 30
0.0
 10
0.9681974045
 20
5.0082886988
 30
0.0
 10
0.9651651998
 20
5.0080540851
 30
0.0
 10
0.9616680011
 20
5.0078188394
 30
0.0
 10
0.9577139351
 20
5.0075830308
 30
0.0
 10
0.9515555519
 20
5.0072528297
 30
0.0
 10
0.9427908361
 20
5.0068477255
 30
0.0
 10
0.9310512047
 20
5.0063788765
 30
0.0
 10
0.917763735
 20
5.0059088932
 30
0.0
 10
0.903049315
 20
5.0054379125
 30
0.0
 10
0.8870421859
 20
5.0049663301
 30
0.0
 10
0.8698882957
 20
5.0044943092
 30
0.0
 10
0.8517439491
 20
5.0040219374
 30
0.0
 10
0.8260564158
 20
5.0033820518
 30
0.0
 10
0.7927695103
 20
5.0025938059
 30
0.0
 10
0.7590023203
 20
5.0018158858
 30
0.0
 10
0.7317816231
 20
5.0011850107
 30
0.0
 10
0.7116452992
 20
5.0007121579
 30
0.0
 10
0.6919614178
 20
5.00023939
 30
0.0
 10
0.672909638
 20
4.9997668022
 30
0.0
 10
0.6546634828
 20
4.9992944059
 30
0.0
 10
0.6373895215
 20
4.9988223494
 30
0.0
 10
0.6212450855
 20
4.9983506918
 30
0.0
 10
0.6063774603
 20
4.9978796696
 30
0.0
 10
0.5929222026
 20
4.9974094525
 30
0.0
 10
0.5826496357
 20
4.9970055375
 30
0.0
 10
0.5752287533
 20
4.9966781991
 30
0.0
 10
0.5702909625
 20
4.9964418183
 30
0.0
 10
0.565788842
 20
4.9962056464
 30
0.0
 10
0.5617325819
 20
4.995969767
 30
0.0
 10
0.558131245
 20
4.9957343857
 30
0.0
 10
0.5549931751
 20
4.9954995904
 30
0.0
 10
0.5526717358
 20
4.9952962844
 30
0.0
 10
0.551051993
 20
4.9951308026
 30
0.0
 10
0.5500158148
 20
4.9950128066
 30
0.0
 10
0.5490999422
 20
4.9948950382
 30
0.0
 10
0.5483049559
 20
4.9947775542
 30
0.0
 10
0.54763125
 20
4.9946605687
 30
0.0
 10
0.5470791607
 20
4.9945441097
 30
0.0
 10
0.5466962526
 20
4.9944420767
 30
0.0
 10
0.5464523721
 20
4.9943574901
 30
0.0
 10
0.5463135399
 20
4.9942989044
 30
0.0
 10
0.5462046192
 20
4.9942404849
 30
0.0
 10
0.5461251992
 20
4.9941817935
 30
0.0
 10
0.5460739728
 20
4.9941215783
 30
0.0
 10
0.5460605527
 20
4.9940759085
 30
0.0
 10
0.5460605188
 20
4.9940554554
 30
0.0
  0
SPLINE
  5
2EC
100
AcDbEntity
  8
0
100
AcDbSpline
 62
7
  6
CONTINUOUS
 70
0
 71
3
 72
30
 73
26
 74
0
 42
0.0000001
 43
0.0000001
 44
0.0000000001
 40
0.0
 40
0.0
 40
0.0
 40
0.0
 40
0.0008591434
 40
0.0019952742
 40
0.0035423808
 40
0.0055535046
 40
0.0080519623
 40
0.0110494301
 40
0.0145523498
 40
0.0185645129
 40
0.028124552
 40
0.0397392912
 40
0.053404968
 40
0.0691113163
 40
0.1065968776
 40
0.1520899837
 40
0.2054396418
 40
0.2664540528
 40
0.3349346416
 40
0.410636557
 40
0.4932822449
 40
0.582590038
 40
0.6782529527
 40
0.7799514429
 40
1.0
 40
1.0
 40
1.0
 40
1.0
 10
0.9764852014
 20
4.9120335795
 30
0.0
 10
0.9764851733
 20
4.912007736
 30
0.0
 10
0.9764623206
 20
4.9119480771
 30
0.0
 10
0.9763826482
 20
4.9118750082
 30
0.0
 10
0.97626084
 20
4.9118027099
 30
0.0
 10
0.9760931322
 20
4.9117306173
 30
0.0
 10
0.9758791759
 20
4.911658012
 30
0.0
 10
0.9756183615
 20
4.9115851686
 30
0.0
 10
0.9753106422
 20
4.9115120822
 30
0.0
 10
0.9748075488
 20
4.9114082888
 30
0.0
 10
0.9740603601
 20
4.9112816607
 30
0.0
 10
0.9730223954
 20
4.9111362678
 30
0.0
 10
0.971798081
 20
4.9109903544
 30
0.0
 10
0.9697976453
 20
4.9107828185
 30
0.0
 10
0.966839718
 20
4.9105299539
 30
0.0
 10
0.9627491076
 20
4.9102394436
 30
0.0
 10
0.9579492794
 20
4.9099479055
 30
0.0
 10
0.9524569436
 20
4.9096554109
 30
0.0
 10
0.9462914191
 20
4.9093624488
 30
0.0
 10
0.9394745743
 20
4.909069093
 30
0.0
 10
0.93203072
 20
4.9087754214
 30
0.0
 10
0.9239860036
 20
4.9084815849
 30
0.0
 10
0.9153678189
 20
4.9081875519
 30
0.0
 10
0.9028183224
 20
4.907784612
 30
0.0
 10
0.8931441668
 20
4.9074988811
 30
0.0
 10
0.8865276375
 20
4.9073108419
 30
0.0
  0
SPLINE
  5
2ED
100
AcDbEntity
  8
0
100
AcDbSpline
 62
7
  6
CONTINUOUS
 70
0
 71
3
 72
55
 73
51
 74
0
 42
0.0000001
 43
0.0000001
 44
0.0000000001
 40
0.0
 40
0.0
 40
0.0
 40
0.0
 40
0.0001421419
 40
0.0003161184
 40
0.0005404926
 40
0.00082406
 40
0.001171114
 40
0.0015839458
 40
0.0026115717
 40
0.0039129414
 40
0.00549051
 40
0.0073453208
 40
0.009477061
 40
0.0118848211
 40
0.0145674929
 40
0.0207525158
 40
0.0280214475
 40
0.0363594422
 40
0.0457464613
 40
0.056161892
 40
0.0675843222
 40
0.0799871681
 40
0.1076181271
 40
0.1388093561
 40
0.1732766464
 40
0.2107107101
 40
0.2507722679
 40
0.2930994345
 40
0.3373099994
 40
0.3830034151
 40
0.429767423
 40
0.4771783276
 40
0.5722251994
 40
0.6647136268
 40
0.7089488382
 40
0.7513058907
 40
0.7914037404
 40
0.8288776833
 40
0.8633914845
 40
0.8946314342
 40
0.9223170458
 40
0.946198688
 40
0.9660612785
 40
0.9744294057
 40
0.9817307063
 40
0.9879477649
 40
0.9930691541
 40
0.9970876492
 40
0.9986820526
 40
1.0
 40
1.0
 40
1.0
 40
1.0
 10
0.9764851254
 20
4.9432823294
 30
0.0
 10
0.9764850933
 20
4.9432619595
 30
0.0
 10
0.9764717849
 20
4.9432164963
 30
0.0
 10
0.9764209278
 20
4.9431565023
 30
0.0
 10
0.976342067
 20
4.9430980303
 30
0.0
 10
0.9762339268
 20
4.9430398317
 30
0.0
 10
0.9760961052
 20
4.9429814703
 30
0.0
 10
0.9758540558
 20
4.9428972182
 30
0.0
 10
0.9754740762
 20
4.9427955824
 30
0.0
 10
0.974926287
 20
4.9426795711
 30
0.0
 10
0.9742578738
 20
4.9425630147
 30
0.0
 10
0.9734690809
 20
4.9424459862
 30
0.0
 10
0.9725602306
 20
4.9423286781
 30
0.0
 10
0.9715319148
 20
4.9422111417
 30
0.0
 10
0.9699244706
 20
4.9420463076
 30
0.0
 10
0.9676207629
 20
4.9418437927
 30
0.0
 10
0.9645065597
 20
4.9416098704
 30
0.0
 10
0.9609324054
 20
4.9413754174
 30
0.0
 10
0.956906524
 20
4.9411404612
 30
0.0
 10
0.9524379684
 20
4.9409051899
 30
0.0
 10
0.9475366952
 20
4.9406697144
 30
0.0
 10
0.9401698857
 20
4.9403436515
 30
0.0
 10
0.9299707619
 20
4.9399412521
 30
0.0
 10
0.9166099624
 20
4.939472874
 30
0.0
 10
0.9018435676
 20
4.9390036414
 30
0.0
 10
0.8858054331
 20
4.9385338228
 30
0.0
 10
0.8686404927
 20
4.9380635662
 30
0.0
 10
0.8505041026
 20
4.9375930006
 30
0.0
 10
0.8315603783
 20
4.9371222233
 30
0.0
 10
0.8119806417
 20
4.9366512765
 30
0.0
 10
0.7919421494
 20
4.936180239
 30
0.0
 10
0.764832743
 20
4.9355516057
 30
0.0
 10
0.7311723746
 20
4.9347763591
 30
0.0
 10
0.6979674466
 20
4.9339913188
 30
0.0
 10
0.6723119436
 20
4.9333541524
 30
0.0
 10
0.6541625342
 20
4.9328835589
 30
0.0
 10
0.6369823888
 20
4.9324133247
 30
0.0
 10
0.620926667
 20
4.9319434638
 30
0.0
 10
0.6061408999
 20
4.9314742578
 30
0.0
 10
0.5927586077
 20
4.9310058444
 30
0.0
 10
0.580900939
 20
4.9305388386
 30
0.0
 10
0.5706751004
 20
4.9300735501
 30
0.0
 10
0.5632178306
 20
4.9296691965
 30
0.0
 10
0.5581366379
 20
4.9293372244
 30
0.0
 10
0.55500885
 20
4.9291033125
 30
0.0
 10
0.5523476882
 20
4.9288705166
 30
0.0
 10
0.5501590795
 20
4.9286388907
 30
0.0
 10
0.5486337256
 20
4.9284362406
 30
0.0
 10
0.5476548291
 20
4.9282674702
 30
0.0
 10
0.5472461106
 20
4.9281821444
 30
0.0
 10
0.5470624463
 20
4.9281381057
 30
0.0
  0
LINE
  5
2EE
100
AcDbEntity
  8
0
100
AcDbLine
 62
7
  6
CONTINUOUS
 10
0.5470624463
 20
4.9281381057
 11
0.5462328488
 21
4.9278569149
  0
LINE
  5
2EF
100
AcDbEntity
  8
0
100
AcDbLine
 62
7
  6
CONTINUOUS
 10
0.5268977415
 20
4.1477254548
 11
0.7612727415
 21
4.2414754548
  0
SPLINE
  5
2F0
100
AcDbEntity
  8
0
100
AcDbSpline
 62
7
  6
CONTINUOUS
 70
0
 71
3
 72
56
 73
52
 74
0
 42
0.0000001
 43
0.0000001
 44
0.0000000001
 40
0.0
 40
0.0
 40
0.0
 40
0.0
 40
0.0001425002
 40
0.0003170438
 40
0.0005422841
 40
0.0008270495
 40
0.00117565
 40
0.0015903884
 40
0.002622948
 40
0.003930808
 40
0.005516487
 40
0.0073807793
 40
0.0095232221
 40
0.0119429649
 40
0.0146389591
 40
0.0208548876
 40
0.0281605382
 40
0.0365398825
 40
0.0459729822
 40
0.056439609
 40
0.0679178218
 40
0.0803801411
 40
0.1081420534
 40
0.1394768157
 40
0.1740983388
 40
0.2116930403
 40
0.2519195389
 40
0.2944113641
 40
0.3387835714
 40
0.3846313576
 40
0.4315390923
 40
0.4790793174
 40
0.5743277507
 40
0.6669202048
 40
0.7111638242
 40
0.7534969282
 40
0.7935365387
 40
0.8309170589
 40
0.8653001523
 40
0.8963731909
 40
0.9238537274
 40
0.9474947401
 40
0.9578062563
 40
0.9670803664
 40
0.9752978003
 40
0.9824395516
 40
0.9884891297
 40
0.9934365257
 40
0.997274273
 40
0.9987758931
 40
1.0
 40
1.0
 40
1.0
 40
1.0
 10
0.9764850342
 20
4.9745310793
 30
0.0
 10
0.976484999
 20
4.97451065
 30
0.0
 10
0.9764716056
 20
4.97446504
 30
0.0
 10
0.9764204795
 20
4.9744048908
 30
0.0
 10
0.976341215
 20
4.9743462639
 30
0.0
 10
0.9762325148
 20
4.9742879093
 30
0.0
 10
0.9760939717
 20
4.9742293892
 30
0.0
 10
0.9758506231
 20
4.9741449015
 30
0.0
 10
0.9754685779
 20
4.9740429854
 30
0.0
 10
0.9749177659
 20
4.973926656
 30
0.0
 10
0.9742456278
 20
4.9738097921
 30
0.0
 10
0.9734524612
 20
4.9736924446
 30
0.0
 10
0.9725386359
 20
4.973574811
 30
0.0
 10
0.9715047472
 20
4.9734569501
 30
0.0
 10
0.9698886033
 20
4.9732916594
 30
0.0
 10
0.9675723723
 20
4.9730885836
 30
0.0
 10
0.9644413038
 20
4.9728540408
 30
0.0
 10
0.9608479287
 20
4.9726189346
 30
0.0
 10
0.9568005716
 20
4.9723833268
 30
0.0
 10
0.9523082947
 20
4.9721474146
 30
0.0
 10
0.9473812084
 20
4.9719113004
 30
0.0
 10
0.9399761721
 20
4.9715843378
 30
0.0
 10
0.9297251147
 20
4.9711808617
 30
0.0
 10
0.9162975419
 20
4.9707111877
 30
0.0
 10
0.9014595591
 20
4.9702406856
 30
0.0
 10
0.8853462639
 20
4.9697695691
 30
0.0
 10
0.8681042204
 20
4.9692980379
 30
0.0
 10
0.8498901985
 20
4.968826178
 30
0.0
 10
0.8308700377
 20
4.9683541204
 30
0.0
 10
0.8112166142
 20
4.967881885
 30
0.0
 10
0.7911088876
 20
4.9674095643
 30
0.0
 10
0.7639206742
 20
4.9667793446
 30
0.0
 10
0.7301845928
 20
4.9660022072
 30
0.0
 10
0.6969214808
 20
4.9652148984
 30
0.0
 10
0.6712431293
 20
4.9645758114
 30
0.0
 10
0.6530971124
 20
4.9641039575
 30
0.0
 10
0.6359353515
 20
4.9636324624
 30
0.0
 10
0.6199137742
 20
4.9631613815
 30
0.0
 10
0.6051782533
 20
4.9626909182
 30
0.0
 10
0.5918627774
 20
4.9622214077
 30
0.0
 10
0.5800883518
 20
4.961753046
 30
0.0
 10
0.5712902962
 20
4.9613484152
 30
0.0
 10
0.5651019273
 20
4.9610187138
 30
0.0
 10
0.561122927
 20
4.960783138
 30
0.0
 10
0.5575991973
 20
4.9605481022
 30
0.0
 10
0.5545388776
 20
4.9603137114
 30
0.0
 10
0.5519487772
 20
4.9600805041
 30
0.0
 10
0.5498346247
 20
4.9598485995
 30
0.0
 10
0.5483733632
 20
4.9596455715
 30
0.0
 10
0.5474477286
 20
4.9594757591
 30
0.0
 10
0.5470663005
 20
4.9593898211
 30
0.0
 10
0.5468965599
 20
4.9593452609
 30
0.0
  0
LINE
  5
2F1
100
AcDbEntity
  8
0
100
AcDbLine
 62
7
  6
CONTINUOUS
 10
0.5468965599
 20
4.9593452609
 11
0.5462328912
 21
4.9591056651
  0
LINE
  5
2F2
100
AcDbEntity
  8
0
100
AcDbLine
 62
7
  6
CONTINUOUS
 10
0.976312632
 20
4.946983369
 11
0.9756380978
 21
4.9467410041
  0
SPLINE
  5
2F3
100
AcDbEntity
  8
0
100
AcDbSpline
 62
7
  6
CONTINUOUS
 70
0
 71
3
 72
56
 73
52
 74
0
 42
0.0000001
 43
0.0000001
 44
0.0000000001
 40
0.0
 40
0.0
 40
0.0
 40
0.0
 40
0.001230209
 40
0.0027374418
 40
0.0065869508
 40
0.0115467146
 40
0.0176076603
 40
0.0247591113
 40
0.0329869381
 40
0.0422712478
 40
0.052591296
 40
0.0762485184
 40
0.1037423045
 40
0.1348272164
 40
0.1692183679
 40
0.206605902
 40
0.2466488716
 40
0.2889840375
 40
0.3332268891
 40
0.4258125573
 40
0.5210475812
 40
0.5685792985
 40
0.6154773305
 40
0.6613149611
 40
0.7056763811
 40
0.748157121
 40
0.7883730113
 40
0.825956418
 40
0.8605683989
 40
0.8918927112
 40
0.9196466961
 40
0.9321043719
 40
0.9435788451
 40
0.9540429275
 40
0.9634725152
 40
0.9718484775
 40
0.9791523297
 40
0.9853665698
 40
0.9880613438
 40
0.9904798766
 40
0.9926213204
 40
0.9944850241
 40
0.9960706732
 40
0.9973785882
 40
0.9984108316
 40
0.9988253223
 40
0.9991736522
 40
0.9994581535
 40
0.9996831678
 40
0.9998575583
 40
1.0
 40
1.0
 40
1.0
 40
1.0
 10
0.9756380978
 20
4.9467410041
 30
0.0
 10
0.9754674459
 20
4.9466964889
 30
0.0
 10
0.9750843006
 20
4.9466106001
 30
0.0
 10
0.9741552677
 20
4.9464408018
 30
0.0
 10
0.9726897387
 20
4.946237819
 30
0.0
 10
0.9705705176
 20
4.9460059688
 30
0.0
 10
0.9679756719
 20
4.9457727923
 30
0.0
 10
0.964910911
 20
4.9455383851
 30
0.0
 10
0.9613829178
 20
4.9453034108
 30
0.0
 10
0.9573998365
 20
4.9450678911
 30
0.0
 10
0.9512066119
 20
4.9447382349
 30
0.0
 10
0.9424033307
 20
4.9443337119
 30
0.0
 10
0.9306232826
 20
4.9438653983
 30
0.0
 10
0.9173033929
 20
4.9433959978
 30
0.0
 10
0.9025643926
 20
4.9429255841
 30
0.0
 10
0.8865405892
 20
4.9424546142
 30
0.0
 10
0.8693774939
 20
4.9419831794
 30
0.0
 10
0.8512312834
 20
4.9415114257
 30
0.0
 10
0.8255543907
 20
4.9408724549
 30
0.0
 10
0.792295154
 20
4.9400853052
 30
0.0
 10
0.7585640713
 20
4.9393082893
 30
0.0
 10
0.7313811032
 20
4.9386781786
 30
0.0
 10
0.7112779701
 20
4.9382059397
 30
0.0
 10
0.6916294549
 20
4.9377337927
 30
0.0
 10
0.6726143843
 20
4.9372618211
 30
0.0
 10
0.6544054965
 20
4.9367900404
 30
0.0
 10
0.6371686338
 20
4.9363186101
 30
0.0
 10
0.6210602698
 20
4.935847554
 30
0.0
 10
0.6062271603
 20
4.9353771724
 30
0.0
 10
0.5928039437
 20
4.9349075398
 30
0.0
 10
0.5825564539
 20
4.9345041808
 30
0.0
 10
0.5751539513
 20
4.9341772512
 30
0.0
 10
0.5702285613
 20
4.9339411714
 30
0.0
 10
0.565737805
 20
4.9337053341
 30
0.0
 10
0.5616919078
 20
4.9334697574
 30
0.0
 10
0.5580998753
 20
4.9332346658
 30
0.0
 10
0.5549698722
 20
4.9330001878
 30
0.0
 10
0.5526543746
 20
4.9327971686
 30
0.0
 10
0.5510388656
 20
4.9326318914
 30
0.0
 10
0.5500054972
 20
4.9325140473
 30
0.0
 10
0.5490920987
 20
4.9323964293
 30
0.0
 10
0.5482991864
 20
4.9322790919
 30
0.0
 10
0.5476271432
 20
4.9321622616
 30
0.0
 10
0.5470763786
 20
4.9320459809
 30
0.0
 10
0.546694415
 20
4.9319440773
 30
0.0
 10
0.5464511977
 20
4.9318595955
 30
0.0
 10
0.546312776
 20
4.9318010855
 30
0.0
 10
0.5462041981
 20
4.9317427392
 30
0.0
 10
0.5461250454
 20
4.9316841189
 30
0.0
 10
0.5460740182
 20
4.9316239674
 30
0.0
 10
0.5460606869
 20
4.9315783756
 30
0.0
 10
0.5460606674
 20
4.9315579552
 30
0.0
  0
SPLINE
  5
2F4
100
AcDbEntity
  8
0
100
AcDbSpline
 62
7
  6
CONTINUOUS
 70
0
 71
3
 72
56
 73
52
 74
0
 42
0.0000001
 43
0.0000001
 44
0.0000000001
 40
0.0
 40
0.0
 40
0.0
 40
0.0
 40
0.0001426745
 40
0.0003174817
 40
0.0005431267
 40
0.0008284623
 40
0.0011778128
 40
0.0015934924
 40
0.0026285492
 40
0.0039397908
 40
0.0055297121
 40
0.0073987941
 40
0.0095465912
 40
0.011972319
 40
0.0146749958
 40
0.0209066498
 40
0.0282310423
 40
0.0366311858
 40
0.0460875366
 40
0.056580305
 40
0.0680867216
 40
0.0805790162
 40
0.1084074236
 40
0.1398146593
 40
0.1745144205
 40
0.2121903187
 40
0.2525003742
 40
0.2950755249
 40
0.3395294971
 40
0.3854554236
 40
0.4324357989
 40
0.4800414322
 40
0.5753916854
 40
0.6680365718
 40
0.7122842107
 40
0.7546052091
 40
0.7946150515
 40
0.8319483751
 40
0.866265071
 40
0.897253707
 40
0.924630382
 40
0.9481495733
 40
0.9583929819
 40
0.9675952444
 40
0.9757365092
 40
0.9827972889
 40
0.9887624342
 40
0.9936221125
 40
0.9973684564
 40
0.9988230787
 40
1.0
 40
1.0
 40
1.0
 40
1.0
 10
0.97648494
 20
5.0057798293
 30
0.0
 10
0.976484907
 20
5.0057593712
 30
0.0
 10
0.9764714832
 20
5.0057136888
 30
0.0
 10
0.9764202381
 20
5.005653459
 30
0.0
 10
0.9763407875
 20
5.0055947536
 30
0.0
 10
0.9762318222
 20
5.0055363201
 30
0.0
 10
0.9760929302
 20
5.0054777202
 30
0.0
 10
0.9758489365
 20
5.005393112
 30
0.0
 10
0.9754658403
 20
5.0052910534
 30
0.0
 10
0.9749134703
 20
5.0051745677
 30
0.0
 10
0.9742394219
 20
5.0050575564
 30
0.0
 10
0.9734440433
 20
5.0049400423
 30
0.0
 10
0.9725277337
 20
5.0048222448
 30
0.0
 10
0.9714910671
 20
5.0047042195
 30
0.0
 10
0.9698705492
 20
5.004538696
 30
0.0
 10
0.9675479832
 20
5.0043353413
 30
0.0
 10
0.9644084023
 20
5.0041004922
 30
0.0
 10
0.9608053517
 20
5.0038650506
 30
0.0
 10
0.9567471728
 20
5.0036291123
 30
0.0
 10
0.9522429286
 20
5.0033928859
 30
0.0
 10
0.9473028302
 20
5.003156447
 30
0.0
 10
0.9398785329
 20
5.0028290269
 30
0.0
 10
0.9296013338
 20
5.0024250189
 30
0.0
 10
0.9161401069
 20
5.0019546832
 30
0.0
 10
0.9012660979
 20
5.0014835502
 30
0.0
 10
0.8851149501
 20
5.0010117753
 30
0.0
 10
0.8678341135
 20
5.000539606
 30
0.0
 10
0.8495810363
 20
5.0000670941
 30
0.0
 10
0.8305224466
 20
4.9995943919
 30
0.0
 10
0.8108320086
 20
4.9991215096
 30
0.0
 10
0.7906895288
 20
4.998648542
 30
0.0
 10
0.7634618452
 20
4.9980175258
 30
0.0
 10
0.7296879712
 20
4.997239437
 30
0.0
 10
0.6963959641
 20
4.9964509897
 30
0.0
 10
0.6707064734
 20
4.9958109314
 30
0.0
 10
0.6525625085
 20
4.9953384488
 30
0.0
 10
0.6354103315
 20
4.9948663138
 30
0.0
 10
0.6194063402
 20
4.9943946244
 30
0.0
 10
0.6046964874
 20
4.9939235313
 30
0.0
 10
0.5914150777
 20
4.9934534469
 30
0.0
 10
0.5796829692
 20
4.992984493
 30
0.0
 10
0.5709254607
 20
4.9925792867
 30
0.0
 10
0.5647735532
 20
4.9922489773
 30
0.0
 10
0.5608248675
 20
4.9920131194
 30
0.0
 10
0.5573333991
 20
4.9917778295
 30
0.0
 10
0.5543072667
 20
4.9915431655
 30
0.0
 10
0.5517531271
 20
4.9913097779
 30
0.0
 10
0.5496766164
 20
4.9910777463
 30
0.0
 10
0.5482477841
 20
4.9908745687
 30
0.0
 10
0.5473491397
 20
4.9907041791
 30
0.0
 10
0.5469815336
 20
4.9906179314
 30
0.0
 10
0.5468188424
 20
4.9905730857
 30
0.0
  0
LINE
  5
2F5
100
AcDbEntity
  8
0
100
AcDbLine
 62
7
  6
CONTINUOUS
 10
0.5468188424
 20
4.9905730857
 11
0.5462329036
 21
4.9903544153
  0
SPLINE
  5
2F6
100
AcDbEntity
  8
0
100
AcDbSpline
 62
7
  6
CONTINUOUS
 70
0
 71
3
 72
64
 73
60
 74
0
 42
0.0000001
 43
0.0000001
 44
0.0000000001
 40
0.0
 40
0.0
 40
0.0
 40
0.0
 40
0.0001336264
 40
0.0003030281
 40
0.0005273913
 40
0.000815053
 40
0.0011698713
 40
0.001593837
 40
0.0020880734
 40
0.0026532567
 40
0.0039979389
 40
0.0056298818
 40
0.0075498353
 40
0.0097576824
 40
0.0150322643
 40
0.0214425135
 40
0.0289758614
 40
0.0376165421
 40
0.0473429704
 40
0.0581326936
 40
0.0699623498
 40
0.0828032443
 40
0.0966245121
 40
0.1113951316
 40
0.1436430177
 40
0.1792429781
 40
0.2178605009
 40
0.259133061
 40
0.3026713223
 40
0.3480678965
 40
0.3948957356
 40
0.4427155511
 40
0.4910770042
 40
0.5395250439
 40
0.5876033261
 40
0.634859696
 40
0.6808498684
 40
0.7251427413
 40
0.7673230491
 40
0.8069918201
 40
0.8437779689
 40
0.8773334019
 40
0.9073447662
 40
0.9209315535
 40
0.933530458
 40
0.9451106846
 40
0.9556451974
 40
0.9651110664
 40
0.9734856855
 40
0.9807484628
 40
0.9868850798
 40
0.991883085
 40
0.9939516549
 40
0.9957321039
 40
0.9972248024
 40
0.9984309287
 40
0.9993533149
 40
0.9997102778
 40
1.0
 40
1.0
 40
1.0
 40
1.0
 10
0.9956477415
 20
4.9322188553
 30
0.0
 10
0.9956477415
 20
4.9321979606
 30
0.0
 10
0.9956320202
 20
4.9321505452
 30
0.0
 10
0.9955741839
 20
4.9320899874
 30
0.0
 10
0.9954851709
 20
4.9320306746
 30
0.0
 10
0.9953628825
 20
4.9319715425
 30
0.0
 10
0.9952069385
 20
4.9319121339
 30
0.0
 10
0.9950169176
 20
4.9318525368
 30
0.0
 10
0.9947927465
 20
4.9317927613
 30
0.0
 10
0.9944264705
 20
4.9317079196
 30
0.0
 10
0.9938822298
 20
4.9316043559
 30
0.0
 10
0.9931257941
 20
4.9314854009
 30
0.0
 10
0.9922330377
 20
4.9313660519
 30
0.0
 10
0.9907725972
 20
4.9311963125
 30
0.0
 10
0.98860991
 20
4.9309895558
 30
0.0
 10
0.9856141604
 20
4.9307520106
 30
0.0
 10
0.982090717
 20
4.930513628
 30
0.0
 10
0.9780477718
 20
4.9302745556
 30
0.0
 10
0.97349488
 20
4.9300350056
 30
0.0
 10
0.9684427411
 20
4.9297951128
 30
0.0
 10
0.9629031148
 20
4.9295550331
 30
0.0
 10
0.9568890561
 20
4.9293147736
 30
0.0
 10
0.9504147956
 20
4.9290743482
 30
0.0
 10
0.9409072015
 20
4.9287439161
 30
0.0
 10
0.9279948532
 20
4.9283349335
 30
0.0
 10
0.9113540535
 20
4.9278565
 30
0.0
 10
0.8933015748
 20
4.9273774939
 30
0.0
 10
0.8740074154
 20
4.9268980659
 30
0.0
 10
0.8536529367
 20
4.9264183103
 30
0.0
 10
0.8324295712
 20
4.925938355
 30
0.0
 10
0.8105365514
 20
4.9254582254
 30
0.0
 10
0.7881798163
 20
4.9249779987
 30
0.0
 10
0.7655696793
 20
4.9244977103
 30
0.0
 10
0.7429191177
 20
4.9240174177
 30
0.0
 10
0.7204413928
 20
4.9235371588
 30
0.0
 10
0.6983480836
 20
4.9230569907
 30
0.0
 10
0.6768468268
 20
4.9225769579
 30
0.0
 10
0.6561394979
 20
4.9220971016
 30
0.0
 10
0.6364208961
 20
4.9216175387
 30
0.0
 10
0.6178764548
 20
4.921138309
 30
0.0
 10
0.6006811204
 20
4.9206596807
 30
0.0
 10
0.5849965012
 20
4.9201817136
 30
0.0
 10
0.5729391511
 20
4.9197720232
 30
0.0
 10
0.5641580408
 20
4.9194404034
 30
0.0
 10
0.5582575788
 20
4.9192001805
 30
0.0
 10
0.55283481
 20
4.9189601389
 30
0.0
 10
0.5479024564
 20
4.9187203125
 30
0.0
 10
0.5434719827
 20
4.9184808688
 30
0.0
 10
0.5395539051
 20
4.9182419294
 30
0.0
 10
0.5361574389
 20
4.9180037434
 30
0.0
 10
0.5332904189
 20
4.9177665046
 30
0.0
 10
0.531236037
 20
4.9175597077
 30
0.0
 10
0.5298630974
 20
4.9173894554
 30
0.0
 10
0.5290363273
 20
4.9172702442
 30
0.0
 10
0.5283458459
 20
4.9171517257
 30
0.0
 10
0.5277919264
 20
4.9170339022
 30
0.0
 10
0.5274166405
 20
4.916930417
 30
0.0
 10
0.5271869805
 20
4.9168436792
 30
0.0
 10
0.5270955771
 20
4.9167998166
 30
0.0
 10
0.5270563298
 20
4.9167771889
 30
0.0
  0
ENDSEC
  0
SECTION
  2
OBJECTS
  0
DICTIONARY
  5
C
100
AcDbDictionary
280
0
281
1
  3
ACAD_GROUP
350
D
  3
ACAD_MLINESTYLE
350
17
  3
ACAD_LAYOUT
350
1A
  3
ACAD_PLOTSETTINGS
350
19
  3
ACAD_PLOTSTYLENAME
350
E
  0
DICTIONARY
  5
D
102
{ACAD_REACTORS
330
C
102
}
100
AcDbDictionary
280
0
281
1
  0
ACDBDICTIONARYWDFLT
  5
E
102
{ACAD_REACTORS
330
C
102
}
100
AcDbDictionary
281
1
  3
Normal
350
F
100
AcDbDictionaryWithDefault
340
F
  0
DICTIONARY
  5
17
102
{ACAD_REACTORS
330
C
102
}
100
AcDbDictionary
280
0
281
1
  3
Standard
350
18
  0
DICTIONARY
  5
19
102
{ACAD_REACTORS
330
C
102
}
100
AcDbDictionary
281
1
  0
DICTIONARY
  5
1A
102
{ACAD_REACTORS
330
C
102
}
100
AcDbDictionary
281
1
  3
Model
350
2F7
  3
Layout1
350
2F8
  0
ACDBPLACEHOLDER
  5
F
102
{ACAD_REACTORS
330
E
102
}
  0
MLINESTYLE
  5
18
102
{ACAD_REACTORS
330
17
102
}
100
AcDbMlineStyle
  2
STANDARD
 70
0
  3

 62
256
 51
90.0
 52
90.0
 71
2
 49
0.5
 62
256
  6
BYLAYER
 49
-0.5
 62
256
  6
BYLAYER
  0
LAYOUT
  5
2F7
102
{ACAD_REACTORS
330
1A
102
}
100
AcDbPlotSettings
  1

  2
none_device
  4
ANSI_A_(11.00_x_8.50_Inches)
  6

 40
0.0
 41
0.0
 42
0.0
 43
0.0
 44
279.4
 45
215.9
 46
0.0
 47
0.0
 48
0.0
 49
0.0
140
0.0
141
0.0
142
1.0
143
1.0
 70
1024
 72
0
 73
0
 74
0
  7

 75
0
147
1.0
148
0.0
149
0.0
100
AcDbLayout
  1
Model
 70
0
 71
0
 10
0.0
 20
0.0
 11
11.0
 21
8.5
 12
0.0
 22
0.0
 32
0.0
 14
0.0
 24
0.0
 34
0.0
 15
0.0
 25
0.0
 35
0.0
146
0.0
 13
0.0
 23
0.0
 33
0.0
 16
1.0
 26
0.0
 36
0.0
 17
0.0
 27
1.0
 37
0.0
 76
0
330
207
345
0
346
0
  0
LAYOUT
  5
2F8
102
{ACAD_REACTORS
330
1A
102
}
100
AcDbPlotSettings
  1

  2
none_device
  4
ANSI_A_(11.00_x_8.50_Inches)
  6

 40
0.0
 41
0.0
 42
0.0
 43
0.0
 44
279.4
 45
215.9
 46
0.0
 47
0.0
 48
0.0
 49
0.0
140
0.0
141
0.0
142
1.0
143
1.0
 70
0
 72
0
 73
0
 74
0
  7

 75
0
147
1.0
148
0.0
149
0.0
100
AcDbLayout
  1
Layout1
 70
0
 71
1
 10
0.0
 20
0.0
 11
11.0
 21
8.5
 12
0.0
 22
0.0
 32
0.0
 14
0.0
 24
0.0
 34
0.0
 15
0.0
 25
0.0
 35
0.0
146
0.0
 13
0.0
 23
0.0
 33
0.0
 16
1.0
 26
0.0
 36
0.0
 17
0.0
 27
1.0
 37
0.0
 76
0
330
208
345
0
346
0
  0
ENDSEC
  0
EOF
