999
DXF file: 5083_right.dxf
999
Pro/ENGINEER 2019352 by Parametric Technology Corporation
  0
SECTION
  2
HEADER
  9
$ACADVER
  1
AC1032
  9
$DWGCODEPAGE
  3
ANSI_1252
  9
$EXTMAX
 10
11.0
 20
8.5
 30
0.0
  9
$EXTMIN
 10
0.0
 20
0.0
 30
0.0
  9
$LIMMIN
 10
0.0
 20
0.0
  9
$LIMMAX
 10
11.0
 20
8.5
  9
$VIEWCTR
 10
5.5
 20
4.25
  9
$VIEWSIZE
 40
8.5
  9
$CLAYER
  8
0
  9
$LTSCALE
 40
0.605
  9
$CELTYPE
  6
BYLAYER
  9
$DIMSCALE
 40
1.0
  9
$DIMASZ
 40
0.1
  9
$DIMEXO
 40
0.0625
  9
$DIMDLI
 40
0.418
  9
$DIMEXE
 40
0.125
  9
$DIMCEN
 40
0.099
  9
$DIMLFAC
 40
1.0
  9
$DIMBLK
  1
_FILLED
  9
$DIMALT
 70
1
  9
$DIMALTD
 70
2
  9
$DIMALTTD
 70
2
  9
$DIMALTF
 40
25.4
  9
$DIMTXT
 40
0.08
  9
$DIMTOL
 70
1
  9
$DIMLIM
 70
0
  9
$DIMTFAC
 40
1.0
  9
$DIMTP
 40
0.001
  9
$DIMTM
 40
0.001
  9
$DIMGAP
 40
0.09
  9
$DIMDSEP
 70
46
  9
$AUNITS
 70
0
  9
$PDMODE
 70
3
  9
$PDSIZE
 40
0.3125
  9
$HANDSEED
  5
26D
  9
$TILEMODE
 70
1
  9
$MEASUREMENT
 70
0
  9
$INSUNITS
 70
1
  0
ENDSEC
  0
SECTION
  2
CLASSES
  0
CLASS
  1
ACDBDICTIONARYWDFLT
  2
AcDbDictionaryWithDefault
  3
AutoCAD 2000
 90
0
 91
1
280
0
281
0
  0
CLASS
  1
ACDBPLACEHOLDER
  2
AcDbPlaceHolder
  3
AutoCAD 2000
 90
0
 91
1
280
0
281
0
  0
CLASS
  1
LAYOUT
  2
AcDbLayout
  3
AutoCAD 2000
 90
0
 91
0
280
0
281
0
  0
ENDSEC
  0
SECTION
  2
TABLES
  0
TABLE
  2
VPORT
  5
8
100
AcDbSymbolTable
 70
2
  0
VPORT
  5
1F4
100
AcDbSymbolTableRecord
100
AcDbViewportTableRecord
  2
*ACTIVE
 70
0
 10
0.0
 20
0.0
 11
1.0
 21
1.0
 12
5.5
 22
4.25
 13
0.0
 23
0.0
 14
1.0
 24
1.0
 15
0.0
 25
0.0
 16
0.0
 26
0.0
 36
1.0
 17
0.0
 27
0.0
 37
0.0
 40
8.5
 41
1.2941176471
 42
50.0
 43
0.0
 44
0.0
 50
0.0
 51
0.0
 71
0
 72
100
 73
1
 74
1
 75
0
 76
0
 77
0
 78
0
  0
ENDTAB
  0
TABLE
  2
LTYPE
  5
5
100
AcDbSymbolTable
 70
6
  0
LTYPE
  5
14
100
AcDbSymbolTableRecord
100
AcDbLinetypeTableRecord
  2
BYBLOCK
 70
0
  3

 72
65
 73
0
 40
0.0
  0
LTYPE
  5
15
100
AcDbSymbolTableRecord
100
AcDbLinetypeTableRecord
  2
BYLAYER
 70
0
  3

 72
65
 73
0
 40
0.0
  0
LTYPE
  5
16
100
AcDbSymbolTableRecord
100
AcDbLinetypeTableRecord
  2
CONTINUOUS
 70
64
  3
Solid line
 72
65
 73
0
 40
0.0
  0
LTYPE
  5
1F5
100
AcDbSymbolTableRecord
100
AcDbLinetypeTableRecord
  2
CENTER
 70
64
  3
____ _ ____ _ ____ _ ____ _ ____ _ ____ _ ____
 72
65
 73
4
 40
0.6
 49
0.375
 74
0
 49
-0.075
 74
0
 49
0.075
 74
0
 49
-0.075
 74
0
  0
LTYPE
  5
1F6
100
AcDbSymbolTableRecord
100
AcDbLinetypeTableRecord
  2
HIDDEN
 70
64
  3
- - - - - - - - - - - - - - - - - - - -
 72
65
 73
2
 40
0.2
 49
0.1
 74
0
 49
-0.1
 74
0
  0
LTYPE
  5
1F7
100
AcDbSymbolTableRecord
100
AcDbLinetypeTableRecord
  2
PHANTOM
 70
64
  3
_____ _ _ _____ _ _ _____ _ _ _____
 72
65
 73
6
 40
0.8
 49
0.45
 74
0
 49
-0.05
 74
0
 49
0.1
 74
0
 49
-0.05
 74
0
 49
0.1
 74
0
 49
-0.05
 74
0
  0
LTYPE
  5
1F8
100
AcDbSymbolTableRecord
100
AcDbLinetypeTableRecord
  2
DOT
 70
64
  3
. . . . . . . . . . . . . . . . . . . .
 72
65
 73
2
 40
0.2
 49
0.1
 74
0
 49
-0.1
 74
0
  0
LTYPE
  5
1F9
100
AcDbSymbolTableRecord
100
AcDbLinetypeTableRecord
  2
DASHED
 70
64
  3
- - - - - - - - - - - - - - - - - - - -
 72
65
 73
2
 40
0.2
 49
0.1
 74
0
 49
-0.1
 74
0
  0
ENDTAB
  0
TABLE
  2
LAYER
  5
2
100
AcDbSymbolTable
 70
36
  0
LAYER
  5
10
100
AcDbSymbolTableRecord
100
AcDbLayerTableRecord
  2
0
 70
0
 62
7
  6
CONTINUOUS
370
-3
390
F
  0
LAYER
  5
1FA
100
AcDbSymbolTableRecord
100
AcDbLayerTableRecord
  2
DEFAULT_1
 70
0
 62
7
  6
CENTER
370
-3
390
F
  0
LAYER
  5
1FB
100
AcDbSymbolTableRecord
100
AcDbLayerTableRecord
  2
DEFAULT_2
 70
0
 62
8
  6
HIDDEN
370
-3
390
F
  0
LAYER
  5
1FC
100
AcDbSymbolTableRecord
100
AcDbLayerTableRecord
  2
DEFAULT_3
 70
0
 62
7
  6
PHANTOM
370
-3
390
F
  0
LAYER
  5
1FD
100
AcDbSymbolTableRecord
100
AcDbLayerTableRecord
  2
_  SHELL
 70
0
 62
7
  6
CONTINUOUS
370
-3
390
F
  0
LAYER
  5
1FE
100
AcDbSymbolTableRecord
100
AcDbLayerTableRecord
  2
06___PRT_ALL_SURFS
 70
0
 62
7
  6
CONTINUOUS
370
-3
390
F
  0
LAYER
  5
1FF
100
AcDbSymbolTableRecord
100
AcDbLayerTableRecord
  2
ALL_FEATURES
 70
0
 62
7
  6
CONTINUOUS
370
-3
390
F
  0
LAYER
  5
200
100
AcDbSymbolTableRecord
100
AcDbLayerTableRecord
  2
AXES_FEATURES
 70
0
 62
7
  6
CONTINUOUS
370
-3
390
F
  0
LAYER
  5
201
100
AcDbSymbolTableRecord
100
AcDbLayerTableRecord
  2
DEFAULT_COORDINATE_SYSTEM
 70
0
 62
7
  6
CONTINUOUS
370
-3
390
F
  0
LAYER
  5
202
100
AcDbSymbolTableRecord
100
AcDbLayerTableRecord
  2
DEFAULT_DATUM_AXES
 70
0
 62
7
  6
CONTINUOUS
370
-3
390
F
  0
LAYER
  5
203
100
AcDbSymbolTableRecord
100
AcDbLayerTableRecord
  2
DEFAULT_DATUM_CURVES
 70
0
 62
7
  6
CONTINUOUS
370
-3
390
F
  0
LAYER
  5
204
100
AcDbSymbolTableRecord
100
AcDbLayerTableRecord
  2
DEFAULT_DATUM_PLANES
 70
0
 62
7
  6
CONTINUOUS
370
-3
390
F
  0
LAYER
  5
205
100
AcDbSymbolTableRecord
100
AcDbLayerTableRecord
  2
DEFAULT_SURFACES
 70
0
 62
7
  6
CONTINUOUS
370
-3
390
F
  0
LAYER
  5
206
100
AcDbSymbolTableRecord
100
AcDbLayerTableRecord
  2
DIMENSIONS
 70
0
 62
7
  6
CONTINUOUS
370
-3
390
F
  0
LAYER
  5
207
100
AcDbSymbolTableRecord
100
AcDbLayerTableRecord
  2
INTF_BLANK
 70
0
 62
7
  6
CONTINUOUS
370
-3
390
F
  0
LAYER
  5
208
100
AcDbSymbolTableRecord
100
AcDbLayerTableRecord
  2
PLATED_SURFACE_AREA
 70
0
 62
7
  6
CONTINUOUS
370
-3
390
F
  0
LAYER
  5
209
100
AcDbSymbolTableRecord
100
AcDbLayerTableRecord
  2
SHELL
 70
0
 62
7
  6
CONTINUOUS
370
-3
390
F
  0
LAYER
  5
20A
100
AcDbSymbolTableRecord
100
AcDbLayerTableRecord
  2
XSEC_DATUMS
 70
0
 62
7
  6
CONTINUOUS
370
-3
390
F
  0
LAYER
  5
20B
100
AcDbSymbolTableRecord
100
AcDbLayerTableRecord
  2
___SHELL
 70
0
 62
7
  6
CONTINUOUS
370
-3
390
F
  0
ENDTAB
  0
TABLE
  2
STYLE
  5
3
100
AcDbSymbolTable
 70
1
  0
STYLE
  5
11
100
AcDbSymbolTableRecord
100
AcDbTextStyleTableRecord
  2
STANDARD
 70
0
 40
0.0
 41
0.8
 50
0.0
 71
0
 42
0.2
  3
txt
  4

  0
STYLE
  5
20C
100
AcDbSymbolTableRecord
100
AcDbTextStyleTableRecord
  2
TEXTSTYLE_1
 70
0
 40
0.0
 41
0.8
 50
0.0
 71
0
 42
0.2
  3
gdt
  4

  0
ENDTAB
  0
TABLE
  2
VIEW
  5
6
100
AcDbSymbolTable
 70
0
  0
ENDTAB
  0
TABLE
  2
UCS
  5
7
100
AcDbSymbolTable
 70
0
  0
ENDTAB
  0
TABLE
  2
APPID
  5
9
100
AcDbSymbolTable
 70
1
  0
APPID
  5
20D
100
AcDbSymbolTableRecord
100
AcDbRegAppTableRecord
  2
ACAD
 70
0
  0
ENDTAB
  0
TABLE
  2
BLOCK_RECORD
  5
1
100
AcDbSymbolTable
 70
0
  0
BLOCK_RECORD
  5
20E
100
AcDbSymbolTableRecord
100
AcDbBlockTableRecord
  2
*Model_Space
  0
BLOCK_RECORD
  5
20F
100
AcDbSymbolTableRecord
100
AcDbBlockTableRecord
  2
*Paper_Space
  0
BLOCK_RECORD
  5
210
100
AcDbSymbolTableRecord
100
AcDbBlockTableRecord
  2
_FILLED
  0
ENDTAB
  0
TABLE
  2
DIMSTYLE
  5
A
100
AcDbSymbolTable
 70
1
100
AcDbDimStyleTable
 71
0
  0
DIMSTYLE
105
211
100
AcDbSymbolTableRecord
100
AcDbDimStyleTableRecord
  2
STANDARD
 70
0
  3

  4

 40
1.0
 41
0.1
 42
0.0625
 43
0.38
 44
0.125
 45
0.0
 46
0.0
 47
0.001
 48
0.001
140
0.08
141
0.09
142
0.0
143
25.4
144
1.0
145
0.0
146
1.0
147
0.09
 71
1.0
 72
0.0
 73
1
 74
1
 75
0
 76
0
 77
0
 78
4
 79
1
170
1
171
2
172
0
173
0
174
0
175
0
176
0
177
0
178
0
270
2
179
3
271
3
272
3
273
2
274
2
275
0
280
0
281
0
282
0
283
1
284
4
285
0
286
0
287
3
288
0
340
11
278
46
341
210
342
210
343
210
344
210
  0
ENDTAB
  0
ENDSEC
  0
SECTION
  2
BLOCKS
  0
BLOCK
  5
20
100
AcDbEntity
  8
0
100
AcDbBlockBegin
  2
*Model_Space
 70
0
 10
0.0
 20
0.0
 30
0.0
  3
*Model_Space
  1

  0
ENDBLK
  5
21
100
AcDbEntity
  8
0
100
AcDbBlockEnd
  0
BLOCK
  5
1C
100
AcDbEntity
  8
0
100
AcDbBlockBegin
  2
*Paper_Space
 70
0
 10
0.0
 20
0.0
 30
0.0
  3
*Paper_Space
  1

  0
ENDBLK
  5
1D
100
AcDbEntity
  8
0
100
AcDbBlockEnd
  0
BLOCK
  5
212
100
AcDbEntity
  8
0
100
AcDbBlockBegin
  2
_FILLED
 70
64
 10
0.0
 20
0.0
  3
_FILLED
  1

  0
SOLID
  5
213
100
AcDbEntity
  8
0
  6
BYBLOCK
 62
0
100
AcDbTrace
 10
0.0
 20
0.0
 11
-1.0
 21
0.2
 12
-1.0
 22
-0.2
 13
-1.0
 23
-0.2
  0
ENDBLK
  5
214
100
AcDbEntity
  8
0
  6
BYBLOCK
 62
0
100
AcDbBlockEnd
  0
ENDSEC
  0
SECTION
  2
ENTITIES
  0
MTEXT
  5
215
100
AcDbEntity
  8
0
100
AcDbMText
 62
2
  6
CONTINUOUS
  7
STANDARD
 71
3
 72
1
 10
5.2784959373
 20
2.4868781368
 30
0.0
 11
1.0
 21
0.0
 31
0.0
 73
2
 44
0.9
  1
SCALE 0.312
 40
0.08
 41
0.704
  0
LINE
  5
216
100
AcDbEntity
  8
0
100
AcDbLine
 62
7
  6
CONTINUOUS
 10
0.0
 20
0.0
 11
0.0
 21
8.5
  0
LINE
  5
217
100
AcDbEntity
  8
0
100
AcDbLine
 62
7
  6
CONTINUOUS
 10
0.0
 20
0.0
 11
11.0
 21
0.0
  0
LINE
  5
218
100
AcDbEntity
  8
0
100
AcDbLine
 62
7
  6
CONTINUOUS
 10
0.0
 20
8.5
 11
11.0
 21
8.5
  0
LINE
  5
219
100
AcDbEntity
  8
0
100
AcDbLine
 62
7
  6
CONTINUOUS
 10
11.0
 20
0.0
 11
11.0
 21
8.5
  0
LINE
  5
21A
100
AcDbEntity
  8
0
100
AcDbLine
 62
7
  6
CONTINUOUS
 10
5.0055422773
 20
4.3286629548
 11
5.5515422773
 21
4.3286629548
  0
LINE
  5
21B
100
AcDbEntity
  8
0
100
AcDbLine
 62
7
  6
CONTINUOUS
 10
5.5515422773
 20
4.3307221548
 11
5.5671422773
 21
4.3307221548
  0
LINE
  5
21C
100
AcDbEntity
  8
0
100
AcDbLine
 62
7
  6
CONTINUOUS
 10
5.5866968773
 20
4.3307221548
 11
5.5910320557
 21
4.3307221548
  0
LINE
  5
21D
100
AcDbEntity
  8
0
100
AcDbLine
 62
7
  6
CONTINUOUS
 10
5.6126864773
 20
4.3307221548
 11
5.6170216557
 21
4.3307221548
  0
LINE
  5
21E
100
AcDbEntity
  8
0
100
AcDbLine
 62
7
  6
CONTINUOUS
 10
5.6386760773
 20
4.3307221548
 11
5.6430112557
 21
4.3307221548
  0
LINE
  5
21F
100
AcDbEntity
  8
0
100
AcDbLine
 62
7
  6
CONTINUOUS
 10
5.6646656773
 20
4.3307221548
 11
5.6654222773
 21
4.3307221548
  0
LINE
  5
220
100
AcDbEntity
  8
0
100
AcDbLine
 62
7
  6
CONTINUOUS
 10
5.5671422773
 20
4.3466653548
 11
5.5827422773
 21
4.3466653548
  0
LINE
  5
221
100
AcDbEntity
  8
0
100
AcDbLine
 62
7
  6
CONTINUOUS
 10
5.6002368665
 20
4.3466653548
 11
5.6033980083
 21
4.3466653548
  0
LINE
  5
222
100
AcDbEntity
  8
0
100
AcDbLine
 62
7
  6
CONTINUOUS
 10
5.6262264665
 20
4.3466653548
 11
5.6293876083
 21
4.3466653548
  0
LINE
  5
223
100
AcDbEntity
  8
0
100
AcDbLine
 62
7
  6
CONTINUOUS
 10
5.6522160665
 20
4.3466653548
 11
5.6553772083
 21
4.3466653548
  0
LINE
  5
224
100
AcDbEntity
  8
0
100
AcDbLine
 62
7
  6
CONTINUOUS
 10
5.6646656773
 20
4.3307221548
 11
5.6645121532
 21
4.3308550342
  0
LINE
  5
225
100
AcDbEntity
  8
0
100
AcDbLine
 62
7
  6
CONTINUOUS
 10
5.6654222773
 20
4.7006605548
 11
5.6652945247
 21
4.7006605548
  0
LINE
  5
226
100
AcDbEntity
  8
0
100
AcDbLine
 62
7
  6
CONTINUOUS
 10
5.6424660665
 20
4.7006605548
 11
5.6393049247
 21
4.7006605548
  0
LINE
  5
227
100
AcDbEntity
  8
0
100
AcDbLine
 62
7
  6
CONTINUOUS
 10
5.6164764665
 20
4.7006605548
 11
5.6133153247
 21
4.7006605548
  0
LINE
  5
228
100
AcDbEntity
  8
0
100
AcDbLine
 62
7
  6
CONTINUOUS
 10
5.5904868665
 20
4.7006605548
 11
5.5873257247
 21
4.7006605548
  0
LINE
  5
229
100
AcDbEntity
  8
0
100
AcDbLine
 62
7
  6
CONTINUOUS
 10
5.5671422773
 20
4.7006605548
 11
5.5827422773
 21
4.7006605548
  0
LINE
  5
22A
100
AcDbEntity
  8
0
100
AcDbLine
 62
7
  6
CONTINUOUS
 10
5.5995381532
 20
4.7164708754
 11
5.5904241483
 21
4.7006967946
  0
LINE
  5
22B
100
AcDbEntity
  8
0
100
AcDbLine
 62
7
  6
CONTINUOUS
 10
5.5520476557
 20
4.7166037548
 11
5.5671422773
 21
4.7166037548
  0
LINE
  5
22C
100
AcDbEntity
  8
0
100
AcDbLine
 62
7
  6
CONTINUOUS
 10
5.5996916773
 20
4.7166037548
 11
5.6040268557
 21
4.7166037548
  0
LINE
  5
22D
100
AcDbEntity
  8
0
100
AcDbLine
 62
7
  6
CONTINUOUS
 10
5.6256812773
 20
4.7166037548
 11
5.6300164557
 21
4.7166037548
  0
LINE
  5
22E
100
AcDbEntity
  8
0
100
AcDbLine
 62
7
  6
CONTINUOUS
 10
5.6516708773
 20
4.7166037548
 11
5.6560060557
 21
4.7166037548
  0
LINE
  5
22F
100
AcDbEntity
  8
0
100
AcDbLine
 62
7
  6
CONTINUOUS
 10
5.0055422773
 20
4.7186629548
 11
5.5515422773
 21
4.7186629548
  0
LINE
  5
230
100
AcDbEntity
  8
0
100
AcDbLine
 62
7
  6
CONTINUOUS
 10
5.5827422773
 20
4.3374339969
 11
5.5865433532
 21
4.3308550342
  0
LINE
  5
231
100
AcDbEntity
  8
0
100
AcDbLine
 62
7
  6
CONTINUOUS
 10
5.6255277532
 20
4.7164708754
 11
5.6164137483
 21
4.7006967946
  0
LINE
  5
232
100
AcDbEntity
  8
0
100
AcDbLine
 62
7
  6
CONTINUOUS
 10
5.6033143281
 20
4.3468101753
 11
5.6125329532
 21
4.3308550342
  0
LINE
  5
233
100
AcDbEntity
  8
0
100
AcDbLine
 62
7
  6
CONTINUOUS
 10
5.6293039281
 20
4.3468101753
 11
5.6385225532
 21
4.3308550342
  0
LINE
  5
234
100
AcDbEntity
  8
0
100
AcDbLine
 62
7
  6
CONTINUOUS
 10
5.5125422773
 20
4.7186629548
 11
5.5125422773
 21
4.3286629548
  0
LINE
  5
235
100
AcDbEntity
  8
0
100
AcDbLine
 62
7
  6
CONTINUOUS
 10
5.6515173532
 20
4.7164708754
 11
5.6424033483
 21
4.7006967946
  0
LINE
  5
236
100
AcDbEntity
  8
0
100
AcDbLine
 62
7
  6
CONTINUOUS
 10
5.6552935281
 20
4.3468101753
 11
5.6645121532
 21
4.3308550342
  0
LINE
  5
237
100
AcDbEntity
  8
0
100
AcDbLine
 62
7
  6
CONTINUOUS
 10
5.5515422773
 20
4.7186327538
 11
5.5515422773
 21
4.3286931559
  0
LINE
  5
238
100
AcDbEntity
  8
0
100
AcDbLine
 62
7
  6
CONTINUOUS
 10
5.5671422773
 20
4.7166021302
 11
5.5671422773
 21
4.3307233684
  0
LINE
  5
239
100
AcDbEntity
  8
0
100
AcDbLine
 62
7
  6
CONTINUOUS
 10
5.5827422773
 20
4.3374345164
 11
5.5827422773
 21
4.7086018092
  0
LINE
  5
23A
100
AcDbEntity
  8
0
100
AcDbLine
 62
7
  6
CONTINUOUS
 10
5.5911855797
 20
4.3308550342
 11
5.6002995846
 21
4.346629115
  0
LINE
  5
23B
100
AcDbEntity
  8
0
100
AcDbLine
 62
7
  6
CONTINUOUS
 10
5.5874094049
 20
4.7005157344
 11
5.5827422773
 21
4.7085931105
  0
LINE
  5
23C
100
AcDbEntity
  8
0
100
AcDbLine
 62
7
  6
CONTINUOUS
 10
5.6654222773
 20
4.3307221876
 11
5.6654222773
 21
4.7006666437
  0
LINE
  5
23D
100
AcDbEntity
  8
0
100
AcDbLine
 62
7
  6
CONTINUOUS
 10
5.6171751797
 20
4.3308550342
 11
5.6262891846
 21
4.346629115
  0
LINE
  5
23E
100
AcDbEntity
  8
0
100
AcDbLine
 62
7
  6
CONTINUOUS
 10
5.6431647797
 20
4.3308550342
 11
5.6522787846
 21
4.346629115
  0
LINE
  5
23F
100
AcDbEntity
  8
0
100
AcDbLine
 62
7
  6
CONTINUOUS
 10
5.6133990049
 20
4.7005157344
 11
5.6041803797
 21
4.7164708754
  0
LINE
  5
240
100
AcDbEntity
  8
0
100
AcDbLine
 62
7
  6
CONTINUOUS
 10
5.6393886049
 20
4.7005157344
 11
5.6301699797
 21
4.7164708754
  0
LINE
  5
241
100
AcDbEntity
  8
0
100
AcDbLine
 62
7
  6
CONTINUOUS
 10
5.6653782049
 20
4.7005157344
 11
5.6561595797
 21
4.7164708754
  0
LINE
  5
242
100
AcDbEntity
  8
0
100
AcDbLine
 62
7
  6
CONTINUOUS
 10
5.6654222773
 20
4.7004294241
 11
5.6653782049
 21
4.7005157344
  0
ARC
  5
243
100
AcDbEntity
  8
0
100
AcDbCircle
 62
7
  6
CONTINUOUS
 10
5.0055422773
 20
4.5236629548
 40
0.195
100
AcDbArc
 50
90.0
 51
270.0
  0
LINE
  5
244
100
AcDbEntity
  8
0
100
AcDbLine
 62
7
  6
CONTINUOUS
 10
5.6171751796
 20
4.3308550888
 11
5.6170216556
 21
4.330722314
  0
LINE
  5
245
100
AcDbEntity
  8
0
100
AcDbLine
 62
7
  6
CONTINUOUS
 10
5.6041803796
 20
4.7164708036
 11
5.6040268556
 21
4.7166035897
  0
LINE
  5
246
100
AcDbEntity
  8
0
100
AcDbLine
 62
7
  6
CONTINUOUS
 10
5.5865433531
 20
4.3308550552
 11
5.5866968774
 21
4.3307222074
  0
LINE
  5
247
100
AcDbEntity
  8
0
100
AcDbLine
 62
7
  6
CONTINUOUS
 10
5.6125329534
 20
4.330855115
 11
5.6126864773
 21
4.3307223203
  0
LINE
  5
248
100
AcDbEntity
  8
0
100
AcDbLine
 62
7
  6
CONTINUOUS
 10
5.6385225534
 20
4.330855135
 11
5.6386760772
 21
4.330722314
  0
LINE
  5
249
100
AcDbEntity
  8
0
100
AcDbLine
 62
7
  6
CONTINUOUS
 10
5.5995381534
 20
4.7164707952
 11
5.5996916773
 21
4.7166035915
  0
LINE
  5
24A
100
AcDbEntity
  8
0
100
AcDbLine
 62
7
  6
CONTINUOUS
 10
5.6255277534
 20
4.7164707869
 11
5.6256812773
 21
4.7166035897
  0
LINE
  5
24B
100
AcDbEntity
  8
0
100
AcDbLine
 62
7
  6
CONTINUOUS
 10
5.6431647796
 20
4.3308551227
 11
5.6430112557
 21
4.3307223205
  0
LINE
  5
24C
100
AcDbEntity
  8
0
100
AcDbLine
 62
7
  6
CONTINUOUS
 10
5.6516708772
 20
4.7166035858
 11
5.6515173534
 21
4.7164707642
  0
LINE
  5
24D
100
AcDbEntity
  8
0
100
AcDbLine
 62
7
  6
CONTINUOUS
 10
5.6560060557
 20
4.7166035815
 11
5.6561595796
 21
4.7164707495
  0
LINE
  5
24E
100
AcDbEntity
  8
0
100
AcDbLine
 62
7
  6
CONTINUOUS
 10
5.6301699796
 20
4.7164707863
 11
5.6300164557
 21
4.7166035916
  0
LINE
  5
24F
100
AcDbEntity
  8
0
100
AcDbLine
 62
7
  6
CONTINUOUS
 10
5.5910320556
 20
4.330722327
 11
5.5911855796
 21
4.3308550831
  0
SPLINE
  5
250
100
AcDbEntity
  8
0
100
AcDbSpline
 62
7
  6
CONTINUOUS
 70
0
 71
3
 72
29
 73
25
 74
0
 42
0.0000001
 43
0.0000001
 44
0.0000000001
 40
0.0
 40
0.0
 40
0.0
 40
0.0
 40
0.2122766907
 40
0.3108193776
 40
0.4038282813
 40
0.491013765
 40
0.5720962638
 40
0.6468090075
 40
0.7148981865
 40
0.7761475535
 40
0.8303527277
 40
0.8773427631
 40
0.8980842023
 40
0.9169654449
 40
0.9339734365
 40
0.9490973065
 40
0.9623268902
 40
0.9736532182
 40
0.9830715249
 40
0.9905860197
 40
0.993633821
 40
0.9962131057
 40
0.9983307711
 40
1.0
 40
1.0
 40
1.0
 40
1.0
 10
5.5827422773
 20
4.4123848691
 30
0.0
 10
5.5828938905
 20
4.406607602
 30
0.0
 10
5.5831242752
 20
4.3981486349
 30
0.0
 10
5.5834481537
 20
4.3871591332
 30
0.0
 10
5.5836849032
 20
4.3795741752
 30
0.0
 10
5.5839215185
 20
4.3724648137
 30
0.0
 10
5.5841580038
 20
4.3658538571
 30
0.0
 10
5.5843942777
 20
4.3597631488
 30
0.0
 10
5.5846303356
 20
4.3542128324
 30
0.0
 10
5.5848659906
 20
4.3492213696
 30
0.0
 10
5.5851012216
 20
4.344805029
 30
0.0
 10
5.5853041124
 20
4.3414914371
 30
0.0
 10
5.5854687347
 20
4.3391391352
 30
0.0
 10
5.5855869131
 20
4.33760188
 30
0.0
 10
5.5857049472
 20
4.3362180482
 30
0.0
 10
5.5858227807
 20
4.3349886818
 30
0.0
 10
5.5859403454
 20
4.3339147749
 30
0.0
 10
5.5860574406
 20
4.3329971819
 30
0.0
 10
5.5861740327
 20
4.3322366399
 30
0.0
 10
5.5862759749
 20
4.3317020255
 30
0.0
 10
5.586360284
 20
4.3313542498
 30
0.0
 10
5.5864188279
 20
4.3311515712
 30
0.0
 10
5.5864770742
 20
4.3309882379
 30
0.0
 10
5.5865206255
 20
4.3308944087
 30
0.0
 10
5.5865433531
 20
4.3308550552
 30
0.0
  0
SPLINE
  5
251
100
AcDbEntity
  8
0
100
AcDbSpline
 62
7
  6
CONTINUOUS
 70
0
 71
3
 72
33
 73
29
 74
0
 42
0.0000001
 43
0.0000001
 44
0.0000000001
 40
0.0
 40
0.0
 40
0.0
 40
0.0
 40
0.1905439266
 40
0.2836211327
 40
0.3741017336
 40
0.4611490203
 40
0.5439640198
 40
0.6217890749
 40
0.6939087816
 40
0.7596626022
 40
0.8184478228
 40
0.8450551793
 40
0.8697247875
 40
0.8923995752
 40
0.9130270002
 40
0.9315625046
 40
0.9479628035
 40
0.9621913424
 40
0.9742192809
 40
0.9793995373
 40
0.9840202297
 40
0.9880801467
 40
0.991578644
 40
0.9945158348
 40
0.9968933103
 40
0.9987160063
 40
0.9994236298
 40
1.0
 40
1.0
 40
1.0
 40
1.0
 10
5.6321786773
 20
4.5236629548
 30
0.0
 10
5.6324413939
 20
4.5114085586
 30
0.0
 10
5.6328323512
 20
4.4931681122
 30
0.0
 10
5.6333625555
 20
4.4691089282
 30
0.0
 10
5.6337570094
 20
4.4517060506
 30
0.0
 10
5.6341513091
 20
4.4349634863
 30
0.0
 10
5.634545381
 20
4.4190352511
 30
0.0
 10
5.6349391399
 20
4.4040675714
 30
0.0
 10
5.6353324537
 20
4.3901977858
 30
0.0
 10
5.6357251908
 20
4.3775533031
 30
0.0
 10
5.6360618742
 20
4.3678362316
 30
0.0
 10
5.6363343831
 20
4.3607614456
 30
0.0
 10
5.6365317834
 20
4.3560084039
 30
0.0
 10
5.6367290161
 20
4.3516403867
 30
0.0
 10
5.6369260661
 20
4.3476673891
 30
0.0
 10
5.6371228187
 20
4.3440985441
 30
0.0
 10
5.6373191524
 20
4.3409419885
 30
0.0
 10
5.6375149935
 20
4.3382049405
 30
0.0
 10
5.6376846964
 20
4.3361897305
 30
0.0
 10
5.6378230604
 20
4.3347923403
 30
0.0
 10
5.6379214675
 20
4.3339061282
 30
0.0
 10
5.63801965
 20
4.3331288099
 30
0.0
 10
5.6381175561
 20
4.3324607468
 30
0.0
 10
5.63821492
 20
4.3319021017
 30
0.0
 10
5.638311717
 20
4.3314532271
 30
0.0
 10
5.6383967562
 20
4.3311486447
 30
0.0
 10
5.6384679865
 20
4.3309617986
 30
0.0
 10
5.6385039988
 20
4.3308872347
 30
0.0
 10
5.6385225534
 20
4.330855135
 30
0.0
  0
SPLINE
  5
252
100
AcDbEntity
  8
0
100
AcDbSpline
 62
7
  6
CONTINUOUS
 70
0
 71
3
 72
39
 73
35
 74
0
 42
0.0000001
 43
0.0000001
 44
0.0000000001
 40
0.0
 40
0.0
 40
0.0
 40
0.0
 40
0.0002732761
 40
0.0006194695
 40
0.001077936
 40
0.0016659032
 40
0.0023914318
 40
0.0032587502
 40
0.0042701896
 40
0.0054270479
 40
0.0081796623
 40
0.0115199085
 40
0.015448542
 40
0.0199652392
 40
0.0250689769
 40
0.0307572123
 40
0.0438732465
 40
0.0592845711
 40
0.0769580287
 40
0.0968497397
 40
0.1189133481
 40
0.1430975315
 40
0.1693424494
 40
0.197586998
 40
0.2277634394
 40
0.2936147068
 40
0.3662639058
 40
0.4450126073
 40
0.5291012587
 40
0.6177231958
 40
0.7100262992
 40
0.8051149408
 40
0.9020989366
 40
1.0
 40
1.0
 40
1.0
 40
1.0
 10
5.5996916773
 20
4.7166035915
 30
0.0
 10
5.5997092757
 20
4.7166035917
 30
0.0
 10
5.5997492012
 20
4.7165903936
 30
0.0
 10
5.5998002195
 20
4.7165417479
 30
0.0
 10
5.5998501629
 20
4.7164668407
 30
0.0
 10
5.5998999421
 20
4.716363889
 30
0.0
 10
5.5999499426
 20
4.7162325428
 30
0.0
 10
5.6000000906
 20
4.7160724264
 30
0.0
 10
5.6000503811
 20
4.7158834741
 30
0.0
 10
5.6001217577
 20
4.7155746765
 30
0.0
 10
5.6002088669
 20
4.7151158511
 30
0.0
 10
5.600308927
 20
4.7144782349
 30
0.0
 10
5.6004093213
 20
4.7137258844
 30
0.0
 10
5.6005099942
 20
4.7128591522
 30
0.0
 10
5.6006108385
 20
4.7118784561
 30
0.0
 10
5.600752272
 20
4.710345322
 30
0.0
 10
5.6009260096
 20
4.7081486887
 30
0.0
 10
5.6011267348
 20
4.7051801992
 30
0.0
 10
5.6013279094
 20
4.7017745342
 30
0.0
 10
5.6015295117
 20
4.6979398498
 30
0.0
 10
5.6017313701
 20
4.6936853841
 30
0.0
 10
5.6019334084
 20
4.6890213784
 30
0.0
 10
5.6021356145
 20
4.6839589994
 30
0.0
 10
5.6023379317
 20
4.6785104524
 30
0.0
 10
5.602615964
 20
4.6705124209
 30
0.0
 10
5.6029600953
 20
4.6596554315
 30
0.0
 10
5.603362701
 20
4.6456708502
 30
0.0
 10
5.6037657758
 20
4.6305113888
 30
0.0
 10
5.6041692283
 20
4.6143229918
 30
0.0
 10
5.6045729376
 20
4.5972614725
 30
0.0
 10
5.6049768234
 20
4.5794913935
 30
0.0
 10
5.6053808574
 20
4.5611826857
 30
0.0
 10
5.6057849529
 20
4.5425133977
 30
0.0
 10
5.6060539466
 20
4.529966117
 30
0.0
 10
5.6061890773
 20
4.5236629548
 30
0.0
  0
SPLINE
  5
253
100
AcDbEntity
  8
0
100
AcDbSpline
 62
7
  6
CONTINUOUS
 70
0
 71
3
 72
39
 73
35
 74
0
 42
0.0000001
 43
0.0000001
 44
0.0000000001
 40
0.0
 40
0.0
 40
0.0
 40
0.0
 40
0.0002732727
 40
0.0006194597
 40
0.0010779247
 40
0.0016659011
 40
0.0023914543
 40
0.0032588125
 40
0.0042702894
 40
0.0054271817
 40
0.0081798573
 40
0.0115201634
 40
0.0154488649
 40
0.019965648
 40
0.0250694952
 40
0.0307578545
 40
0.0438741501
 40
0.0592857063
 40
0.0769594308
 40
0.0968514382
 40
0.118915264
 40
0.1430996919
 40
0.1693447341
 40
0.1975890794
 40
0.2277651442
 40
0.293615274
 40
0.3662632913
 40
0.4450112934
 40
0.529099918
 40
0.6177221943
 40
0.710025537
 40
0.805114431
 40
0.90209887
 40
1.0
 40
1.0
 40
1.0
 40
1.0
 10
5.6256812773
 20
4.7166035897
 30
0.0
 10
5.6256988754
 20
4.7166035911
 30
0.0
 10
5.6257388013
 20
4.7165903956
 30
0.0
 10
5.6257898204
 20
4.7165417514
 30
0.0
 10
5.6258397642
 20
4.7164668443
 30
0.0
 10
5.6258895437
 20
4.7163638904
 30
0.0
 10
5.6259395446
 20
4.7162325392
 30
0.0
 10
5.6259896925
 20
4.716072416
 30
0.0
 10
5.6260399836
 20
4.7158834564
 30
0.0
 10
5.6261113609
 20
4.7155746502
 30
0.0
 10
5.6261984714
 20
4.7151158149
 30
0.0
 10
5.626298533
 20
4.7144781866
 30
0.0
 10
5.6263989287
 20
4.7137258223
 30
0.0
 10
5.6264996029
 20
4.7128590732
 30
0.0
 10
5.6266004482
 20
4.7118783565
 30
0.0
 10
5.626741883
 20
4.7103451906
 30
0.0
 10
5.6269156216
 20
4.7081485175
 30
0.0
 10
5.6271163489
 20
4.705179979
 30
0.0
 10
5.6273175246
 20
4.7017742628
 30
0.0
 10
5.6275191272
 20
4.697939528
 30
0.0
 10
5.6277209872
 20
4.6936850135
 30
0.0
 10
5.6279230253
 20
4.68902097
 30
0.0
 10
5.6281252301
 20
4.6839585803
 30
0.0
 10
5.6283275461
 20
4.6785100626
 30
0.0
 10
5.6286055732
 20
4.6705121415
 30
0.0
 10
5.6289496983
 20
4.6596553256
 30
0.0
 10
5.6293522984
 20
4.6456709385
 30
0.0
 10
5.6297553705
 20
4.6305115998
 30
0.0
 10
5.6301588225
 20
4.6143232277
 30
0.0
 10
5.630562533
 20
4.5972616727
 30
0.0
 10
5.6309664201
 20
4.5794915401
 30
0.0
 10
5.6313704555
 20
4.5611827721
 30
0.0
 10
5.6317745521
 20
4.5425134349
 30
0.0
 10
5.6320435465
 20
4.5299661213
 30
0.0
 10
5.6321786773
 20
4.5236629548
 30
0.0
  0
SPLINE
  5
254
100
AcDbEntity
  8
0
100
AcDbSpline
 62
7
  6
CONTINUOUS
 70
0
 71
3
 72
65
 73
61
 74
0
 42
0.0000001
 43
0.0000001
 44
0.0000000001
 40
0.0
 40
0.0
 40
0.0
 40
0.0
 40
0.0001461283
 40
0.0003253448
 40
0.0005568882
 40
0.0008498297
 40
0.0012085851
 40
0.0016355096
 40
0.0021319689
 40
0.0026988087
 40
0.0040455634
 40
0.005678361
 40
0.0075976454
 40
0.0098030462
 40
0.0122938485
 40
0.0150691365
 40
0.0214686126
 40
0.0289880214
 40
0.0376099036
 40
0.0473159468
 40
0.0580833325
 40
0.0698865166
 40
0.0826992639
 40
0.0964909911
 40
0.1112291148
 40
0.143406998
 40
0.1789309318
 40
0.2174683428
 40
0.2586586992
 40
0.3021152683
 40
0.3474305786
 40
0.3941800866
 40
0.4419250583
 40
0.4902177034
 40
0.5386052437
 40
0.5866336315
 40
0.6338525905
 40
0.6798193141
 40
0.7241023376
 40
0.7662868483
 40
0.8059774519
 40
0.8428014323
 40
0.8764143524
 40
0.9065018483
 40
0.9201335971
 40
0.9327817386
 40
0.9444161667
 40
0.955009404
 40
0.9645381241
 40
0.9729795989
 40
0.9803145661
 40
0.9865280669
 40
0.9916063257
 40
0.9937169154
 40
0.9955412958
 40
0.9970796125
 40
0.9983328065
 40
0.9993035536
 40
0.9996852055
 40
1.0
 40
1.0
 40
1.0
 40
1.0
 10
5.6262264663
 20
4.3466653931
 30
0.0
 10
5.6262092082
 20
4.3466654075
 30
0.0
 10
5.6261706439
 20
4.3466767599
 30
0.0
 10
5.6261198482
 20
4.3467201222
 30
0.0
 10
5.6260703367
 20
4.3467873449
 30
0.0
 10
5.6260210496
 20
4.3468795493
 30
0.0
 10
5.6259716316
 20
4.3469970842
 30
0.0
 10
5.625922087
 20
4.3471402555
 30
0.0
 10
5.6258724192
 20
4.3473091505
 30
0.0
 10
5.625801977
 20
4.3475849777
 30
0.0
 10
5.6257159673
 20
4.3479950614
 30
0.0
 10
5.6256171879
 20
4.3485651961
 30
0.0
 10
5.6255180824
 20
4.3492379684
 30
0.0
 10
5.6254187052
 20
4.3500129613
 30
0.0
 10
5.6253191478
 20
4.3508897548
 30
0.0
 10
5.6251795166
 20
4.3522604185
 30
0.0
 10
5.6250080229
 20
4.3542246652
 30
0.0
 10
5.6248099031
 20
4.3568794485
 30
0.0
 10
5.6246112732
 20
4.359925654
 30
0.0
 10
5.6244122809
 20
4.3633561419
 30
0.0
 10
5.6242130282
 20
4.3671629001
 30
0.0
 10
5.6240135606
 20
4.3713370112
 30
0.0
 10
5.6238139725
 20
4.3758686723
 30
0.0
 10
5.6236142575
 20
4.3807472623
 30
0.0
 10
5.6233397423
 20
4.3879117547
 30
0.0
 10
5.6229999988
 20
4.3976422265
 30
0.0
 10
5.6226025542
 20
4.4101830766
 30
0.0
 10
5.6222046385
 20
4.4237887989
 30
0.0
 10
5.6218063594
 20
4.4383317464
 30
0.0
 10
5.6214078215
 20
4.4536754572
 30
0.0
 10
5.6210090972
 20
4.4696759244
 30
0.0
 10
5.6206102498
 20
4.4861830116
 30
0.0
 10
5.6202113186
 20
4.5030418277
 30
0.0
 10
5.6198123437
 20
4.5200941518
 30
0.0
 10
5.6194133637
 20
4.5371799572
 30
0.0
 10
5.6190144093
 20
4.5541389234
 30
0.0
 10
5.6186155204
 20
4.5708119063
 30
0.0
 10
5.6182167417
 20
4.5870424255
 30
0.0
 10
5.6178181163
 20
4.6026781822
 30
0.0
 10
5.6174197177
 20
4.6175724679
 30
0.0
 10
5.617021633
 20
4.631585498
 30
0.0
 10
5.6166239949
 20
4.6445857802
 30
0.0
 10
5.61622693
 20
4.6564513525
 30
0.0
 10
5.6158866236
 20
4.6655781793
 30
0.0
 10
5.6156112021
 20
4.6722296251
 30
0.0
 10
5.6154116221
 20
4.6767029649
 30
0.0
 10
5.6152122065
 20
4.6808170717
 30
0.0
 10
5.615012967
 20
4.6845623052
 30
0.0
 10
5.6148140368
 20
4.6879298762
 30
0.0
 10
5.6146154798
 20
4.690911912
 30
0.0
 10
5.6144175299
 20
4.6935014909
 30
0.0
 10
5.6142203767
 20
4.6956925702
 30
0.0
 10
5.6140485736
 20
4.697266265
 30
0.0
 10
5.6139073072
 20
4.6983213975
 30
0.0
 10
5.6138082565
 20
4.698960221
 30
0.0
 10
5.6137097211
 20
4.6994965267
 30
0.0
 10
5.613611717
 20
4.6999299955
 30
0.0
 10
5.6135256689
 20
4.7002259643
 30
0.0
 10
5.6134538739
 20
4.7004094314
 30
0.0
 10
5.6134176128
 20
4.7004834646
 30
0.0
 10
5.6133990047
 20
4.7005156507
 30
0.0
  0
SPLINE
  5
255
100
AcDbEntity
  8
0
100
AcDbSpline
 62
7
  6
CONTINUOUS
 70
0
 71
3
 72
33
 73
29
 74
0
 42
0.0000001
 43
0.0000001
 44
0.0000000001
 40
0.0
 40
0.0
 40
0.0
 40
0.0
 40
0.1905440554
 40
0.2836211417
 40
0.3741016248
 40
0.4611489289
 40
0.5439639686
 40
0.6217890457
 40
0.6939087747
 40
0.7596626666
 40
0.8184479062
 40
0.8450552749
 40
0.8697248222
 40
0.8923996854
 40
0.9130270661
 40
0.9315624861
 40
0.9479628675
 40
0.9621913165
 40
0.9742191814
 40
0.9793995067
 40
0.9840202378
 40
0.9880801219
 40
0.9915785591
 40
0.9945157072
 40
0.9968932007
 40
0.9987159885
 40
0.9994236314
 40
1.0
 40
1.0
 40
1.0
 40
1.0
 10
5.6365138557
 20
4.5236629548
 30
0.0
 10
5.6362511388
 20
4.53591736
 30
0.0
 10
5.6358601815
 20
4.554157808
 30
0.0
 10
5.6353299774
 20
4.5782169864
 30
0.0
 10
5.6349355237
 20
4.5956198508
 30
0.0
 10
5.6345412241
 20
4.6123624121
 30
0.0
 10
5.6341471522
 20
4.6282906534
 30
0.0
 10
5.633753393
 20
4.6432583394
 30
0.0
 10
5.6333600787
 20
4.6571281332
 30
0.0
 10
5.6329673419
 20
4.6697726239
 30
0.0
 10
5.6326306578
 20
4.6794897025
 30
0.0
 10
5.6323581494
 20
4.686564487
 30
0.0
 10
5.6321607476
 20
4.6913175305
 30
0.0
 10
5.6319635164
 20
4.6956855461
 30
0.0
 10
5.6317664662
 20
4.6996585406
 30
0.0
 10
5.6315697119
 20
4.7032273827
 30
0.0
 10
5.6313733811
 20
4.7063839327
 30
0.0
 10
5.6311775393
 20
4.7091209756
 30
0.0
 10
5.6310078343
 20
4.7111361795
 30
0.0
 10
5.6308694727
 20
4.7125335721
 30
0.0
 10
5.6307710663
 20
4.7134197893
 30
0.0
 10
5.6306728835
 20
4.714197104
 30
0.0
 10
5.6305749768
 20
4.7148651582
 30
0.0
 10
5.6304776124
 20
4.7154237978
 30
0.0
 10
5.6303808132
 20
4.7158726762
 30
0.0
 10
5.6302957778
 20
4.7161772683
 30
0.0
 10
5.6302245473
 20
4.7163641219
 30
0.0
 10
5.6301885345
 20
4.7164386869
 30
0.0
 10
5.6301699796
 20
4.7164707863
 30
0.0
  0
SPLINE
  5
256
100
AcDbEntity
  8
0
100
AcDbSpline
 62
7
  6
CONTINUOUS
 70
0
 71
3
 72
40
 73
36
 74
0
 42
0.0000001
 43
0.0000001
 44
0.0000000001
 40
0.0
 40
0.0
 40
0.0
 40
0.0
 40
0.0002960546
 40
0.0006606777
 40
0.0011334221
 40
0.0017326932
 40
0.0024673586
 40
0.0033421025
 40
0.0043596115
 40
0.0055215255
 40
0.008282219
 40
0.0116292173
 40
0.0155643688
 40
0.0200869194
 40
0.0251948886
 40
0.0308858893
 40
0.0371572833
 40
0.0440062674
 40
0.0594224537
 40
0.0770970541
 40
0.0969893148
 40
0.1190544359
 40
0.1432373281
 40
0.1694809873
 40
0.197724162
 40
0.2278966843
 40
0.293739536
 40
0.3663767947
 40
0.4451120314
 40
0.5291876233
 40
0.6177951716
 40
0.7100800914
 40
0.8051501798
 40
0.902119054
 40
1.0
 40
1.0
 40
1.0
 40
1.0
 10
5.5774920666
 20
4.3466653628
 30
0.0
 10
5.5774745728
 20
4.3466653544
 30
0.0
 10
5.5774353864
 20
4.3466770298
 30
0.0
 10
5.5773839765
 20
4.3467215625
 30
0.0
 10
5.5773338512
 20
4.3467905431
 30
0.0
 10
5.5772839424
 20
4.3468851881
 30
0.0
 10
5.5772338891
 20
4.3470058407
 30
0.0
 10
5.5771837035
 20
4.3471528101
 30
0.0
 10
5.5771333903
 20
4.3473261738
 30
0.0
 10
5.5770620299
 20
4.3476092749
 30
0.0
 10
5.5769748998
 20
4.3480300757
 30
0.0
 10
5.5768748143
 20
4.3486150671
 30
0.0
 10
5.576774421
 20
4.3493054004
 30
0.0
 10
5.5766737514
 20
4.3501006772
 30
0.0
 10
5.5765729068
 20
4.3510004119
 30
0.0
 10
5.576471932
 20
4.3520040445
 30
0.0
 10
5.5763708552
 20
4.3531110108
 30
0.0
 10
5.5762303928
 20
4.3547913799
 30
0.0
 10
5.5760570542
 20
4.3571450887
 30
0.0
 10
5.5758558062
 20
4.3602693938
 30
0.0
 10
5.5756542123
 20
4.3637872811
 30
0.0
 10
5.5754523683
 20
4.3676902884
 30
0.0
 10
5.5752503079
 20
4.3719690412
 30
0.0
 10
5.5750481001
 20
4.3766132186
 30
0.0
 10
5.5748457912
 20
4.3816116267
 30
0.0
 10
5.5745677459
 20
4.3889487643
 30
0.0
 10
5.5742236355
 20
4.3989084781
 30
0.0
 10
5.5738210285
 20
4.411737361
 30
0.0
 10
5.5734179549
 20
4.4256440829
 30
0.0
 10
5.573014505
 20
4.4404948404
 30
0.0
 10
5.5726107957
 20
4.4561465156
 30
0.0
 10
5.5722069127
 20
4.4724480535
 30
0.0
 10
5.5718028813
 20
4.4892438021
 30
0.0
 10
5.5713987877
 20
4.5063703097
 30
0.0
 10
5.5711297939
 20
4.51788078
 30
0.0
 10
5.5709946665
 20
4.5236629548
 30
0.0
  0
SPLINE
  5
257
100
AcDbEntity
  8
0
100
AcDbSpline
 62
7
  6
CONTINUOUS
 70
0
 71
3
 72
14
 73
10
 74
0
 42
0.0000001
 43
0.0000001
 44
0.0000000001
 40
0.0
 40
0.0
 40
0.0
 40
0.0
 40
0.2875235288
 40
0.4264122192
 40
0.5595370728
 40
0.685090274
 40
0.8013723259
 40
0.9068224652
 40
1.0
 40
1.0
 40
1.0
 40
1.0
 10
5.5709946665
 20
4.5236629548
 30
0.0
 10
5.5706765253
 20
4.5372763854
 30
0.0
 10
5.5702049498
 20
4.5574658133
 30
0.0
 10
5.5695601654
 20
4.5839577111
 30
0.0
 10
5.5690824545
 20
4.602780462
 30
0.0
 10
5.5686052029
 20
4.6205322103
 30
0.0
 10
5.5681286683
 20
4.6369728
 30
0.0
 10
5.5676531144
 20
4.6518793998
 30
0.0
 10
5.5673149593
 20
4.6612803986
 30
0.0
 10
5.5671422773
 20
4.6656899175
 30
0.0
  0
SPLINE
  5
258
100
AcDbEntity
  8
0
100
AcDbSpline
 62
7
  6
CONTINUOUS
 70
0
 71
3
 72
33
 73
29
 74
0
 42
0.0000001
 43
0.0000001
 44
0.0000000001
 40
0.0
 40
0.0
 40
0.0
 40
0.0
 40
0.1905455428
 40
0.2836238925
 40
0.3741045248
 40
0.4611514995
 40
0.5439659771
 40
0.6217906219
 40
0.6939099727
 40
0.75966356
 40
0.8184484653
 40
0.8450557075
 40
0.8697250842
 40
0.89239998
 40
0.9130274101
 40
0.9315628855
 40
0.9479634533
 40
0.9621917978
 40
0.9742194833
 40
0.9793998214
 40
0.9840205602
 40
0.9880803656
 40
0.9915786851
 40
0.9945157234
 40
0.9968931621
 40
0.998715982
 40
0.9994236348
 40
1.0
 40
1.0
 40
1.0
 40
1.0
 10
5.6061890773
 20
4.5236629548
 30
0.0
 10
5.6064517962
 20
4.5114084535
 30
0.0
 10
5.6068427576
 20
4.4931678279
 30
0.0
 10
5.6073729656
 20
4.469108462
 30
0.0
 10
5.6077674218
 20
4.4517055272
 30
0.0
 10
5.6081617205
 20
4.434963013
 30
0.0
 10
5.6085557908
 20
4.4190348562
 30
0.0
 10
5.6089495486
 20
4.4040672579
 30
0.0
 10
5.6093428617
 20
4.3901975352
 30
0.0
 10
5.6097355964
 20
4.3775531095
 30
0.0
 10
5.6100722802
 20
4.3678360797
 30
0.0
 10
5.6103447864
 20
4.3607613355
 30
0.0
 10
5.6105421888
 20
4.3560083088
 30
0.0
 10
5.6107394193
 20
4.3516402987
 30
0.0
 10
5.6109364706
 20
4.3476672952
 30
0.0
 10
5.6111332282
 20
4.3440984345
 30
0.0
 10
5.6113295572
 20
4.3409418753
 30
0.0
 10
5.6115254005
 20
4.3382048387
 30
0.0
 10
5.6116951082
 20
4.3361896525
 30
0.0
 10
5.6118334675
 20
4.3347922698
 30
0.0
 10
5.6119318718
 20
4.3339060562
 30
0.0
 10
5.612030054
 20
4.3331287536
 30
0.0
 10
5.6121279601
 20
4.3324607192
 30
0.0
 10
5.6122253239
 20
4.3319020978
 30
0.0
 10
5.6123221241
 20
4.3314532284
 30
0.0
 10
5.6124071561
 20
4.3311486363
 30
0.0
 10
5.6124783856
 20
4.3309617797
 30
0.0
 10
5.6125143984
 20
4.3308872141
 30
0.0
 10
5.6125329534
 20
4.330855115
 30
0.0
  0
SPLINE
  5
259
100
AcDbEntity
  8
0
100
AcDbSpline
 62
7
  6
CONTINUOUS
 70
0
 71
3
 72
40
 73
36
 74
0
 42
0.0000001
 43
0.0000001
 44
0.0000000001
 40
0.0
 40
0.0
 40
0.0
 40
0.0
 40
0.0002960406
 40
0.000660445
 40
0.0011327705
 40
0.0017315549
 40
0.0024658195
 40
0.0033404001
 40
0.004358027
 40
0.0055202527
 40
0.0082817499
 40
0.0116291061
 40
0.0155635411
 40
0.020085006
 40
0.0251926782
 40
0.0308842217
 40
0.0371563008
 40
0.0440053998
 40
0.0594200026
 40
0.0770953749
 40
0.0969879608
 40
0.1190515264
 40
0.1432349681
 40
0.1694783204
 40
0.1977202964
 40
0.227893392
 40
0.2937356652
 40
0.3663736837
 40
0.4451098983
 40
0.5291853798
 40
0.6177927476
 40
0.7100791621
 40
0.8051498664
 40
0.9021162283
 40
1.0
 40
1.0
 40
1.0
 40
1.0
 10
5.5742472665
 20
4.346665516
 30
0.0
 10
5.5742297735
 20
4.346665516
 30
0.0
 10
5.5741906051
 20
4.3466771746
 30
0.0
 10
5.5741391837
 20
4.3467216331
 30
0.0
 10
5.574089052
 20
4.3467905293
 30
0.0
 10
5.5740391396
 20
4.3468850853
 30
0.0
 10
5.5739890851
 20
4.3470056709
 30
0.0
 10
5.5739389022
 20
4.3471526137
 30
0.0
 10
5.5738885939
 20
4.3473259952
 30
0.0
 10
5.573817238
 20
4.3476091724
 30
0.0
 10
5.5737301202
 20
4.3480300643
 30
0.0
 10
5.5736300414
 20
4.3486150829
 30
0.0
 10
5.5735296358
 20
4.3493053275
 30
0.0
 10
5.5734289549
 20
4.3501004776
 30
0.0
 10
5.5733281138
 20
4.3510001624
 30
0.0
 10
5.5732271468
 20
4.3520038505
 30
0.0
 10
5.5731260756
 20
4.3531108964
 30
0.0
 10
5.5729856188
 20
4.3547912185
 30
0.0
 10
5.5728122472
 20
4.3571448823
 30
0.0
 10
5.5726110255
 20
4.3602691587
 30
0.0
 10
5.5724094355
 20
4.3637870171
 30
0.0
 10
5.5722075694
 20
4.3676899809
 30
0.0
 10
5.5720055303
 20
4.3719686548
 30
0.0
 10
5.5718033221
 20
4.376612773
 30
0.0
 10
5.571601003
 20
4.3816111229
 30
0.0
 10
5.5713229748
 20
4.388948186
 30
0.0
 10
5.5709788467
 20
4.3989079385
 30
0.0
 10
5.5705762431
 20
4.4117368831
 30
0.0
 10
5.5701731676
 20
4.4256436936
 30
0.0
 10
5.5697697132
 20
4.4404944835
 30
0.0
 10
5.5693660023
 20
4.4561462214
 30
0.0
 10
5.5689621181
 20
4.4724478646
 30
0.0
 10
5.5685580863
 20
4.4892435803
 30
0.0
 10
5.5681539919
 20
4.5063701336
 30
0.0
 10
5.5678849978
 20
4.5178806162
 30
0.0
 10
5.5677498665
 20
4.5236629548
 30
0.0
  0
SPLINE
  5
25A
100
AcDbEntity
  8
0
100
AcDbSpline
 62
7
  6
CONTINUOUS
 70
0
 71
3
 72
38
 73
34
 74
0
 42
0.0000001
 43
0.0000001
 44
0.0000000001
 40
0.0
 40
0.0
 40
0.0
 40
0.0
 40
0.000536782
 40
0.0012458452
 40
0.0021324408
 40
0.0031989267
 40
0.004446341
 40
0.0058751421
 40
0.0092771883
 40
0.0134044399
 40
0.0182543075
 40
0.0238212693
 40
0.0300986878
 40
0.0370797193
 40
0.0447568758
 40
0.0621596731
 40
0.082223332
 40
0.1048505079
 40
0.1299312195
 40
0.1573429433
 40
0.1869521403
 40
0.2186138145
 40
0.2521735905
 40
0.2874669801
 40
0.3625573771
 40
0.4424176457
 40
0.5254869385
 40
0.6101415316
 40
0.6947266808
 40
0.7775888974
 40
0.8571088505
 40
0.9317315737
 40
1.0
 40
1.0
 40
1.0
 40
1.0
 10
5.6561595796
 20
4.7164707495
 30
0.0
 10
5.6561880672
 20
4.7164214659
 30
0.0
 10
5.6562416493
 20
4.7163000461
 30
0.0
 10
5.6563121995
 20
4.7160851112
 30
0.0
 10
5.6563832354
 20
4.7158117019
 30
0.0
 10
5.6564546314
 20
4.7154798384
 30
0.0
 10
5.6565262726
 20
4.7150893992
 30
0.0
 10
5.6566280177
 20
4.7144528527
 30
0.0
 10
5.6567521358
 20
4.7135108512
 30
0.0
 10
5.6568947467
 20
4.7122057791
 30
0.0
 10
5.6570378156
 20
4.7106700048
 30
0.0
 10
5.657181304
 20
4.7089054094
 30
0.0
 10
5.6573250482
 20
4.7069141721
 30
0.0
 10
5.6574689942
 20
4.7046986493
 30
0.0
 10
5.6576695569
 20
4.7013045517
 30
0.0
 10
5.6579166072
 20
4.6965234806
 30
0.0
 10
5.6582030232
 20
4.6901570822
 30
0.0
 10
5.658490024
 20
4.6829757547
 30
0.0
 10
5.658777487
 20
4.6750146449
 30
0.0
 10
5.6590652684
 20
4.6663126789
 30
0.0
 10
5.6593532834
 20
4.6569124724
 30
0.0
 10
5.6596414802
 20
4.6468599986
 30
0.0
 10
5.6599298166
 20
4.6362044992
 30
0.0
 10
5.6603225571
 20
4.6209446242
 30
0.0
 10
5.6608085248
 20
4.6007754671
 30
0.0
 10
5.6613811367
 20
4.5755404221
 30
0.0
 10
5.6619541826
 20
4.5492908741
 30
0.0
 10
5.66252745
 20
4.5225401516
 30
0.0
 10
5.6631007053
 20
4.4958113936
 30
0.0
 10
5.6636737318
 20
4.4696272753
 30
0.0
 10
5.6642462579
 20
4.4444998997
 30
0.0
 10
5.6648179761
 20
4.4209205713
 30
0.0
 10
5.665218455
 20
4.4057725224
 30
0.0
 10
5.6654222773
 20
4.3985356631
 30
0.0
  0
LINE
  5
25B
100
AcDbEntity
  8
0
100
AcDbLine
 62
7
  6
CONTINUOUS
 10
5.5677498665
 20
4.5236629548
 11
5.5671422773
 21
4.5495686234
  0
SPLINE
  5
25C
100
AcDbEntity
  8
0
100
AcDbSpline
 62
7
  6
CONTINUOUS
 70
0
 71
3
 72
33
 73
29
 74
0
 42
0.0000001
 43
0.0000001
 44
0.0000000001
 40
0.0
 40
0.0
 40
0.0
 40
0.0
 40
0.1905459605
 40
0.2836246731
 40
0.3741056935
 40
0.4611531962
 40
0.5439677505
 40
0.6217916203
 40
0.6939097752
 40
0.759662089
 40
0.8184461847
 40
0.8450533702
 40
0.8697229268
 40
0.8923980239
 40
0.9130257049
 40
0.9315614771
 40
0.9479622976
 40
0.9621909027
 40
0.9742188591
 40
0.9793993261
 40
0.9840201709
 40
0.9880800507
 40
0.991578428
 40
0.9945155228
 40
0.9968930309
 40
0.998715943
 40
0.9994236248
 40
1.0
 40
1.0
 40
1.0
 40
1.0
 10
5.6105242557
 20
4.5236629548
 30
0.0
 10
5.6102615362
 20
4.5359174835
 30
0.0
 10
5.6098705737
 20
4.5541581601
 30
0.0
 10
5.609340364
 20
4.5782176022
 30
0.0
 10
5.6089459057
 20
4.5956206199
 30
0.0
 10
5.608551605
 20
4.6123631987
 30
0.0
 10
5.6081575351
 20
4.6282913452
 30
0.0
 10
5.6077637794
 20
4.6432588223
 30
0.0
 10
5.6073704723
 20
4.6571283369
 30
0.0
 10
5.6069777446
 20
4.6697725524
 30
0.0
 10
5.6066410667
 20
4.679489445
 30
0.0
 10
5.6063685632
 20
4.6865641454
 30
0.0
 10
5.606171162
 20
4.6913171933
 30
0.0
 10
5.6059739309
 20
4.6956852442
 30
0.0
 10
5.6057768787
 20
4.699658296
 30
0.0
 10
5.6055801206
 20
4.7032272085
 30
0.0
 10
5.6053837899
 20
4.7063838199
 30
0.0
 10
5.6051879449
 20
4.709120907
 30
0.0
 10
5.6050182356
 20
4.7111361358
 30
0.0
 10
5.6048798748
 20
4.7125335511
 30
0.0
 10
5.6047814692
 20
4.7134197846
 30
0.0
 10
5.6046832854
 20
4.7141971026
 30
0.0
 10
5.6045853774
 20
4.714865149
 30
0.0
 10
5.6044880121
 20
4.7154237821
 30
0.0
 10
5.6043912095
 20
4.7158726653
 30
0.0
 10
5.6043061781
 20
4.7161772702
 30
0.0
 10
5.6042349483
 20
4.7163641358
 30
0.0
 10
5.6041989349
 20
4.7164387039
 30
0.0
 10
5.6041803796
 20
4.7164708036
 30
0.0
  0
SPLINE
  5
25D
100
AcDbEntity
  8
0
100
AcDbSpline
 62
7
  6
CONTINUOUS
 70
0
 71
3
 72
66
 73
62
 74
0
 42
0.0000001
 43
0.0000001
 44
0.0000000001
 40
0.0
 40
0.0
 40
0.0
 40
0.0
 40
0.0001460729
 40
0.0003251333
 40
0.0005564942
 40
0.0008493055
 40
0.0012080521
 40
0.0016351132
 40
0.0021318018
 40
0.0026988992
 40
0.0040459894
 40
0.0056785841
 40
0.0075973914
 40
0.0098024862
 40
0.0122935158
 40
0.0150693066
 40
0.0181282878
 40
0.0214688042
 40
0.0289875269
 40
0.0376101877
 40
0.0473160559
 40
0.0580828869
 40
0.0698868438
 40
0.0826992995
 40
0.0964906188
 40
0.1112294592
 40
0.1434067136
 40
0.1789308743
 40
0.2174686446
 40
0.2586585944
 40
0.3021152157
 40
0.3474307836
 40
0.394180108
 40
0.4419251065
 40
0.490217833
 40
0.5386052964
 40
0.5866338364
 40
0.6338527167
 40
0.6798193092
 40
0.7241026888
 40
0.7662870574
 40
0.8059773552
 40
0.8428018485
 40
0.8764147084
 40
0.9065017046
 40
0.9201340363
 40
0.9327821081
 40
0.9444160298
 40
0.9550099236
 40
0.9645384339
 40
0.9729794896
 40
0.9803151558
 40
0.9865283015
 40
0.9916062633
 40
0.9937172252
 40
0.9955419365
 40
0.997080222
 40
0.9983329656
 40
0.9993034055
 40
0.9996850886
 40
1.0
 40
1.0
 40
1.0
 40
1.0
 10
5.6522160666
 20
4.3466655262
 30
0.0
 10
5.652198815
 20
4.3466655181
 30
0.0
 10
5.6521602567
 20
4.3466767981
 30
0.0
 10
5.652109444
 20
4.3467200764
 30
0.0
 10
5.6520599285
 20
4.3467872289
 30
0.0
 10
5.6520106392
 20
4.3468793904
 30
0.0
 10
5.6519612234
 20
4.3469969265
 30
0.0
 10
5.6519116842
 20
4.3471401444
 30
0.0
 10
5.6518620198
 20
4.3473091171
 30
0.0
 10
5.6517915864
 20
4.3475850466
 30
0.0
 10
5.6517055872
 20
4.3479951788
 30
0.0
 10
5.6516067926
 20
4.3485652692
 30
0.0
 10
5.651507677
 20
4.3492379221
 30
0.0
 10
5.6514082916
 20
4.3500128477
 30
0.0
 10
5.6513087503
 20
4.3508896932
 30
0.0
 10
5.6512090822
 20
4.3518679448
 30
0.0
 10
5.6511093119
 20
4.3529469805
 30
0.0
 10
5.6509706596
 20
4.3545849135
 30
0.0
 10
5.6507995121
 20
4.3568794573
 30
0.0
 10
5.6506008797
 20
4.3599256445
 30
0.0
 10
5.6504018868
 20
4.3633561395
 30
0.0
 10
5.6502026122
 20
4.3671628998
 30
0.0
 10
5.6500031739
 20
4.3713370027
 30
0.0
 10
5.6498035723
 20
4.3758686704
 30
0.0
 10
5.6496038481
 20
4.3807472606
 30
0.0
 10
5.6493293588
 20
4.3879117141
 30
0.0
 10
5.6489895882
 20
4.3976422192
 30
0.0
 10
5.6485921556
 20
4.4101830611
 30
0.0
 10
5.6481942431
 20
4.4237888006
 30
0.0
 10
5.6477959566
 20
4.4383317443
 30
0.0
 10
5.6473974209
 20
4.4536754391
 30
0.0
 10
5.6469986999
 20
4.4696759166
 30
0.0
 10
5.6465998487
 20
4.4861830107
 30
0.0
 10
5.6462009186
 20
4.5030418129
 30
0.0
 10
5.6458019449
 20
4.5200941358
 30
0.0
 10
5.6454029626
 20
4.5371799546
 30
0.0
 10
5.6450040108
 20
4.5541389155
 30
0.0
 10
5.6446051212
 20
4.5708118867
 30
0.0
 10
5.6442063389
 20
4.5870424183
 30
0.0
 10
5.6438077193
 20
4.6026781803
 30
0.0
 10
5.6434093194
 20
4.6175724508
 30
0.0
 10
5.6430112277
 20
4.6315854842
 30
0.0
 10
5.6426135979
 20
4.6445857802
 30
0.0
 10
5.642216537
 20
4.6564513437
 30
0.0
 10
5.6418762111
 20
4.6655781696
 30
0.0
 10
5.6416008073
 20
4.6722296158
 30
0.0
 10
5.6414012288
 20
4.6767029553
 30
0.0
 10
5.6412017922
 20
4.6808170693
 30
0.0
 10
5.6410025772
 20
4.6845622959
 30
0.0
 10
5.6408036433
 20
4.6879298691
 30
0.0
 10
5.6406050593
 20
4.6909119103
 30
0.0
 10
5.6404071482
 20
4.6935014824
 30
0.0
 10
5.6402099826
 20
4.695692566
 30
0.0
 10
5.6400381513
 20
4.6972662235
 30
0.0
 10
5.6398969067
 20
4.6983214069
 30
0.0
 10
5.6397978655
 20
4.6989603119
 30
0.0
 10
5.63969934
 20
4.6994966014
 30
0.0
 10
5.6396013191
 20
4.6999299722
 30
0.0
 10
5.6395152519
 20
4.7002258445
 30
0.0
 10
5.6394434669
 20
4.7004092948
 30
0.0
 10
5.6394072105
 20
4.7004833491
 30
0.0
 10
5.6393886049
 20
4.7005155526
 30
0.0
  0
LINE
  5
25E
100
AcDbEntity
  8
0
100
AcDbLine
 62
7
  6
CONTINUOUS
 10
5.603314328
 20
4.3468103433
 11
5.6031723139
 21
4.3471602643
  0
SPLINE
  5
25F
100
AcDbEntity
  8
0
100
AcDbSpline
 62
7
  6
CONTINUOUS
 70
0
 71
3
 72
63
 73
59
 74
0
 42
0.0000001
 43
0.0000001
 44
0.0000000001
 40
0.0
 40
0.0
 40
0.0
 40
0.0
 40
0.0010751759
 40
0.0024283051
 40
0.0040615528
 40
0.0059752652
 40
0.0106421383
 40
0.0164229757
 40
0.0233077739
 40
0.0312807575
 40
0.0403248025
 40
0.0504205542
 40
0.0615440222
 40
0.073670471
 40
0.1008202989
 40
0.1316217404
 40
0.1657925753
 40
0.2030206197
 40
0.2429645271
 40
0.2852576563
 40
0.3295126835
 40
0.375323727
 40
0.4222703013
 40
0.4699220705
 40
0.5178418638
 40
0.5655900526
 40
0.6127288542
 40
0.6588255893
 40
0.7034576216
 40
0.7462158949
 40
0.7867077606
 40
0.824562229
 40
0.8594328443
 40
0.8909994742
 40
0.9054524358
 40
0.9189733732
 40
0.9315323424
 40
0.9430997821
 40
0.9536494928
 40
0.9631585043
 40
0.9716043635
 40
0.9789686996
 40
0.9822405902
 40
0.9852365153
 40
0.9879547218
 40
0.9903939079
 40
0.9925534149
 40
0.9944328234
 40
0.9960320561
 40
0.9973516704
 40
0.9979071917
 40
0.9983937456
 40
0.9988121948
 40
0.9991639363
 40
0.9994513507
 40
0.9996788592
 40
0.9998554572
 40
1.0
 40
1.0
 40
1.0
 40
1.0
 10
5.6031723139
 20
4.3471602643
 30
0.0
 10
5.6031344416
 20
4.3472813241
 30
0.0
 10
5.6030621578
 20
4.347558833
 30
0.0
 10
5.6029649505
 20
4.3480281168
 30
0.0
 10
5.6028672472
 20
4.3485979953
 30
0.0
 10
5.6027270542
 20
4.3495569017
 30
0.0
 10
5.602557134
 20
4.3510055735
 30
0.0
 10
5.6023624236
 20
4.3530411799
 30
0.0
 10
5.602166931
 20
4.3554682678
 30
0.0
 10
5.6019706829
 20
4.3582813201
 30
0.0
 10
5.6017740274
 20
4.3614739692
 30
0.0
 10
5.6015770923
 20
4.3650389065
 30
0.0
 10
5.601379904
 20
4.3689679811
 30
0.0
 10
5.6011063745
 20
4.374907686
 30
0.0
 10
5.6007691608
 20
4.383168384
 30
0.0
 10
5.6003770029
 20
4.3940295767
 30
0.0
 10
5.5999841192
 20
4.4060804317
 30
0.0
 10
5.5995906772
 20
4.4192103838
 30
0.0
 10
5.5991968578
 20
4.4332989625
 30
0.0
 10
5.5988027548
 20
4.4482168556
 30
0.0
 10
5.5984084577
 20
4.4638271571
 30
0.0
 10
5.5980140218
 20
4.4799866204
 30
0.0
 10
5.5976194891
 20
4.4965469329
 30
0.0
 10
5.5972249038
 20
4.5133560963
 30
0.0
 10
5.5968302982
 20
4.5302598566
 30
0.0
 10
5.5964357038
 20
4.5471030827
 30
0.0
 10
5.5960411593
 20
4.5637311724
 30
0.0
 10
5.595646697
 20
4.5799915257
 30
0.0
 10
5.595252362
 20
4.5957349267
 30
0.0
 10
5.5948582172
 20
4.610816875
 30
0.0
 10
5.5944643218
 20
4.6250989507
 30
0.0
 10
5.5940707909
 20
4.6384501049
 30
0.0
 10
5.593677739
 20
4.6507478132
 30
0.0
 10
5.5933416853
 20
4.6602850671
 30
0.0
 10
5.5930701862
 20
4.6673042093
 30
0.0
 10
5.5928726682
 20
4.6720820618
 30
0.0
 10
5.5926752878
 20
4.6765191853
 30
0.0
 10
5.5924780422
 20
4.6806054073
 30
0.0
 10
5.5922809707
 20
4.6843313594
 30
0.0
 10
5.5920841977
 20
4.6876884931
 30
0.0
 10
5.5918877397
 20
4.6906691267
 30
0.0
 10
5.5917184858
 20
4.6929140482
 30
0.0
 10
5.5915813716
 20
4.6945164796
 30
0.0
 10
5.5914827094
 20
4.6955720314
 30
0.0
 10
5.5913841425
 20
4.6965288852
 30
0.0
 10
5.5912856909
 20
4.6973865
 30
0.0
 10
5.5911874064
 20
4.6981444501
 30
0.0
 10
5.5910893901
 20
4.6988024174
 30
0.0
 10
5.5909916922
 20
4.6993600681
 30
0.0
 10
5.5909066479
 20
4.6997612138
 30
0.0
 10
5.590836994
 20
4.7000310386
 30
0.0
 10
5.5907878739
 20
4.700196246
 30
0.0
 10
5.5907388731
 20
4.7003362628
 30
0.0
 10
5.590689994
 20
4.7004511864
 30
0.0
 10
5.5906412343
 20
4.7005413249
 30
0.0
 10
5.5905922429
 20
4.7006070342
 30
0.0
 10
5.5905419603
 20
4.7006493649
 30
0.0
 10
5.5905039192
 20
4.7006603851
 30
0.0
 10
5.5904868666
 20
4.7006603935
 30
0.0
  0
SPLINE
  5
260
100
AcDbEntity
  8
0
100
AcDbSpline
 62
7
  6
CONTINUOUS
 70
0
 71
3
 72
63
 73
59
 74
0
 42
0.0000001
 43
0.0000001
 44
0.0000000001
 40
0.0
 40
0.0
 40
0.0
 40
0.0
 40
0.0001441812
 40
0.0003202556
 40
0.00054706
 40
0.000833534
 40
0.0011840356
 40
0.0016008816
 40
0.0020854049
 40
0.002638421
 40
0.0039517475
 40
0.005543366
 40
0.0074142836
 40
0.0095644764
 40
0.0119930789
 40
0.0146989918
 40
0.0176809898
 40
0.020937765
 40
0.0282695634
 40
0.0366780041
 40
0.0461440866
 40
0.0566479166
 40
0.0681650207
 40
0.0806690236
 40
0.0941327169
 40
0.1085246379
 40
0.1399605625
 40
0.1746907804
 40
0.2123994265
 40
0.2527418337
 40
0.2953500369
 40
0.3398357336
 40
0.3857924615
 40
0.43280083
 40
0.4804319829
 40
0.5282509002
 40
0.5758212573
 40
0.6227087796
 40
0.66848533
 40
0.7127334817
 40
0.7550491599
 40
0.7950459811
 40
0.8323597142
 40
0.866649738
 40
0.8976030407
 40
0.9249387319
 40
0.9371706554
 40
0.9484082115
 40
0.9586248236
 40
0.9677984209
 40
0.9759088799
 40
0.9829371978
 40
0.9888695708
 40
0.993694638
 40
0.9956890402
 40
0.9974042054
 40
0.9988406941
 40
1.0
 40
1.0
 40
1.0
 40
1.0
 10
5.6002368666
 20
4.3466653872
 30
0.0
 10
5.6002198618
 20
4.3466653736
 30
0.0
 10
5.6001819189
 20
4.346676298
 30
0.0
 10
5.6001317497
 20
4.3467184443
 30
0.0
 10
5.6000828812
 20
4.3467838935
 30
0.0
 10
5.6000342419
 20
4.3468736741
 30
0.0
 10
5.5999854838
 20
4.3469881222
 30
0.0
 10
5.5999366035
 20
4.3471275237
 30
0.0
 10
5.5998876037
 20
4.347291956
 30
0.0
 10
5.5998181213
 20
4.3475604183
 30
0.0
 10
5.5997332732
 20
4.3479594988
 30
0.0
 10
5.599635803
 20
4.3485143323
 30
0.0
 10
5.5995380292
 20
4.3491690988
 30
0.0
 10
5.5994399973
 20
4.3499234693
 30
0.0
 10
5.5993417942
 20
4.3507770246
 30
0.0
 10
5.5992434645
 20
4.3517292427
 30
0.0
 10
5.5991450356
 20
4.3527795934
 30
0.0
 10
5.5990082399
 20
4.3543742681
 30
0.0
 10
5.5988394235
 20
4.3566084691
 30
0.0
 10
5.5986434508
 20
4.3595748744
 30
0.0
 10
5.5984471271
 20
4.3629160891
 30
0.0
 10
5.598250562
 20
4.3666244891
 30
0.0
 10
5.5980537992
 20
4.3706916279
 30
0.0
 10
5.5978568798
 20
4.3751082198
 30
0.0
 10
5.5976598643
 20
4.3798641755
 30
0.0
 10
5.5973890107
 20
4.3868518004
 30
0.0
 10
5.5970537746
 20
4.3963469592
 30
0.0
 10
5.5966616672
 20
4.4085917277
 30
0.0
 10
5.5962691044
 20
4.4218874088
 30
0.0
 10
5.5958761671
 20
4.4361125859
 30
0.0
 10
5.5954829748
 20
4.4511373305
 30
0.0
 10
5.5950896032
 20
4.4668244411
 30
0.0
 10
5.5946960993
 20
4.4830306623
 30
0.0
 10
5.5943025096
 20
4.4996079639
 30
0.0
 10
5.5939088749
 20
4.5164049525
 30
0.0
 10
5.5935152236
 20
4.5332682399
 30
0.0
 10
5.5931215922
 20
4.5500437998
 30
0.0
 10
5.5927280143
 20
4.5665784166
 30
0.0
 10
5.5923345238
 20
4.5827211005
 30
0.0
 10
5.5919411729
 20
4.5983244185
 30
0.0
 10
5.5915480151
 20
4.6132458534
 30
0.0
 10
5.5911551218
 20
4.6273491504
 30
0.0
 10
5.5907626011
 20
4.6405055197
 30
0.0
 10
5.5903706334
 20
4.652594803
 30
0.0
 10
5.5899793447
 20
4.6635066166
 30
0.0
 10
5.58964303
 20
4.6718171273
 30
0.0
 10
5.5893703052
 20
4.6778029105
 30
0.0
 10
5.5891735929
 20
4.6817710006
 30
0.0
 10
5.5889770735
 20
4.6853779181
 30
0.0
 10
5.5887808436
 20
4.688615442
 30
0.0
 10
5.5885850288
 20
4.691476192
 30
0.0
 10
5.5883898409
 20
4.6939537233
 30
0.0
 10
5.5881954295
 20
4.696042419
 30
0.0
 10
5.58802596
 20
4.6975370153
 30
0.0
 10
5.5878863909
 20
4.6985339258
 30
0.0
 10
5.5877887757
 20
4.6991330338
 30
0.0
 10
5.5876916102
 20
4.6996321719
 30
0.0
 10
5.5876198178
 20
4.6999300114
 30
0.0
 10
5.5875824314
 20
4.7000615297
 30
0.0
  0
LINE
  5
261
100
AcDbEntity
  8
0
100
AcDbLine
 62
7
  6
CONTINUOUS
 10
5.5875824314
 20
4.7000615297
 11
5.5874094049
 21
4.700515731
  0
LINE
  5
262
100
AcDbEntity
  8
0
100
AcDbLine
 62
7
  6
CONTINUOUS
 10
5.629303928
 20
4.3468103509
 11
5.6291916999
 21
4.347069608
  0
SPLINE
  5
263
100
AcDbEntity
  8
0
100
AcDbSpline
 62
7
  6
CONTINUOUS
 70
0
 71
3
 72
64
 73
60
 74
0
 42
0.0000001
 43
0.0000001
 44
0.0000000001
 40
0.0
 40
0.0
 40
0.0
 40
0.0
 40
0.0009947992
 40
0.0022677459
 40
0.0038216576
 40
0.0056571957
 40
0.0077741662
 40
0.0101719921
 40
0.0158068123
 40
0.0225522681
 40
0.0303929227
 40
0.0393119599
 40
0.0492902179
 40
0.0603038827
 40
0.0723284116
 40
0.0992983259
 40
0.1299522558
 40
0.1640079964
 40
0.2011529426
 40
0.2410449922
 40
0.2833162232
 40
0.3275776672
 40
0.3734215425
 40
0.4204250541
 40
0.4681553049
 40
0.5161723853
 40
0.5640336711
 40
0.6112982937
 40
0.6575304092
 40
0.7023040762
 40
0.7452070604
 40
0.7858435933
 40
0.8238394544
 40
0.8588453391
 40
0.8905384877
 40
0.9050504425
 40
0.9186273814
 40
0.931238916
 40
0.9428550917
 40
0.9534498085
 40
0.9629996519
 40
0.9714818643
 40
0.9788782585
 40
0.9821644342
 40
0.9851734003
 40
0.9879033774
 40
0.9903531979
 40
0.9925221789
 40
0.9944098446
 40
0.9960160614
 40
0.9973413318
 40
0.9978991719
 40
0.998387746
 40
0.9988079253
 40
0.9991611009
 40
0.9994496482
 40
0.9996779873
 40
0.9998551279
 40
1.0
 40
1.0
 40
1.0
 40
1.0
 10
5.6291916999
 20
4.347069608
 30
0.0
 10
5.6291533023
 20
4.3471805454
 30
0.0
 10
5.6290805361
 20
4.3474384614
 30
0.0
 10
5.6289833141
 20
4.3478789281
 30
0.0
 10
5.6288855477
 20
4.3484204951
 30
0.0
 10
5.6287873463
 20
4.3490628818
 30
0.0
 10
5.6286888712
 20
4.3498058168
 30
0.0
 10
5.628549728
 20
4.3509954808
 30
0.0
 10
5.6283795201
 20
4.3527312283
 30
0.0
 10
5.6281835696
 20
4.35510946
 30
0.0
 10
5.6279869859
 20
4.3578763361
 30
0.0
 10
5.627789912
 20
4.3610255032
 30
0.0
 10
5.6275925596
 20
4.3645497444
 30
0.0
 10
5.6273949357
 20
4.3684409595
 30
0.0
 10
5.6271206225
 20
4.3743359679
 30
0.0
 10
5.6267825508
 20
4.3825481549
 30
0.0
 10
5.6263895484
 20
4.3933599948
 30
0.0
 10
5.6259957973
 20
4.4053732569
 30
0.0
 10
5.6256014701
 20
4.4184772046
 30
0.0
 10
5.625206756
 20
4.4325510426
 30
0.0
 10
5.6248117505
 20
4.4474649875
 30
0.0
 10
5.6244165453
 20
4.4630815257
 30
0.0
 10
5.6240211981
 20
4.4792566803
 30
0.0
 10
5.6236257512
 20
4.4958412991
 30
0.0
 10
5.6232302494
 20
4.5126824442
 30
0.0
 10
5.6228347261
 20
4.529624841
 30
0.0
 10
5.6224392127
 20
4.546512275
 30
0.0
 10
5.6220437482
 20
4.5631890113
 30
0.0
 10
5.6216483659
 20
4.5795012808
 30
0.0
 10
5.62125311
 20
4.5952986888
 30
0.0
 10
5.620858044
 20
4.6104355625
 30
0.0
 10
5.6204632291
 20
4.6247723203
 30
0.0
 10
5.6200687781
 20
4.638176792
 30
0.0
 10
5.6196748052
 20
4.6505253928
 30
0.0
 10
5.6193379774
 20
4.6601030723
 30
0.0
 10
5.6190658458
 20
4.6671526072
 30
0.0
 10
5.6188678657
 20
4.6719515212
 30
0.0
 10
5.6186700242
 20
4.6764084044
 30
0.0
 10
5.6184723119
 20
4.6805129937
 30
0.0
 10
5.6182747804
 20
4.6842558318
 30
0.0
 10
5.6180775482
 20
4.6876282911
 30
0.0
 10
5.6178806234
 20
4.6906226205
 30
0.0
 10
5.6177109766
 20
4.6928779076
 30
0.0
 10
5.6175735421
 20
4.6944877803
 30
0.0
 10
5.6174746492
 20
4.6955482314
 30
0.0
 10
5.6173758477
 20
4.6965095267
 30
0.0
 10
5.6172771652
 20
4.6973711359
 30
0.0
 10
5.6171786509
 20
4.6981326394
 30
0.0
 10
5.6170804061
 20
4.6987937027
 30
0.0
 10
5.6169824808
 20
4.6993539721
 30
0.0
 10
5.6168972387
 20
4.6997569935
 30
0.0
 10
5.6168274166
 20
4.7000280707
 30
0.0
 10
5.6167781811
 20
4.7001940394
 30
0.0
 10
5.6167290661
 20
4.7003347068
 30
0.0
 10
5.6166800739
 20
4.7004501697
 30
0.0
 10
5.6166312034
 20
4.7005407359
 30
0.0
 10
5.6165821027
 20
4.70060676
 30
0.0
 10
5.6165317126
 20
4.7006493067
 30
0.0
 10
5.6164935627
 20
4.7006603994
 30
0.0
 10
5.6164764666
 20
4.7006604113
 30
0.0
  0
SPLINE
  5
264
100
AcDbEntity
  8
0
100
AcDbSpline
 62
7
  6
CONTINUOUS
 70
0
 71
3
 72
39
 73
35
 74
0
 42
0.0000001
 43
0.0000001
 44
0.0000000001
 40
0.0
 40
0.0
 40
0.0
 40
0.0
 40
0.0002732947
 40
0.0006195252
 40
0.0010780224
 40
0.0016659949
 40
0.0023914885
 40
0.0032587239
 40
0.0042701073
 40
0.005426965
 40
0.0081796951
 40
0.011520128
 40
0.0154489147
 40
0.0199656266
 40
0.0250692298
 40
0.0307574964
 40
0.0438738401
 40
0.0592851145
 40
0.0769583778
 40
0.0968501621
 40
0.1189136301
 40
0.143097935
 40
0.1693431241
 40
0.1975876889
 40
0.227764395
 40
0.2936160032
 40
0.3662657659
 40
0.4450149552
 40
0.5291041096
 40
0.6177262527
 40
0.7100291621
 40
0.8051165958
 40
0.9020988912
 40
1.0
 40
1.0
 40
1.0
 40
1.0
 10
5.6170216556
 20
4.330722314
 30
0.0
 10
5.6170040561
 20
4.3307223178
 30
0.0
 10
5.6169641306
 20
4.3307355264
 30
0.0
 10
5.6169131139
 20
4.3307841806
 30
0.0
 10
5.6168631703
 20
4.3308590932
 30
0.0
 10
5.6168133907
 20
4.3309620446
 30
0.0
 10
5.6167633897
 20
4.3310933828
 30
0.0
 10
5.6167132386
 20
4.3312534865
 30
0.0
 10
5.6166629477
 20
4.3314424294
 30
0.0
 10
5.6165915701
 20
4.3317512307
 30
0.0
 10
5.6165044612
 20
4.332210076
 30
0.0
 10
5.6164044015
 20
4.3328477219
 30
0.0
 10
5.6163040072
 20
4.3336000954
 30
0.0
 10
5.6162033334
 20
4.3344668296
 30
0.0
 10
5.6161024848
 20
4.3354475195
 30
0.0
 10
5.6159610518
 20
4.3369806669
 30
0.0
 10
5.6157873189
 20
4.3391773193
 30
0.0
 10
5.6155865915
 20
4.3421458127
 30
0.0
 10
5.6153854162
 20
4.3455514665
 30
0.0
 10
5.6151838193
 20
4.3493861342
 30
0.0
 10
5.6149819583
 20
4.3536406031
 30
0.0
 10
5.6147799205
 20
4.3583046249
 30
0.0
 10
5.6145777152
 20
4.3633670301
 30
0.0
 10
5.6143753943
 20
4.3688156123
 30
0.0
 10
5.6140973634
 20
4.3768136837
 30
0.0
 10
5.6137532284
 20
4.3876707479
 30
0.0
 10
5.6133506225
 20
4.4016554184
 30
0.0
 10
5.6129475455
 20
4.4168149793
 30
0.0
 10
5.6125440915
 20
4.4330034527
 30
0.0
 10
5.612140382
 20
4.4500650046
 30
0.0
 10
5.6117364989
 20
4.467835006
 30
0.0
 10
5.6113324691
 20
4.4861435133
 30
0.0
 10
5.6109283779
 20
4.5048126163
 30
0.0
 10
5.6106593865
 20
4.51735979
 30
0.0
 10
5.6105242557
 20
4.5236629548
 30
0.0
  0
SPLINE
  5
265
100
AcDbEntity
  8
0
100
AcDbSpline
 62
7
  6
CONTINUOUS
 70
0
 71
3
 72
39
 73
35
 74
0
 42
0.0000001
 43
0.0000001
 44
0.0000000001
 40
0.0
 40
0.0
 40
0.0
 40
0.0
 40
0.000273273
 40
0.0006194604
 40
0.0010779254
 40
0.001665901
 40
0.0023914523
 40
0.003258808
 40
0.0042702836
 40
0.0054271757
 40
0.0081798533
 40
0.0115201628
 40
0.0154488669
 40
0.0199656494
 40
0.0250694937
 40
0.0307578538
 40
0.0438741561
 40
0.0592857134
 40
0.0769594415
 40
0.0968514576
 40
0.1189152816
 40
0.1430997122
 40
0.1693447706
 40
0.197589149
 40
0.2277652682
 40
0.2936154035
 40
0.3662633142
 40
0.4450112568
 40
0.5290998738
 40
0.6177221555
 40
0.7100255034
 40
0.8051144059
 40
0.9020988562
 40
1.0
 40
1.0
 40
1.0
 40
1.0
 10
5.6430112557
 20
4.3307223205
 30
0.0
 10
5.6429936575
 20
4.3307223192
 30
0.0
 10
5.6429537316
 20
4.3307355149
 30
0.0
 10
5.6429027126
 20
4.3307841592
 30
0.0
 10
5.6428527688
 20
4.3308590662
 30
0.0
 10
5.6428029892
 20
4.3309620199
 30
0.0
 10
5.6427529883
 20
4.3310933707
 30
0.0
 10
5.6427028404
 20
4.3312534936
 30
0.0
 10
5.6426525492
 20
4.3314424529
 30
0.0
 10
5.642581172
 20
4.3317512591
 30
0.0
 10
5.6424940615
 20
4.3322100947
 30
0.0
 10
5.6423939999
 20
4.3328477236
 30
0.0
 10
5.6422936042
 20
4.3336000881
 30
0.0
 10
5.64219293
 20
4.3344668372
 30
0.0
 10
5.6420920846
 20
4.3354475537
 30
0.0
 10
5.6419506498
 20
4.3369807199
 30
0.0
 10
5.6417769113
 20
4.3391773936
 30
0.0
 10
5.6415761839
 20
4.3421459328
 30
0.0
 10
5.6413750082
 20
4.3455516498
 30
0.0
 10
5.6411734056
 20
4.3493863853
 30
0.0
 10
5.6409715455
 20
4.3536409004
 30
0.0
 10
5.6407695074
 20
4.358304945
 30
0.0
 10
5.6405673025
 20
4.3633673381
 30
0.0
 10
5.6403649862
 20
4.3688158624
 30
0.0
 10
5.6400869591
 20
4.3768137894
 30
0.0
 10
5.639742834
 20
4.3876706023
 30
0.0
 10
5.6393402343
 20
4.401654979
 30
0.0
 10
5.6389371625
 20
4.4168143065
 30
0.0
 10
5.6385337107
 20
4.4330026746
 30
0.0
 10
5.6381300002
 20
4.4500642297
 30
0.0
 10
5.637726113
 20
4.4678343634
 30
0.0
 10
5.6373220776
 20
4.486143133
 30
0.0
 10
5.6369179809
 20
4.5048124723
 30
0.0
 10
5.6366489865
 20
4.5173597875
 30
0.0
 10
5.6365138557
 20
4.5236629548
 30
0.0
  0
SPLINE
  5
266
100
AcDbEntity
  8
0
100
AcDbSpline
 62
7
  6
CONTINUOUS
 70
0
 71
3
 72
9
 73
5
 74
0
 42
0.0000001
 43
0.0000001
 44
0.0000000001
 40
0.0
 40
0.0
 40
0.0
 40
0.0
 40
0.2381582326
 40
1.0
 40
1.0
 40
1.0
 40
1.0
 10
5.6645121529
 20
4.3308550358
 30
0.0
 10
5.6645098477
 20
4.3308590256
 30
0.0
 10
5.664500332
 20
4.3308758729
 30
0.0
 10
5.6644914382
 20
4.330893068
 30
0.0
 10
5.6644849432
 20
4.3309063001
 30
0.0
  0
SPLINE
  5
267
100
AcDbEntity
  8
0
100
AcDbSpline
 62
7
  6
CONTINUOUS
 70
0
 71
3
 72
65
 73
61
 74
0
 42
0.0000001
 43
0.0000001
 44
0.0000000001
 40
0.0
 40
0.0
 40
0.0
 40
0.0
 40
0.0003273808
 40
0.0007229012
 40
0.0017234706
 40
0.0030079828
 40
0.0045782929
 40
0.0064348365
 40
0.0085774319
 40
0.013718463
 40
0.0199931525
 40
0.0273871128
 40
0.0358847118
 40
0.0454668185
 40
0.0561104507
 40
0.0677920156
 40
0.0804840593
 40
0.0941564282
 40
0.1243148108
 40
0.1579849228
 40
0.1948521777
 40
0.2345723413
 40
0.2767734444
 40
0.3210604112
 40
0.3670191104
 40
0.414219376
 40
0.4622191918
 40
0.510569443
 40
0.5588175305
 40
0.6065117153
 40
0.6532057734
 40
0.6984625798
 40
0.7418583026
 40
0.7829872159
 40
0.8214645851
 40
0.8569299171
 40
0.8890519378
 40
0.9037644614
 40
0.9175310004
 40
0.9303194849
 40
0.9421009204
 40
0.9528468702
 40
0.9625329892
 40
0.971137481
 40
0.9786395879
 40
0.9850236036
 40
0.987792122
 40
0.9902761591
 40
0.9924744652
 40
0.9943865696
 40
0.9960123903
 40
0.9973523839
 40
0.9979156762
 40
0.9984082841
 40
0.9988308623
 40
0.999184546
 40
0.9994714313
 40
0.9996955219
 40
0.9998653152
 40
1.0
 40
1.0
 40
1.0
 40
1.0
 10
5.6644849432
 20
4.3309063001
 30
0.0
 10
5.664466377
 20
4.330944125
 30
0.0
 10
5.6644302281
 20
4.331030019
 30
0.0
 10
5.6643586505
 20
4.3312400737
 30
0.0
 10
5.6642727229
 20
4.3315746351
 30
0.0
 10
5.6641747652
 20
4.3320611542
 30
0.0
 10
5.664076286
 20
4.3326595991
 30
0.0
 10
5.6639773072
 20
4.3333695963
 30
0.0
 10
5.6638362948
 20
4.3345375619
 30
0.0
 10
5.6636646661
 20
4.3362743072
 30
0.0
 10
5.663467666
 20
4.3386872561
 30
0.0
 10
5.6632698843
 20
4.3415333769
 30
0.0
 10
5.6630715018
 20
4.3448060117
 30
0.0
 10
5.6628727611
 20
4.3484975532
 30
0.0
 10
5.6626737159
 20
4.3525994019
 30
0.0
 10
5.6624744957
 20
4.3571019356
 30
0.0
 10
5.6622751155
 20
4.3619946273
 30
0.0
 10
5.6620000336
 20
4.3692642538
 30
0.0
 10
5.6616601079
 20
4.3792333168
 30
0.0
 10
5.6612634345
 20
4.3921874053
 30
0.0
 10
5.6608661925
 20
4.406372659
 30
0.0
 10
5.6604685075
 20
4.4216562846
 30
0.0
 10
5.6600705159
 20
4.4378951656
 30
0.0
 10
5.6596722985
 20
4.4549372057
 30
0.0
 10
5.659273927
 20
4.4726228324
 30
0.0
 10
5.6588754504
 20
4.4907864399
 30
0.0
 10
5.6584769076
 20
4.5092579253
 30
0.0
 10
5.6580783389
 20
4.5278643021
 30
0.0
 10
5.6576797785
 20
4.5464313335
 30
0.0
 10
5.6572812596
 20
4.5647851545
 30
0.0
 10
5.6568828243
 20
4.5827538896
 30
0.0
 10
5.6564845176
 20
4.6001692505
 30
0.0
 10
5.6560863919
 20
4.6168681547
 30
0.0
 10
5.655688522
 20
4.6326942518
 30
0.0
 10
5.6552910269
 20
4.6474993298
 30
0.0
 10
5.6548939996
 20
4.6611447307
 30
0.0
 10
5.6545545869
 20
4.6717318015
 30
0.0
 10
5.6542803705
 20
4.6795267067
 30
0.0
 10
5.6540808633
 20
4.684834344
 30
0.0
 10
5.6538814653
 20
4.6897644522
 30
0.0
 10
5.6536822323
 20
4.6943054575
 30
0.0
 10
5.6534831783
 20
4.6984467617
 30
0.0
 10
5.6532843755
 20
4.7021786686
 30
0.0
 10
5.6530859958
 20
4.705492446
 30
0.0
 10
5.6528880617
 20
4.7083803858
 30
0.0
 10
5.6527167334
 20
4.7105171651
 30
0.0
 10
5.6525772625
 20
4.7120083747
 30
0.0
 10
5.6524778213
 20
4.7129621984
 30
0.0
 10
5.6523785479
 20
4.7138051471
 30
0.0
 10
5.652279547
 20
4.7145368213
 30
0.0
 10
5.6521808742
 20
4.7151568944
 30
0.0
 10
5.652094973
 20
4.7156030728
 30
0.0
 10
5.6520245914
 20
4.7159033438
 30
0.0
 10
5.6519749963
 20
4.7160871012
 30
0.0
 10
5.6519255417
 20
4.7162428227
 30
0.0
 10
5.6518762289
 20
4.7163705711
 30
0.0
 10
5.6518271199
 20
4.7164707046
 30
0.0
 10
5.6517778416
 20
4.7165435743
 30
0.0
 10
5.6517274579
 20
4.7165908468
 30
0.0
 10
5.651688212
 20
4.7166035901
 30
0.0
 10
5.6516708772
 20
4.7166035858
 30
0.0
  0
SPLINE
  5
268
100
AcDbEntity
  8
0
100
AcDbSpline
 62
7
  6
CONTINUOUS
 70
0
 71
3
 72
40
 73
36
 74
0
 42
0.0000001
 43
0.0000001
 44
0.0000000001
 40
0.0
 40
0.0
 40
0.0
 40
0.0
 40
0.082110552
 40
0.1675678451
 40
0.2550243158
 40
0.3431168489
 40
0.4304628371
 40
0.5156954309
 40
0.5974795027
 40
0.6745345196
 40
0.7109082271
 40
0.7456540575
 40
0.7786358122
 40
0.8097249519
 40
0.8387987143
 40
0.865744911
 40
0.8904563358
 40
0.9128386473
 40
0.9328025865
 40
0.950272673
 40
0.9651801474
 40
0.9774697286
 40
0.9826186605
 40
0.987096861
 40
0.9909017187
 40
0.9925512562
 40
0.9940321092
 40
0.9953443923
 40
0.9964884497
 40
0.9974650135
 40
0.9982755932
 40
0.9989233488
 40
0.9991881227
 40
0.9994151601
 40
1.0
 40
1.0
 40
1.0
 40
1.0
 10
5.5827422773
 20
4.6046763625
 30
0.0
 10
5.5829195208
 20
4.597172968
 30
0.0
 10
5.5832706273
 20
4.5818600976
 30
0.0
 10
5.5837844544
 20
4.5585547262
 30
0.0
 10
5.5842984671
 20
4.5347024342
 30
0.0
 10
5.5848125357
 20
4.5106774641
 30
0.0
 10
5.5853265392
 20
4.4868558172
 30
0.0
 10
5.5858403342
 20
4.4636109397
 30
0.0
 10
5.5863537887
 20
4.4413069597
 30
0.0
 10
5.5867891102
 20
4.4234684246
 30
0.0
 10
5.5871403066
 20
4.4099287693
 30
0.0
 10
5.5873985521
 20
4.4004166739
 30
0.0
 10
5.5876567099
 20
4.3913878097
 30
0.0
 10
5.5879147445
 20
4.3828776324
 30
0.0
 10
5.5881726557
 20
4.3749194133
 30
0.0
 10
5.5884303517
 20
4.3675444826
 30
0.0
 10
5.5886878349
 20
4.3607815934
 30
0.0
 10
5.5889449316
 20
4.3546574195
 30
0.0
 10
5.5892016056
 20
4.3491957826
 30
0.0
 10
5.5894574694
 20
4.3444181925
 30
0.0
 10
5.5897124264
 20
4.340343211
 30
0.0
 10
5.5899342988
 20
4.3373947384
 30
0.0
 10
5.5901164019
 20
4.3353996405
 30
0.0
 10
5.5902445224
 20
4.334178524
 30
0.0
 10
5.5903554433
 20
4.3332773286
 30
0.0
 10
5.5904457058
 20
4.3326498353
 30
0.0
 10
5.5905100658
 20
4.3322488519
 30
0.0
 10
5.5905743071
 20
4.3318947183
 30
0.0
 10
5.5906384306
 20
4.3315874833
 30
0.0
 10
5.5907022679
 20
4.3313272443
 30
0.0
 10
5.5907660345
 20
4.3311137198
 30
0.0
 10
5.5908214917
 20
4.3309664915
 30
0.0
 10
5.5908679479
 20
4.3308723094
 30
0.0
 10
5.5909168206
 20
4.3307899561
 30
0.0
 10
5.5909785971
 20
4.3307223472
 30
0.0
 10
5.5910320556
 20
4.330722327
 30
0.0
  0
LINE
  5
269
100
AcDbEntity
  8
0
100
AcDbLine
 62
7
  6
CONTINUOUS
 10
5.6552935281
 20
4.3468103514
 11
5.6552085848
 21
4.3469945998
  0
SPLINE
  5
26A
100
AcDbEntity
  8
0
100
AcDbSpline
 62
7
  6
CONTINUOUS
 70
0
 71
3
 72
64
 73
60
 74
0
 42
0.0000001
 43
0.0000001
 44
0.0000000001
 40
0.0
 40
0.0
 40
0.0
 40
0.0
 40
0.0009213663
 40
0.0021207741
 40
0.0036018052
 40
0.0053654702
 40
0.0074117675
 40
0.0097402429
 40
0.0152406571
 40
0.0218578051
 40
0.0295765744
 40
0.0383804407
 40
0.0482504215
 40
0.0591628706
 40
0.0710934282
 40
0.0978973882
 40
0.1284151678
 40
0.1623645943
 40
0.1994326864
 40
0.2392766637
 40
0.2815274391
 40
0.3257945334
 40
0.3716684246
 40
0.4187241999
 40
0.4665266012
 40
0.5146331999
 40
0.5625986141
 40
0.6099791241
 40
0.6563359793
 40
0.7012401816
 40
0.7442765551
 40
0.7850464731
 40
0.8231727212
 40
0.8583033453
 40
0.890113188
 40
0.904679558
 40
0.9183081693
 40
0.9309681759
 40
0.9426293165
 40
0.953265568
 40
0.9628530553
 40
0.9713688206
 40
0.9787948058
 40
0.982094151
 40
0.9851151242
 40
0.9878559651
 40
0.9903156183
 40
0.9924933524
 40
0.994388637
 40
0.9960012841
 40
0.9973317428
 40
0.9978917247
 40
0.9983821765
 40
0.998803964
 40
0.9991584722
 40
0.9994480717
 40
0.9996771812
 40
0.999854824
 40
1.0
 40
1.0
 40
1.0
 40
1.0
 10
5.6552085848
 20
4.3469945998
 30
0.0
 10
5.6551696425
 20
4.3470961419
 30
0.0
 10
5.6550964146
 20
4.347336021
 30
0.0
 10
5.654999212
 20
4.3477499798
 30
0.0
 10
5.6549013931
 20
4.3482654868
 30
0.0
 10
5.6548030752
 20
4.3488822706
 30
0.0
 10
5.6547044536
 20
4.3496001244
 30
0.0
 10
5.6545648119
 20
4.3507573841
 30
0.0
 10
5.654394204
 20
4.3524541119
 30
0.0
 10
5.6541979509
 20
4.3547873074
 30
0.0
 10
5.6540010284
 20
4.3575115531
 30
0.0
 10
5.6538035858
 20
4.3606205682
 30
0.0
 10
5.6536058492
 20
4.364107203
 30
0.0
 10
5.6534078286
 20
4.3679634115
 30
0.0
 10
5.6531327941
 20
4.3738170441
 30
0.0
 10
5.6527939367
 20
4.3819842637
 30
0.0
 10
5.6524001626
 20
4.3927502758
 30
0.0
 10
5.6520056184
 20
4.4047285113
 30
0.0
 10
5.6516104811
 20
4.4178080834
 30
0.0
 10
5.6512149479
 20
4.4318679054
 30
0.0
 10
5.6508191162
 20
4.446777767
 30
0.0
 10
5.6504230793
 20
4.4623996013
 30
0.0
 10
5.6500268977
 20
4.4785887643
 30
0.0
 10
5.6496306135
 20
4.4951953355
 30
0.0
 10
5.6492342722
 20
4.5120655163
 30
0.0
 10
5.6488379084
 20
4.5290430949
 30
0.0
 10
5.6484415532
 20
4.5459708623
 30
0.0
 10
5.6480452459
 20
4.5626920431
 30
0.0
 10
5.647649021
 20
4.5790517929
 30
0.0
 10
5.6472529217
 20
4.5948986319
 30
0.0
 10
5.6468570119
 20
4.610085809
 30
0.0
 10
5.6464613546
 20
4.6244726731
 30
0.0
 10
5.6460660609
 20
4.6379260208
 30
0.0
 10
5.6456712442
 20
4.65032129
 30
0.0
 10
5.6453337076
 20
4.6599360473
 30
0.0
 10
5.6450609964
 20
4.6670134662
 30
0.0
 10
5.6448625936
 20
4.6718317049
 30
0.0
 10
5.644664329
 20
4.6763067203
 30
0.0
 10
5.6444661893
 20
4.6804281659
 30
0.0
 10
5.6442682372
 20
4.6841865011
 30
0.0
 10
5.6440705832
 20
4.6875730272
 30
0.0
 10
5.6438732314
 20
4.6905799283
 30
0.0
 10
5.643703225
 20
4.6928447324
 30
0.0
 10
5.6435654971
 20
4.6944614334
 30
0.0
 10
5.6434663921
 20
4.6955263782
 30
0.0
 10
5.6433673757
 20
4.6964917509
 30
0.0
 10
5.6432684823
 20
4.6973570313
 30
0.0
 10
5.6431697576
 20
4.6981218008
 30
0.0
 10
5.6430713034
 20
4.6987857063
 30
0.0
 10
5.6429731708
 20
4.6993483746
 30
0.0
 10
5.6428877453
 20
4.6997531124
 30
0.0
 10
5.6428177695
 20
4.7000253374
 30
0.0
 10
5.6427684289
 20
4.7001920084
 30
0.0
 10
5.6427192094
 20
4.7003332773
 30
0.0
 10
5.6426701136
 20
4.7004492388
 30
0.0
 10
5.6426211416
 20
4.7005402002
 30
0.0
 10
5.642571941
 20
4.7006065147
 30
0.0
 10
5.6425214525
 20
4.7006492605
 30
0.0
 10
5.6424832025
 20
4.7006604193
 30
0.0
 10
5.6424660666
 20
4.7006604337
 30
0.0
  0
ENDSEC
  0
SECTION
  2
OBJECTS
  0
DICTIONARY
  5
C
100
AcDbDictionary
280
0
281
1
  3
ACAD_GROUP
350
D
  3
ACAD_MLINESTYLE
350
17
  3
ACAD_LAYOUT
350
1A
  3
ACAD_PLOTSETTINGS
350
19
  3
ACAD_PLOTSTYLENAME
350
E
  0
DICTIONARY
  5
D
102
{ACAD_REACTORS
330
C
102
}
100
AcDbDictionary
280
0
281
1
  0
ACDBDICTIONARYWDFLT
  5
E
102
{ACAD_REACTORS
330
C
102
}
100
AcDbDictionary
281
1
  3
Normal
350
F
100
AcDbDictionaryWithDefault
340
F
  0
DICTIONARY
  5
17
102
{ACAD_REACTORS
330
C
102
}
100
AcDbDictionary
280
0
281
1
  3
Standard
350
18
  0
DICTIONARY
  5
19
102
{ACAD_REACTORS
330
C
102
}
100
AcDbDictionary
281
1
  0
DICTIONARY
  5
1A
102
{ACAD_REACTORS
330
C
102
}
100
AcDbDictionary
281
1
  3
Model
350
26B
  3
Layout1
350
26C
  0
ACDBPLACEHOLDER
  5
F
102
{ACAD_REACTORS
330
E
102
}
  0
MLINESTYLE
  5
18
102
{ACAD_REACTORS
330
17
102
}
100
AcDbMlineStyle
  2
STANDARD
 70
0
  3

 62
256
 51
90.0
 52
90.0
 71
2
 49
0.5
 62
256
  6
BYLAYER
 49
-0.5
 62
256
  6
BYLAYER
  0
LAYOUT
  5
26B
102
{ACAD_REACTORS
330
1A
102
}
100
AcDbPlotSettings
  1

  2
none_device
  4
ANSI_A_(11.00_x_8.50_Inches)
  6

 40
0.0
 41
0.0
 42
0.0
 43
0.0
 44
279.4
 45
215.9
 46
0.0
 47
0.0
 48
0.0
 49
0.0
140
0.0
141
0.0
142
1.0
143
1.0
 70
1024
 72
0
 73
0
 74
0
  7

 75
0
147
1.0
148
0.0
149
0.0
100
AcDbLayout
  1
Model
 70
0
 71
0
 10
0.0
 20
0.0
 11
11.0
 21
8.5
 12
0.0
 22
0.0
 32
0.0
 14
0.0
 24
0.0
 34
0.0
 15
0.0
 25
0.0
 35
0.0
146
0.0
 13
0.0
 23
0.0
 33
0.0
 16
1.0
 26
0.0
 36
0.0
 17
0.0
 27
1.0
 37
0.0
 76
0
330
20E
345
0
346
0
  0
LAYOUT
  5
26C
102
{ACAD_REACTORS
330
1A
102
}
100
AcDbPlotSettings
  1

  2
none_device
  4
ANSI_A_(11.00_x_8.50_Inches)
  6

 40
0.0
 41
0.0
 42
0.0
 43
0.0
 44
279.4
 45
215.9
 46
0.0
 47
0.0
 48
0.0
 49
0.0
140
0.0
141
0.0
142
1.0
143
1.0
 70
0
 72
0
 73
0
 74
0
  7

 75
0
147
1.0
148
0.0
149
0.0
100
AcDbLayout
  1
Layout1
 70
0
 71
1
 10
0.0
 20
0.0
 11
11.0
 21
8.5
 12
0.0
 22
0.0
 32
0.0
 14
0.0
 24
0.0
 34
0.0
 15
0.0
 25
0.0
 35
0.0
146
0.0
 13
0.0
 23
0.0
 33
0.0
 16
1.0
 26
0.0
 36
0.0
 17
0.0
 27
1.0
 37
0.0
 76
0
330
20F
345
0
346
0
  0
ENDSEC
  0
EOF
