999
DXF file: 5085_right.dxf
999
Pro/ENGINEER 2019352 by Parametric Technology Corporation
  0
SECTION
  2
HEADER
  9
$ACADVER
  1
AC1032
  9
$DWGCODEPAGE
  3
ANSI_1252
  9
$EXTMAX
 10
11.0
 20
8.5
 30
0.0
  9
$EXTMIN
 10
0.0
 20
0.0
 30
0.0
  9
$LIMMIN
 10
0.0
 20
0.0
  9
$LIMMAX
 10
11.0
 20
8.5
  9
$VIEWCTR
 10
5.5
 20
4.25
  9
$VIEWSIZE
 40
8.5
  9
$CLAYER
  8
0
  9
$LTSCALE
 40
0.605
  9
$CELTYPE
  6
BYLAYER
  9
$DIMSCALE
 40
1.0
  9
$DIMASZ
 40
0.1
  9
$DIMEXO
 40
0.0625
  9
$DIMDLI
 40
0.418
  9
$DIMEXE
 40
0.125
  9
$DIMCEN
 40
0.099
  9
$DIMLFAC
 40
1.0
  9
$DIMBLK
  1
_FILLED
  9
$DIMALT
 70
1
  9
$DIMALTD
 70
2
  9
$DIMALTTD
 70
2
  9
$DIMALTF
 40
25.4
  9
$DIMTXT
 40
0.08
  9
$DIMTOL
 70
1
  9
$DIMLIM
 70
0
  9
$DIMTFAC
 40
1.0
  9
$DIMTP
 40
0.001
  9
$DIMTM
 40
0.001
  9
$DIMGAP
 40
0.09
  9
$DIMDSEP
 70
46
  9
$AUNITS
 70
0
  9
$PDMODE
 70
3
  9
$PDSIZE
 40
0.3125
  9
$HANDSEED
  5
26D
  9
$TILEMODE
 70
1
  9
$MEASUREMENT
 70
0
  9
$INSUNITS
 70
1
  0
ENDSEC
  0
SECTION
  2
CLASSES
  0
CLASS
  1
ACDBDICTIONARYWDFLT
  2
AcDbDictionaryWithDefault
  3
AutoCAD 2000
 90
0
 91
1
280
0
281
0
  0
CLASS
  1
ACDBPLACEHOLDER
  2
AcDbPlaceHolder
  3
AutoCAD 2000
 90
0
 91
1
280
0
281
0
  0
CLASS
  1
LAYOUT
  2
AcDbLayout
  3
AutoCAD 2000
 90
0
 91
0
280
0
281
0
  0
ENDSEC
  0
SECTION
  2
TABLES
  0
TABLE
  2
VPORT
  5
8
100
AcDbSymbolTable
 70
2
  0
VPORT
  5
1F4
100
AcDbSymbolTableRecord
100
AcDbViewportTableRecord
  2
*ACTIVE
 70
0
 10
0.0
 20
0.0
 11
1.0
 21
1.0
 12
5.5
 22
4.25
 13
0.0
 23
0.0
 14
1.0
 24
1.0
 15
0.0
 25
0.0
 16
0.0
 26
0.0
 36
1.0
 17
0.0
 27
0.0
 37
0.0
 40
8.5
 41
1.2941176471
 42
50.0
 43
0.0
 44
0.0
 50
0.0
 51
0.0
 71
0
 72
100
 73
1
 74
1
 75
0
 76
0
 77
0
 78
0
  0
ENDTAB
  0
TABLE
  2
LTYPE
  5
5
100
AcDbSymbolTable
 70
6
  0
LTYPE
  5
14
100
AcDbSymbolTableRecord
100
AcDbLinetypeTableRecord
  2
BYBLOCK
 70
0
  3

 72
65
 73
0
 40
0.0
  0
LTYPE
  5
15
100
AcDbSymbolTableRecord
100
AcDbLinetypeTableRecord
  2
BYLAYER
 70
0
  3

 72
65
 73
0
 40
0.0
  0
LTYPE
  5
16
100
AcDbSymbolTableRecord
100
AcDbLinetypeTableRecord
  2
CONTINUOUS
 70
64
  3
Solid line
 72
65
 73
0
 40
0.0
  0
LTYPE
  5
1F5
100
AcDbSymbolTableRecord
100
AcDbLinetypeTableRecord
  2
CENTER
 70
64
  3
____ _ ____ _ ____ _ ____ _ ____ _ ____ _ ____
 72
65
 73
4
 40
0.6
 49
0.375
 74
0
 49
-0.075
 74
0
 49
0.075
 74
0
 49
-0.075
 74
0
  0
LTYPE
  5
1F6
100
AcDbSymbolTableRecord
100
AcDbLinetypeTableRecord
  2
HIDDEN
 70
64
  3
- - - - - - - - - - - - - - - - - - - -
 72
65
 73
2
 40
0.2
 49
0.1
 74
0
 49
-0.1
 74
0
  0
LTYPE
  5
1F7
100
AcDbSymbolTableRecord
100
AcDbLinetypeTableRecord
  2
PHANTOM
 70
64
  3
_____ _ _ _____ _ _ _____ _ _ _____
 72
65
 73
6
 40
0.8
 49
0.45
 74
0
 49
-0.05
 74
0
 49
0.1
 74
0
 49
-0.05
 74
0
 49
0.1
 74
0
 49
-0.05
 74
0
  0
LTYPE
  5
1F8
100
AcDbSymbolTableRecord
100
AcDbLinetypeTableRecord
  2
DOT
 70
64
  3
. . . . . . . . . . . . . . . . . . . .
 72
65
 73
2
 40
0.2
 49
0.1
 74
0
 49
-0.1
 74
0
  0
LTYPE
  5
1F9
100
AcDbSymbolTableRecord
100
AcDbLinetypeTableRecord
  2
DASHED
 70
64
  3
- - - - - - - - - - - - - - - - - - - -
 72
65
 73
2
 40
0.2
 49
0.1
 74
0
 49
-0.1
 74
0
  0
ENDTAB
  0
TABLE
  2
LAYER
  5
2
100
AcDbSymbolTable
 70
36
  0
LAYER
  5
10
100
AcDbSymbolTableRecord
100
AcDbLayerTableRecord
  2
0
 70
0
 62
7
  6
CONTINUOUS
370
-3
390
F
  0
LAYER
  5
1FA
100
AcDbSymbolTableRecord
100
AcDbLayerTableRecord
  2
DEFAULT_1
 70
0
 62
7
  6
CENTER
370
-3
390
F
  0
LAYER
  5
1FB
100
AcDbSymbolTableRecord
100
AcDbLayerTableRecord
  2
DEFAULT_2
 70
0
 62
8
  6
HIDDEN
370
-3
390
F
  0
LAYER
  5
1FC
100
AcDbSymbolTableRecord
100
AcDbLayerTableRecord
  2
DEFAULT_3
 70
0
 62
7
  6
PHANTOM
370
-3
390
F
  0
LAYER
  5
1FD
100
AcDbSymbolTableRecord
100
AcDbLayerTableRecord
  2
_  SHELL
 70
0
 62
7
  6
CONTINUOUS
370
-3
390
F
  0
LAYER
  5
1FE
100
AcDbSymbolTableRecord
100
AcDbLayerTableRecord
  2
06___PRT_ALL_SURFS
 70
0
 62
7
  6
CONTINUOUS
370
-3
390
F
  0
LAYER
  5
1FF
100
AcDbSymbolTableRecord
100
AcDbLayerTableRecord
  2
ALL_FEATURES
 70
0
 62
7
  6
CONTINUOUS
370
-3
390
F
  0
LAYER
  5
200
100
AcDbSymbolTableRecord
100
AcDbLayerTableRecord
  2
AXES_FEATURES
 70
0
 62
7
  6
CONTINUOUS
370
-3
390
F
  0
LAYER
  5
201
100
AcDbSymbolTableRecord
100
AcDbLayerTableRecord
  2
DEFAULT_COORDINATE_SYSTEM
 70
0
 62
7
  6
CONTINUOUS
370
-3
390
F
  0
LAYER
  5
202
100
AcDbSymbolTableRecord
100
AcDbLayerTableRecord
  2
DEFAULT_DATUM_AXES
 70
0
 62
7
  6
CONTINUOUS
370
-3
390
F
  0
LAYER
  5
203
100
AcDbSymbolTableRecord
100
AcDbLayerTableRecord
  2
DEFAULT_DATUM_CURVES
 70
0
 62
7
  6
CONTINUOUS
370
-3
390
F
  0
LAYER
  5
204
100
AcDbSymbolTableRecord
100
AcDbLayerTableRecord
  2
DEFAULT_DATUM_PLANES
 70
0
 62
7
  6
CONTINUOUS
370
-3
390
F
  0
LAYER
  5
205
100
AcDbSymbolTableRecord
100
AcDbLayerTableRecord
  2
DEFAULT_SURFACES
 70
0
 62
7
  6
CONTINUOUS
370
-3
390
F
  0
LAYER
  5
206
100
AcDbSymbolTableRecord
100
AcDbLayerTableRecord
  2
DIMENSIONS
 70
0
 62
7
  6
CONTINUOUS
370
-3
390
F
  0
LAYER
  5
207
100
AcDbSymbolTableRecord
100
AcDbLayerTableRecord
  2
INTF_BLANK
 70
0
 62
7
  6
CONTINUOUS
370
-3
390
F
  0
LAYER
  5
208
100
AcDbSymbolTableRecord
100
AcDbLayerTableRecord
  2
PLATED_SURFACE_AREA
 70
0
 62
7
  6
CONTINUOUS
370
-3
390
F
  0
LAYER
  5
209
100
AcDbSymbolTableRecord
100
AcDbLayerTableRecord
  2
SHELL
 70
0
 62
7
  6
CONTINUOUS
370
-3
390
F
  0
LAYER
  5
20A
100
AcDbSymbolTableRecord
100
AcDbLayerTableRecord
  2
XSEC_DATUMS
 70
0
 62
7
  6
CONTINUOUS
370
-3
390
F
  0
LAYER
  5
20B
100
AcDbSymbolTableRecord
100
AcDbLayerTableRecord
  2
___SHELL
 70
0
 62
7
  6
CONTINUOUS
370
-3
390
F
  0
ENDTAB
  0
TABLE
  2
STYLE
  5
3
100
AcDbSymbolTable
 70
1
  0
STYLE
  5
11
100
AcDbSymbolTableRecord
100
AcDbTextStyleTableRecord
  2
STANDARD
 70
0
 40
0.0
 41
0.8
 50
0.0
 71
0
 42
0.2
  3
txt
  4

  0
STYLE
  5
20C
100
AcDbSymbolTableRecord
100
AcDbTextStyleTableRecord
  2
TEXTSTYLE_1
 70
0
 40
0.0
 41
0.8
 50
0.0
 71
0
 42
0.2
  3
gdt
  4

  0
ENDTAB
  0
TABLE
  2
VIEW
  5
6
100
AcDbSymbolTable
 70
0
  0
ENDTAB
  0
TABLE
  2
UCS
  5
7
100
AcDbSymbolTable
 70
0
  0
ENDTAB
  0
TABLE
  2
APPID
  5
9
100
AcDbSymbolTable
 70
1
  0
APPID
  5
20D
100
AcDbSymbolTableRecord
100
AcDbRegAppTableRecord
  2
ACAD
 70
0
  0
ENDTAB
  0
TABLE
  2
BLOCK_RECORD
  5
1
100
AcDbSymbolTable
 70
0
  0
BLOCK_RECORD
  5
20E
100
AcDbSymbolTableRecord
100
AcDbBlockTableRecord
  2
*Model_Space
  0
BLOCK_RECORD
  5
20F
100
AcDbSymbolTableRecord
100
AcDbBlockTableRecord
  2
*Paper_Space
  0
BLOCK_RECORD
  5
210
100
AcDbSymbolTableRecord
100
AcDbBlockTableRecord
  2
_FILLED
  0
ENDTAB
  0
TABLE
  2
DIMSTYLE
  5
A
100
AcDbSymbolTable
 70
1
100
AcDbDimStyleTable
 71
0
  0
DIMSTYLE
105
211
100
AcDbSymbolTableRecord
100
AcDbDimStyleTableRecord
  2
STANDARD
 70
0
  3

  4

 40
1.0
 41
0.1
 42
0.0625
 43
0.38
 44
0.125
 45
0.0
 46
0.0
 47
0.001
 48
0.001
140
0.08
141
0.09
142
0.0
143
25.4
144
1.0
145
0.0
146
1.0
147
0.09
 71
1.0
 72
0.0
 73
1
 74
1
 75
0
 76
0
 77
0
 78
4
 79
1
170
1
171
2
172
0
173
0
174
0
175
0
176
0
177
0
178
0
270
2
179
3
271
3
272
3
273
2
274
2
275
0
280
0
281
0
282
0
283
1
284
4
285
0
286
0
287
3
288
0
340
11
278
46
341
210
342
210
343
210
344
210
  0
ENDTAB
  0
ENDSEC
  0
SECTION
  2
BLOCKS
  0
BLOCK
  5
20
100
AcDbEntity
  8
0
100
AcDbBlockBegin
  2
*Model_Space
 70
0
 10
0.0
 20
0.0
 30
0.0
  3
*Model_Space
  1

  0
ENDBLK
  5
21
100
AcDbEntity
  8
0
100
AcDbBlockEnd
  0
BLOCK
  5
1C
100
AcDbEntity
  8
0
100
AcDbBlockBegin
  2
*Paper_Space
 70
0
 10
0.0
 20
0.0
 30
0.0
  3
*Paper_Space
  1

  0
ENDBLK
  5
1D
100
AcDbEntity
  8
0
100
AcDbBlockEnd
  0
BLOCK
  5
212
100
AcDbEntity
  8
0
100
AcDbBlockBegin
  2
_FILLED
 70
64
 10
0.0
 20
0.0
  3
_FILLED
  1

  0
SOLID
  5
213
100
AcDbEntity
  8
0
  6
BYBLOCK
 62
0
100
AcDbTrace
 10
0.0
 20
0.0
 11
-1.0
 21
0.2
 12
-1.0
 22
-0.2
 13
-1.0
 23
-0.2
  0
ENDBLK
  5
214
100
AcDbEntity
  8
0
  6
BYBLOCK
 62
0
100
AcDbBlockEnd
  0
ENDSEC
  0
SECTION
  2
ENTITIES
  0
MTEXT
  5
215
100
AcDbEntity
  8
0
100
AcDbMText
 62
2
  6
CONTINUOUS
  7
STANDARD
 71
3
 72
1
 10
5.1994576611
 20
3.2801968319
 30
0.0
 11
1.0
 21
0.0
 31
0.0
 73
2
 44
0.9
  1
SCALE 0.250
 40
0.08
 41
0.704
  0
LINE
  5
216
100
AcDbEntity
  8
0
100
AcDbLine
 62
7
  6
CONTINUOUS
 10
0.0
 20
0.0
 11
0.0
 21
8.5
  0
LINE
  5
217
100
AcDbEntity
  8
0
100
AcDbLine
 62
7
  6
CONTINUOUS
 10
0.0
 20
0.0
 11
11.0
 21
0.0
  0
LINE
  5
218
100
AcDbEntity
  8
0
100
AcDbLine
 62
7
  6
CONTINUOUS
 10
0.0
 20
8.5
 11
11.0
 21
8.5
  0
LINE
  5
219
100
AcDbEntity
  8
0
100
AcDbLine
 62
7
  6
CONTINUOUS
 10
11.0
 20
0.0
 11
11.0
 21
8.5
  0
LINE
  5
21A
100
AcDbEntity
  8
0
100
AcDbLine
 62
7
  6
CONTINUOUS
 10
4.9935061167
 20
4.28589633
 11
5.4310061167
 21
4.28589633
  0
LINE
  5
21B
100
AcDbEntity
  8
0
100
AcDbLine
 62
7
  6
CONTINUOUS
 10
5.4310061167
 20
4.28754633
 11
5.4435061167
 21
4.28754633
  0
LINE
  5
21C
100
AcDbEntity
  8
0
100
AcDbLine
 62
7
  6
CONTINUOUS
 10
5.4591748667
 20
4.28754633
 11
5.4626485673
 21
4.28754633
  0
LINE
  5
21D
100
AcDbEntity
  8
0
100
AcDbLine
 62
7
  6
CONTINUOUS
 10
5.4799998667
 20
4.28754633
 11
5.4834735673
 21
4.28754633
  0
LINE
  5
21E
100
AcDbEntity
  8
0
100
AcDbLine
 62
7
  6
CONTINUOUS
 10
5.5008248667
 20
4.28754633
 11
5.5042985673
 21
4.28754633
  0
LINE
  5
21F
100
AcDbEntity
  8
0
100
AcDbLine
 62
7
  6
CONTINUOUS
 10
5.5216498667
 20
4.28754633
 11
5.5222561167
 21
4.28754633
  0
LINE
  5
220
100
AcDbEntity
  8
0
100
AcDbLine
 62
7
  6
CONTINUOUS
 10
5.4435061167
 20
4.30032133
 11
5.4560061167
 21
4.30032133
  0
LINE
  5
221
100
AcDbEntity
  8
0
100
AcDbLine
 62
7
  6
CONTINUOUS
 10
5.470024217
 20
4.30032133
 11
5.4725571832
 21
4.30032133
  0
LINE
  5
222
100
AcDbEntity
  8
0
100
AcDbLine
 62
7
  6
CONTINUOUS
 10
5.490849217
 20
4.30032133
 11
5.4933821832
 21
4.30032133
  0
LINE
  5
223
100
AcDbEntity
  8
0
100
AcDbLine
 62
7
  6
CONTINUOUS
 10
5.511674217
 20
4.30032133
 11
5.5142071832
 21
4.30032133
  0
LINE
  5
224
100
AcDbEntity
  8
0
100
AcDbLine
 62
7
  6
CONTINUOUS
 10
5.5216498667
 20
4.28754633
 11
5.5215268506
 21
4.2876528039
  0
LINE
  5
225
100
AcDbEntity
  8
0
100
AcDbLine
 62
7
  6
CONTINUOUS
 10
5.5222561167
 20
4.58397133
 11
5.5221537508
 21
4.58397133
  0
LINE
  5
226
100
AcDbEntity
  8
0
100
AcDbLine
 62
7
  6
CONTINUOUS
 10
5.503861717
 20
4.58397133
 11
5.5013287508
 21
4.58397133
  0
LINE
  5
227
100
AcDbEntity
  8
0
100
AcDbLine
 62
7
  6
CONTINUOUS
 10
5.483036717
 20
4.58397133
 11
5.4805037508
 21
4.58397133
  0
LINE
  5
228
100
AcDbEntity
  8
0
100
AcDbLine
 62
7
  6
CONTINUOUS
 10
5.462211717
 20
4.58397133
 11
5.4596787508
 21
4.58397133
  0
LINE
  5
229
100
AcDbEntity
  8
0
100
AcDbLine
 62
7
  6
CONTINUOUS
 10
5.4435061167
 20
4.58397133
 11
5.4560061167
 21
4.58397133
  0
LINE
  5
22A
100
AcDbEntity
  8
0
100
AcDbLine
 62
7
  6
CONTINUOUS
 10
5.4694643506
 20
4.5966398561
 11
5.4621614621
 21
4.5840003683
  0
LINE
  5
22B
100
AcDbEntity
  8
0
100
AcDbLine
 62
7
  6
CONTINUOUS
 10
5.4314110673
 20
4.59674633
 11
5.4435061167
 21
4.59674633
  0
LINE
  5
22C
100
AcDbEntity
  8
0
100
AcDbLine
 62
7
  6
CONTINUOUS
 10
5.4695873667
 20
4.59674633
 11
5.4730610673
 21
4.59674633
  0
LINE
  5
22D
100
AcDbEntity
  8
0
100
AcDbLine
 62
7
  6
CONTINUOUS
 10
5.4904123667
 20
4.59674633
 11
5.4938860673
 21
4.59674633
  0
LINE
  5
22E
100
AcDbEntity
  8
0
100
AcDbLine
 62
7
  6
CONTINUOUS
 10
5.5112373667
 20
4.59674633
 11
5.5147110673
 21
4.59674633
  0
LINE
  5
22F
100
AcDbEntity
  8
0
100
AcDbLine
 62
7
  6
CONTINUOUS
 10
4.9935061167
 20
4.59839633
 11
5.4310061167
 21
4.59839633
  0
LINE
  5
230
100
AcDbEntity
  8
0
100
AcDbLine
 62
7
  6
CONTINUOUS
 10
5.4560061167
 20
4.2929244086
 11
5.4590518506
 21
4.2876528039
  0
LINE
  5
231
100
AcDbEntity
  8
0
100
AcDbLine
 62
7
  6
CONTINUOUS
 10
5.4902893506
 20
4.5966398561
 11
5.4829864621
 21
4.5840003683
  0
LINE
  5
232
100
AcDbEntity
  8
0
100
AcDbLine
 62
7
  6
CONTINUOUS
 10
5.4724901317
 20
4.300437372
 11
5.4798768506
 21
4.2876528039
  0
LINE
  5
233
100
AcDbEntity
  8
0
100
AcDbLine
 62
7
  6
CONTINUOUS
 10
5.4933151317
 20
4.300437372
 11
5.5007018506
 21
4.2876528039
  0
LINE
  5
234
100
AcDbEntity
  8
0
100
AcDbLine
 62
7
  6
CONTINUOUS
 10
5.3997561167
 20
4.59839633
 11
5.3997561167
 21
4.28589633
  0
LINE
  5
235
100
AcDbEntity
  8
0
100
AcDbLine
 62
7
  6
CONTINUOUS
 10
5.5111143506
 20
4.5966398561
 11
5.5038114621
 21
4.5840003683
  0
LINE
  5
236
100
AcDbEntity
  8
0
100
AcDbLine
 62
7
  6
CONTINUOUS
 10
5.5141401317
 20
4.300437372
 11
5.5215268506
 21
4.2876528039
  0
LINE
  5
237
100
AcDbEntity
  8
0
100
AcDbLine
 62
7
  6
CONTINUOUS
 10
5.4310061167
 20
4.59839633
 11
5.4310061167
 21
4.28589633
  0
LINE
  5
238
100
AcDbEntity
  8
0
100
AcDbLine
 62
7
  6
CONTINUOUS
 10
5.4435061167
 20
4.5967450282
 11
5.4435061167
 21
4.2875473024
  0
LINE
  5
239
100
AcDbEntity
  8
0
100
AcDbLine
 62
7
  6
CONTINUOUS
 10
5.4560061167
 20
4.2929248248
 11
5.4560061167
 21
4.5903345146
  0
LINE
  5
23A
100
AcDbEntity
  8
0
100
AcDbLine
 62
7
  6
CONTINUOUS
 10
5.4627715834
 20
4.2876528039
 11
5.4700744719
 21
4.3002922917
  0
LINE
  5
23B
100
AcDbEntity
  8
0
100
AcDbLine
 62
7
  6
CONTINUOUS
 10
5.4597458023
 20
4.5838552879
 11
5.4560061167
 21
4.5903275444
  0
LINE
  5
23C
100
AcDbEntity
  8
0
100
AcDbLine
 62
7
  6
CONTINUOUS
 10
5.5222561167
 20
4.2875463562
 11
5.5222561167
 21
4.5839762089
  0
LINE
  5
23D
100
AcDbEntity
  8
0
100
AcDbLine
 62
7
  6
CONTINUOUS
 10
5.4835965834
 20
4.2876528039
 11
5.4908994719
 21
4.3002922917
  0
LINE
  5
23E
100
AcDbEntity
  8
0
100
AcDbLine
 62
7
  6
CONTINUOUS
 10
5.5044215834
 20
4.2876528039
 11
5.5117244719
 21
4.3002922917
  0
LINE
  5
23F
100
AcDbEntity
  8
0
100
AcDbLine
 62
7
  6
CONTINUOUS
 10
5.4805708023
 20
4.5838552879
 11
5.4731840834
 21
4.5966398561
  0
LINE
  5
240
100
AcDbEntity
  8
0
100
AcDbLine
 62
7
  6
CONTINUOUS
 10
5.5013958023
 20
4.5838552879
 11
5.4940090834
 21
4.5966398561
  0
LINE
  5
241
100
AcDbEntity
  8
0
100
AcDbLine
 62
7
  6
CONTINUOUS
 10
5.5222208023
 20
4.5838552879
 11
5.5148340834
 21
4.5966398561
  0
LINE
  5
242
100
AcDbEntity
  8
0
100
AcDbLine
 62
7
  6
CONTINUOUS
 10
5.5222561167
 20
4.583786129
 11
5.5222208023
 21
4.5838552879
  0
ARC
  5
243
100
AcDbEntity
  8
0
100
AcDbCircle
 62
7
  6
CONTINUOUS
 10
4.9935061167
 20
4.44214633
 40
0.15625
100
AcDbArc
 50
90.0
 51
270.0
  0
LINE
  5
244
100
AcDbEntity
  8
0
100
AcDbLine
 62
7
  6
CONTINUOUS
 10
5.4835965833
 20
4.2876528476
 11
5.4834735673
 21
4.2875464575
  0
LINE
  5
245
100
AcDbEntity
  8
0
100
AcDbLine
 62
7
  6
CONTINUOUS
 10
5.4731840833
 20
4.5966397985
 11
5.4730610673
 21
4.5967461977
  0
LINE
  5
246
100
AcDbEntity
  8
0
100
AcDbLine
 62
7
  6
CONTINUOUS
 10
5.4590518505
 20
4.2876528207
 11
5.4591748668
 21
4.2875463721
  0
LINE
  5
247
100
AcDbEntity
  8
0
100
AcDbLine
 62
7
  6
CONTINUOUS
 10
5.4798768507
 20
4.2876528686
 11
5.4799998667
 21
4.2875464626
  0
LINE
  5
248
100
AcDbEntity
  8
0
100
AcDbLine
 62
7
  6
CONTINUOUS
 10
5.5007018507
 20
4.2876528846
 11
5.5008248667
 21
4.2875464575
  0
LINE
  5
249
100
AcDbEntity
  8
0
100
AcDbLine
 62
7
  6
CONTINUOUS
 10
5.4694643507
 20
4.5966397918
 11
5.4695873667
 21
4.5967461991
  0
LINE
  5
24A
100
AcDbEntity
  8
0
100
AcDbLine
 62
7
  6
CONTINUOUS
 10
5.4902893507
 20
4.5966397851
 11
5.4904123667
 21
4.5967461977
  0
LINE
  5
24B
100
AcDbEntity
  8
0
100
AcDbLine
 62
7
  6
CONTINUOUS
 10
5.5044215833
 20
4.2876528747
 11
5.5042985673
 21
4.2875464628
  0
LINE
  5
24C
100
AcDbEntity
  8
0
100
AcDbLine
 62
7
  6
CONTINUOUS
 10
5.5112373666
 20
4.5967461946
 11
5.5111143507
 21
4.596639767
  0
LINE
  5
24D
100
AcDbEntity
  8
0
100
AcDbLine
 62
7
  6
CONTINUOUS
 10
5.5147110674
 20
4.5967461911
 11
5.5148340833
 21
4.5966397552
  0
LINE
  5
24E
100
AcDbEntity
  8
0
100
AcDbLine
 62
7
  6
CONTINUOUS
 10
5.4940090833
 20
4.5966397847
 11
5.4938860673
 21
4.5967461992
  0
LINE
  5
24F
100
AcDbEntity
  8
0
100
AcDbLine
 62
7
  6
CONTINUOUS
 10
5.4626485673
 20
4.2875464679
 11
5.4627715833
 21
4.2876528431
  0
SPLINE
  5
250
100
AcDbEntity
  8
0
100
AcDbSpline
 62
7
  6
CONTINUOUS
 70
0
 71
3
 72
29
 73
25
 74
0
 42
0.0000001
 43
0.0000001
 44
0.0000000001
 40
0.0
 40
0.0
 40
0.0
 40
0.0
 40
0.2122766907
 40
0.3108193776
 40
0.4038282813
 40
0.491013765
 40
0.5720962638
 40
0.6468090075
 40
0.7148981865
 40
0.7761475535
 40
0.8303527277
 40
0.8773427631
 40
0.8980842023
 40
0.9169654449
 40
0.9339734365
 40
0.9490973065
 40
0.9623268902
 40
0.9736532182
 40
0.9830715249
 40
0.9905860197
 40
0.993633821
 40
0.9962131057
 40
0.9983307711
 40
1.0
 40
1.0
 40
1.0
 40
1.0
 10
5.4560061167
 20
4.3529811972
 30
0.0
 10
5.4561276017
 20
4.3483519767
 30
0.0
 10
5.4563122048
 20
4.3415739583
 30
0.0
 10
5.4565717228
 20
4.3327682678
 30
0.0
 10
5.4567614259
 20
4.3266905771
 30
0.0
 10
5.4569510215
 20
4.3209939733
 30
0.0
 10
5.4571405129
 20
4.3156967325
 30
0.0
 10
5.457329835
 20
4.3108163572
 30
0.0
 10
5.4575189839
 20
4.3063689883
 30
0.0
 10
5.4577078101
 20
4.3023694187
 30
0.0
 10
5.4578962964
 20
4.2988306843
 30
0.0
 10
5.4580588692
 20
4.2961755625
 30
0.0
 10
5.4581907781
 20
4.2942907053
 30
0.0
 10
5.4582854723
 20
4.2930589303
 30
0.0
 10
5.4583800509
 20
4.2919500907
 30
0.0
 10
5.4584744688
 20
4.2909650215
 30
0.0
 10
5.4585686712
 20
4.2901045191
 30
0.0
 10
5.4586624975
 20
4.2893692683
 30
0.0
 10
5.4587559207
 20
4.2887598597
 30
0.0
 10
5.4588376052
 20
4.2883314828
 30
0.0
 10
5.4589051605
 20
4.2880528164
 30
0.0
 10
5.4589520707
 20
4.2878904136
 30
0.0
 10
5.4589987424
 20
4.2877595376
 30
0.0
 10
5.4590336393
 20
4.2876843539
 30
0.0
 10
5.4590518505
 20
4.2876528207
 30
0.0
  0
SPLINE
  5
251
100
AcDbEntity
  8
0
100
AcDbSpline
 62
7
  6
CONTINUOUS
 70
0
 71
3
 72
32
 73
28
 74
0
 42
0.0000001
 43
0.0000001
 44
0.0000000001
 40
0.0
 40
0.0
 40
0.0
 40
0.0
 40
0.1905439605
 40
0.2836211832
 40
0.3741018002
 40
0.4611491024
 40
0.5439641166
 40
0.6217891856
 40
0.6939089051
 40
0.7596627374
 40
0.8184479685
 40
0.8450553297
 40
0.8697249423
 40
0.8923997341
 40
0.9130271627
 40
0.9315626704
 40
0.9479629723
 40
0.9621915137
 40
0.9742194544
 40
0.9840202268
 40
0.9880801446
 40
0.9915786425
 40
0.9945158338
 40
0.9968933097
 40
0.9987160061
 40
0.9994236297
 40
1.0
 40
1.0
 40
1.0
 40
1.0
 10
5.4956186167
 20
4.44214633
 30
0.0
 10
5.4958291268
 20
4.4323271023
 30
0.0
 10
5.4961423939
 20
4.41771136
 30
0.0
 10
5.496567237
 20
4.3984331676
 30
0.0
 10
5.4968833059
 20
4.3844885542
 30
0.0
 10
5.4971992511
 20
4.3710730379
 30
0.0
 10
5.4975150139
 20
4.3583100289
 30
0.0
 10
5.4978305258
 20
4.3463166958
 30
0.0
 10
5.4981456811
 20
4.3352030855
 30
0.0
 10
5.4984603743
 20
4.3250712885
 30
0.0
 10
5.4987301527
 20
4.3172851735
 30
0.0
 10
5.4989485091
 20
4.3116162745
 30
0.0
 10
5.4991066827
 20
4.3078077476
 30
0.0
 10
5.4992647208
 20
4.3043077336
 30
0.0
 10
5.4994226162
 20
4.3011242425
 30
0.0
 10
5.499580262
 20
4.298264589
 30
0.0
 10
5.4997376069
 20
4.2957353043
 30
0.0
 10
5.4998944519
 20
4.2935421367
 30
0.0
 10
5.500050647
 20
4.2916901104
 30
0.0
 10
5.5001868181
 20
4.2903625127
 30
0.0
 10
5.5002988736
 20
4.2894747384
 30
0.0
 10
5.5003773357
 20
4.2889394328
 30
0.0
 10
5.5004553493
 20
4.2884918002
 30
0.0
 10
5.5005329114
 20
4.2881321251
 30
0.0
 10
5.5006010517
 20
4.2878880687
 30
0.0
 10
5.5006581272
 20
4.2877383522
 30
0.0
 10
5.5006869833
 20
4.2876786055
 30
0.0
 10
5.5007018507
 20
4.2876528846
 30
0.0
  0
SPLINE
  5
252
100
AcDbEntity
  8
0
100
AcDbSpline
 62
7
  6
CONTINUOUS
 70
0
 71
3
 72
39
 73
35
 74
0
 42
0.0000001
 43
0.0000001
 44
0.0000000001
 40
0.0
 40
0.0
 40
0.0
 40
0.0
 40
0.0002732761
 40
0.0006194695
 40
0.001077936
 40
0.0016659032
 40
0.0023914318
 40
0.0032587502
 40
0.0042701896
 40
0.0054270479
 40
0.0081796623
 40
0.0115199085
 40
0.015448542
 40
0.0199652392
 40
0.0250689769
 40
0.0307572123
 40
0.0438732465
 40
0.0592845711
 40
0.0769580287
 40
0.0968497397
 40
0.1189133481
 40
0.1430975315
 40
0.1693424494
 40
0.197586998
 40
0.2277634394
 40
0.2936147068
 40
0.3662639058
 40
0.4450126073
 40
0.5291012587
 40
0.6177231958
 40
0.7100262992
 40
0.8051149408
 40
0.9020989366
 40
1.0
 40
1.0
 40
1.0
 40
1.0
 10
5.4695873667
 20
4.5967461991
 30
0.0
 10
5.4696014679
 20
4.5967461993
 30
0.0
 10
5.4696334596
 20
4.5967356239
 30
0.0
 10
5.4696743396
 20
4.5966966449
 30
0.0
 10
5.4697143584
 20
4.5966366232
 30
0.0
 10
5.4697542455
 20
4.5965541298
 30
0.0
 10
5.4697943101
 20
4.5964488844
 30
0.0
 10
5.4698344928
 20
4.5963205861
 30
0.0
 10
5.4698747896
 20
4.596169182
 30
0.0
 10
5.4699319824
 20
4.595921748
 30
0.0
 10
5.4700017815
 20
4.5955540994
 30
0.0
 10
5.4700819578
 20
4.595043189
 30
0.0
 10
5.470162402
 20
4.5944403441
 30
0.0
 10
5.4702430693
 20
4.5937458471
 30
0.0
 10
5.470323874
 20
4.5929600329
 30
0.0
 10
5.4704372022
 20
4.5917315601
 30
0.0
 10
5.470576415
 20
4.5899714373
 30
0.0
 10
5.4707372525
 20
4.5875928399
 30
0.0
 10
5.4708984501
 20
4.5848639417
 30
0.0
 10
5.4710599904
 20
4.5817912778
 30
0.0
 10
5.4712217359
 20
4.5783822508
 30
0.0
 10
5.4713836256
 20
4.5746450668
 30
0.0
 10
5.4715456497
 20
4.5705886734
 30
0.0
 10
5.4717077628
 20
4.5662228505
 30
0.0
 10
5.4719305451
 20
4.5598141714
 30
0.0
 10
5.4722062914
 20
4.5511146607
 30
0.0
 10
5.4725288921
 20
4.5399090666
 30
0.0
 10
5.4728518687
 20
4.5277620623
 30
0.0
 10
5.473175148
 20
4.5147905904
 30
0.0
 10
5.473498633
 20
4.5011195012
 30
0.0
 10
5.4738222594
 20
4.4868806558
 30
0.0
 10
5.4741460046
 20
4.4722102169
 30
0.0
 10
5.474469799
 20
4.4572508515
 30
0.0
 10
5.4746853389
 20
4.4471969407
 30
0.0
 10
5.4747936167
 20
4.44214633
 30
0.0
  0
SPLINE
  5
253
100
AcDbEntity
  8
0
100
AcDbSpline
 62
7
  6
CONTINUOUS
 70
0
 71
3
 72
39
 73
35
 74
0
 42
0.0000001
 43
0.0000001
 44
0.0000000001
 40
0.0
 40
0.0
 40
0.0
 40
0.0
 40
0.0002732727
 40
0.0006194597
 40
0.0010779247
 40
0.0016659011
 40
0.0023914543
 40
0.0032588125
 40
0.0042702894
 40
0.0054271817
 40
0.0081798573
 40
0.0115201634
 40
0.0154488649
 40
0.019965648
 40
0.0250694952
 40
0.0307578545
 40
0.0438741501
 40
0.0592857063
 40
0.0769594308
 40
0.0968514382
 40
0.118915264
 40
0.1430996919
 40
0.1693447341
 40
0.1975890794
 40
0.2277651442
 40
0.293615274
 40
0.3662632913
 40
0.4450112934
 40
0.529099918
 40
0.6177221943
 40
0.710025537
 40
0.805114431
 40
0.90209887
 40
1.0
 40
1.0
 40
1.0
 40
1.0
 10
5.4904123667
 20
4.5967461977
 30
0.0
 10
5.4904264678
 20
4.5967461988
 30
0.0
 10
5.4904584597
 20
4.5967356255
 30
0.0
 10
5.4904993404
 20
4.5966966477
 30
0.0
 10
5.4905393594
 20
4.596636626
 30
0.0
 10
5.4905792469
 20
4.5965541309
 30
0.0
 10
5.4906193116
 20
4.5964488816
 30
0.0
 10
5.4906594942
 20
4.5963205777
 30
0.0
 10
5.4906997917
 20
4.5961691678
 30
0.0
 10
5.490756985
 20
4.5959217269
 30
0.0
 10
5.490826785
 20
4.5955540704
 30
0.0
 10
5.4909069626
 20
4.5950431503
 30
0.0
 10
5.4909874079
 20
4.5944402943
 30
0.0
 10
5.4910680763
 20
4.5937457838
 30
0.0
 10
5.4911488818
 20
4.5929599531
 30
0.0
 10
5.491262211
 20
4.5917314548
 30
0.0
 10
5.4914014246
 20
4.5899713001
 30
0.0
 10
5.4915622639
 20
4.5875926635
 30
0.0
 10
5.4917234623
 20
4.5848637242
 30
0.0
 10
5.4918850028
 20
4.5817910201
 30
0.0
 10
5.4920467496
 20
4.5783819539
 30
0.0
 10
5.4922086391
 20
4.5746447396
 30
0.0
 10
5.4923706622
 20
4.5705883376
 30
0.0
 10
5.4925327744
 20
4.5662225381
 30
0.0
 10
5.4927555525
 20
4.5598139475
 30
0.0
 10
5.4930312938
 20
4.5511145758
 30
0.0
 10
5.49335389
 20
4.5399091374
 30
0.0
 10
5.4936768645
 20
4.5277622314
 30
0.0
 10
5.4940001433
 20
4.5147907794
 30
0.0
 10
5.4943236292
 20
4.5011196616
 30
0.0
 10
5.4946472568
 20
4.4868807733
 30
0.0
 10
5.4949710031
 20
4.4722102862
 30
0.0
 10
5.4952947984
 20
4.4572508813
 30
0.0
 10
5.4955103388
 20
4.4471969441
 30
0.0
 10
5.4956186167
 20
4.44214633
 30
0.0
  0
SPLINE
  5
254
100
AcDbEntity
  8
0
100
AcDbSpline
 62
7
  6
CONTINUOUS
 70
0
 71
3
 72
65
 73
61
 74
0
 42
0.0000001
 43
0.0000001
 44
0.0000000001
 40
0.0
 40
0.0
 40
0.0
 40
0.0
 40
0.0001461283
 40
0.0003253448
 40
0.0005568882
 40
0.0008498297
 40
0.0012085851
 40
0.0016355096
 40
0.0021319689
 40
0.0026988087
 40
0.0040455634
 40
0.005678361
 40
0.0075976454
 40
0.0098030462
 40
0.0122938485
 40
0.0150691365
 40
0.0214686126
 40
0.0289880214
 40
0.0376099036
 40
0.0473159468
 40
0.0580833325
 40
0.0698865166
 40
0.0826992639
 40
0.0964909911
 40
0.1112291148
 40
0.143406998
 40
0.1789309318
 40
0.2174683428
 40
0.2586586992
 40
0.3021152683
 40
0.3474305786
 40
0.3941800866
 40
0.4419250583
 40
0.4902177034
 40
0.5386052437
 40
0.5866336315
 40
0.6338525905
 40
0.6798193141
 40
0.7241023376
 40
0.7662868483
 40
0.8059774519
 40
0.8428014323
 40
0.8764143524
 40
0.9065018483
 40
0.9201335971
 40
0.9327817386
 40
0.9444161667
 40
0.955009404
 40
0.9645381241
 40
0.9729795989
 40
0.9803145661
 40
0.9865280669
 40
0.9916063257
 40
0.9937169154
 40
0.9955412958
 40
0.9970796125
 40
0.9983328065
 40
0.9993035536
 40
0.9996852055
 40
1.0
 40
1.0
 40
1.0
 40
1.0
 10
5.4908492169
 20
4.3003213606
 30
0.0
 10
5.4908353883
 20
4.3003213722
 30
0.0
 10
5.4908044873
 20
4.3003304686
 30
0.0
 10
5.4907637857
 20
4.3003652141
 30
0.0
 10
5.490724113
 20
4.3004190784
 30
0.0
 10
5.4906846202
 20
4.3004929602
 30
0.0
 10
5.4906450224
 20
4.3005871388
 30
0.0
 10
5.4906053232
 20
4.3007018594
 30
0.0
 10
5.4905655253
 20
4.3008371919
 30
0.0
 10
5.4905090812
 20
4.3010582073
 30
0.0
 10
5.4904401631
 20
4.3013868
 30
0.0
 10
5.490361013
 20
4.3018436387
 30
0.0
 10
5.4902816015
 20
4.3023827191
 30
0.0
 10
5.4902019724
 20
4.3030037069
 30
0.0
 10
5.4901221988
 20
4.3037062659
 30
0.0
 10
5.4900103149
 20
4.3048045541
 30
0.0
 10
5.4898729
 20
4.3063784697
 30
0.0
 10
5.4897141502
 20
4.3085056999
 30
0.0
 10
5.4895549916
 20
4.3109465697
 30
0.0
 10
5.4893955427
 20
4.3136953581
 30
0.0
 10
5.489235885
 20
4.3167456451
 30
0.0
 10
5.4890760552
 20
4.3200902854
 30
0.0
 10
5.4889161289
 20
4.3237214241
 30
0.0
 10
5.4887561008
 20
4.3276305507
 30
0.0
 10
5.4885361368
 20
4.3333713299
 30
0.0
 10
5.4882639064
 20
4.3411681823
 30
0.0
 10
5.4879454411
 20
4.3512169404
 30
0.0
 10
5.4876265984
 20
4.3621189615
 30
0.0
 10
5.4873074645
 20
4.3737719643
 30
0.0
 10
5.4869881233
 20
4.3860666043
 30
0.0
 10
5.4866686326
 20
4.3988874915
 30
0.0
 10
5.4863490434
 20
4.4121143242
 30
0.0
 10
5.486029387
 20
4.4256229909
 30
0.0
 10
5.4857096955
 20
4.4392867122
 30
0.0
 10
5.4853900001
 20
4.4529772614
 30
0.0
 10
5.4850703251
 20
4.4665661766
 30
0.0
 10
5.4847507025
 20
4.4799259386
 30
0.0
 10
5.4844311683
 20
4.4929311623
 30
0.0
 10
5.4841117569
 20
4.5054598134
 30
0.0
 10
5.4837925273
 20
4.5173943373
 30
0.0
 10
5.4834735492
 20
4.5286227267
 30
0.0
 10
5.4831549289
 20
4.5390396196
 30
0.0
 10
5.4828367679
 20
4.5485472897
 30
0.0
 10
5.4825640865
 20
4.5558604521
 30
0.0
 10
5.4823433962
 20
4.5611901363
 30
0.0
 10
5.4821834763
 20
4.5647745432
 30
0.0
 10
5.4820236882
 20
4.5680711031
 30
0.0
 10
5.4818640412
 20
4.5710720915
 30
0.0
 10
5.481704642
 20
4.5737704657
 30
0.0
 10
5.4815455418
 20
4.5761599174
 30
0.0
 10
5.4813869281
 20
4.5782349005
 30
0.0
 10
5.4812289528
 20
4.579990573
 30
0.0
 10
5.48109129
 20
4.5812515464
 30
0.0
 10
5.4809780958
 20
4.5820970052
 30
0.0
 10
5.4808987282
 20
4.582608883
 30
0.0
 10
5.4808197735
 20
4.5830386151
 30
0.0
 10
5.4807412446
 20
4.5833859459
 30
0.0
 10
5.4806722959
 20
4.5836231004
 30
0.0
 10
5.4806147678
 20
4.5837701093
 30
0.0
 10
5.4805857125
 20
4.5838294308
 30
0.0
 10
5.4805708021
 20
4.5838552209
 30
0.0
  0
SPLINE
  5
255
100
AcDbEntity
  8
0
100
AcDbSpline
 62
7
  6
CONTINUOUS
 70
0
 71
3
 72
32
 73
28
 74
0
 42
0.0000001
 43
0.0000001
 44
0.0000000001
 40
0.0
 40
0.0
 40
0.0
 40
0.0
 40
0.1905440894
 40
0.2836211922
 40
0.3741016914
 40
0.461149011
 40
0.5439640654
 40
0.6217891564
 40
0.6939088983
 40
0.7596628019
 40
0.8184480519
 40
0.8450554253
 40
0.869724977
 40
0.8923998443
 40
0.9130272287
 40
0.931562652
 40
0.9479630363
 40
0.9621914878
 40
0.9742193549
 40
0.9840202349
 40
0.9880801197
 40
0.9915785576
 40
0.9945157062
 40
0.9968932002
 40
0.9987159882
 40
0.9994236313
 40
1.0
 40
1.0
 40
1.0
 40
1.0
 10
5.4990923173
 20
4.44214633
 30
0.0
 10
5.498881807
 20
4.4519655649
 30
0.0
 10
5.4985685399
 20
4.4665813085
 30
0.0
 10
5.4981436969
 20
4.4858594963
 30
0.0
 10
5.4978276282
 20
4.4998040992
 30
0.0
 10
5.4975116831
 20
4.5132196131
 30
0.0
 10
5.4971959203
 20
4.5259826269
 30
0.0
 10
5.4968804081
 20
4.5379759651
 30
0.0
 10
5.4965652525
 20
4.5490895819
 30
0.0
 10
5.4962505595
 20
4.5592213853
 30
0.0
 10
5.4959807805
 20
4.567007506
 30
0.0
 10
5.4957624245
 20
4.5726764038
 30
0.0
 10
5.4956042498
 20
4.5764849323
 30
0.0
 10
5.4954462127
 20
4.579984945
 30
0.0
 10
5.4952883173
 20
4.5831684335
 30
0.0
 10
5.49513067
 20
4.5860280847
 30
0.0
 10
5.4949733275
 20
4.5885573649
 30
0.0
 10
5.494816482
 20
4.5907505284
 30
0.0
 10
5.4946602848
 20
4.5926025518
 30
0.0
 10
5.4945241173
 20
4.59393015
 30
0.0
 10
5.4944120608
 20
4.594817925
 30
0.0
 10
5.4943335983
 20
4.5953532235
 30
0.0
 10
5.4942555843
 20
4.5958008517
 30
0.0
 10
5.4941780204
 20
4.5961605298
 30
0.0
 10
5.4941098831
 20
4.596404594
 30
0.0
 10
5.4940528074
 20
4.5965543164
 30
0.0
 10
5.494023951
 20
4.596614064
 30
0.0
 10
5.4940090833
 20
4.5966397847
 30
0.0
  0
SPLINE
  5
256
100
AcDbEntity
  8
0
100
AcDbSpline
 62
7
  6
CONTINUOUS
 70
0
 71
3
 72
39
 73
35
 74
0
 42
0.0000001
 43
0.0000001
 44
0.0000000001
 40
0.0
 40
0.0
 40
0.0
 40
0.0
 40
0.0002960547
 40
0.0006606778
 40
0.0011334222
 40
0.0017326934
 40
0.0024673588
 40
0.0033421028
 40
0.004359612
 40
0.0055215261
 40
0.0082822198
 40
0.0116292184
 40
0.0155643703
 40
0.0200869214
 40
0.025194891
 40
0.0308858924
 40
0.0440061738
 40
0.0594223616
 40
0.0770969638
 40
0.0969892265
 40
0.1190543497
 40
0.1432372443
 40
0.169480906
 40
0.1977240835
 40
0.2278966087
 40
0.2937394669
 40
0.3663767327
 40
0.4451119771
 40
0.5291875772
 40
0.6177951342
 40
0.7100800631
 40
0.8051501607
 40
0.9021190444
 40
1.0
 40
1.0
 40
1.0
 40
1.0
 10
5.4517992171
 20
4.3003213363
 30
0.0
 10
5.4517851996
 20
4.3003213296
 30
0.0
 10
5.4517538003
 20
4.3003306849
 30
0.0
 10
5.4517126064
 20
4.3003663682
 30
0.0
 10
5.451672442
 20
4.3004216411
 30
0.0
 10
5.4516324509
 20
4.3004974784
 30
0.0
 10
5.4515923441
 20
4.3005941552
 30
0.0
 10
5.4515521313
 20
4.3007119192
 30
0.0
 10
5.4515118162
 20
4.3008508324
 30
0.0
 10
5.4514546364
 20
4.3010776762
 30
0.0
 10
5.4513848206
 20
4.3014148563
 30
0.0
 10
5.451304624
 20
4.3018835995
 30
0.0
 10
5.4512241803
 20
4.3024367511
 30
0.0
 10
5.451143517
 20
4.3030739923
 30
0.0
 10
5.4510627057
 20
4.303794933
 30
0.0
 10
5.450949373
 20
4.3049217835
 30
0.0
 10
5.4508101483
 20
4.3065364517
 30
0.0
 10
5.4506493413
 20
4.3087185465
 30
0.0
 10
5.4504881194
 20
4.3112220042
 30
0.0
 10
5.4503265748
 20
4.3140408215
 30
0.0
 10
5.4501648443
 20
4.3171682321
 30
0.0
 10
5.4500029358
 20
4.3205967197
 30
0.0
 10
5.4498409107
 20
4.3243180157
 30
0.0
 10
5.4496788041
 20
4.3283231504
 30
0.0
 10
5.4494560114
 20
4.334202267
 30
0.0
 10
5.4491802819
 20
4.342182807
 30
0.0
 10
5.4488576802
 20
4.3524623606
 30
0.0
 10
5.4485347045
 20
4.3636055672
 30
0.0
 10
5.4482114273
 20
4.3755052126
 30
0.0
 10
5.4478879423
 20
4.3880466191
 30
0.0
 10
5.4475643182
 20
4.4011087488
 30
0.0
 10
5.447240575
 20
4.4145668806
 30
0.0
 10
5.4469167821
 20
4.4282900438
 30
0.0
 10
5.4467012422
 20
4.4375131771
 30
0.0
 10
5.446592967
 20
4.44214633
 30
0.0
  0
SPLINE
  5
257
100
AcDbEntity
  8
0
100
AcDbSpline
 62
7
  6
CONTINUOUS
 70
0
 71
3
 72
13
 73
9
 74
0
 42
0.0000001
 43
0.0000001
 44
0.0000000001
 40
0.0
 40
0.0
 40
0.0
 40
0.0
 40
0.2875235397
 40
0.5595370561
 40
0.685090262
 40
0.8013723184
 40
0.9068224617
 40
1.0
 40
1.0
 40
1.0
 40
1.0
 10
5.446592967
 20
4.44214633
 30
0.0
 10
5.4463380462
 20
4.4530545276
 30
0.0
 10
5.4458419687
 20
4.4742824947
 30
0.0
 10
5.4452022891
 20
4.5002730075
 30
0.0
 10
5.4446783502
 20
4.5197659262
 30
0.0
 10
5.44429649
 20
4.5329394751
 30
0.0
 10
5.4439154422
 20
4.5448838661
 30
0.0
 10
5.4436444837
 20
4.5524167176
 30
0.0
 10
5.4435061167
 20
4.555949986
 30
0.0
  0
SPLINE
  5
258
100
AcDbEntity
  8
0
100
AcDbSpline
 62
7
  6
CONTINUOUS
 70
0
 71
3
 72
32
 73
28
 74
0
 42
0.0000001
 43
0.0000001
 44
0.0000000001
 40
0.0
 40
0.0
 40
0.0
 40
0.0
 40
0.1905455767
 40
0.283623943
 40
0.3741045914
 40
0.4611515816
 40
0.5439660739
 40
0.6217907326
 40
0.6939100962
 40
0.7596636952
 40
0.818448611
 40
0.845055858
 40
0.869725239
 40
0.8924001389
 40
0.9130275726
 40
0.9315630513
 40
0.9479636221
 40
0.9621919692
 40
0.9742196567
 40
0.9840205573
 40
0.9880803635
 40
0.9915786836
 40
0.9945157225
 40
0.9968931615
 40
0.9987159817
 40
0.9994236347
 40
1.0
 40
1.0
 40
1.0
 40
1.0
 10
5.4747936167
 20
4.44214633
 30
0.0
 10
5.4750041286
 20
4.432327018
 30
0.0
 10
5.4753173989
 20
4.4177111321
 30
0.0
 10
5.4757422451
 20
4.398432794
 30
0.0
 10
5.4760583158
 20
4.3844881348
 30
0.0
 10
5.4763742603
 20
4.3710726586
 30
0.0
 10
5.4766900217
 20
4.3583097125
 30
0.0
 10
5.4770055328
 20
4.3463164446
 30
0.0
 10
5.4773206875
 20
4.3352028848
 30
0.0
 10
5.4776353788
 20
4.3250711334
 30
0.0
 10
5.4779051575
 20
4.3172850518
 30
0.0
 10
5.4781235118
 20
4.3116161863
 30
0.0
 10
5.478281687
 20
4.3078076713
 30
0.0
 10
5.4784397234
 20
4.304307663
 30
0.0
 10
5.4785976198
 20
4.3011241674
 30
0.0
 10
5.4787552697
 20
4.2982645011
 30
0.0
 10
5.4789126108
 20
4.2957352136
 30
0.0
 10
5.4790694574
 20
4.2935420551
 30
0.0
 10
5.4792256577
 20
4.2916900456
 30
0.0
 10
5.4793618207
 20
4.2903624592
 30
0.0
 10
5.4794738768
 20
4.2894746932
 30
0.0
 10
5.4795523389
 20
4.2889394106
 30
0.0
 10
5.4796303523
 20
4.2884917971
 30
0.0
 10
5.4797079171
 20
4.2881321261
 30
0.0
 10
5.4797760516
 20
4.287888062
 30
0.0
 10
5.4798331265
 20
4.2877383371
 30
0.0
 10
5.479861983
 20
4.287678589
 30
0.0
 10
5.4798768507
 20
4.2876528686
 30
0.0
  0
SPLINE
  5
259
100
AcDbEntity
  8
0
100
AcDbSpline
 62
7
  6
CONTINUOUS
 70
0
 71
3
 72
39
 73
35
 74
0
 42
0.0000001
 43
0.0000001
 44
0.0000000001
 40
0.0
 40
0.0
 40
0.0
 40
0.0
 40
0.0002960407
 40
0.000660445
 40
0.0011327706
 40
0.0017315551
 40
0.0024658198
 40
0.0033404004
 40
0.0043580274
 40
0.0055202532
 40
0.0082817507
 40
0.0116291073
 40
0.0155635426
 40
0.0200850079
 40
0.0251926806
 40
0.0308842247
 40
0.0440053065
 40
0.0594199108
 40
0.0770952848
 40
0.0969878727
 40
0.1190514405
 40
0.1432348845
 40
0.1694782393
 40
0.1977202181
 40
0.2278933167
 40
0.2937355963
 40
0.3663736218
 40
0.4451098442
 40
0.5291853338
 40
0.6177927103
 40
0.7100791338
 40
0.8051498473
 40
0.9021162187
 40
1.0
 40
1.0
 40
1.0
 40
1.0
 10
5.449199217
 20
4.3003214591
 30
0.0
 10
5.4491852002
 20
4.3003214591
 30
0.0
 10
5.4491538152
 20
4.3003308009
 30
0.0
 10
5.4491126122
 20
4.3003664248
 30
0.0
 10
5.4490724426
 20
4.30042163
 30
0.0
 10
5.4490324486
 20
4.3004973961
 30
0.0
 10
5.4489923409
 20
4.3005940192
 30
0.0
 10
5.4489521302
 20
4.3007117618
 30
0.0
 10
5.4489118191
 20
4.3008506893
 30
0.0
 10
5.4488546429
 20
4.3010775941
 30
0.0
 10
5.448784837
 20
4.3014148472
 30
0.0
 10
5.4487046457
 20
4.3018836121
 30
0.0
 10
5.4486241922
 20
4.3024366927
 30
0.0
 10
5.4485435198
 20
4.3030738323
 30
0.0
 10
5.4484627113
 20
4.303794733
 30
0.0
 10
5.448349389
 20
4.3049216337
 30
0.0
 10
5.448210177
 20
4.3065362905
 30
0.0
 10
5.4480493353
 20
4.308718381
 30
0.0
 10
5.447888135
 20
4.3112218159
 30
0.0
 10
5.4477265933
 20
4.31404061
 30
0.0
 10
5.4475648452
 20
4.3171679857
 30
0.0
 10
5.4474029538
 20
4.32059641
 30
0.0
 10
5.4472409283
 20
4.3243176587
 30
0.0
 10
5.4470788136
 20
4.3283227467
 30
0.0
 10
5.4468560346
 20
4.3342018037
 30
0.0
 10
5.4465802909
 20
4.3421823746
 30
0.0
 10
5.4462576919
 20
4.3524619776
 30
0.0
 10
5.4459347147
 20
4.3636052553
 30
0.0
 10
5.4456114339
 20
4.3755049267
 30
0.0
 10
5.4452879476
 20
4.3880463833
 30
0.0
 10
5.4449643224
 20
4.4011085974
 30
0.0
 10
5.444640579
 20
4.414566703
 30
0.0
 10
5.4443167854
 20
4.4282899027
 30
0.0
 10
5.4441012453
 20
4.4375130458
 30
0.0
 10
5.443992967
 20
4.44214633
 30
0.0
  0
SPLINE
  5
25A
100
AcDbEntity
  8
0
100
AcDbSpline
 62
7
  6
CONTINUOUS
 70
0
 71
3
 72
38
 73
34
 74
0
 42
0.0000001
 43
0.0000001
 44
0.0000000001
 40
0.0
 40
0.0
 40
0.0
 40
0.0
 40
0.000536782
 40
0.0012458452
 40
0.0021324408
 40
0.0031989267
 40
0.004446341
 40
0.0058751421
 40
0.0092771883
 40
0.0134044399
 40
0.0182543075
 40
0.0238212693
 40
0.0300986878
 40
0.0370797193
 40
0.0447568758
 40
0.0621596731
 40
0.082223332
 40
0.1048505079
 40
0.1299312195
 40
0.1573429433
 40
0.1869521403
 40
0.2186138145
 40
0.2521735905
 40
0.2874669801
 40
0.3625573771
 40
0.4424176457
 40
0.5254869385
 40
0.6101415316
 40
0.6947266808
 40
0.7775888974
 40
0.8571088505
 40
0.9317315737
 40
1.0
 40
1.0
 40
1.0
 40
1.0
 10
5.5148340833
 20
4.5966397552
 30
0.0
 10
5.5148569099
 20
4.5966002652
 30
0.0
 10
5.5148998442
 20
4.5965029736
 30
0.0
 10
5.5149563749
 20
4.5963307502
 30
0.0
 10
5.5150132946
 20
4.5961116722
 30
0.0
 10
5.515070503
 20
4.5958457559
 30
0.0
 10
5.5151279078
 20
4.595532904
 30
0.0
 10
5.5152094343
 20
4.5950228507
 30
0.0
 10
5.515308888
 20
4.5942680418
 30
0.0
 10
5.5154231595
 20
4.5932223109
 30
0.0
 10
5.515537798
 20
4.5919917226
 30
0.0
 10
5.5156527727
 20
4.590577784
 30
0.0
 10
5.5157679524
 20
4.5889822412
 30
0.0
 10
5.5158832937
 20
4.5872069826
 30
0.0
 10
5.516044001
 20
4.5844873532
 30
0.0
 10
5.5162419579
 20
4.5806563666
 30
0.0
 10
5.516471458
 20
4.5755550859
 30
0.0
 10
5.5167014266
 20
4.569800817
 30
0.0
 10
5.5169317655
 20
4.5634217227
 30
0.0
 10
5.5171623595
 20
4.5564489935
 30
0.0
 10
5.5173931408
 20
4.5489167768
 30
0.0
 10
5.5176240677
 20
4.5408619099
 30
0.0
 10
5.5178551065
 20
4.5323238495
 30
0.0
 10
5.5181698024
 20
4.5200963856
 30
0.0
 10
5.5185591996
 20
4.503935202
 30
0.0
 10
5.5190180233
 20
4.4837148134
 30
0.0
 10
5.5194771946
 20
4.4626815217
 30
0.0
 10
5.5199365436
 20
4.4412466479
 30
0.0
 10
5.5203958827
 20
4.4198293739
 30
0.0
 10
5.5208550386
 20
4.3988485099
 30
0.0
 10
5.5213137935
 20
4.3787143948
 30
0.0
 10
5.521771901
 20
4.3598207021
 30
0.0
 10
5.5220927975
 20
4.3476828424
 30
0.0
 10
5.5222561167
 20
4.341884077
 30
0.0
  0
LINE
  5
25B
100
AcDbEntity
  8
0
100
AcDbLine
 62
7
  6
CONTINUOUS
 10
5.443992967
 20
4.44214633
 11
5.4435061167
 21
4.4629040772
  0
SPLINE
  5
25C
100
AcDbEntity
  8
0
100
AcDbSpline
 62
7
  6
CONTINUOUS
 70
0
 71
3
 72
32
 73
28
 74
0
 42
0.0000001
 43
0.0000001
 44
0.0000000001
 40
0.0
 40
0.0
 40
0.0
 40
0.0
 40
0.1905459945
 40
0.2836247236
 40
0.3741057601
 40
0.4611532783
 40
0.5439678474
 40
0.621791731
 40
0.6939098988
 40
0.7596622242
 40
0.8184463304
 40
0.8450535207
 40
0.8697230817
 40
0.8923981828
 40
0.9130258675
 40
0.931561643
 40
0.9479624664
 40
0.962191074
 40
0.9742190325
 40
0.9840201681
 40
0.9880800486
 40
0.9915784265
 40
0.9945155218
 40
0.9968930303
 40
0.9987159427
 40
0.9994236246
 40
1.0
 40
1.0
 40
1.0
 40
1.0
 10
5.4782673173
 20
4.44214633
 30
0.0
 10
5.4780568049
 20
4.4519656639
 30
0.0
 10
5.4777435337
 20
4.4665815906
 30
0.0
 10
5.4773186861
 20
4.4858599897
 30
0.0
 10
5.4770026138
 20
4.4998047154
 30
0.0
 10
5.4766866677
 20
4.5132202433
 30
0.0
 10
5.4763709066
 20
4.5259831812
 30
0.0
 10
5.4760553972
 20
4.537976352
 30
0.0
 10
5.4757402473
 20
4.5490897451
 30
0.0
 10
5.4754255617
 20
4.559221328
 30
0.0
 10
5.4751557877
 20
4.5670072997
 30
0.0
 10
5.4749374356
 20
4.5726761302
 30
0.0
 10
5.4747792613
 20
4.576484662
 30
0.0
 10
5.4746212244
 20
4.5799847031
 30
0.0
 10
5.4744633273
 20
4.5831682375
 30
0.0
 10
5.474305677
 20
4.5860279451
 30
0.0
 10
5.4741483345
 20
4.5885572745
 30
0.0
 10
5.4739914866
 20
4.5907504735
 30
0.0
 10
5.4738352847
 20
4.5926025226
 30
0.0
 10
5.4736991206
 20
4.593930139
 30
0.0
 10
5.4735870623
 20
4.5948179238
 30
0.0
 10
5.4735085988
 20
4.5953532161
 30
0.0
 10
5.4734305841
 20
4.5958008391
 30
0.0
 10
5.4733530174
 20
4.5961605211
 30
0.0
 10
5.4732848834
 20
4.5964045955
 30
0.0
 10
5.4732278082
 20
4.5965543276
 30
0.0
 10
5.4731989513
 20
4.5966140777
 30
0.0
 10
5.4731840833
 20
4.5966397985
 30
0.0
  0
SPLINE
  5
25D
100
AcDbEntity
  8
0
100
AcDbSpline
 62
7
  6
CONTINUOUS
 70
0
 71
3
 72
65
 73
61
 74
0
 42
0.0000001
 43
0.0000001
 44
0.0000000001
 40
0.0
 40
0.0
 40
0.0
 40
0.0
 40
0.0001460729
 40
0.0003251333
 40
0.0005564942
 40
0.0008493055
 40
0.0012080522
 40
0.0016351133
 40
0.0021318019
 40
0.0026988994
 40
0.0040459896
 40
0.0056785844
 40
0.0075973918
 40
0.0098024867
 40
0.0122935164
 40
0.0150693073
 40
0.0214687564
 40
0.0289874794
 40
0.0376101407
 40
0.0473160094
 40
0.0580828409
 40
0.0698867984
 40
0.0826992547
 40
0.0964905746
 40
0.1112294158
 40
0.1434066718
 40
0.1789308342
 40
0.2174686063
 40
0.2586585582
 40
0.3021151816
 40
0.3474307517
 40
0.3941800784
 40
0.4419250792
 40
0.4902178081
 40
0.5386052739
 40
0.5866338162
 40
0.6338526989
 40
0.6798192935
 40
0.7241026753
 40
0.766287046
 40
0.8059773458
 40
0.8428018408
 40
0.8764147023
 40
0.9065017001
 40
0.9201340324
 40
0.9327821048
 40
0.944416027
 40
0.9550099214
 40
0.9645384322
 40
0.9729794883
 40
0.9803151549
 40
0.9865283009
 40
0.9916062629
 40
0.9937172249
 40
0.9955419362
 40
0.9970802218
 40
0.9983329655
 40
0.9993034055
 40
0.9996850886
 40
1.0
 40
1.0
 40
1.0
 40
1.0
 10
5.5116742171
 20
4.3003214673
 30
0.0
 10
5.5116603937
 20
4.3003214608
 30
0.0
 10
5.5116294977
 20
4.3003304993
 30
0.0
 10
5.5115887823
 20
4.3003651774
 30
0.0
 10
5.5115491064
 20
4.3004189855
 30
0.0
 10
5.5115096118
 20
4.3004928329
 30
0.0
 10
5.5114700158
 20
4.3005870124
 30
0.0
 10
5.5114303209
 20
4.3007017703
 30
0.0
 10
5.5113905257
 20
4.3008371651
 30
0.0
 10
5.5113340887
 20
4.3010582625
 30
0.0
 10
5.5112651791
 20
4.3013868941
 30
0.0
 10
5.5111860169
 20
4.3018436972
 30
0.0
 10
5.5111065969
 20
4.3023826819
 30
0.0
 10
5.5110269626
 20
4.303003616
 30
0.0
 10
5.5109471957
 20
4.303706216
 30
0.0
 10
5.5108353298
 20
4.3048045725
 30
0.0
 10
5.5106979061
 20
4.3063784666
 30
0.0
 10
5.5105391313
 20
4.3085057007
 30
0.0
 10
5.5103800052
 20
4.3109465641
 30
0.0
 10
5.5102205447
 20
4.3136953556
 30
0.0
 10
5.5100608731
 20
4.3167456451
 30
0.0
 10
5.5099010657
 20
4.3200902785
 30
0.0
 10
5.5097411288
 20
4.3237214226
 30
0.0
 10
5.5095810932
 20
4.3276305494
 30
0.0
 10
5.50936115
 20
4.3333712974
 30
0.0
 10
5.5090888978
 20
4.3411681764
 30
0.0
 10
5.5087704422
 20
4.3512169279
 30
0.0
 10
5.5084516021
 20
4.3621189628
 30
0.0
 10
5.5081324623
 20
4.3737719625
 30
0.0
 10
5.5078131228
 20
4.3860665898
 30
0.0
 10
5.5074936348
 20
4.3988874852
 30
0.0
 10
5.5071740425
 20
4.4121143235
 30
0.0
 10
5.506854387
 20
4.4256229791
 30
0.0
 10
5.5065346965
 20
4.4392866994
 30
0.0
 10
5.5062149991
 20
4.4529772593
 30
0.0
 10
5.5058953262
 20
4.4665661703
 30
0.0
 10
5.5055757032
 20
4.4799259229
 30
0.0
 10
5.5052561661
 20
4.4929311565
 30
0.0
 10
5.5049367593
 20
4.5054598119
 30
0.0
 10
5.5046175287
 20
4.5173943236
 30
0.0
 10
5.5042985449
 20
4.5286227157
 30
0.0
 10
5.5039799313
 20
4.5390396196
 30
0.0
 10
5.5036617735
 20
4.5485472826
 30
0.0
 10
5.5033890765
 20
4.5558604444
 30
0.0
 10
5.5031684004
 20
4.5611901288
 30
0.0
 10
5.5030084816
 20
4.5647745355
 30
0.0
 10
5.5028486767
 20
4.5680711012
 30
0.0
 10
5.5026890493
 20
4.571072084
 30
0.0
 10
5.5025296471
 20
4.57377046
 30
0.0
 10
5.5023705253
 20
4.5761599161
 30
0.0
 10
5.5022119427
 20
4.5782348937
 30
0.0
 10
5.5020539575
 20
4.5799905697
 30
0.0
 10
5.5019162721
 20
4.5812515132
 30
0.0
 10
5.5018030954
 20
4.5820970127
 30
0.0
 10
5.5017237355
 20
4.5826089559
 30
0.0
 10
5.5016447887
 20
4.583038675
 30
0.0
 10
5.5015662463
 20
4.5833859272
 30
0.0
 10
5.5014972822
 20
4.5836230044
 30
0.0
 10
5.5014397622
 20
4.5837699999
 30
0.0
 10
5.5014107106
 20
4.5838293382
 30
0.0
 10
5.5013958023
 20
4.5838551423
 30
0.0
  0
LINE
  5
25E
100
AcDbEntity
  8
0
100
AcDbLine
 62
7
  6
CONTINUOUS
 10
5.4724901317
 20
4.3004375066
 11
5.4723763383
 21
4.3007178921
  0
SPLINE
  5
25F
100
AcDbEntity
  8
0
100
AcDbSpline
 62
7
  6
CONTINUOUS
 70
0
 71
3
 72
62
 73
58
 74
0
 42
0.0000001
 43
0.0000001
 44
0.0000000001
 40
0.0
 40
0.0
 40
0.0
 40
0.0
 40
0.0010751759
 40
0.0024283053
 40
0.004061553
 40
0.0059752655
 40
0.0106421388
 40
0.0164229765
 40
0.023307775
 40
0.031280759
 40
0.0403248045
 40
0.0504205566
 40
0.0615440252
 40
0.0736704746
 40
0.1008203039
 40
0.1316217469
 40
0.1657925834
 40
0.2030206296
 40
0.242964539
 40
0.2852576703
 40
0.3295126997
 40
0.3753237453
 40
0.422270322
 40
0.4699220935
 40
0.5178418891
 40
0.5655900803
 40
0.6127288842
 40
0.6588256216
 40
0.703457656
 40
0.7462159315
 40
0.7867077992
 40
0.8245622694
 40
0.8594328864
 40
0.8909995178
 40
0.9054524801
 40
0.9189734182
 40
0.9315323881
 40
0.9430998283
 40
0.9536495395
 40
0.9631585515
 40
0.9716044111
 40
0.9789687476
 40
0.9852365146
 40
0.9879547212
 40
0.9903939074
 40
0.9925534145
 40
0.9944328232
 40
0.9960320559
 40
0.9973516703
 40
0.9979071916
 40
0.9983937455
 40
0.9988121947
 40
0.9991639362
 40
0.9994513506
 40
0.9996788592
 40
0.9998554572
 40
1.0
 40
1.0
 40
1.0
 40
1.0
 10
5.4723763383
 20
4.3007178921
 30
0.0
 10
5.4723459919
 20
4.3008148951
 30
0.0
 10
5.4722880722
 20
4.301037258
 30
0.0
 10
5.4722101818
 20
4.3014132867
 30
0.0
 10
5.4721318939
 20
4.3018699201
 30
0.0
 10
5.4720195597
 20
4.3026382746
 30
0.0
 10
5.4718834057
 20
4.3037990693
 30
0.0
 10
5.4717273878
 20
4.3054301641
 30
0.0
 10
5.4715707431
 20
4.3073749462
 30
0.0
 10
5.4714134929
 20
4.3096289945
 30
0.0
 10
5.4712559165
 20
4.3121872068
 30
0.0
 10
5.4710981159
 20
4.3150437272
 30
0.0
 10
5.4709401124
 20
4.3181920241
 30
0.0
 10
5.4707209382
 20
4.3229514031
 30
0.0
 10
5.4704507349
 20
4.3295705521
 30
0.0
 10
5.4701365058
 20
4.3382734308
 30
0.0
 10
5.4698216951
 20
4.3479295647
 30
0.0
 10
5.4695064371
 20
4.3584503596
 30
0.0
 10
5.4691908767
 20
4.3697392849
 30
0.0
 10
5.4688750891
 20
4.3816927248
 30
0.0
 10
5.4685591458
 20
4.3942009792
 30
0.0
 10
5.4682430915
 20
4.4071492672
 30
0.0
 10
5.4679269595
 20
4.4204187483
 30
0.0
 10
5.4676107854
 20
4.4338876292
 30
0.0
 10
5.467294595
 20
4.447432309
 30
0.0
 10
5.4669784136
 20
4.4609284837
 30
0.0
 10
5.4666622722
 20
4.4742522735
 30
0.0
 10
5.4663461965
 20
4.4872814028
 30
0.0
 10
5.466030223
 20
4.4998963075
 30
0.0
 10
5.4657144018
 20
4.5119812019
 30
0.0
 10
5.4653987806
 20
4.5234251729
 30
0.0
 10
5.4650834513
 20
4.5341232131
 30
0.0
 10
5.4647685059
 20
4.543977146
 30
0.0
 10
5.464499232
 20
4.5516191763
 30
0.0
 10
5.4642816848
 20
4.557243489
 30
0.0
 10
5.464123417
 20
4.5610718964
 30
0.0
 10
5.46396526
 20
4.564627284
 30
0.0
 10
5.4638072096
 20
4.5679015001
 30
0.0
 10
5.4636493031
 20
4.5708870394
 30
0.0
 10
5.4634916215
 20
4.5735770477
 30
0.0
 10
5.4633342376
 20
4.5759653842
 30
0.0
 10
5.4631772205
 20
4.5780465873
 30
0.0
 10
5.4630413284
 20
4.5795863117
 30
0.0
 10
5.4629306933
 20
4.5806606977
 30
0.0
 10
5.4628517995
 20
4.5813478885
 30
0.0
 10
5.4627730473
 20
4.5819552205
 30
0.0
 10
5.4626945083
 20
4.5824824378
 30
0.0
 10
5.4626162248
 20
4.5829292733
 30
0.0
 10
5.4625480803
 20
4.5832507042
 30
0.0
 10
5.4624922679
 20
4.58346691
 30
0.0
 10
5.4624529089
 20
4.5835992877
 30
0.0
 10
5.4624136454
 20
4.5837114806
 30
0.0
 10
5.4623744795
 20
4.5838035668
 30
0.0
 10
5.4623354092
 20
4.5838757932
 30
0.0
 10
5.4622961532
 20
4.5839284448
 30
0.0
 10
5.4622558627
 20
4.5839623637
 30
0.0
 10
5.4622253811
 20
4.5839711939
 30
0.0
 10
5.4622117171
 20
4.5839712007
 30
0.0
  0
SPLINE
  5
260
100
AcDbEntity
  8
0
100
AcDbSpline
 62
7
  6
CONTINUOUS
 70
0
 71
3
 72
61
 73
57
 74
0
 42
0.0000001
 43
0.0000001
 44
0.0000000001
 40
0.0
 40
0.0
 40
0.0
 40
0.0
 40
0.0001441812
 40
0.0003202556
 40
0.00054706
 40
0.0008335341
 40
0.0011840357
 40
0.0016008816
 40
0.002085405
 40
0.0026384212
 40
0.0039517477
 40
0.0055433662
 40
0.007414284
 40
0.0095644769
 40
0.0119930795
 40
0.0146989926
 40
0.0209377169
 40
0.0282695157
 40
0.0366779569
 40
0.0461440399
 40
0.0566478704
 40
0.068164975
 40
0.0806689785
 40
0.0941326725
 40
0.1085245942
 40
0.1399605203
 40
0.1746907399
 40
0.2123993879
 40
0.2527417971
 40
0.2953500024
 40
0.3398357013
 40
0.3857924315
 40
0.4328008023
 40
0.4804319575
 40
0.5758212364
 40
0.622708761
 40
0.6684853137
 40
0.7127334676
 40
0.7550491479
 40
0.795045971
 40
0.8323597059
 40
0.8666497314
 40
0.8976030356
 40
0.9249387282
 40
0.9371706524
 40
0.948408209
 40
0.9586248215
 40
0.9677984193
 40
0.9759088787
 40
0.9829371969
 40
0.9888695703
 40
0.9936946377
 40
0.99568904
 40
0.9974042053
 40
0.9988406941
 40
1.0
 40
1.0
 40
1.0
 40
1.0
 10
5.4700242171
 20
4.3003213559
 30
0.0
 10
5.4700105915
 20
4.3003213451
 30
0.0
 10
5.4699801885
 20
4.3003300986
 30
0.0
 10
5.4699399888
 20
4.3003638696
 30
0.0
 10
5.4699008314
 20
4.3004163129
 30
0.0
 10
5.4698618575
 20
4.3004882525
 30
0.0
 10
5.4698227886
 20
4.3005799577
 30
0.0
 10
5.4697836217
 20
4.3006916576
 30
0.0
 10
5.469744359
 20
4.3008234143
 30
0.0
 10
5.469688684
 20
4.3010385283
 30
0.0
 10
5.4696206967
 20
4.3013583043
 30
0.0
 10
5.4695425957
 20
4.3018028825
 30
0.0
 10
5.469464251
 20
4.302327535
 30
0.0
 10
5.4693857012
 20
4.3029319987
 30
0.0
 10
5.4693070066
 20
4.3036159367
 30
0.0
 10
5.4691966406
 20
4.304685085
 30
0.0
 10
5.4690610513
 20
4.3062173522
 30
0.0
 10
5.4689044453
 20
4.3082885627
 30
0.0
 10
5.4687474499
 20
4.3106654983
 30
0.0
 10
5.4685901284
 20
4.313342751
 30
0.0
 10
5.4684326277
 20
4.3163142263
 30
0.0
 10
5.4682749641
 20
4.3195731513
 30
0.0
 10
5.4681171765
 20
4.3231120872
 30
0.0
 10
5.4679593114
 20
4.3269229491
 30
0.0
 10
5.4677422813
 20
4.3325220075
 30
0.0
 10
5.4674736626
 20
4.3401303079
 30
0.0
 10
5.467159474
 20
4.349941821
 30
0.0
 10
5.4668449205
 20
4.3605954117
 30
0.0
 10
5.4665300668
 20
4.3719937908
 30
0.0
 10
5.4662150089
 20
4.384032849
 30
0.0
 10
5.4658998074
 20
4.3966026491
 30
0.0
 10
5.4655844994
 20
4.4095884033
 30
0.0
 10
5.4652691246
 20
4.4228714976
 30
0.0
 10
5.4648483806
 20
4.440824954
 30
0.0
 10
5.4644304069
 20
4.458767052
 30
0.0
 10
5.4640075097
 20
4.4765337193
 30
0.0
 10
5.4636922114
 20
4.4894685621
 30
0.0
 10
5.4633770267
 20
4.5019712207
 30
0.0
 10
5.4630619964
 20
4.5139274987
 30
0.0
 10
5.462747178
 20
4.5252282174
 30
0.0
 10
5.4624326582
 20
4.5357701801
 30
0.0
 10
5.4621185815
 20
4.5454571057
 30
0.0
 10
5.4618050489
 20
4.5542005461
 30
0.0
 10
5.4615355659
 20
4.5608596092
 30
0.0
 10
5.4613170365
 20
4.5656559099
 30
0.0
 10
5.4611594145
 20
4.5688354692
 30
0.0
 10
5.461001947
 20
4.5717256275
 30
0.0
 10
5.4608447115
 20
4.5743197973
 30
0.0
 10
5.4606878086
 20
4.5766120649
 30
0.0
 10
5.460531408
 20
4.5785972663
 30
0.0
 10
5.4603756297
 20
4.5802709007
 30
0.0
 10
5.4602398368
 20
4.5814684939
 30
0.0
 10
5.4601280026
 20
4.5822673003
 30
0.0
 10
5.4600497853
 20
4.5827473548
 30
0.0
 10
5.4599719283
 20
4.5831473052
 30
0.0
 10
5.4599144024
 20
4.5833859587
 30
0.0
 10
5.4598844453
 20
4.5834913419
 30
0.0
  0
LINE
  5
261
100
AcDbEntity
  8
0
100
AcDbLine
 62
7
  6
CONTINUOUS
 10
5.4598844453
 20
4.5834913419
 11
5.4597458023
 21
4.5838552852
  0
LINE
  5
262
100
AcDbEntity
  8
0
100
AcDbLine
 62
7
  6
CONTINUOUS
 10
5.4933151317
 20
4.3004375128
 11
5.4932252053
 21
4.3006452508
  0
SPLINE
  5
263
100
AcDbEntity
  8
0
100
AcDbSpline
 62
7
  6
CONTINUOUS
 70
0
 71
3
 72
62
 73
58
 74
0
 42
0.0000001
 43
0.0000001
 44
0.0000000001
 40
0.0
 40
0.0
 40
0.0
 40
0.0
 40
0.0009947994
 40
0.0022677463
 40
0.0038216583
 40
0.0056571968
 40
0.0101718564
 40
0.0158066776
 40
0.0225521347
 40
0.0303927907
 40
0.0393118295
 40
0.0492900894
 40
0.0603037563
 40
0.0723282874
 40
0.0992982068
 40
0.1299521424
 40
0.1640078893
 40
0.2011528425
 40
0.2410448995
 40
0.2833161384
 40
0.3275775907
 40
0.3734214745
 40
0.4204249949
 40
0.4681552546
 40
0.516172344
 40
0.5640336387
 40
0.6112982701
 40
0.6575303943
 40
0.7023040696
 40
0.7452070618
 40
0.7858436023
 40
0.8238394705
 40
0.8588453618
 40
0.8905385163
 40
0.9050504738
 40
0.9186274152
 40
0.9312389522
 40
0.94285513
 40
0.9534498488
 40
0.962999694
 40
0.971481908
 40
0.9788783036
 40
0.9851733976
 40
0.9879033751
 40
0.9903531961
 40
0.9925221775
 40
0.9944098435
 40
0.9960160607
 40
0.9973413313
 40
0.9978991715
 40
0.9983877456
 40
0.9988079251
 40
0.9991611007
 40
0.9994496481
 40
0.9996779873
 40
0.9998551279
 40
1.0
 40
1.0
 40
1.0
 40
1.0
 10
5.4932252053
 20
4.3006452508
 30
0.0
 10
5.493194438
 20
4.3007341429
 30
0.0
 10
5.4931361312
 20
4.3009408063
 30
0.0
 10
5.493058232
 20
4.3012937449
 30
0.0
 10
5.4929798786
 20
4.3017276903
 30
0.0
 10
5.4928670311
 20
4.3024665727
 30
0.0
 10
5.4927305713
 20
4.3035918309
 30
0.0
 10
5.4925743383
 20
4.30518178
 30
0.0
 10
5.4924174363
 20
4.3070874485
 30
0.0
 10
5.4922598805
 20
4.3093044853
 30
0.0
 10
5.4921019807
 20
4.31182786
 30
0.0
 10
5.491943842
 20
4.3146517701
 30
0.0
 10
5.4917854907
 20
4.3177697313
 30
0.0
 10
5.491565688
 20
4.3224932955
 30
0.0
 10
5.4912947975
 20
4.3290735737
 30
0.0
 10
5.4909798916
 20
4.3377369068
 30
0.0
 10
5.490664386
 20
4.3473629182
 30
0.0
 10
5.4903484186
 20
4.3578628763
 30
0.0
 10
5.4900321413
 20
4.3691399901
 30
0.0
 10
5.4897156305
 20
4.3810902664
 30
0.0
 10
5.4893989596
 20
4.3936035182
 30
0.0
 10
5.4890821751
 20
4.4065643792
 30
0.0
 10
5.4887653106
 20
4.4198533366
 30
0.0
 10
5.488448402
 20
4.4333478439
 30
0.0
 10
5.4881314763
 20
4.4469234823
 30
0.0
 10
5.4878145585
 20
4.4604550801
 30
0.0
 10
5.4874976799
 20
4.4738178496
 30
0.0
 10
5.4871808671
 20
4.4868885784
 30
0.0
 10
5.4868641557
 20
4.4995467579
 30
0.0
 10
5.4865475965
 20
4.5116756631
 30
0.0
 10
5.4862312383
 20
4.5231634497
 30
0.0
 10
5.4859151718
 20
4.5339042124
 30
0.0
 10
5.4855994884
 20
4.5437989245
 30
0.0
 10
5.4853295943
 20
4.5514733471
 30
0.0
 10
5.4851115402
 20
4.557122013
 30
0.0
 10
5.4849529022
 20
4.5609672966
 30
0.0
 10
5.4847943756
 20
4.5645385172
 30
0.0
 10
5.4846359513
 20
4.5678274507
 30
0.0
 10
5.4844776763
 20
4.5708265205
 30
0.0
 10
5.4843196266
 20
4.573528809
 30
0.0
 10
5.484161869
 20
4.5759281197
 30
0.0
 10
5.4840044864
 20
4.5780189379
 30
0.0
 10
5.4838682791
 20
4.5795658073
 30
0.0
 10
5.4837573802
 20
4.5806451862
 30
0.0
 10
5.4836783014
 20
4.5813355775
 30
0.0
 10
5.483599365
 20
4.5819457567
 30
0.0
 10
5.4835206429
 20
4.5824754549
 30
0.0
 10
5.4834421772
 20
4.5829243887
 30
0.0
 10
5.4833738742
 20
4.5832473225
 30
0.0
 10
5.483317927
 20
4.5834645318
 30
0.0
 10
5.4832784755
 20
4.5835975195
 30
0.0
 10
5.4832391206
 20
4.5837102338
 30
0.0
 10
5.483199864
 20
4.5838027522
 30
0.0
 10
5.4831607049
 20
4.5838753213
 30
0.0
 10
5.4831213614
 20
4.5839282251
 30
0.0
 10
5.4830809847
 20
4.5839623171
 30
0.0
 10
5.4830504159
 20
4.5839712055
 30
0.0
 10
5.4830367171
 20
4.583971215
 30
0.0
  0
SPLINE
  5
264
100
AcDbEntity
  8
0
100
AcDbSpline
 62
7
  6
CONTINUOUS
 70
0
 71
3
 72
39
 73
35
 74
0
 42
0.0000001
 43
0.0000001
 44
0.0000000001
 40
0.0
 40
0.0
 40
0.0
 40
0.0
 40
0.0002732947
 40
0.0006195252
 40
0.0010780224
 40
0.0016659949
 40
0.0023914885
 40
0.0032587239
 40
0.0042701073
 40
0.005426965
 40
0.0081796951
 40
0.011520128
 40
0.0154489147
 40
0.0199656266
 40
0.0250692298
 40
0.0307574964
 40
0.0438738401
 40
0.0592851145
 40
0.0769583778
 40
0.0968501621
 40
0.1189136301
 40
0.143097935
 40
0.1693431241
 40
0.1975876889
 40
0.227764395
 40
0.2936160032
 40
0.3662657659
 40
0.4450149552
 40
0.5291041096
 40
0.6177262527
 40
0.7100291621
 40
0.8051165958
 40
0.9020988912
 40
1.0
 40
1.0
 40
1.0
 40
1.0
 10
5.4834735673
 20
4.2875464575
 30
0.0
 10
5.4834594651
 20
4.2875464606
 30
0.0
 10
5.4834274735
 20
4.2875570444
 30
0.0
 10
5.4833865948
 20
4.2875960301
 30
0.0
 10
5.4833465758
 20
4.2876560562
 30
0.0
 10
5.4833066884
 20
4.2877385494
 30
0.0
 10
5.4832666234
 20
4.2878437883
 30
0.0
 10
5.4832264383
 20
4.2879720765
 30
0.0
 10
5.483186141
 20
4.2881234731
 30
0.0
 10
5.4831289475
 20
4.28837091
 30
0.0
 10
5.4830591487
 20
4.2887385745
 30
0.0
 10
5.4829789726
 20
4.2892495087
 30
0.0
 10
5.4828985285
 20
4.2898523721
 30
0.0
 10
5.4828178604
 20
4.2905468707
 30
0.0
 10
5.4827370522
 20
4.2913326799
 30
0.0
 10
5.4826237245
 20
4.2925611634
 30
0.0
 10
5.4824845154
 20
4.2943213015
 30
0.0
 10
5.4823236762
 20
4.296699902
 30
0.0
 10
5.482162478
 20
4.2994287913
 30
0.0
 10
5.482000942
 20
4.3025014417
 30
0.0
 10
5.4818391944
 20
4.3059104713
 30
0.0
 10
5.4816773052
 20
4.3096476682
 30
0.0
 10
5.4815152817
 20
4.3137040826
 30
0.0
 10
5.4813531656
 20
4.3180699338
 30
0.0
 10
5.4811303844
 20
4.3244786448
 30
0.0
 10
5.4808546352
 20
4.3331782154
 30
0.0
 10
5.4805320344
 20
4.3443838809
 30
0.0
 10
5.4802090559
 20
4.356530965
 30
0.0
 10
5.4798857755
 20
4.3695024982
 30
0.0
 10
5.4795622903
 20
4.3831736135
 30
0.0
 10
5.4792386661
 20
4.3974123966
 30
0.0
 10
5.4789149242
 20
4.4120826749
 30
0.0
 10
5.4785911332
 20
4.4270418921
 30
0.0
 10
5.4783755952
 20
4.4370957172
 30
0.0
 10
5.4782673173
 20
4.44214633
 30
0.0
  0
SPLINE
  5
265
100
AcDbEntity
  8
0
100
AcDbSpline
 62
7
  6
CONTINUOUS
 70
0
 71
3
 72
39
 73
35
 74
0
 42
0.0000001
 43
0.0000001
 44
0.0000000001
 40
0.0
 40
0.0
 40
0.0
 40
0.0
 40
0.000273273
 40
0.0006194604
 40
0.0010779254
 40
0.001665901
 40
0.0023914523
 40
0.003258808
 40
0.0042702836
 40
0.0054271757
 40
0.0081798533
 40
0.0115201628
 40
0.0154488669
 40
0.0199656494
 40
0.0250694937
 40
0.0307578538
 40
0.0438741561
 40
0.0592857134
 40
0.0769594415
 40
0.0968514576
 40
0.1189152816
 40
0.1430997122
 40
0.1693447706
 40
0.197589149
 40
0.2277652682
 40
0.2936154035
 40
0.3662633142
 40
0.4450112568
 40
0.5290998738
 40
0.6177221555
 40
0.7100255034
 40
0.8051144059
 40
0.9020988562
 40
1.0
 40
1.0
 40
1.0
 40
1.0
 10
5.5042985673
 20
4.2875464628
 30
0.0
 10
5.5042844662
 20
4.2875464617
 30
0.0
 10
5.5042524743
 20
4.2875570351
 30
0.0
 10
5.5042115937
 20
4.2875960129
 30
0.0
 10
5.5041715746
 20
4.2876560346
 30
0.0
 10
5.5041316871
 20
4.2877385296
 30
0.0
 10
5.5040916223
 20
4.2878437786
 30
0.0
 10
5.5040514397
 20
4.2879720822
 30
0.0
 10
5.5040111423
 20
4.2881234919
 30
0.0
 10
5.503953949
 20
4.2883709327
 30
0.0
 10
5.5038841489
 20
4.2887385895
 30
0.0
 10
5.5038039714
 20
4.2892495101
 30
0.0
 10
5.5037235261
 20
4.2898523663
 30
0.0
 10
5.5036428577
 20
4.2905468768
 30
0.0
 10
5.5035620521
 20
4.2913327073
 30
0.0
 10
5.5034487229
 20
4.2925612059
 30
0.0
 10
5.5033095093
 20
4.294321361
 30
0.0
 10
5.50314867
 20
4.2966999982
 30
0.0
 10
5.5029874716
 20
4.2994289382
 30
0.0
 10
5.5028259311
 20
4.3025016429
 30
0.0
 10
5.5026641842
 20
4.3059107095
 30
0.0
 10
5.5025022947
 20
4.3096479247
 30
0.0
 10
5.5023402715
 20
4.3137043294
 30
0.0
 10
5.5021781591
 20
4.3180701341
 30
0.0
 10
5.501955381
 20
4.3244787295
 30
0.0
 10
5.5016796397
 20
4.3331780988
 30
0.0
 10
5.5013570438
 20
4.3443835289
 30
0.0
 10
5.5010340696
 20
4.3565304259
 30
0.0
 10
5.5007107909
 20
4.3695018747
 30
0.0
 10
5.5003873049
 20
4.3831729925
 30
0.0
 10
5.5000636773
 20
4.3974118817
 30
0.0
 10
5.499739931
 20
4.4120823702
 30
0.0
 10
5.4994161356
 20
4.4270417767
 30
0.0
 10
5.4992005952
 20
4.4370957152
 30
0.0
 10
5.4990923173
 20
4.44214633
 30
0.0
  0
SPLINE
  5
266
100
AcDbEntity
  8
0
100
AcDbSpline
 62
7
  6
CONTINUOUS
 70
0
 71
3
 72
9
 73
5
 74
0
 42
0.0000001
 43
0.0000001
 44
0.0000000001
 40
0.0
 40
0.0
 40
0.0
 40
0.0
 40
0.2381582326
 40
1.0
 40
1.0
 40
1.0
 40
1.0
 10
5.5215268504
 20
4.2876528051
 30
0.0
 10
5.5215250032
 20
4.2876560021
 30
0.0
 10
5.5215173785
 20
4.2876695015
 30
0.0
 10
5.521510252
 20
4.2876832796
 30
0.0
 10
5.5215050477
 20
4.2876938823
 30
0.0
  0
SPLINE
  5
267
100
AcDbEntity
  8
0
100
AcDbSpline
 62
7
  6
CONTINUOUS
 70
0
 71
3
 72
65
 73
61
 74
0
 42
0.0000001
 43
0.0000001
 44
0.0000000001
 40
0.0
 40
0.0
 40
0.0
 40
0.0
 40
0.0003273808
 40
0.0007229012
 40
0.0017234706
 40
0.0030079828
 40
0.0045782929
 40
0.0064348365
 40
0.0085774319
 40
0.013718463
 40
0.0199931525
 40
0.0273871128
 40
0.0358847118
 40
0.0454668185
 40
0.0561104507
 40
0.0677920156
 40
0.0804840593
 40
0.0941564282
 40
0.1243148108
 40
0.1579849228
 40
0.1948521777
 40
0.2345723413
 40
0.2767734444
 40
0.3210604112
 40
0.3670191104
 40
0.414219376
 40
0.4622191918
 40
0.510569443
 40
0.5588175305
 40
0.6065117153
 40
0.6532057734
 40
0.6984625798
 40
0.7418583026
 40
0.7829872159
 40
0.8214645851
 40
0.8569299171
 40
0.8890519378
 40
0.9037644614
 40
0.9175310004
 40
0.9303194849
 40
0.9421009204
 40
0.9528468702
 40
0.9625329892
 40
0.971137481
 40
0.9786395879
 40
0.9850236036
 40
0.987792122
 40
0.9902761591
 40
0.9924744652
 40
0.9943865696
 40
0.9960123903
 40
0.9973523839
 40
0.9979156762
 40
0.9984082841
 40
0.9988308623
 40
0.999184546
 40
0.9994714313
 40
0.9996955219
 40
0.9998653152
 40
1.0
 40
1.0
 40
1.0
 40
1.0
 10
5.5215050477
 20
4.2876938823
 30
0.0
 10
5.5214901709
 20
4.2877241907
 30
0.0
 10
5.5214612055
 20
4.287793016
 30
0.0
 10
5.5214038516
 20
4.2879613291
 30
0.0
 10
5.5213349994
 20
4.2882294071
 30
0.0
 10
5.5212565076
 20
4.2886192461
 30
0.0
 10
5.521177598
 20
4.2890987693
 30
0.0
 10
5.5210982881
 20
4.2896676774
 30
0.0
 10
5.5209852974
 20
4.2906035472
 30
0.0
 10
5.5208477744
 20
4.2919951701
 30
0.0
 10
5.5206899218
 20
4.2939286226
 30
0.0
 10
5.5205314429
 20
4.2962091682
 30
0.0
 10
5.5203724825
 20
4.2988314717
 30
0.0
 10
5.5202132351
 20
4.3017894376
 30
0.0
 10
5.5200537438
 20
4.3050761754
 30
0.0
 10
5.5198941122
 20
4.3086839748
 30
0.0
 10
5.5197343525
 20
4.3126044009
 30
0.0
 10
5.5195139342
 20
4.3184294221
 30
0.0
 10
5.5192415579
 20
4.3264174534
 30
0.0
 10
5.5189237106
 20
4.336797332
 30
0.0
 10
5.5186054078
 20
4.3481637212
 30
0.0
 10
5.5182867499
 20
4.360410216
 30
0.0
 10
5.5179678463
 20
4.3734221399
 30
0.0
 10
5.5176487619
 20
4.3870776208
 30
0.0
 10
5.517329554
 20
4.401248796
 30
0.0
 10
5.5170102618
 20
4.4158029687
 30
0.0
 10
5.5166909166
 20
4.4306038384
 30
0.0
 10
5.5163715507
 20
4.4455127941
 30
0.0
 10
5.5160521914
 20
4.4603902232
 30
0.0
 10
5.5157328653
 20
4.4750968105
 30
0.0
 10
5.5154136063
 20
4.4894948354
 30
0.0
 10
5.5150944502
 20
4.5034494516
 30
0.0
 10
5.5147754393
 20
4.5168299838
 30
0.0
 10
5.5144566333
 20
4.5295111513
 30
0.0
 10
5.5141381276
 20
4.5413741946
 30
0.0
 10
5.5138199968
 20
4.5523080093
 30
0.0
 10
5.5135480314
 20
4.5607912392
 30
0.0
 10
5.5133283068
 20
4.5670371568
 30
0.0
 10
5.5131684452
 20
4.5712900713
 30
0.0
 10
5.5130086712
 20
4.5752404785
 30
0.0
 10
5.5128490293
 20
4.5788791045
 30
0.0
 10
5.512689531
 20
4.5821974573
 30
0.0
 10
5.5125302338
 20
4.5851877673
 30
0.0
 10
5.5123712758
 20
4.5878430376
 30
0.0
 10
5.5122126747
 20
4.5901570919
 30
0.0
 10
5.5120753924
 20
4.5918692549
 30
0.0
 10
5.5119636369
 20
4.5930641344
 30
0.0
 10
5.5118839564
 20
4.5938284162
 30
0.0
 10
5.5118044105
 20
4.5945038559
 30
0.0
 10
5.5117250828
 20
4.5950901332
 30
0.0
 10
5.5116460181
 20
4.5955869867
 30
0.0
 10
5.511577187
 20
4.5959445014
 30
0.0
 10
5.5115207914
 20
4.5961851032
 30
0.0
 10
5.5114810518
 20
4.5963323447
 30
0.0
 10
5.5114414247
 20
4.5964571216
 30
0.0
 10
5.5114019112
 20
4.5965594841
 30
0.0
 10
5.5113625611
 20
4.5966397192
 30
0.0
 10
5.5113230753
 20
4.5966981084
 30
0.0
 10
5.5112827037
 20
4.596735987
 30
0.0
 10
5.5112512567
 20
4.596746198
 30
0.0
 10
5.5112373666
 20
4.5967461946
 30
0.0
  0
SPLINE
  5
268
100
AcDbEntity
  8
0
100
AcDbSpline
 62
7
  6
CONTINUOUS
 70
0
 71
3
 72
39
 73
35
 74
0
 42
0.0000001
 43
0.0000001
 44
0.0000000001
 40
0.0
 40
0.0
 40
0.0
 40
0.0
 40
0.0821105608
 40
0.1675678629
 40
0.2550243428
 40
0.3431168854
 40
0.4304628828
 40
0.5156954856
 40
0.5974795661
 40
0.6745345913
 40
0.7109083026
 40
0.7456541367
 40
0.7786358949
 40
0.809725038
 40
0.8387988033
 40
0.8657450029
 40
0.8904564304
 40
0.9128387442
 40
0.9328026855
 40
0.9502727739
 40
0.96518025
 40
0.9774698324
 40
0.9826187648
 40
0.9870969658
 40
0.990901824
 40
0.9940321086
 40
0.9953443918
 40
0.9964884494
 40
0.9974650132
 40
0.998275593
 40
0.9989233487
 40
0.9991881227
 40
0.99941516
 40
1.0
 40
1.0
 40
1.0
 40
1.0
 10
5.4560061167
 20
4.5070609195
 30
0.0
 10
5.4561481387
 20
4.5010485841
 30
0.0
 10
5.4564294741
 20
4.4887786559
 30
0.0
 10
5.4568411945
 20
4.4701044801
 30
0.0
 10
5.4572530636
 20
4.4509920667
 30
0.0
 10
5.4576649776
 20
4.4317412893
 30
0.0
 10
5.4580768393
 20
4.4126534312
 30
0.0
 10
5.4584885341
 20
4.3940277281
 30
0.0
 10
5.458899956
 20
4.3761559493
 30
0.0
 10
5.4592487713
 20
4.3618622513
 30
0.0
 10
5.4595301786
 20
4.3510131685
 30
0.0
 10
5.4597371061
 20
4.3433912972
 30
0.0
 10
5.4599439633
 20
4.3361566303
 30
0.0
 10
5.4601507218
 20
4.329337578
 30
0.0
 10
5.4603573815
 20
4.3229608
 30
0.0
 10
5.4605638686
 20
4.3170514003
 30
0.0
 10
5.4607701853
 20
4.3116324186
 30
0.0
 10
5.4609761922
 20
4.3067252279
 30
0.0
 10
5.4611818609
 20
4.3023489165
 30
0.0
 10
5.4613868785
 20
4.2985207187
 30
0.0
 10
5.4615911753
 20
4.2952555109
 30
0.0
 10
5.461768947
 20
4.2928929484
 30
0.0
 10
5.4619148805
 20
4.2912943194
 30
0.0
 10
5.4620175
 20
4.2903158438
 30
0.0
 10
5.46211975
 20
4.2894861299
 30
0.0
 10
5.4622087785
 20
4.2888885295
 30
0.0
 10
5.4622817762
 20
4.288485883
 30
0.0
 10
5.4623331637
 20
4.2882397024
 30
0.0
 10
5.462384314
 20
4.2880311773
 30
0.0
 10
5.4624354094
 20
4.287860084
 30
0.0
 10
5.4624798462
 20
4.2877421125
 30
0.0
 10
5.4625170707
 20
4.2876666462
 30
0.0
 10
5.4625562315
 20
4.2876006579
 30
0.0
 10
5.4626057319
 20
4.2875464841
 30
0.0
 10
5.4626485673
 20
4.2875464679
 30
0.0
  0
LINE
  5
269
100
AcDbEntity
  8
0
100
AcDbLine
 62
7
  6
CONTINUOUS
 10
5.5141401318
 20
4.3004375131
 11
5.5140720682
 21
4.300585148
  0
SPLINE
  5
26A
100
AcDbEntity
  8
0
100
AcDbSpline
 62
7
  6
CONTINUOUS
 70
0
 71
3
 72
63
 73
59
 74
0
 42
0.0000001
 43
0.0000001
 44
0.0000000001
 40
0.0
 40
0.0
 40
0.0
 40
0.0
 40
0.0009213664
 40
0.0021207742
 40
0.0036018054
 40
0.0053654705
 40
0.0074117678
 40
0.0097402434
 40
0.0152406579
 40
0.0218578062
 40
0.0295765759
 40
0.0383804426
 40
0.0482504238
 40
0.0591628735
 40
0.0710934317
 40
0.097897393
 40
0.1284151741
 40
0.1623646023
 40
0.1994326961
 40
0.2392766754
 40
0.2815274529
 40
0.3257945494
 40
0.3716684429
 40
0.4187242204
 40
0.466526624
 40
0.5146332251
 40
0.5625986417
 40
0.609979154
 40
0.6563360114
 40
0.7012402159
 40
0.7442765915
 40
0.7850465116
 40
0.8231727615
 40
0.8583033874
 40
0.8901132316
 40
0.9046796023
 40
0.9183082143
 40
0.9309682215
 40
0.9426293627
 40
0.9532656147
 40
0.9628531024
 40
0.9713688682
 40
0.9787948538
 40
0.9851151234
 40
0.9878559646
 40
0.9903156178
 40
0.9924933521
 40
0.9943886367
 40
0.9960012839
 40
0.9973317426
 40
0.9978917246
 40
0.9983821764
 40
0.998803964
 40
0.9991584721
 40
0.9994480717
 40
0.9996771812
 40
0.9998548239
 40
1.0
 40
1.0
 40
1.0
 40
1.0
 10
5.5140720682
 20
4.300585148
 30
0.0
 10
5.5140408644
 20
4.3006665119
 30
0.0
 10
5.5139821883
 20
4.3008587227
 30
0.0
 10
5.5139043016
 20
4.3011904205
 30
0.0
 10
5.513825921
 20
4.301603487
 30
0.0
 10
5.5137471407
 20
4.3020977048
 30
0.0
 10
5.5136681169
 20
4.3026729082
 30
0.0
 10
5.5135562245
 20
4.3036001996
 30
0.0
 10
5.5134195195
 20
4.3049597571
 30
0.0
 10
5.5132622654
 20
4.3068293048
 30
0.0
 10
5.5131044749
 20
4.309012194
 30
0.0
 10
5.5129462677
 20
4.311503392
 30
0.0
 10
5.512787825
 20
4.3142971699
 30
0.0
 10
5.5126291546
 20
4.3173870805
 30
0.0
 10
5.5124087744
 20
4.3220774913
 30
0.0
 10
5.512137254
 20
4.3286217377
 30
0.0
 10
5.5118217299
 20
4.33724835
 30
0.0
 10
5.5115055888
 20
4.3468462951
 30
0.0
 10
5.5111889723
 20
4.3573267215
 30
0.0
 10
5.5108720387
 20
4.3685926045
 30
0.0
 10
5.5105548658
 20
4.380539609
 30
0.0
 10
5.5102375286
 20
4.3930571044
 30
0.0
 10
5.5099200753
 20
4.4060291901
 30
0.0
 10
5.5096025399
 20
4.4193357376
 30
0.0
 10
5.5092849588
 20
4.4328535106
 30
0.0
 10
5.5089673596
 20
4.4464573397
 30
0.0
 10
5.5086497672
 20
4.4600212559
 30
0.0
 10
5.5083322134
 20
4.4734196379
 30
0.0
 10
5.5080147254
 20
4.4865284118
 30
0.0
 10
5.5076973382
 20
4.4992261994
 30
0.0
 10
5.5073801027
 20
4.5113954118
 30
0.0
 10
5.5070630697
 20
4.5229233478
 30
0.0
 10
5.5067463279
 20
4.5337032738
 30
0.0
 10
5.5064299684
 20
4.5436353806
 30
0.0
 10
5.5061595064
 20
4.551339513
 30
0.0
 10
5.5059409878
 20
4.5570105218
 30
0.0
 10
5.5057820111
 20
4.56087129
 30
0.0
 10
5.5056231455
 20
4.5644570396
 30
0.0
 10
5.5054643787
 20
4.5677594796
 30
0.0
 10
5.5053057667
 20
4.570770967
 30
0.0
 10
5.505147379
 20
4.573484527
 30
0.0
 10
5.5049892793
 20
4.5758939112
 30
0.0
 10
5.504831563
 20
4.5779935549
 30
0.0
 10
5.5046950656
 20
4.5795469814
 30
0.0
 10
5.5045839251
 20
4.5806309427
 30
0.0
 10
5.5045046773
 20
4.5813242758
 30
0.0
 10
5.5044255723
 20
4.581937072
 30
0.0
 10
5.5043466825
 20
4.5824690475
 30
0.0
 10
5.5042680506
 20
4.5829199035
 30
0.0
 10
5.5041996007
 20
4.5832442126
 30
0.0
 10
5.5041435303
 20
4.5834623417
 30
0.0
 10
5.5041039946
 20
4.5835958921
 30
0.0
 10
5.5040645559
 20
4.5837090884
 30
0.0
 10
5.5040252163
 20
4.5838020062
 30
0.0
 10
5.5039859759
 20
4.583874892
 30
0.0
 10
5.5039465523
 20
4.5839280286
 30
0.0
 10
5.5039060968
 20
4.58396228
 30
0.0
 10
5.5038754478
 20
4.5839712214
 30
0.0
 10
5.5038617171
 20
4.5839712329
 30
0.0
  0
ENDSEC
  0
SECTION
  2
OBJECTS
  0
DICTIONARY
  5
C
100
AcDbDictionary
280
0
281
1
  3
ACAD_GROUP
350
D
  3
ACAD_MLINESTYLE
350
17
  3
ACAD_LAYOUT
350
1A
  3
ACAD_PLOTSETTINGS
350
19
  3
ACAD_PLOTSTYLENAME
350
E
  0
DICTIONARY
  5
D
102
{ACAD_REACTORS
330
C
102
}
100
AcDbDictionary
280
0
281
1
  0
ACDBDICTIONARYWDFLT
  5
E
102
{ACAD_REACTORS
330
C
102
}
100
AcDbDictionary
281
1
  3
Normal
350
F
100
AcDbDictionaryWithDefault
340
F
  0
DICTIONARY
  5
17
102
{ACAD_REACTORS
330
C
102
}
100
AcDbDictionary
280
0
281
1
  3
Standard
350
18
  0
DICTIONARY
  5
19
102
{ACAD_REACTORS
330
C
102
}
100
AcDbDictionary
281
1
  0
DICTIONARY
  5
1A
102
{ACAD_REACTORS
330
C
102
}
100
AcDbDictionary
281
1
  3
Model
350
26B
  3
Layout1
350
26C
  0
ACDBPLACEHOLDER
  5
F
102
{ACAD_REACTORS
330
E
102
}
  0
MLINESTYLE
  5
18
102
{ACAD_REACTORS
330
17
102
}
100
AcDbMlineStyle
  2
STANDARD
 70
0
  3

 62
256
 51
90.0
 52
90.0
 71
2
 49
0.5
 62
256
  6
BYLAYER
 49
-0.5
 62
256
  6
BYLAYER
  0
LAYOUT
  5
26B
102
{ACAD_REACTORS
330
1A
102
}
100
AcDbPlotSettings
  1

  2
none_device
  4
ANSI_A_(11.00_x_8.50_Inches)
  6

 40
0.0
 41
0.0
 42
0.0
 43
0.0
 44
279.4
 45
215.9
 46
0.0
 47
0.0
 48
0.0
 49
0.0
140
0.0
141
0.0
142
1.0
143
1.0
 70
1024
 72
0
 73
0
 74
0
  7

 75
0
147
1.0
148
0.0
149
0.0
100
AcDbLayout
  1
Model
 70
0
 71
0
 10
0.0
 20
0.0
 11
11.0
 21
8.5
 12
0.0
 22
0.0
 32
0.0
 14
0.0
 24
0.0
 34
0.0
 15
0.0
 25
0.0
 35
0.0
146
0.0
 13
0.0
 23
0.0
 33
0.0
 16
1.0
 26
0.0
 36
0.0
 17
0.0
 27
1.0
 37
0.0
 76
0
330
20E
345
0
346
0
  0
LAYOUT
  5
26C
102
{ACAD_REACTORS
330
1A
102
}
100
AcDbPlotSettings
  1

  2
none_device
  4
ANSI_A_(11.00_x_8.50_Inches)
  6

 40
0.0
 41
0.0
 42
0.0
 43
0.0
 44
279.4
 45
215.9
 46
0.0
 47
0.0
 48
0.0
 49
0.0
140
0.0
141
0.0
142
1.0
143
1.0
 70
0
 72
0
 73
0
 74
0
  7

 75
0
147
1.0
148
0.0
149
0.0
100
AcDbLayout
  1
Layout1
 70
0
 71
1
 10
0.0
 20
0.0
 11
11.0
 21
8.5
 12
0.0
 22
0.0
 32
0.0
 14
0.0
 24
0.0
 34
0.0
 15
0.0
 25
0.0
 35
0.0
146
0.0
 13
0.0
 23
0.0
 33
0.0
 16
1.0
 26
0.0
 36
0.0
 17
0.0
 27
1.0
 37
0.0
 76
0
330
20F
345
0
346
0
  0
ENDSEC
  0
EOF
