  0
SECTION
  2
HEADER
  9
$ACADVER
  1
AC1015
  9
$DWGCODEPAGE
  3
ANSI_1252
  9
$EXTMAX
 10
23.3858267717
 20
16.5354330709
 30
0.0
  9
$EXTMIN
 10
0.0
 20
-0.0
 30
0.0
  9
$LIMMIN
 10
0.0
 20
-0.0
  9
$LIMMAX
 10
23.3858267717
 20
16.5354330709
  9
$VIEWCTR
 10
11.6929133858
 20
8.2677165354
  9
$VIEWSIZE
 40
16.5354330709
  9
$CLAYER
  8
0
  9
$LTSCALE
 40
1.2862204724
  9
$CELTYPE
  6
BYLAYER
  9
$DIMSCALE
 40
1.0
  9
$DIMASZ
 40
0.1
  9
$DIMEXO
 40
0.1461614173
  9
$DIMDLI
 40
0.8886614173
  9
$DIMEXE
 40
0.4209448819
  9
$DIMCEN
 40
0.2104724409
  9
$DIMLFAC
 40
1.0
  9
$DIMBLK
  1
_FILLED
  9
$DIMTXT
 40
0.08
  9
$DIMTOL
 70
1
  9
$DIMLIM
 70
0
  9
$DIMTFAC
 40
1.0
  9
$DIMTP
 40
0.01
  9
$DIMTM
 40
0.01
  9
$PDMODE
 70
3
  9
$PDSIZE
 40
0.06
  9
$HANDSEED
  5
2FE
  9
$TILEMODE
 70
1
  9
$MEASUREMENT
 70
0
  9
$INSUNITS
 70
1
  0
ENDSEC
  0
SECTION
  2
CLASSES
  0
CLASS
  1
ACDBDICTIONARYWDFLT
  2
AcDbDictionaryWithDefault
  3
AutoCAD 2000
 90
0
280
0
281
0
  0
CLASS
  1
ACDBPLACEHOLDER
  2
AcDbPlaceHolder
  3
AutoCAD 2000
 90
0
280
0
281
0
  0
CLASS
  1
LAYOUT
  2
AcDbLayout
  3
AutoCAD 2000
 90
0
280
0
281
0
  0
ENDSEC
  0
SECTION
  2
TABLES
  0
TABLE
  2
VPORT
  5
8
100
AcDbSymbolTable
 70
2
  0
VPORT
  5
1F4
100
AcDbSymbolTableRecord
100
AcDbViewportTableRecord
  2
*ACTIVE
 70
0
 10
0.0
 20
0.0
 11
1.0
 21
1.0
 12
11.6929133858
 22
8.2677165354
 13
0.0
 23
0.0
 14
1.0
 24
1.0
 15
0.0
 25
0.0
 16
0.0
 26
0.0
 36
1.0
 17
0.0
 27
0.0
 37
0.0
 40
16.5354330709
 41
1.4142857143
 42
50.0
 43
0.0
 44
0.0
 50
0.0
 51
0.0
 71
0
 72
100
 73
1
 74
1
 75
0
 76
0
 77
0
 78
0
  0
ENDTAB
  0
TABLE
  2
LTYPE
  5
5
100
AcDbSymbolTable
 70
6
  0
LTYPE
  5
14
100
AcDbSymbolTableRecord
100
AcDbLinetypeTableRecord
  2
BYBLOCK
 70
0
  3

 72
65
 73
0
 40
0.0
  0
LTYPE
  5
15
100
AcDbSymbolTableRecord
100
AcDbLinetypeTableRecord
  2
BYLAYER
 70
0
  3

 72
65
 73
0
 40
0.0
  0
LTYPE
  5
16
100
AcDbSymbolTableRecord
100
AcDbLinetypeTableRecord
  2
CONTINUOUS
 70
64
  3
Solid line
 72
65
 73
0
 40
0.0
  0
LTYPE
  5
1F5
100
AcDbSymbolTableRecord
100
AcDbLinetypeTableRecord
  2
CENTER
 70
64
  3
____ _ ____ _ ____ _ ____ _ ____ _ ____ _ ____
 72
65
 73
4
 40
0.6
 49
0.375
 74
0
 49
-0.075
 74
0
 49
0.075
 74
0
 49
-0.075
 74
0
  0
LTYPE
  5
1F6
100
AcDbSymbolTableRecord
100
AcDbLinetypeTableRecord
  2
HIDDEN
 70
64
  3
- - - - - - - - - - - - - - - - - - - -
 72
65
 73
2
 40
0.2
 49
0.1
 74
0
 49
-0.1
 74
0
  0
LTYPE
  5
1F7
100
AcDbSymbolTableRecord
100
AcDbLinetypeTableRecord
  2
PHANTOM
 70
64
  3
_____ _ _ _____ _ _ _____ _ _ _____
 72
65
 73
6
 40
0.8
 49
0.45
 74
0
 49
-0.05
 74
0
 49
0.1
 74
0
 49
-0.05
 74
0
 49
0.1
 74
0
 49
-0.05
 74
0
  0
LTYPE
  5
1F8
100
AcDbSymbolTableRecord
100
AcDbLinetypeTableRecord
  2
DOT
 70
64
  3
. . . . . . . . . . . . . . . . . . . .
 72
65
 73
2
 40
0.2
 49
0.1
 74
0
 49
-0.1
 74
0
  0
LTYPE
  5
1F9
100
AcDbSymbolTableRecord
100
AcDbLinetypeTableRecord
  2
DASHED
 70
64
  3
- - - - - - - - - - - - - - - - - - - -
 72
65
 73
2
 40
0.2
 49
0.1
 74
0
 49
-0.1
 74
0
  0
ENDTAB
  0
TABLE
  2
LAYER
  5
2
100
AcDbSymbolTable
 70
36
  0
LAYER
  5
10
100
AcDbSymbolTableRecord
100
AcDbLayerTableRecord
  2
0
 70
0
 62
7
  6
CONTINUOUS
370
-3
390
F
  0
LAYER
  5
1FA
100
AcDbSymbolTableRecord
100
AcDbLayerTableRecord
  2
DEFAULT_1
 70
0
 62
7
  6
CENTER
370
-3
390
F
  0
LAYER
  5
1FB
100
AcDbSymbolTableRecord
100
AcDbLayerTableRecord
  2
DEFAULT_2
 70
0
 62
8
  6
HIDDEN
370
-3
390
F
  0
LAYER
  5
1FC
100
AcDbSymbolTableRecord
100
AcDbLayerTableRecord
  2
DEFAULT_3
 70
0
 62
7
  6
PHANTOM
370
-3
390
F
  0
LAYER
  5
1FD
100
AcDbSymbolTableRecord
100
AcDbLayerTableRecord
  2
DEFAULT_COORDINATE_SYSTEM
 70
0
 62
7
  6
CONTINUOUS
370
-3
390
F
  0
LAYER
  5
1FE
100
AcDbSymbolTableRecord
100
AcDbLayerTableRecord
  2
DEFAULT_DATUM_AXES
 70
0
 62
7
  6
CONTINUOUS
370
-3
390
F
  0
LAYER
  5
1FF
100
AcDbSymbolTableRecord
100
AcDbLayerTableRecord
  2
DEFAULT_DATUM_CURVES
 70
0
 62
7
  6
CONTINUOUS
370
-3
390
F
  0
LAYER
  5
200
100
AcDbSymbolTableRecord
100
AcDbLayerTableRecord
  2
DEFAULT_DATUM_PLANES
 70
0
 62
7
  6
CONTINUOUS
370
-3
390
F
  0
ENDTAB
  0
TABLE
  2
STYLE
  5
3
100
AcDbSymbolTable
 70
1
  0
STYLE
  5
11
100
AcDbSymbolTableRecord
100
AcDbTextStyleTableRecord
  2
STANDARD
 70
0
 40
0.0
 41
0.8
 50
0.0
 71
0
 42
0.2
  3
txt
  4

  0
STYLE
  5
201
100
AcDbSymbolTableRecord
100
AcDbTextStyleTableRecord
  2
TEXTSTYLE_1
 70
0
 40
0.0
 41
0.8
 50
0.0
 71
0
 42
0.2
  3
gdt
  4

  0
ENDTAB
  0
TABLE
  2
VIEW
  5
6
100
AcDbSymbolTable
 70
0
  0
ENDTAB
  0
TABLE
  2
UCS
  5
7
100
AcDbSymbolTable
 70
0
  0
ENDTAB
  0
TABLE
  2
APPID
  5
9
100
AcDbSymbolTable
 70
1
  0
APPID
  5
202
100
AcDbSymbolTableRecord
100
AcDbRegAppTableRecord
  2
ACAD
 70
0
  0
ENDTAB
  0
TABLE
  2
BLOCK_RECORD
  5
1
100
AcDbSymbolTable
 70
0
  0
BLOCK_RECORD
  5
203
100
AcDbSymbolTableRecord
100
AcDbBlockTableRecord
  2
*Model_Space
  0
BLOCK_RECORD
  5
204
100
AcDbSymbolTableRecord
100
AcDbBlockTableRecord
  2
*Paper_Space
  0
ENDTAB
  0
TABLE
  2
DIMSTYLE
  5
A
100
AcDbSymbolTable
 70
1
100
AcDbDimStyleTable
 71
0
  0
DIMSTYLE
105
205
100
AcDbSymbolTableRecord
100
AcDbDimStyleTableRecord
  2
STANDARD
 70
0
  3

  4

 40
1.0
 41
0.1
 42
0.0625
 43
0.38
 44
0.18
 45
0.0
 46
0.0
 47
0.01
 48
0.01
140
0.08
141
0.09
142
0.0
143
25.4
144
1.0
145
0.0
146
1.0
147
0.09
 71
1.0
 72
0.0
 73
1
 74
1
 75
0
 76
0
 77
0
 78
4
170
0
171
2
172
0
173
0
174
0
175
0
176
0
177
0
178
0
270
2
271
2
272
2
273
2
274
2
275
0
280
0
281
0
282
0
283
1
284
4
285
0
286
0
287
3
288
0
340
11
  0
ENDTAB
  0
ENDSEC
  0
SECTION
  2
BLOCKS
  0
BLOCK
  5
20
100
AcDbEntity
  8
0
100
AcDbBlockBegin
  2
*Model_Space
 70
0
 10
0.0
 20
0.0
 30
0.0
  3
*Model_Space
  1

  0
ENDBLK
  5
21
100
AcDbEntity
  8
0
100
AcDbBlockEnd
  0
BLOCK
  5
1C
100
AcDbEntity
  8
0
100
AcDbBlockBegin
  2
*Paper_Space
 70
0
 10
0.0
 20
0.0
 30
0.0
  3
*Paper_Space
  1

  0
ENDBLK
  5
1D
100
AcDbEntity
  8
0
100
AcDbBlockEnd
  0
ENDSEC
  0
SECTION
  2
ENTITIES
  0
LINE
  5
206
100
AcDbEntity
  8
0
100
AcDbLine
 62
7
  6
CONTINUOUS
 10
11.5946324328
 20
8.8011386777
 11
11.5946324328
 21
8.7995000598
  0
CIRCLE
  5
207
100
AcDbEntity
  8
0
100
AcDbCircle
 62
6
  6
CONTINUOUS
 10
11.5946324328
 20
8.3011386777
 40
1.18
  0
CIRCLE
  5
208
100
AcDbEntity
  8
0
100
AcDbCircle
 62
6
  6
CONTINUOUS
 10
11.5946324328
 20
8.3011386777
 40
1.0
  0
CIRCLE
  5
209
100
AcDbEntity
  8
0
100
AcDbCircle
 62
9
  6
CONTINUOUS
 10
11.5946324328
 20
8.3011386777
 40
0.8120018309
  0
CIRCLE
  5
20A
100
AcDbEntity
  8
0
100
AcDbCircle
 62
6
  6
CONTINUOUS
 10
11.5946324328
 20
8.3011386777
 40
0.741
  0
CIRCLE
  5
20B
100
AcDbEntity
  8
0
100
AcDbCircle
 62
7
  6
CONTINUOUS
 10
11.5946324328
 20
8.3011386777
 40
0.5225
  0
ARC
  5
20C
100
AcDbEntity
  8
0
100
AcDbCircle
 62
6
  6
CONTINUOUS
 10
11.5946324328
 20
8.3011386777
 40
0.5
100
AcDbArc
 50
136.3958818235
 51
90.0782610296
  0
ARC
  5
20D
100
AcDbEntity
  8
0
100
AcDbCircle
 62
6
  6
CONTINUOUS
 10
11.5949616937
 20
8.3012804902
 40
0.4998543521
100
AcDbArc
 50
90.1160967791
 51
136.4444621219
  0
ARC
  5
20E
100
AcDbEntity
  8
0
100
AcDbCircle
 62
6
  6
CONTINUOUS
 10
11.5947801988
 20
8.3014668084
 40
0.4995923102
100
AcDbArc
 50
136.4456050267
 51
179.9397207597
  0
ARC
  5
20F
100
AcDbEntity
  8
0
100
AcDbCircle
 62
6
  6
CONTINUOUS
 10
11.594364906
 20
8.3014050818
 40
0.49916389
100
AcDbArc
 50
180.022391482
 51
269.9531379754
  0
ARC
  5
210
100
AcDbEntity
  8
0
100
AcDbCircle
 62
6
  6
CONTINUOUS
 10
11.5949561473
 20
8.3012933011
 40
0.4982021527
100
AcDbArc
 50
90.0946791882
 51
136.4485582824
  0
ARC
  5
211
100
AcDbEntity
  8
0
100
AcDbCircle
 62
6
  6
CONTINUOUS
 10
11.5949568535
 20
8.3012959437
 40
0.4976149655
100
AcDbArc
 50
90.0865567461
 51
136.4449388295
  0
ARC
  5
212
100
AcDbEntity
  8
0
100
AcDbCircle
 62
6
  6
CONTINUOUS
 10
11.594958202
 20
8.3012927426
 40
0.4959797272
100
AcDbArc
 50
90.0944831278
 51
136.4506868614
  0
ARC
  5
213
100
AcDbEntity
  8
0
100
AcDbCircle
 62
6
  6
CONTINUOUS
 10
11.5949576001
 20
8.3012936225
 40
0.4953931352
100
AcDbArc
 50
90.0875452283
 51
136.4534962706
  0
ARC
  5
214
100
AcDbEntity
  8
0
100
AcDbCircle
 62
6
  6
CONTINUOUS
 10
11.595471102
 20
8.3007981733
 40
0.4944664156
100
AcDbArc
 50
135.4324212499
 51
136.4581007645
  0
ARC
  5
215
100
AcDbEntity
  8
0
100
AcDbCircle
 62
6
  6
CONTINUOUS
 10
11.5955212878
 20
8.3009874512
 40
0.4943848679
100
AcDbArc
 50
148.9582938776
 51
150.3782718371
  0
ARC
  5
216
100
AcDbEntity
  8
0
100
AcDbCircle
 62
6
  6
CONTINUOUS
 10
11.5953490309
 20
8.3009145153
 40
0.4942977836
100
AcDbArc
 50
136.4581285799
 51
136.9661625529
  0
ARC
  5
217
100
AcDbEntity
  8
0
100
AcDbCircle
 62
6
  6
CONTINUOUS
 10
11.5952032816
 20
8.3008481658
 40
0.4942594888
100
AcDbArc
 50
124.5823179309
 51
125.1690683916
  0
ARC
  5
218
100
AcDbEntity
  8
0
100
AcDbCircle
 62
6
  6
CONTINUOUS
 10
11.5953643915
 20
8.3012470838
 40
0.4941274359
100
AcDbArc
 50
162.7829400501
 51
163.8987502254
  0
ARC
  5
219
100
AcDbEntity
  8
0
100
AcDbCircle
 62
6
  6
CONTINUOUS
 10
11.5949620344
 20
8.30128088
 40
0.4937671262
100
AcDbArc
 50
90.1247993567
 51
124.5877696956
  0
ARC
  5
21A
100
AcDbEntity
  8
0
100
AcDbCircle
 62
6
  6
CONTINUOUS
 10
11.5950158852
 20
8.3014296497
 40
0.4937413269
100
AcDbArc
 50
176.7884781181
 51
177.1509495099
  0
ARC
  5
21B
100
AcDbEntity
  8
0
100
AcDbCircle
 62
6
  6
CONTINUOUS
 10
11.5945824886
 20
8.3015089204
 40
0.4933042675
100
AcDbArc
 50
163.9027823956
 51
176.7948506706
  0
ARC
  5
21C
100
AcDbEntity
  8
0
100
AcDbCircle
 62
6
  6
CONTINUOUS
 10
11.594583488
 20
8.3016294374
 40
0.493250325
100
AcDbArc
 50
136.9661792057
 51
148.9660139779
  0
ARC
  5
21D
100
AcDbEntity
  8
0
100
AcDbCircle
 62
6
  6
CONTINUOUS
 10
11.5945025342
 20
8.301585729
 40
0.4932040401
100
AcDbArc
 50
150.3801940461
 51
162.7908823266
  0
ARC
  5
21E
100
AcDbEntity
  8
0
100
AcDbCircle
 62
6
  6
CONTINUOUS
 10
11.5949651908
 20
8.3012819319
 40
0.4931837384
100
AcDbArc
 50
90.1099055743
 51
136.4561782694
  0
ARC
  5
21F
100
AcDbEntity
  8
0
100
AcDbCircle
 62
6
  6
CONTINUOUS
 10
11.5962820912
 20
8.3003722209
 40
0.4931317687
100
AcDbArc
 50
140.8577977727
 51
143.0565669693
  0
ARC
  5
220
100
AcDbEntity
  8
0
100
AcDbCircle
 62
6
  6
CONTINUOUS
 10
11.5945521001
 20
8.3017798032
 40
0.4931228415
100
AcDbArc
 50
125.169568315
 51
135.4387450293
  0
ARC
  5
221
100
AcDbEntity
  8
0
100
AcDbCircle
 62
6
  6
CONTINUOUS
 10
11.5943589285
 20
8.3013971426
 40
0.4930678875
100
AcDbArc
 50
182.9213444496
 51
269.9467842416
  0
ARC
  5
222
100
AcDbEntity
  8
0
100
AcDbCircle
 62
6
  6
CONTINUOUS
 10
11.5947522396
 20
8.3014763201
 40
0.492890003
100
AcDbArc
 50
136.455503801
 51
182.8823190757
  0
ARC
  5
223
100
AcDbEntity
  8
0
100
AcDbCircle
 62
6
  6
CONTINUOUS
 10
11.5943600332
 20
8.3013992498
 40
0.4924837991
100
AcDbArc
 50
182.8756586064
 51
269.9512891656
  0
ARC
  5
224
100
AcDbEntity
  8
0
100
AcDbCircle
 62
6
  6
CONTINUOUS
 10
11.5934519282
 20
8.3014847928
 40
0.4921765626
100
AcDbArc
 50
177.1483114392
 51
182.9369160437
  0
ARC
  5
225
100
AcDbEntity
  8
0
100
AcDbCircle
 62
6
  6
CONTINUOUS
 10
11.595562083
 20
8.3013536714
 40
0.4920670043
100
AcDbArc
 50
166.847918928
 51
168.0519730399
  0
ARC
  5
226
100
AcDbEntity
  8
0
100
AcDbCircle
 62
6
  6
CONTINUOUS
 10
11.5949652209
 20
8.3012818699
 40
0.4915451882
100
AcDbArc
 50
90.0910311338
 51
136.4563044824
  0
ARC
  5
227
100
AcDbEntity
  8
0
100
AcDbCircle
 62
6
  6
CONTINUOUS
 10
11.594997758
 20
8.3013821549
 40
0.4915154836
100
AcDbArc
 50
153.7191548641
 51
155.781235332
  0
ARC
  5
228
100
AcDbEntity
  8
0
100
AcDbCircle
 62
6
  6
CONTINUOUS
 10
11.5949618751
 20
8.3012802585
 40
0.4909579738
100
AcDbArc
 50
90.0889729281
 51
136.4638687581
  0
ARC
  5
229
100
AcDbEntity
  8
0
100
AcDbCircle
 62
6
  6
CONTINUOUS
 10
11.5944682429
 20
8.3015995235
 40
0.4909444591
100
AcDbArc
 50
143.043814092
 51
153.7145387099
  0
ARC
  5
22A
100
AcDbEntity
  8
0
100
AcDbCircle
 62
6
  6
CONTINUOUS
 10
11.5943599666
 20
8.3013992049
 40
0.4908451137
100
AcDbArc
 50
182.8730349484
 51
269.9728547277
  0
ARC
  5
22B
100
AcDbEntity
  8
0
100
AcDbCircle
 62
6
  6
CONTINUOUS
 10
11.5943129254
 20
8.3016383153
 40
0.4907858457
100
AcDbArc
 50
155.7757112276
 51
166.8470957281
  0
ARC
  5
22C
100
AcDbEntity
  8
0
100
AcDbCircle
 62
6
  6
CONTINUOUS
 10
11.5942180032
 20
8.3015196865
 40
0.4907173375
100
AcDbArc
 50
168.038447819
 51
182.8879154153
  0
ARC
  5
22D
100
AcDbEntity
  8
0
100
AcDbCircle
 62
6
  6
CONTINUOUS
 10
11.5947556596
 20
8.301477139
 40
0.4906696355
100
AcDbArc
 50
136.4639484976
 51
182.9014345302
  0
ARC
  5
22E
100
AcDbEntity
  8
0
100
AcDbCircle
 62
6
  6
CONTINUOUS
 10
11.5943620789
 20
8.3014015856
 40
0.4902626314
100
AcDbArc
 50
182.8949444915
 51
269.9814733907
  0
ARC
  5
22F
100
AcDbEntity
  8
0
100
AcDbCircle
 62
6
  6
CONTINUOUS
 10
11.5937366799
 20
8.3025071589
 40
0.4898099232
100
AcDbArc
 50
136.4611938842
 51
140.8635336513
  0
ARC
  5
230
100
AcDbEntity
  8
0
100
AcDbCircle
 62
6
  6
CONTINUOUS
 10
11.5948915352
 20
8.3014160585
 40
0.4891725806
100
AcDbArc
 50
90.0887463024
 51
182.8821660412
  0
ARC
  5
231
100
AcDbEntity
  8
0
100
AcDbCircle
 62
6
  6
CONTINUOUS
 10
11.5943621332
 20
8.3014016443
 40
0.4886240915
100
AcDbArc
 50
182.8835993365
 51
269.9737816849
  0
ARC
  5
232
100
AcDbEntity
  8
0
100
AcDbCircle
 62
6
  6
CONTINUOUS
 10
11.5948907291
 20
8.3014169344
 40
0.4885861064
100
AcDbArc
 50
90.0804262433
 51
182.8754637848
  0
ARC
  5
233
100
AcDbEntity
  8
0
100
AcDbCircle
 62
6
  6
CONTINUOUS
 10
11.5945056181
 20
8.3014777105
 40
0.4881944434
100
AcDbArc
 50
182.8848550091
 51
229.2103248041
  0
ARC
  5
234
100
AcDbEntity
  8
0
100
AcDbCircle
 62
6
  6
CONTINUOUS
 10
11.595759897
 20
8.3008378753
 40
0.4879942355
100
AcDbArc
 50
146.7203877317
 51
148.7004028486
  0
ARC
  5
235
100
AcDbEntity
  8
0
100
AcDbCircle
 62
6
  6
CONTINUOUS
 10
11.5942961504
 20
8.3012688591
 40
0.4878962379
100
AcDbArc
 50
229.2129261231
 51
269.9892396845
  0
ARC
  5
236
100
AcDbEntity
  8
0
100
AcDbCircle
 62
6
  6
CONTINUOUS
 10
11.5957173959
 20
8.3011287274
 40
0.4878278109
100
AcDbArc
 50
158.7944710953
 51
160.6456785628
  0
ARC
  5
237
100
AcDbEntity
  8
0
100
AcDbCircle
 62
6
  6
CONTINUOUS
 10
11.5954358513
 20
8.300830184
 40
0.4877464855
100
AcDbArc
 50
135.1280068666
 51
136.6927646777
  0
ARC
  5
238
100
AcDbEntity
  8
0
100
AcDbCircle
 62
6
  6
CONTINUOUS
 10
11.5952408893
 20
8.3007832504
 40
0.4876616979
100
AcDbArc
 50
124.2081219058
 51
124.8898472866
  0
ARC
  5
239
100
AcDbEntity
  8
0
100
AcDbCircle
 62
6
  6
CONTINUOUS
 10
11.5954664093
 20
8.3013974794
 40
0.4875212
100
AcDbArc
 50
170.9093030684
 51
172.2421013108
  0
ARC
  5
23A
100
AcDbEntity
  8
0
100
AcDbCircle
 62
6
  6
CONTINUOUS
 10
11.594967185
 20
8.3010002111
 40
0.4873781005
100
AcDbArc
 50
41.9124374861
 51
89.9812775479
  0
ARC
  5
23B
100
AcDbEntity
  8
0
100
AcDbCircle
 62
6
  6
CONTINUOUS
 10
11.5950725463
 20
8.3015577611
 40
0.4871253555
100
AcDbArc
 50
182.8807856916
 51
183.2338663697
  0
ARC
  5
23C
100
AcDbEntity
  8
0
100
AcDbCircle
 62
6
  6
CONTINUOUS
 10
11.5949593224
 20
8.3012922682
 40
0.4870831652
100
AcDbArc
 50
90.1253351
 51
124.2143932695
  0
ARC
  5
23D
100
AcDbEntity
  8
0
100
AcDbCircle
 62
6
  6
CONTINUOUS
 10
11.5949583553
 20
8.3009807265
 40
0.4868133625
100
AcDbArc
 50
41.9243373869
 51
89.9883098575
  0
ARC
  5
23E
100
AcDbEntity
  8
0
100
AcDbCircle
 62
6
  6
CONTINUOUS
 10
11.5947160619
 20
8.3015783677
 40
0.4867849531
100
AcDbArc
 50
195.3444598161
 51
195.5098221117
  0
ARC
  5
23F
100
AcDbEntity
  8
0
100
AcDbCircle
 62
6
  6
CONTINUOUS
 10
11.5944872671
 20
8.3014682111
 40
0.4865360568
100
AcDbArc
 50
195.5045269377
 51
229.2246448752
  0
ARC
  5
240
100
AcDbEntity
  8
0
100
AcDbCircle
 62
6
  6
CONTINUOUS
 10
11.5948571464
 20
8.3018974176
 40
0.4865150736
100
AcDbArc
 50
226.5058638726
 51
229.2613021852
  0
ARC
  5
241
100
AcDbEntity
  8
0
100
AcDbCircle
 62
6
  6
CONTINUOUS
 10
11.5945188198
 20
8.3018201251
 40
0.4863981739
100
AcDbArc
 50
124.8899430609
 51
135.1344346869
  0
ARC
  5
242
100
AcDbEntity
  8
0
100
AcDbCircle
 62
6
  6
CONTINUOUS
 10
11.5948966547
 20
8.3014167775
 40
0.48636796
100
AcDbArc
 50
90.1033998674
 51
182.8661253918
  0
ARC
  5
243
100
AcDbEntity
  8
0
100
AcDbCircle
 62
6
  6
CONTINUOUS
 10
11.5942671091
 20
8.3015052837
 40
0.4863183275
100
AcDbArc
 50
172.2356128637
 51
182.7502582607
  0
ARC
  5
244
100
AcDbEntity
  8
0
100
AcDbCircle
 62
6
  6
CONTINUOUS
 10
11.59434245
 20
8.3018314874
 40
0.4862640288
100
AcDbArc
 50
136.6902501507
 51
146.7266177015
  0
ARC
  5
245
100
AcDbEntity
  8
0
100
AcDbCircle
 62
6
  6
CONTINUOUS
 10
11.5942861058
 20
8.3012421594
 40
0.4862297856
100
AcDbArc
 50
229.2261998867
 51
269.9537047294
  0
ARC
  5
246
100
AcDbEntity
  8
0
100
AcDbCircle
 62
6
  6
CONTINUOUS
 10
11.5941354224
 20
8.3016237883
 40
0.4861711748
100
AcDbArc
 50
160.6389378756
 51
170.9108555757
  0
ARC
  5
247
100
AcDbEntity
  8
0
100
AcDbCircle
 62
6
  6
CONTINUOUS
 10
11.5941102885
 20
8.3014091638
 40
0.4861555522
100
AcDbArc
 50
183.2227788295
 51
195.3441213903
  0
ARC
  5
248
100
AcDbEntity
  8
0
100
AcDbCircle
 62
6
  6
CONTINUOUS
 10
11.594067498
 20
8.3018094325
 40
0.4860434099
100
AcDbArc
 50
148.6946190477
 51
158.7989295971
  0
ARC
  5
249
100
AcDbEntity
  8
0
100
AcDbCircle
 62
6
  6
CONTINUOUS
 10
11.5944729346
 20
8.3014611323
 40
0.4859351776
100
AcDbArc
 50
182.8738467386
 51
226.5033215212
  0
ARC
  5
24A
100
AcDbEntity
  8
0
100
AcDbCircle
 62
6
  6
CONTINUOUS
 10
11.5942925353
 20
8.3012579561
 40
0.4856611667
100
AcDbArc
 50
229.2625389312
 51
269.9637027519
  0
ARC
  5
24B
100
AcDbEntity
  8
0
100
AcDbCircle
 62
6
  6
CONTINUOUS
 10
11.5956938508
 20
8.3010115779
 40
0.4856275182
100
AcDbArc
 50
154.4889973088
 51
155.0457564444
  0
ARC
  5
24C
100
AcDbEntity
  8
0
100
AcDbCircle
 62
6
  6
CONTINUOUS
 10
11.5954944441
 20
8.3009096706
 40
0.4855134311
100
AcDbArc
 50
141.5212063181
 51
142.1021439126
  0
ARC
  5
24D
100
AcDbEntity
  8
0
100
AcDbCircle
 62
6
  6
CONTINUOUS
 10
11.5949665345
 20
8.3009989392
 40
0.4851553914
100
AcDbArc
 50
41.911888771
 51
89.9816232741
  0
ARC
  5
24E
100
AcDbEntity
  8
0
100
AcDbCircle
 62
6
  6
CONTINUOUS
 10
11.5949670388
 20
8.3012670552
 40
0.4848856441
100
AcDbArc
 50
90.0925175663
 51
129.0428302889
  0
ARC
  5
24F
100
AcDbEntity
  8
0
100
AcDbCircle
 62
6
  6
CONTINUOUS
 10
11.5948552598
 20
8.3018954075
 40
0.4848737052
100
AcDbArc
 50
226.5047209709
 51
229.2694768014
  0
ARC
  5
250
100
AcDbEntity
  8
0
100
AcDbCircle
 62
6
  6
CONTINUOUS
 10
11.5949569403
 20
8.3009755069
 40
0.4845940096
100
AcDbArc
 50
41.9105135997
 51
89.9884079998
  0
ARC
  5
251
100
AcDbEntity
  8
0
100
AcDbCircle
 62
6
  6
CONTINUOUS
 10
11.5946363567
 20
8.3015013685
 40
0.4844626643
100
AcDbArc
 50
155.0455099065
 51
182.8777618951
  0
ARC
  5
252
100
AcDbEntity
  8
0
100
AcDbCircle
 62
6
  6
CONTINUOUS
 10
11.5946845092
 20
8.3015898995
 40
0.4844561283
100
AcDbArc
 50
129.1266647647
 51
141.5245826064
  0
ARC
  5
253
100
AcDbEntity
  8
0
100
AcDbCircle
 62
6
  6
CONTINUOUS
 10
11.5944729702
 20
8.3014611504
 40
0.4842966035
100
AcDbArc
 50
182.8739802894
 51
226.5021688166
  0
ARC
  5
254
100
AcDbEntity
  8
0
100
AcDbCircle
 62
6
  6
CONTINUOUS
 10
11.5944652259
 20
8.3016652049
 40
0.4842371779
100
AcDbArc
 50
142.0978836538
 51
154.496185405
  0
ARC
  5
255
100
AcDbEntity
  8
0
100
AcDbCircle
 62
6
  6
CONTINUOUS
 10
11.5948919746
 20
8.3014156217
 40
0.4841391746
100
AcDbArc
 50
90.0821105527
 51
182.8465875356
  0
ARC
  5
256
100
AcDbEntity
  8
0
100
AcDbCircle
 62
6
  6
CONTINUOUS
 10
11.5942853103
 20
8.3012387555
 40
0.4840025327
100
AcDbArc
 50
229.2698832375
 51
269.9850735811
  0
ARC
  5
257
100
AcDbEntity
  8
0
100
AcDbCircle
 62
6
  6
CONTINUOUS
 10
11.5946306642
 20
8.3016186839
 40
0.4839324507
100
AcDbArc
 50
226.4831821396
 51
229.2544228046
  0
ARC
  5
258
100
AcDbEntity
  8
0
100
AcDbCircle
 62
6
  6
CONTINUOUS
 10
11.5944687614
 20
8.301459378
 40
0.4837064281
100
AcDbArc
 50
182.8542536649
 51
226.4840959451
  0
ARC
  5
259
100
AcDbEntity
  8
0
100
AcDbCircle
 62
6
  6
CONTINUOUS
 10
11.5942948479
 20
8.3012639214
 40
0.4834430097
100
AcDbArc
 50
229.2571327484
 51
269.9900947738
  0
ARC
  5
25A
100
AcDbEntity
  8
0
100
AcDbCircle
 62
6
  6
CONTINUOUS
 10
11.5949568569
 20
8.3009753477
 40
0.4829555833
100
AcDbArc
 50
41.8986278792
 51
89.9807600541
  0
ARC
  5
25B
100
AcDbEntity
  8
0
100
AcDbCircle
 62
6
  6
CONTINUOUS
 10
11.594959672
 20
8.300984139
 40
0.4823614159
100
AcDbArc
 50
41.8868364999
 51
89.9882417678
  0
ARC
  5
25C
100
AcDbEntity
  8
0
100
AcDbCircle
 62
6
  6
CONTINUOUS
 10
11.5946275293
 20
8.3016154125
 40
0.4822893089
100
AcDbArc
 50
226.4872948018
 51
229.267934753
  0
ARC
  5
25D
100
AcDbEntity
  8
0
100
AcDbCircle
 62
6
  6
CONTINUOUS
 10
11.5942861766
 20
8.3012408531
 40
0.4817803431
100
AcDbArc
 50
229.2696303881
 51
269.9834996517
  0
ARC
  5
25E
100
AcDbEntity
  8
0
100
AcDbCircle
 62
6
  6
CONTINUOUS
 10
11.5944334245
 20
8.3013973784
 40
0.4814122076
100
AcDbArc
 50
226.4827568406
 51
229.2666286213
  0
ARC
  5
25F
100
AcDbEntity
  8
0
100
AcDbCircle
 62
6
  6
CONTINUOUS
 10
11.5942969399
 20
8.3012705365
 40
0.4812254841
100
AcDbArc
 50
229.269087538
 51
269.9888772287
  0
ARC
  5
260
100
AcDbEntity
  8
0
100
AcDbCircle
 62
6
  6
CONTINUOUS
 10
11.5949478582
 20
8.3022936938
 40
0.480795547
100
AcDbArc
 50
238.2058248561
 51
240.0327180412
  0
ARC
  5
261
100
AcDbEntity
  8
0
100
AcDbCircle
 62
6
  6
CONTINUOUS
 10
11.5949670907
 20
8.3010005581
 40
0.4807053325
100
AcDbArc
 50
41.8760781197
 51
90.0398881636
  0
ARC
  5
262
100
AcDbEntity
  8
0
100
AcDbCircle
 62
6
  6
CONTINUOUS
 10
11.5949601603
 20
8.3009848074
 40
0.480136457
100
AcDbArc
 50
41.8723530408
 51
90.0391084828
  0
ARC
  5
263
100
AcDbEntity
  8
0
100
AcDbCircle
 62
6
  6
CONTINUOUS
 10
11.5944872072
 20
8.3017695313
 40
0.4801222454
100
AcDbArc
 50
248.6756869279
 51
251.0813697445
  0
ARC
  5
264
100
AcDbEntity
  8
0
100
AcDbCircle
 62
6
  6
CONTINUOUS
 10
11.5947823802
 20
8.2993660852
 40
0.4801210933
100
AcDbArc
 50
81.0629974073
 51
82.1597293601
  0
ARC
  5
265
100
AcDbEntity
  8
0
100
AcDbCircle
 62
6
  6
CONTINUOUS
 10
11.5943351137
 20
8.3015611085
 40
0.4798776417
100
AcDbArc
 50
251.0904799209
 51
270.0354988476
  0
ARC
  5
266
100
AcDbEntity
  8
0
100
AcDbCircle
 62
6
  6
CONTINUOUS
 10
11.5944296509
 20
8.3013934207
 40
0.4797681275
100
AcDbArc
 50
226.4890586821
 51
229.282406069
  0
ARC
  5
267
100
AcDbEntity
  8
0
100
AcDbCircle
 62
6
  6
CONTINUOUS
 10
11.5942814929
 20
8.3013086997
 40
0.4796072698
100
AcDbArc
 50
229.2892188487
 51
238.2114888177
  0
ARC
  5
268
100
AcDbEntity
  8
0
100
AcDbCircle
 62
6
  6
CONTINUOUS
 10
11.5947750512
 20
8.2993186899
 40
0.479583611
100
AcDbArc
 50
80.6392421956
 51
83.0119951312
  0
ARC
  5
269
100
AcDbEntity
  8
0
100
AcDbCircle
 62
6
  6
CONTINUOUS
 10
11.5944708818
 20
8.3002004042
 40
0.479417795
100
AcDbArc
 50
54.7343795399
 51
55.7593616878
  0
ARC
  5
26A
100
AcDbEntity
  8
0
100
AcDbCircle
 62
6
  6
CONTINUOUS
 10
11.5948678877
 20
8.3001176387
 40
0.4793649013
100
AcDbArc
 50
82.1576003122
 51
90.0281425904
  0
ARC
  5
26B
100
AcDbEntity
  8
0
100
AcDbCircle
 62
6
  6
CONTINUOUS
 10
11.5943888826
 20
8.3006563504
 40
0.4791657267
100
AcDbArc
 50
15.4055360676
 51
15.7753450125
  0
ARC
  5
26C
100
AcDbEntity
  8
0
100
AcDbCircle
 62
6
  6
CONTINUOUS
 10
11.5944020845
 20
8.3008275183
 40
0.4791242773
100
AcDbArc
 50
270.0275448798
 51
15.3862212335
  0
ARC
  5
26D
100
AcDbEntity
  8
0
100
AcDbCircle
 62
6
  6
CONTINUOUS
 10
11.5944924865
 20
8.3006047793
 40
0.4790996163
100
AcDbArc
 50
28.5712749308
 51
29.0013946448
  0
ARC
  5
26E
100
AcDbEntity
  8
0
100
AcDbCircle
 62
6
  6
CONTINUOUS
 10
11.5945948747
 20
8.3005884926
 40
0.4790350806
100
AcDbArc
 50
41.8690961145
 51
42.1791361643
  0
ARC
  5
26F
100
AcDbEntity
  8
0
100
AcDbCircle
 62
6
  6
CONTINUOUS
 10
11.5942944445
 20
8.3012639232
 40
0.4789960876
100
AcDbArc
 50
229.2928223696
 51
270.0404289777
  0
ARC
  5
270
100
AcDbEntity
  8
0
100
AcDbCircle
 62
6
  6
CONTINUOUS
 10
11.5939932076
 20
8.3005737316
 40
0.4788286732
100
AcDbArc
 50
240.0288762613
 51
248.6787179245
  0
ARC
  5
271
100
AcDbEntity
  8
0
100
AcDbCircle
 62
6
  6
CONTINUOUS
 10
11.5948432987
 20
8.3006801911
 40
0.478825747
100
AcDbArc
 50
67.8359158535
 51
69.0800183983
  0
ARC
  5
272
100
AcDbEntity
  8
0
100
AcDbCircle
 62
6
  6
CONTINUOUS
 10
11.5945614517
 20
8.3003300171
 40
0.4786749615
100
AcDbArc
 50
54.5148809244
 51
56.4064226892
  0
ARC
  5
273
100
AcDbEntity
  8
0
100
AcDbCircle
 62
6
  6
CONTINUOUS
 10
11.5943448619
 20
8.3009015559
 40
0.4786246389
100
AcDbArc
 50
270.0344242663
 51
349.0937592776
  0
ARC
  5
274
100
AcDbEntity
  8
0
100
AcDbCircle
 62
6
  6
CONTINUOUS
 10
11.5943903732
 20
8.3006549531
 40
0.4785793964
100
AcDbArc
 50
15.1216071268
 51
16.7893092775
  0
ARC
  5
275
100
AcDbEntity
  8
0
100
AcDbCircle
 62
6
  6
CONTINUOUS
 10
11.5945180441
 20
8.3006162763
 40
0.4784864365
100
AcDbArc
 50
28.3015044094
 51
29.9551577458
  0
ARC
  5
276
100
AcDbEntity
  8
0
100
AcDbCircle
 62
6
  6
CONTINUOUS
 10
11.5944753484
 20
8.3007336011
 40
0.4784719761
100
AcDbArc
 50
349.2438994978
 51
3.1545587258
  0
ARC
  5
277
100
AcDbEntity
  8
0
100
AcDbCircle
 62
6
  6
CONTINUOUS
 10
11.5946131155
 20
8.3005977461
 40
0.4784299234
100
AcDbArc
 50
41.8670143591
 51
42.9900647077
  0
ARC
  5
278
100
AcDbEntity
  8
0
100
AcDbCircle
 62
6
  6
CONTINUOUS
 10
11.5951262454
 20
8.3010615213
 40
0.4783231955
100
AcDbArc
 50
28.9903500138
 51
41.7429533086
  0
ARC
  5
279
100
AcDbEntity
  8
0
100
AcDbCircle
 62
6
  6
CONTINUOUS
 10
11.595192724
 20
8.3009862849
 40
0.4783016902
100
AcDbArc
 50
15.7634893723
 51
28.5712560989
  0
ARC
  5
27A
100
AcDbEntity
  8
0
100
AcDbCircle
 62
6
  6
CONTINUOUS
 10
11.5946657192
 20
8.3007907486
 40
0.4782788478
100
AcDbArc
 50
3.1489780528
 51
15.1145075001
  0
ARC
  5
27B
100
AcDbEntity
  8
0
100
AcDbCircle
 62
6
  6
CONTINUOUS
 10
11.594832656
 20
8.3006548403
 40
0.4782676934
100
AcDbArc
 50
67.508142972
 51
69.8477089899
  0
ARC
  5
27C
100
AcDbEntity
  8
0
100
AcDbCircle
 62
6
  6
CONTINUOUS
 10
11.5950962191
 20
8.3012959479
 40
0.4781597121
100
AcDbArc
 50
55.7474421141
 51
67.8361472159
  0
ARC
  5
27D
100
AcDbEntity
  8
0
100
AcDbCircle
 62
6
  6
CONTINUOUS
 10
11.5948198707
 20
8.3008422692
 40
0.4781141941
100
AcDbArc
 50
16.7826859234
 51
28.2948079893
  0
ARC
  5
27E
100
AcDbEntity
  8
0
100
AcDbCircle
 62
6
  6
CONTINUOUS
 10
11.5948545267
 20
8.3008150471
 40
0.4781051179
100
AcDbArc
 50
29.9488626682
 51
41.8669299453
  0
ARC
  5
27F
100
AcDbEntity
  8
0
100
AcDbCircle
 62
6
  6
CONTINUOUS
 10
11.5947901494
 20
8.3017578702
 40
0.4780556455
100
AcDbArc
 50
213.3989925036
 51
226.4929586529
  0
ARC
  5
280
100
AcDbEntity
  8
0
100
AcDbCircle
 62
6
  6
CONTINUOUS
 10
11.5952946412
 20
8.3013399257
 40
0.4780114433
100
AcDbArc
 50
42.1687093069
 51
54.7361371509
  0
ARC
  5
281
100
AcDbEntity
  8
0
100
AcDbCircle
 62
6
  6
CONTINUOUS
 10
11.5948026308
 20
8.3014964301
 40
0.4779447189
100
AcDbArc
 50
94.2435046562
 51
213.3720019921
  0
ARC
  5
282
100
AcDbEntity
  8
0
100
AcDbCircle
 62
6
  6
CONTINUOUS
 10
11.5949328635
 20
8.3009898484
 40
0.4779198348
100
AcDbArc
 50
56.399744626
 51
67.5038782801
  0
ARC
  5
283
100
AcDbEntity
  8
0
100
AcDbCircle
 62
6
  6
CONTINUOUS
 10
11.5949989792
 20
8.3020139149
 40
0.4777999625
100
AcDbArc
 50
224.9786658571
 51
226.5003456771
  0
ARC
  5
284
100
AcDbEntity
  8
0
100
AcDbCircle
 62
6
  6
CONTINUOUS
 10
11.5950517747
 20
8.3010791131
 40
0.4777809004
100
AcDbArc
 50
42.983709238
 51
54.5106129053
  0
ARC
  5
285
100
AcDbEntity
  8
0
100
AcDbCircle
 62
6
  6
CONTINUOUS
 10
11.5952085106
 20
8.3018230285
 40
0.4776276773
100
AcDbArc
 50
69.0719896934
 51
81.0677087857
  0
ARC
  5
286
100
AcDbEntity
  8
0
100
AcDbCircle
 62
6
  6
CONTINUOUS
 10
11.594876627
 20
8.3018853982
 40
0.4776225181
100
AcDbArc
 50
226.5003801235
 51
227.3466401562
  0
ARC
  5
287
100
AcDbEntity
  8
0
100
AcDbCircle
 62
6
  6
CONTINUOUS
 10
11.594943534
 20
8.301367301
 40
0.4775297268
100
AcDbArc
 50
83.0021557467
 51
90.0373270702
  0
ARC
  5
288
100
AcDbEntity
  8
0
100
AcDbCircle
 62
6
  6
CONTINUOUS
 10
11.5942944405
 20
8.3012639237
 40
0.4773574692
100
AcDbArc
 50
229.2929614752
 51
270.0405682301
  0
ARC
  5
289
100
AcDbEntity
  8
0
100
AcDbCircle
 62
6
  6
CONTINUOUS
 10
11.5945676076
 20
8.3015476959
 40
0.4771647698
100
AcDbArc
 50
227.3464551675
 51
229.3101296483
  0
ARC
  5
28A
100
AcDbEntity
  8
0
100
AcDbCircle
 62
6
  6
CONTINUOUS
 10
11.593051117
 20
8.2998303584
 40
0.4770988672
100
AcDbArc
 50
226.4730517657
 51
229.2937286064
  0
ARC
  5
28B
100
AcDbEntity
  8
0
100
AcDbCircle
 62
6
  6
CONTINUOUS
 10
11.5952051453
 20
8.3018224126
 40
0.4770432738
100
AcDbArc
 50
69.8413959114
 51
80.6413003063
  0
ARC
  5
28C
100
AcDbEntity
  8
0
100
AcDbCircle
 62
6
  6
CONTINUOUS
 10
11.5950031772
 20
8.3024620019
 40
0.4770206243
100
AcDbArc
 50
90.0445307567
 51
94.276108326
  0
ARC
  5
28D
100
AcDbEntity
  8
0
100
AcDbCircle
 62
6
  6
CONTINUOUS
 10
11.5950247089
 20
8.3020395405
 40
0.4768575474
100
AcDbArc
 50
90.0471330906
 51
93.7304748933
  0
ARC
  5
28E
100
AcDbEntity
  8
0
100
AcDbCircle
 62
6
  6
CONTINUOUS
 10
11.5942936913
 20
8.301261964
 40
0.4767683325
100
AcDbArc
 50
229.3127025816
 51
270.0407082554
  0
ARC
  5
28F
100
AcDbEntity
  8
0
100
AcDbCircle
 62
6
  6
CONTINUOUS
 10
11.5949666385
 20
8.3009986752
 40
0.476258779
100
AcDbArc
 50
41.8631948835
 51
92.5835463859
  0
ARC
  5
290
100
AcDbEntity
  8
0
100
AcDbCircle
 62
6
  6
CONTINUOUS
 10
11.593470005
 20
8.3002939293
 40
0.4760848567
100
AcDbArc
 50
226.4868986897
 51
229.2920401697
  0
ARC
  5
291
100
AcDbEntity
  8
0
100
AcDbCircle
 62
6
  6
CONTINUOUS
 10
11.5949762089
 20
8.3012481859
 40
0.4760086338
100
AcDbArc
 50
92.5860509452
 51
131.7311586539
  0
ARC
  5
292
100
AcDbEntity
  8
0
100
AcDbCircle
 62
6
  6
CONTINUOUS
 10
11.5949661361
 20
8.3009980602
 40
0.4756738358
100
AcDbArc
 50
41.8440167584
 51
92.5733354777
  0
ARC
  5
293
100
AcDbEntity
  8
0
100
AcDbCircle
 62
6
  6
CONTINUOUS
 10
11.5949681133
 20
8.3012718494
 40
0.4753985396
100
AcDbArc
 50
92.5750550446
 51
131.7208282064
  0
ARC
  5
294
100
AcDbEntity
  8
0
100
AcDbCircle
 62
6
  6
CONTINUOUS
 10
11.5946324328
 20
8.3011386777
 40
0.4752765628
100
AcDbArc
 50
131.6799396056
 51
226.4570504838
  0
ARC
  5
295
100
AcDbEntity
  8
0
100
AcDbCircle
 62
6
  6
CONTINUOUS
 10
11.5946990846
 20
8.3007896628
 40
0.4373777163
100
AcDbArc
 50
329.0792039869
 51
19.2313931946
  0
CIRCLE
  5
296
100
AcDbEntity
  8
0
100
AcDbCircle
 62
6
  6
CONTINUOUS
 10
11.5946324328
 20
8.3011386777
 40
0.375
  0
SPLINE
  5
297
100
AcDbEntity
  8
0
100
AcDbSpline
 62
6
  6
CONTINUOUS
 70
0
 71
3
 72
33
 73
29
 74
27
 42
0.0000001
 43
0.0000001
 44
0.0000000001
 12
0.6468249139
 22
-0.564817051
 32
0.0
 13
0.3382298104
 23
0.7893043556
 33
0.0
 40
0.0
 40
0.0
 40
0.0
 40
0.0
 40
0.0624656273
 40
0.1250073086
 40
0.1562743506
 40
0.1875281574
 40
0.2187745626
 40
0.2500198561
 40
0.2812675744
 40
0.3125166484
 40
0.343766319
 40
0.3750170236
 40
0.4062685507
 40
0.4375204515
 40
0.4687733106
 40
0.5000275383
 40
0.5625094514
 40
0.6249924123
 40
0.6562474528
 40
0.6875026699
 40
0.7187582323
 40
0.7500121476
 40
0.7812627122
 40
0.8125105293
 40
0.8437603652
 40
0.8750183369
 40
0.9375417257
 40
1.0
 40
1.0
 40
1.0
 40
1.0
 10
11.2672152972
 20
7.9566305784
 30
0.0
 10
11.2806834052
 20
7.9448700279
 30
0.0
 10
11.3089996884
 20
7.9228507472
 30
0.0
 10
11.3472679326
 20
7.8994950282
 30
0.0
 10
11.3793280107
 20
7.8835309534
 30
0.0
 10
11.4040134736
 20
7.8729561036
 30
0.0
 10
11.4292575836
 20
7.8638145894
 30
0.0
 10
11.4549842306
 20
7.8561402823
 30
0.0
 10
11.4811111644
 20
7.8499615181
 30
0.0
 10
11.507551855
 20
7.8452975665
 30
0.0
 10
11.534219058
 20
7.8421701711
 30
0.0
 10
11.5610238683
 20
7.8406005846
 30
0.0
 10
11.5878752317
 20
7.840591729
 30
0.0
 10
11.6146821156
 20
7.8421459058
 30
0.0
 10
11.6413537084
 20
7.8452682453
 30
0.0
 10
11.6765992274
 20
7.8515096203
 30
0.0
 10
11.7198820559
 20
7.8631726253
 30
0.0
 10
11.7614823024
 20
7.8798760919
 30
0.0
 10
11.7933850587
 20
7.8961100738
 30
0.0
 10
11.8165514762
 20
7.9096959757
 30
0.0
 10
11.838862382
 20
7.9246431034
 30
0.0
 10
11.8602400771
 20
7.9408950869
 30
0.0
 10
11.8806039332
 20
7.9583976184
 30
0.0
 10
11.899873918
 20
7.9770959086
 30
0.0
 10
11.917982475
 20
7.9969250141
 30
0.0
 10
11.9404867866
 20
8.0247773994
 30
0.0
 10
11.9653616407
 20
8.0620812519
 30
0.0
 10
11.9814988442
 20
8.0941250153
 30
0.0
 10
11.9885405943
 20
8.110557878
 30
0.0
 11
11.2672152972
 21
7.9566305784
 31
0.0
 11
11.3095555957
 21
7.9236972602
 31
0.0
 11
11.3554048351
 21
7.8957300961
 31
0.0
 11
11.3794394661
 21
7.8837618008
 31
0.0
 11
11.4041095113
 21
7.8731938181
 31
0.0
 11
11.4293385803
 21
7.8640589204
 31
0.0
 11
11.4550501506
 21
7.8563897482
 31
0.0
 11
11.4811628731
 21
7.8502141099
 31
0.0
 11
11.5075892972
 21
7.8455537051
 31
0.0
 11
11.534241581
 21
7.8424298418
 31
0.0
 11
11.5610312854
 21
7.8408607174
 31
0.0
 11
11.5878676088
 21
7.8408522282
 31
0.0
 11
11.6146591656
 21
7.8424072298
 31
0.0
 11
11.6413145546
 21
7.8455281183
 31
0.0
 11
11.6677420508
 21
7.8502078884
 31
0.0
 11
11.7195452396
 21
7.8641805212
 31
0.0
 11
11.7693375602
 21
7.884171174
 31
0.0
 11
11.7932573507
 21
7.8963446652
 31
0.0
 11
11.8164088513
 21
7.9099228249
 31
0.0
 11
11.8387074082
 21
7.9248609867
 31
0.0
 11
11.8600721362
 21
7.9411043484
 31
0.0
 11
11.880422351
 21
7.9585975675
 31
0.0
 11
11.8996797094
 21
7.9772836984
 31
0.0
 11
11.9177753567
 21
7.9970992964
 31
0.0
 11
11.9346428418
 21
8.0179792708
 31
0.0
 11
11.9644307574
 21
8.0626481427
 31
0.0
 11
11.9885405943
 21
8.110557878
 31
0.0
  0
LINE
  5
298
100
AcDbEntity
  8
0
100
AcDbLine
 62
6
  6
CONTINUOUS
 10
11.5946324328
 20
8.7950517087
 11
11.5938865233
 21
8.7950506063
  0
LINE
  5
299
100
AcDbEntity
  8
0
100
AcDbLine
 62
6
  6
CONTINUOUS
 10
11.5939009796
 20
7.8083377564
 11
11.5946324328
 21
7.8083377345
  0
LINE
  5
29A
100
AcDbEntity
  8
0
100
AcDbLine
 62
6
  6
CONTINUOUS
 10
11.5946324328
 20
8.7972758852
 11
11.5941403053
 21
8.797275288
  0
SPLINE
  5
29B
100
AcDbEntity
  8
0
100
AcDbSpline
 62
6
  6
CONTINUOUS
 70
0
 71
3
 72
39
 73
35
 74
33
 42
0.0000001
 43
0.0000001
 44
0.0000000001
 12
-0.7953585731
 22
-0.8366688005
 32
0.0
 13
1.1543872098
 23
-0.0003336526
 33
0.0
 40
0.0
 40
0.0
 40
0.0
 40
0.0
 40
0.0312481528
 40
0.0624973163
 40
0.0937477576
 40
0.1249981058
 40
0.1562479796
 40
0.1874978302
 40
0.2187467492
 40
0.2499945157
 40
0.2812422118
 40
0.3124898381
 40
0.3437379124
 40
0.3749874374
 40
0.4062378221
 40
0.4374889385
 40
0.4687414685
 40
0.499994423
 40
0.5312469728
 40
0.5624996162
 40
0.5937513895
 40
0.6250009787
 40
0.6562492364
 40
0.6874972888
 40
0.7187459354
 40
0.74999632
 40
0.7812466917
 40
0.8124943203
 40
0.8437402024
 40
0.8749903886
 40
0.9062513027
 40
0.937523623
 40
0.9687833802
 40
1.0
 40
1.0
 40
1.0
 40
1.0
 10
11.2354822514
 20
8.6430111741
 30
0.0
 10
11.227197756
 20
8.6342963893
 30
0.0
 10
11.2112552795
 20
8.6162578309
 30
0.0
 10
11.1893839109
 20
8.5875323187
 30
0.0
 10
11.1696545951
 20
8.5572925806
 30
0.0
 10
11.1521703468
 20
8.5257015607
 30
0.0
 10
11.1370380904
 20
8.4929188007
 30
0.0
 10
11.1243292115
 20
8.459123706
 30
0.0
 10
11.1141046683
 20
8.4244965407
 30
0.0
 10
11.1064332614
 20
8.3892164601
 30
0.0
 10
11.1013483197
 20
8.3534727061
 30
0.0
 10
11.0988691448
 20
8.3174539923
 30
0.0
 10
11.0990238855
 20
8.2813494882
 30
0.0
 10
11.1018051881
 20
8.2453512351
 30
0.0
 10
11.1071901455
 20
8.2096481913
 30
0.0
 10
11.1151652809
 20
8.1744316616
 30
0.0
 10
11.1256842675
 20
8.139888874
 30
0.0
 10
11.1386810325
 20
8.1061994029
 30
0.0
 10
11.154099083
 20
8.0735465786
 30
0.0
 10
11.1718571547
 20
8.0421058365
 30
0.0
 10
11.1918482652
 20
8.0120370036
 30
0.0
 10
11.2139744545
 20
7.9835042926
 30
0.0
 10
11.238122862
 20
7.956663638
 30
0.0
 10
11.2641554187
 20
7.9316469394
 30
0.0
 10
11.2919414292
 20
7.9085915123
 30
0.0
 10
11.3213371714
 20
7.88762594
 30
0.0
 10
11.3521760402
 20
7.8688487403
 30
0.0
 10
11.3842973907
 20
7.852364193
 30
0.0
 10
11.4175365398
 20
7.838269154
 30
0.0
 10
11.4517169425
 20
7.8266257819
 30
0.0
 10
11.4866647178
 20
7.8175001675
 30
0.0
 10
11.522190486
 20
7.8109553806
 30
0.0
 10
11.558077948
 20
7.8070061165
 30
0.0
 10
11.582127406
 20
7.8061169253
 30
0.0
 10
11.5941394282
 20
7.8061134534
 30
0.0
 11
11.2354822514
 21
8.6430111741
 31
0.0
 11
11.2115959866
 21
8.6159802769
 31
0.0
 11
11.1897412865
 21
8.5872804632
 31
0.0
 11
11.1700287815
 21
8.5570673732
 31
0.0
 11
11.1525622457
 21
8.5255027408
 31
0.0
 11
11.1374419488
 21
8.492749985
 31
0.0
 11
11.124743113
 21
8.4589845586
 31
0.0
 11
11.1145300448
 21
8.4243871584
 31
0.0
 11
11.106864317
 21
8.3891390734
 31
0.0
 11
11.1017826123
 21
8.3534268725
 31
0.0
 11
11.0993081365
 21
8.3174399836
 31
0.0
 11
11.0994616149
 21
8.2813679313
 31
0.0
 11
11.1022390727
 21
8.2454009595
 31
0.0
 11
11.1076217528
 21
8.209729743
 31
0.0
 11
11.1155890752
 21
8.1745446374
 31
0.0
 11
11.1260971514
 21
8.1400313361
 31
0.0
 11
11.1390846393
 21
8.1063720412
 31
0.0
 11
11.1544891058
 21
8.0737485575
 31
0.0
 11
11.1722296069
 21
8.0423340435
 31
0.0
 11
11.1922047673
 21
8.0122921135
 31
0.0
 11
11.214311969
 21
7.9837857227
 31
0.0
 11
11.2384369806
 21
7.9569675273
 31
0.0
 11
11.2644473857
 21
7.9319740578
 31
0.0
 11
11.2922090708
 21
7.9089403214
 31
0.0
 11
11.3215777569
 21
7.8879906388
 31
0.0
 11
11.3523909623
 21
7.8692301956
 31
0.0
 11
11.3844843031
 21
7.8527621395
 31
0.0
 11
11.4176910612
 21
7.8386786327
 31
0.0
 11
11.4518392546
 21
7.8270470683
 31
0.0
 11
11.4867561772
 21
7.817931445
 31
0.0
 11
11.5222583816
 21
7.8113869775
 31
0.0
 11
11.5581278057
 21
7.8074405744
 31
0.0
 11
11.5941394282
 21
7.8061134534
 31
0.0
  0
LINE
  5
29C
100
AcDbEntity
  8
0
100
AcDbLine
 62
6
  6
CONTINUOUS
 10
11.5941394282
 20
7.8061134534
 11
11.5946324328
 21
7.8061135584
  0
LINE
  5
29D
100
AcDbEntity
  8
0
100
AcDbLine
 62
6
  6
CONTINUOUS
 10
11.5946324328
 20
8.7995000598
 11
11.594132879
 21
8.7994994525
  0
SPLINE
  5
29E
100
AcDbEntity
  8
0
100
AcDbSpline
 62
6
  6
CONTINUOUS
 70
0
 71
3
 72
39
 73
35
 74
33
 42
0.0000001
 43
0.0000001
 44
0.0000000001
 12
-0.7989533653
 22
-0.8404259628
 32
0.0
 13
1.1595870671
 23
-0.0003356063
 33
0.0
 40
0.0
 40
0.0
 40
0.0
 40
0.0
 40
0.031247858
 40
0.0624955527
 40
0.0937440849
 40
0.1249928672
 40
0.1562419018
 40
0.1874918112
 40
0.2187416371
 40
0.249990871
 40
0.2812403067
 40
0.3124895337
 40
0.3437384079
 40
0.374987931
 40
0.4062377939
 40
0.4374878292
 40
0.4687387513
 40
0.4999895806
 40
0.5312392594
 40
0.5624884536
 40
0.5937370669
 40
0.6249847153
 40
0.6562326224
 40
0.6874814705
 40
0.7187317506
 40
0.74998425
 40
0.7812368199
 40
0.8124864779
 40
0.8437342297
 40
0.8749861183
 40
0.9062485132
 40
0.937521989
 40
0.9687826247
 40
1.0
 40
1.0
 40
1.0
 40
1.0
 10
11.233882524
 20
8.6445560195
 30
0.0
 10
11.2255606636
 20
8.6358021825
 30
0.0
 10
11.2095461676
 20
8.6176835299
 30
0.0
 10
11.1875745953
 20
8.5888316595
 30
0.0
 10
11.1677573088
 20
8.5584573477
 30
0.0
 10
11.15019435
 20
8.5267259792
 30
0.0
 10
11.1349919124
 20
8.493797472
 30
0.0
 10
11.1222251095
 20
8.4598503159
 30
0.0
 10
11.1119530976
 20
8.4250666551
 30
0.0
 10
11.1042445616
 20
8.3896265672
 30
0.0
 10
11.0991363301
 20
8.3537199459
 30
0.0
 10
11.0966451988
 20
8.3175374923
 30
0.0
 10
11.0967982092
 20
8.2812694042
 30
0.0
 10
11.0995921822
 20
8.2451088503
 30
0.0
 10
11.1050012859
 20
8.2092456478
 30
0.0
 10
11.1130101341
 20
8.1738712622
 30
0.0
 10
11.1235757272
 20
8.1391745487
 30
0.0
 10
11.136629803
 20
8.1053356261
 30
0.0
 10
11.1521141691
 20
8.0725378753
 30
0.0
 10
11.1699488892
 20
8.0409578241
 30
0.0
 10
11.1900270874
 20
8.0107555287
 30
0.0
 10
11.2122511292
 20
7.9820955656
 30
0.0
 10
11.2365064544
 20
7.9551331625
 30
0.0
 10
11.2626552651
 20
7.9300015357
 30
0.0
 10
11.2905671973
 20
7.9068403964
 30
0.0
 10
11.320096412
 20
7.8857779445
 30
0.0
 10
11.3510754461
 20
7.8669134881
 30
0.0
 10
11.3833431713
 20
7.8503527738
 30
0.0
 10
11.4167337751
 20
7.8361927752
 30
0.0
 10
11.4510697854
 20
7.8244957099
 30
0.0
 10
11.4861765099
 20
7.8153281803
 30
0.0
 10
11.5218635915
 20
7.8087534016
 30
0.0
 10
11.5579137597
 20
7.8047860348
 30
0.0
 10
11.5820721793
 20
7.8038927704
 30
0.0
 10
11.5941386009
 20
7.8038892782
 30
0.0
 11
11.233882524
 21
8.6445560195
 31
0.0
 11
11.2098878523
 21
8.617404538
 31
0.0
 11
11.1879338631
 21
8.5885782331
 31
0.0
 11
11.1681331256
 21
8.5582313277
 31
0.0
 11
11.1505878531
 21
8.5265266229
 31
0.0
 11
11.1353980087
 21
8.493628071
 31
0.0
 11
11.1226409051
 21
8.4597108789
 31
0.0
 11
11.1123802786
 21
8.4249569995
 31
0.0
 11
11.1046779518
 21
8.3895488506
 31
0.0
 11
11.0995725039
 21
8.3536738704
 31
0.0
 11
11.0970858828
 21
8.3175230892
 31
0.0
 11
11.0972383561
 21
8.2812876181
 31
0.0
 11
11.1000280151
 21
8.2451586139
 31
0.0
 11
11.1054345464
 21
8.2093272712
 31
0.0
 11
11.1134361551
 21
8.1739845993
 31
0.0
 11
11.123990498
 21
8.1393174597
 31
0.0
 11
11.1370350712
 21
8.1055086438
 31
0.0
 11
11.1525060453
 21
8.0727405314
 31
0.0
 11
11.170322989
 21
8.0411871478
 31
0.0
 11
11.1903849925
 21
8.0110122127
 31
0.0
 11
11.2125895991
 21
7.9823785778
 31
0.0
 11
11.2368216624
 21
7.9554386733
 31
0.0
 11
11.2629484831
 21
7.930330514
 31
0.0
 11
11.2908358765
 21
7.9071908499
 31
0.0
 11
11.320338066
 21
7.88614428
 31
0.0
 11
11.3512914793
 21
7.8672967495
 31
0.0
 11
11.383531018
 21
7.8507525471
 31
0.0
 11
11.4168890716
 21
7.8366041001
 31
0.0
 11
11.4511927556
 21
7.8249189294
 31
0.0
 11
11.486268516
 21
7.8157614116
 31
0.0
 11
11.5219319057
 21
7.8091869526
 31
0.0
 11
11.5579638936
 21
7.805222479
 31
0.0
 11
11.5941386009
 21
7.8038892782
 31
0.0
  0
LINE
  5
29F
100
AcDbEntity
  8
0
100
AcDbLine
 62
6
  6
CONTINUOUS
 10
11.5941386009
 20
7.8038892782
 11
11.5946324328
 21
7.8038893825
  0
LINE
  5
2A0
100
AcDbEntity
  8
0
100
AcDbLine
 62
6
  6
CONTINUOUS
 10
11.5946324328
 20
8.7928275338
 11
11.5941842568
 21
8.7928270056
  0
LINE
  5
2A1
100
AcDbEntity
  8
0
100
AcDbLine
 62
6
  6
CONTINUOUS
 10
11.5941274204
 20
7.810561806
 11
11.5946324328
 21
7.8105619082
  0
LINE
  5
2A2
100
AcDbEntity
  8
0
100
AcDbLine
 62
6
  6
CONTINUOUS
 10
11.5946324328
 20
8.7883791832
 11
11.5938938156
 21
8.7883780822
  0
LINE
  5
2A3
100
AcDbEntity
  8
0
100
AcDbLine
 62
6
  6
CONTINUOUS
 10
11.1085089376
 20
8.2781704509
 11
11.1085627869
 21
8.2770758083
  0
LINE
  5
2A4
100
AcDbEntity
  8
0
100
AcDbLine
 62
6
  6
CONTINUOUS
 10
11.593893228
 20
7.8150102885
 11
11.5946324328
 21
7.8150102602
  0
LINE
  5
2A5
100
AcDbEntity
  8
0
100
AcDbLine
 62
6
  6
CONTINUOUS
 10
11.5946324328
 20
8.7906033596
 11
11.5941338259
 21
8.790602743
  0
LINE
  5
2A6
100
AcDbEntity
  8
0
100
AcDbLine
 62
6
  6
CONTINUOUS
 10
11.5941385446
 20
7.8127859777
 11
11.5946324328
 21
7.8127860839
  0
LINE
  5
2A7
100
AcDbEntity
  8
0
100
AcDbLine
 62
6
  6
CONTINUOUS
 10
11.5946324328
 20
8.786155008
 11
11.5941840728
 21
8.7861544721
  0
LINE
  5
2A8
100
AcDbEntity
  8
0
100
AcDbLine
 62
6
  6
CONTINUOUS
 10
11.2895374751
 20
8.677865191
 11
11.288974815
 21
8.6774081044
  0
LINE
  5
2A9
100
AcDbEntity
  8
0
100
AcDbLine
 62
6
  6
CONTINUOUS
 10
11.5941592198
 20
7.817234321
 11
11.5946324328
 21
7.817234434
  0
SPLINE
  5
2AA
100
AcDbEntity
  8
0
100
AcDbSpline
 62
6
  6
CONTINUOUS
 70
0
 71
3
 72
39
 73
35
 74
33
 42
0.0000001
 43
0.0000001
 44
0.0000000001
 12
-1.1432061902
 22
-0.0008420912
 32
0.0
 13
0.8291088419
 23
-0.7870829885
 33
0.0
 40
0.0
 40
0.0
 40
0.0
 40
0.0
 40
0.0312170911
 40
0.0624777212
 40
0.0937503072
 40
0.1250112035
 40
0.1562620948
 40
0.1875095402
 40
0.2187595722
 40
0.2500122324
 40
0.2812643672
 40
0.3125143782
 40
0.3437632398
 40
0.3750112329
 40
0.4062593708
 40
0.4375083114
 40
0.4687572312
 40
0.5000063714
 40
0.5312561267
 40
0.5625055419
 40
0.5937547623
 40
0.6250043252
 40
0.6562535171
 40
0.687502725
 40
0.718752649
 40
0.7500027695
 40
0.7812535766
 40
0.8125051288
 40
0.8437559588
 40
0.8750058039
 40
0.9062552465
 40
0.9375036502
 40
0.9687514625
 40
1.0
 40
1.0
 40
1.0
 40
1.0
 10
11.5946324328
 20
8.7817066578
 30
0.0
 10
11.5827365755
 20
8.7816978952
 30
0.0
 10
11.5589195834
 20
8.7807889276
 30
0.0
 10
11.5233883839
 20
8.7767834233
 30
0.0
 10
11.4882321503
 20
8.7701557582
 30
0.0
 10
11.4536729678
 20
8.7609223197
 30
0.0
 10
11.4199045705
 20
8.7491501962
 30
0.0
 10
11.3871064336
 20
8.7349062256
 30
0.0
 10
11.3554609256
 20
8.718256312
 30
0.0
 10
11.3251363435
 20
8.6993043281
 30
0.0
 10
11.2962994104
 20
8.6781568855
 30
0.0
 10
11.2691216612
 20
8.6549177399
 30
0.0
 10
11.2437465001
 20
8.6297255259
 30
0.0
 10
11.2203098185
 20
8.6027211226
 30
0.0
 10
11.1989524558
 20
8.5740438446
 30
0.0
 10
11.1797830016
 20
8.5438601794
 30
0.0
 10
11.1629047433
 20
8.5123372197
 30
0.0
 10
11.1484256275
 20
8.479642344
 30
0.0
 10
11.136414184
 20
8.4459628151
 30
0.0
 10
11.1269343449
 20
8.411484645
 30
0.0
 10
11.1200540899
 20
8.3763951492
 30
0.0
 10
11.1157986293
 20
8.3408920768
 30
0.0
 10
11.1141893297
 20
8.3051707812
 30
0.0
 10
11.1152508133
 20
8.2694288204
 30
0.0
 10
11.1189638674
 20
8.2338644282
 30
0.0
 10
11.1253065462
 20
8.1986727864
 30
0.0
 10
11.1342593314
 20
8.1640523186
 30
0.0
 10
11.1457589056
 20
8.1301926073
 30
0.0
 10
11.1597397554
 20
8.0972797836
 30
0.0
 10
11.1761391101
 20
8.0655035409
 30
0.0
 10
11.1948535952
 20
8.0350350027
 30
0.0
 10
11.2157782279
 20
8.0060396706
 30
0.0
 10
11.2388074982
 20
7.9786890591
 30
0.0
 10
11.2554764679
 20
7.9616433861
 30
0.0
 10
11.2641126141
 20
7.9534449886
 30
0.0
 11
11.5946324328
 21
8.7817066578
 31
0.0
 11
11.5589706444
 21
8.7803500722
 31
0.0
 11
11.5234581555
 21
8.7763473597
 31
0.0
 11
11.4883267225
 21
8.769720286
 31
0.0
 11
11.453799588
 21
8.7604976342
 31
0.0
 11
11.4200644036
 21
8.74873752
 31
0.0
 11
11.3872995226
 21
8.7345057228
 31
0.0
 11
11.3556822105
 21
8.7178732747
 31
0.0
 11
11.3253841244
 21
8.6989382959
 31
0.0
 11
11.2965751184
 21
8.6778076145
 31
0.0
 11
11.2694215749
 21
8.6545917555
 31
0.0
 11
11.2440692704
 21
8.6294231677
 31
0.0
 11
11.2206564063
 21
8.6024423596
 31
0.0
 11
11.1993173144
 21
8.5737930803
 31
0.0
 11
11.1801648969
 21
8.5436370111
 31
0.0
 11
11.1633046586
 21
8.512142023
 31
0.0
 11
11.148837006
 21
8.4794784817
 31
0.0
 11
11.1368360824
 21
8.4458295889
 31
0.0
 11
11.1273675875
 21
8.4113826736
 31
0.0
 11
11.1204915742
 21
8.3763263346
 31
0.0
 11
11.1162396453
 21
8.3408555645
 31
0.0
 11
11.1146344579
 21
8.3051673661
 31
0.0
 11
11.1156927191
 21
8.2694587464
 31
0.0
 11
11.1194021134
 21
8.233926728
 31
0.0
 11
11.1257414845
 21
8.1987683385
 31
0.0
 11
11.1346837052
 21
8.1641794276
 31
0.0
 11
11.1461725753
 21
8.130350109
 31
0.0
 11
11.1601430554
 21
8.0974687523
 31
0.0
 11
11.1765251164
 21
8.0657212238
 31
0.0
 11
11.1952222448
 21
8.0352801003
 31
0.0
 11
11.2161291715
 21
8.0063135651
 31
0.0
 11
11.2391363525
 21
7.9789862697
 31
0.0
 11
11.2641126141
 21
7.9534449886
 31
0.0
  0
LINE
  5
2AB
100
AcDbEntity
  8
0
100
AcDbLine
 62
6
  6
CONTINUOUS
 10
11.5946324328
 20
8.7839308341
 11
11.5941322811
 21
8.7839302061
  0
SPLINE
  5
2AC
100
AcDbEntity
  8
0
100
AcDbSpline
 62
6
  6
CONTINUOUS
 70
0
 71
3
 72
39
 73
35
 74
33
 42
0.0000001
 43
0.0000001
 44
0.0000000001
 12
-1.1479777567
 22
-0.0020407702
 32
0.0
 13
0.8325442987
 23
-0.7903967897
 33
0.0
 40
0.0
 40
0.0
 40
0.0
 40
0.0
 40
0.0312174415
 40
0.0624783528
 40
0.09375111
 40
0.1250120101
 40
0.156262727
 40
0.1875098448
 40
0.2187594473
 40
0.2500116389
 40
0.2812631962
 40
0.3125124387
 40
0.3437607342
 40
0.3750089797
 40
0.4062586785
 40
0.4375102931
 40
0.4687624075
 40
0.5000146362
 40
0.5312672696
 40
0.5625190347
 40
0.5937694304
 40
0.6250192873
 40
0.6562681913
 40
0.6875163214
 40
0.7187646016
 40
0.7500124762
 40
0.7812600425
 40
0.8125082194
 40
0.8437565759
 40
0.8750053749
 40
0.9062549914
 40
0.9375040304
 40
0.9687519487
 40
1.0
 40
1.0
 40
1.0
 40
1.0
 10
11.5941322811
 20
8.7839302061
 30
0.0
 10
11.5821866383
 20
8.7839089702
 30
0.0
 10
11.5582709363
 20
8.7829718003
 30
0.0
 10
11.5225950809
 20
8.778914504
 30
0.0
 10
11.4872982368
 20
8.7722257322
 30
0.0
 10
11.452603292
 20
8.7629219827
 30
0.0
 10
11.41870459
 20
8.7510707763
 30
0.0
 10
11.385782019
 20
8.7367395552
 30
0.0
 10
11.3540184621
 20
8.7199944604
 30
0.0
 10
11.3235827524
 20
8.7009397213
 30
0.0
 10
11.294641792
 20
8.6796829277
 30
0.0
 10
11.2673674464
 20
8.656328202
 30
0.0
 10
11.2419037921
 20
8.6310138581
 30
0.0
 10
11.2183864326
 20
8.6038812224
 30
0.0
 10
11.1969566224
 20
8.5750696407
 30
0.0
 10
11.1777237329
 20
8.5447460908
 30
0.0
 10
11.1607903488
 20
8.5130794801
 30
0.0
 10
11.1462660217
 20
8.4802374916
 30
0.0
 10
11.1342217338
 20
8.446407809
 30
0.0
 10
11.1247176298
 20
8.4117790442
 30
0.0
 10
11.1178221799
 20
8.3765388784
 30
0.0
 10
11.1135654069
 20
8.3408851374
 30
0.0
 10
11.1119628876
 20
8.3050146268
 30
0.0
 10
11.1130392352
 20
8.2691248861
 30
0.0
 10
11.116780371
 20
8.2334152267
 30
0.0
 10
11.1231582776
 20
8.1980811391
 30
0.0
 10
11.1321533653
 20
8.1633209043
 30
0.0
 10
11.1437073348
 20
8.129325653
 30
0.0
 10
11.157750567
 20
8.0962800887
 30
0.0
 10
11.1742204523
 20
8.0643736866
 30
0.0
 10
11.193016234
 20
8.0337800032
 30
0.0
 10
11.2140290545
 20
8.0046638876
 30
0.0
 10
11.2371535664
 20
7.9771981749
 30
0.0
 10
11.253892113
 20
7.9600815206
 30
0.0
 10
11.2625639087
 20
7.9518487341
 30
0.0
 11
11.5941322811
 21
8.7839302061
 31
0.0
 11
11.5583226064
 21
8.7825313854
 31
0.0
 11
11.5226654927
 21
8.7784768892
 31
0.0
 11
11.4873935068
 21
8.7717886956
 31
0.0
 11
11.452730706
 21
8.7624957946
 31
0.0
 11
11.4188653139
 21
8.7506567029
 31
0.0
 11
11.3859761236
 21
8.7363377087
 31
0.0
 11
11.354240878
 21
8.7196101489
 31
0.0
 11
11.323831664
 21
8.7005725534
 31
0.0
 11
11.2949186729
 21
8.6793325665
 31
0.0
 11
11.267668803
 21
8.6560012138
 31
0.0
 11
11.2422281773
 21
8.6307108206
 31
0.0
 11
11.2187348348
 21
8.6036019996
 31
0.0
 11
11.197323333
 21
8.5748184523
 31
0.0
 11
11.1781071652
 21
8.5445225498
 31
0.0
 11
11.1611919062
 21
8.5128836815
 31
0.0
 11
11.1466794128
 21
8.4800729983
 31
0.0
 11
11.1346449669
 21
8.4462741988
 31
0.0
 11
11.1251522445
 21
8.4116764615
 31
0.0
 11
11.118261898
 21
8.3764695653
 31
0.0
 11
11.1140077415
 21
8.3408485016
 31
0.0
 11
11.1124093599
 21
8.305011025
 31
0.0
 11
11.1134833662
 21
8.2691548915
 31
0.0
 11
11.1172198608
 21
8.2334776329
 31
0.0
 11
11.1235944987
 21
8.198176659
 31
0.0
 11
11.1325797687
 21
8.1634486545
 31
0.0
 11
11.1441221597
 21
8.129484072
 31
0.0
 11
11.1581548967
 21
8.0964701848
 31
0.0
 11
11.1746079287
 21
8.0645927846
 31
0.0
 11
11.1933858981
 21
8.0340260364
 31
0.0
 11
11.2143813269
 21
8.0049385368
 31
0.0
 11
11.2374841269
 21
7.9774966163
 31
0.0
 11
11.2625639087
 21
7.9518487341
 31
0.0
  0
LINE
  5
2AD
100
AcDbEntity
  8
0
100
AcDbLine
 62
6
  6
CONTINUOUS
 10
11.5941474303
 20
7.8194584991
 11
11.5946324328
 21
7.8194586094
  0
LINE
  5
2AE
100
AcDbEntity
  8
0
100
AcDbLine
 62
6
  6
CONTINUOUS
 10
11.5946324328
 20
7.8038893825
 11
11.5951244874
 21
7.8038899782
  0
SPLINE
  5
2AF
100
AcDbEntity
  8
0
100
AcDbSpline
 62
6
  6
CONTINUOUS
 70
0
 71
3
 72
54
 73
50
 74
48
 42
0.0000001
 43
0.0000001
 44
0.0000000001
 12
1.5590086562
 22
0.0026649184
 32
0.0
 13
-1.559010868
 23
0.0004532086
 33
0.0
 40
0.0
 40
0.0
 40
0.0
 40
0.0
 40
0.0312204861
 40
0.0468547393
 40
0.0624926843
 40
0.0781279199
 40
0.0937583513
 40
0.1093855528
 40
0.1250110133
 40
0.1406362128
 40
0.1562626014
 40
0.1875092699
 40
0.2187556975
 40
0.2500001158
 40
0.265626694
 40
0.2812531652
 40
0.2968798423
 40
0.3125069324
 40
0.3437520138
 40
0.3593788392
 40
0.3750055257
 40
0.4062495046
 40
0.4218759574
 40
0.4375023803
 40
0.4687465151
 40
0.4999906625
 40
0.5312354372
 40
0.5624811641
 40
0.5937279776
 40
0.6249760052
 40
0.6406044653
 40
0.656232786
 40
0.6874797816
 40
0.7031073058
 40
0.7187341532
 40
0.7343606525
 40
0.7499871649
 40
0.7812315185
 40
0.8124786533
 40
0.8437263092
 40
0.8593533173
 40
0.8749794443
 40
0.890606148
 40
0.9062348307
 40
0.9218669405
 40
0.9375039702
 40
0.9531433965
 40
0.9687787202
 40
1.0
 40
1.0
 40
1.0
 40
1.0
 10
11.5951244874
 20
7.8038899782
 30
0.0
 10
11.6113488234
 20
7.8039177116
 30
0.0
 10
11.6357176512
 20
7.8051611884
 30
0.0
 10
11.6679517956
 20
7.8091830627
 30
0.0
 10
11.6919749865
 20
7.8133798933
 30
0.0
 10
11.7157601278
 20
7.8187509357
 30
0.0
 10
11.7392471475
 20
7.8252839185
 30
0.0
 10
11.7623811511
 20
7.8329575973
 30
0.0
 10
11.7851092482
 20
7.8417531464
 30
0.0
 10
11.8073794559
 20
7.8516515342
 30
0.0
 10
11.8363836074
 20
7.8662906446
 30
0.0
 10
11.8712464148
 20
7.8872291732
 30
0.0
 10
11.9104168856
 20
7.9163128536
 30
0.0
 10
11.9405281886
 20
7.9436460925
 30
0.0
 10
11.962919448
 20
7.9671862787
 30
0.0
 10
11.9788321874
 20
7.9856466469
 30
0.0
 10
11.9938179189
 20
8.0048677782
 30
0.0
 10
12.0125135446
 20
8.0314380724
 30
0.0
 10
12.0292383904
 20
8.0593519611
 30
0.0
 10
12.0438422487
 20
8.0883740556
 30
0.0
 10
12.0570011775
 20
8.1180785955
 30
0.0
 10
12.0679612691
 20
8.1487168095
 30
0.0
 10
12.0766294881
 20
8.1800272469
 30
0.0
 10
12.08374798
 20
8.2117272146
 30
0.0
 10
12.0897159507
 20
8.251951152
 30
0.0
 10
12.0921257337
 20
8.3006785744
 30
0.0
 10
12.0897353873
 20
8.3494096082
 30
0.0
 10
12.0825987762
 20
8.3976758245
 30
0.0
 10
12.0707537229
 20
8.4450071737
 30
0.0
 10
12.0570687128
 20
8.4833042668
 30
0.0
 10
12.0439159828
 20
8.5130167258
 30
0.0
 10
12.0293167253
 20
8.5420439142
 30
0.0
 10
12.0125966265
 20
8.5699631418
 30
0.0
 10
11.9939035395
 20
8.5965368652
 30
0.0
 10
11.9789182891
 20
8.6157588196
 30
0.0
 10
11.963005809
 20
8.6342195091
 30
0.0
 10
11.9406142499
 20
8.6577593639
 30
0.0
 10
11.910499259
 20
8.6850893384
 30
0.0
 10
11.8713202702
 20
8.714163175
 30
0.0
 10
11.836449195
 20
8.7350906923
 30
0.0
 10
11.8074362613
 20
8.7497154502
 30
0.0
 10
11.7851588528
 20
8.7596012563
 30
0.0
 10
11.7624231702
 20
8.768382536
 30
0.0
 10
11.7392812415
 20
8.7760396873
 30
0.0
 10
11.7157861719
 20
8.7825534854
 30
0.0
 10
11.6919932855
 20
8.7879020515
 30
0.0
 10
11.667963441
 20
8.7920740587
 30
0.0
 10
11.6357229623
 20
8.7960592873
 30
0.0
 10
11.6113513418
 20
8.797271273
 30
0.0
 10
11.5951265703
 20
8.7972759896
 30
0.0
 11
11.5951244874
 21
7.8038899782
 31
0.0
 11
11.6437347731
 21
7.8063615699
 31
0.0
 11
11.6679212346
 21
7.8093791131
 31
0.0
 11
11.6919370134
 21
7.8135759543
 31
0.0
 11
11.7157137643
 21
7.8189454305
 31
0.0
 11
11.7391907291
 21
7.8254747644
 31
0.0
 11
11.7623147803
 21
7.8331450288
 31
0.0
 11
11.785033126
 21
7.8419370262
 31
0.0
 11
11.8072929742
 21
7.8518315592
 31
0.0
 11
11.8290418086
 21
7.8628079497
 31
0.0
 11
11.8708027956
 21
7.8878890943
 31
0.0
 11
11.9099113301
 21
7.9169326784
 31
0.0
 11
11.9459820233
 21
7.9496680897
 31
0.0
 11
11.962772306
 21
7.9673201083
 31
0.0
 11
11.9786775909
 21
7.9857733229
 31
0.0
 11
11.9936574252
 21
8.0049858041
 31
0.0
 11
12.0076773567
 21
8.0249103555
 31
0.0
 11
12.0327110644
 21
8.0666969116
 31
0.0
 11
12.043661668
 21
8.0884595036
 31
0.0
 11
12.0535296412
 21
8.1107336743
 31
0.0
 11
12.069936347
 21
8.1565971165
 31
0.0
 11
12.0764357462
 21
8.1800759503
 31
0.0
 11
12.0817737291
 21
8.2038457103
 31
0.0
 11
12.0889240502
 21
8.2520279884
 31
0.0
 11
12.0913257161
 21
8.3006787123
 31
0.0
 11
12.0889444161
 21
8.3493314163
 31
0.0
 11
12.0818142018
 21
8.397519183
 31
0.0
 11
12.0699912816
 21
8.4447768218
 31
0.0
 11
12.0535982282
 21
8.4906518486
 31
0.0
 11
12.0437350804
 21
8.5129311804
 31
0.0
 11
12.0327880209
 21
8.5346981647
 31
0.0
 11
12.0077606107
 21
8.5764919713
 31
0.0
 11
11.9937426635
 21
8.5964187464
 31
0.0
 11
11.9787635817
 21
8.6156321507
 31
0.0
 11
11.9628585416
 21
8.6340856344
 31
0.0
 11
11.9460679669
 21
8.6517372334
 31
0.0
 11
11.9099933955
 21
8.684468221
 31
0.0
 11
11.8708766192
 21
8.7135025538
 31
0.0
 11
11.8291051689
 21
8.7385692599
 31
0.0
 11
11.8073498915
 21
8.7495350207
 31
0.0
 11
11.7850828869
 21
8.7594170038
 31
0.0
 11
11.7623569207
 21
8.7681946652
 31
0.0
 11
11.7392249465
 21
8.7758483566
 31
0.0
 11
11.715739918
 21
8.7823584294
 31
0.0
 11
11.6919552834
 21
8.787705642
 31
0.0
 11
11.6679328277
 21
8.7918776121
 31
0.0
 11
11.6437412702
 21
8.7948676625
 31
0.0
 11
11.5951265703
 21
8.7972759896
 31
0.0
  0
LINE
  5
2B0
100
AcDbEntity
  8
0
100
AcDbLine
 62
6
  6
CONTINUOUS
 10
11.5951265703
 20
8.7972759896
 11
11.5946324328
 21
8.7972758852
  0
LINE
  5
2B1
100
AcDbEntity
  8
0
100
AcDbLine
 62
6
  6
CONTINUOUS
 10
11.5946324328
 20
7.8061135584
 11
11.5951265581
 21
7.8061141604
  0
SPLINE
  5
2B2
100
AcDbEntity
  8
0
100
AcDbSpline
 62
6
  6
CONTINUOUS
 70
0
 71
3
 72
49
 73
45
 74
43
 42
0.0000001
 43
0.0000001
 44
0.0000000001
 12
1.5517482564
 22
0.002671246
 32
0.0
 13
-1.5517504931
 23
0.0004403795
 33
0.0
 40
0.0
 40
0.0
 40
0.0
 40
0.0
 40
0.0312265123
 40
0.0468639038
 40
0.0625048688
 40
0.0781428327
 40
0.0937755648
 40
0.1094047429
 40
0.1250319795
 40
0.140658871
 40
0.1562869341
 40
0.1875370005
 40
0.2187874645
 40
0.2500372546
 40
0.2656669326
 40
0.2812967529
 40
0.3125485512
 40
0.3438019392
 40
0.3594333032
 40
0.3750647844
 40
0.4063184274
 40
0.4375701987
 40
0.4999956632
 40
0.5624230928
 40
0.5936760473
 40
0.6249305246
 40
0.6405623301
 40
0.6561940035
 40
0.6874478944
 40
0.7186999567
 40
0.7343298519
 40
0.7499595509
 40
0.7812091635
 40
0.8124592496
 40
0.8437090164
 40
0.8593371739
 40
0.8749644595
 40
0.8905923239
 40
0.9062222391
 40
0.9218557107
 40
0.9374943177
 40
0.9531357325
 40
0.9687733943
 40
1.0
 40
1.0
 40
1.0
 40
1.0
 10
11.5951265581
 20
7.8061141604
 30
0.0
 10
11.6112784534
 20
7.806141965
 30
0.0
 10
11.635538518
 20
7.8073803889
 30
0.0
 10
11.6676287356
 20
7.8113848194
 30
0.0
 10
11.691544533
 20
7.8155631427
 30
0.0
 10
11.7152229611
 20
7.8209101191
 30
0.0
 10
11.738604051
 20
7.8274138116
 30
0.0
 10
11.7616332117
 20
7.8350529828
 30
0.0
 10
11.784257989
 20
7.843808851
 30
0.0
 10
11.8064268012
 20
7.8536624762
 30
0.0
 10
11.8352990092
 20
7.8682349448
 30
0.0
 10
11.8700041187
 20
7.8890773741
 30
0.0
 10
11.9089971536
 20
7.9180301865
 30
0.0
 10
11.9389733536
 20
7.9452397092
 30
0.0
 10
11.9612655002
 20
7.9686744577
 30
0.0
 10
11.9823845026
 20
7.9931738189
 30
0.0
 10
12.006484279
 20
8.025703415
 30
0.0
 10
12.0272916979
 20
8.0604317802
 30
0.0
 10
12.0418320468
 20
8.0893278097
 30
0.0
 10
12.0549327533
 20
8.1189036235
 30
0.0
 10
12.0685704141
 20
8.1570273757
 30
0.0
 10
12.0842996505
 20
8.2197914358
 30
0.0
 10
12.0922920622
 20
8.3006973554
 30
0.0
 10
12.0843282398
 20
8.3816070273
 30
0.0
 10
12.068617191
 20
8.4443778312
 30
0.0
 10
12.0549894183
 20
8.4825064799
 30
0.0
 10
12.0418947634
 20
8.5120858304
 30
0.0
 10
12.0273592191
 20
8.5409849477
 30
0.0
 10
12.0065563063
 20
8.5757167704
 30
0.0
 10
11.9824577681
 20
8.6082480077
 30
0.0
 10
11.9613379436
 20
8.6327469357
 30
0.0
 10
11.9390440801
 20
8.6561800211
 30
0.0
 10
11.9090636643
 20
8.6833847492
 30
0.0
 10
11.8700626364
 20
8.7123263528
 30
0.0
 10
11.8353490844
 20
8.7331545576
 30
0.0
 10
11.8064688463
 20
8.7477114166
 30
0.0
 10
11.7842933412
 20
8.7575514697
 30
0.0
 10
11.7616615825
 20
8.7662918892
 30
0.0
 10
11.738625395
 20
8.773913421
 30
0.0
 10
11.7152375529
 20
8.7803970423
 30
0.0
 10
11.6915529724
 20
8.7857212035
 30
0.0
 10
11.6676319784
 20
8.7898740503
 30
0.0
 10
11.6355366422
 20
8.7938409563
 30
0.0
 10
11.6112745443
 20
8.795047231
 30
0.0
 10
11.5951225774
 20
8.7950518148
 30
0.0
 11
11.5951265581
 21
7.8061141604
 31
0.0
 11
11.643519762
 21
7.8085755188
 31
0.0
 11
11.6675983725
 21
7.811579982
 31
0.0
 11
11.691506884
 21
7.81575832
 31
0.0
 11
11.7151770144
 21
7.8211038153
 31
0.0
 11
11.7385480416
 21
7.8276038569
 31
0.0
 11
11.7615672358
 21
7.8352396022
 31
0.0
 11
11.784182251
 21
7.8439919098
 31
0.0
 11
11.8063407408
 21
7.8538416382
 31
0.0
 11
11.8279906348
 21
7.8647680325
 31
0.0
 11
11.8695620583
 21
7.8897344233
 31
0.0
 11
11.9084934656
 21
7.9186465192
 31
0.0
 11
11.9444028637
 21
7.951234515
 31
0.0
 11
11.9611187002
 21
7.968807402
 31
0.0
 11
11.9769535014
 21
7.9871784478
 31
0.0
 11
12.0058252981
 21
8.0261423276
 31
0.0
 11
12.0307494674
 21
8.0677450874
 31
0.0
 11
12.0416520317
 21
8.0894127257
 31
0.0
 11
12.0514765247
 21
8.1115902057
 31
0.0
 11
12.0678107549
 21
8.1572545806
 31
0.0
 11
12.0795959089
 21
8.2042957398
 31
0.0
 11
12.0891016153
 21
8.3006969646
 31
0.0
 11
12.0796286765
 21
8.3971044787
 31
0.0
 11
12.0678571763
 21
8.4441509491
 31
0.0
 11
12.0515345122
 21
8.4898208346
 31
0.0
 11
12.0417145801
 21
8.5120008846
 31
0.0
 11
12.0308156601
 21
8.5336708938
 31
0.0
 11
12.0058965899
 21
8.5752776176
 31
0.0
 11
11.9770263692
 21
8.6142431752
 31
0.0
 11
11.9611909937
 21
8.6326138794
 31
0.0
 11
11.9444738056
 21
8.6501855255
 31
0.0
 11
11.9085593933
 21
8.6827675854
 31
0.0
 11
11.8696202656
 21
8.7116682985
 31
0.0
 11
11.8280388235
 21
8.7366170963
 31
0.0
 11
11.80638289
 21
8.7475318409
 31
0.0
 11
11.7842177179
 21
8.7573680304
 31
0.0
 11
11.7615956806
 21
8.7661048761
 31
0.0
 11
11.7385694342
 21
8.7737229714
 31
0.0
 11
11.7151916345
 21
8.7802029098
 31
0.0
 11
11.6915153453
 21
8.7855256118
 31
0.0
 11
11.6676016848
 21
8.7896784601
 31
0.0
 11
11.6435191541
 21
8.7926547604
 31
0.0
 11
11.5951225774
 21
8.7950518148
 31
0.0
  0
LINE
  5
2B3
100
AcDbEntity
  8
0
100
AcDbLine
 62
6
  6
CONTINUOUS
 10
11.5951225774
 20
8.7950518148
 11
11.5946324328
 21
8.7950517087
  0
LINE
  5
2B4
100
AcDbEntity
  8
0
100
AcDbLine
 62
6
  6
CONTINUOUS
 10
11.5946324328
 20
7.8083377345
 11
11.5951320113
 21
7.8083383487
  0
SPLINE
  5
2B5
100
AcDbEntity
  8
0
100
AcDbSpline
 62
6
  6
CONTINUOUS
 70
0
 71
3
 72
54
 73
50
 74
48
 42
0.0000001
 43
0.0000001
 44
0.0000000001
 12
1.5450384773
 22
0.0026890275
 32
0.0
 13
-1.5450407587
 23
0.0004254952
 33
0.0
 40
0.0
 40
0.0
 40
0.0
 40
0.0
 40
0.0312212777
 40
0.0468564956
 40
0.0624957714
 40
0.0781326196
 40
0.0937645094
 40
0.1093929212
 40
0.1250193005
 40
0.1406450539
 40
0.1562716425
 40
0.1875184021
 40
0.2187648592
 40
0.2500091986
 40
0.2656359183
 40
0.2812627682
 40
0.296890123
 40
0.3125182732
 40
0.3437666248
 40
0.3593955437
 40
0.3750244981
 40
0.4062732827
 40
0.4375206719
 40
0.4687668126
 40
0.4843941671
 40
0.5000210597
 40
0.531264749
 40
0.5625084273
 40
0.5781348615
 40
0.5937615533
 40
0.625006462
 40
0.6406337071
 40
0.6562610596
 40
0.687507078
 40
0.7187521715
 40
0.7343788373
 40
0.7500055006
 40
0.7812498125
 40
0.8124958194
 40
0.8437418631
 40
0.8593677777
 40
0.8749922541
 40
0.8906167993
 40
0.90624305
 40
0.9218726518
 40
0.9375073419
 40
0.9531451017
 40
0.9687793931
 40
1.0
 40
1.0
 40
1.0
 40
1.0
 10
11.5951320113
 20
7.8083383487
 30
0.0
 10
11.6112113698
 20
7.8083663337
 30
0.0
 10
11.6353626919
 20
7.8095997544
 30
0.0
 10
11.6673094055
 20
7.8135870651
 30
0.0
 10
11.6911191615
 20
7.8177474497
 30
0.0
 10
11.7146932931
 20
7.8230712535
 30
0.0
 10
11.7379716958
 20
7.8295473237
 30
0.0
 10
11.7608997361
 20
7.8371540812
 30
0.0
 10
11.7834249713
 20
7.8458725651
 30
0.0
 10
11.8054960175
 20
7.855683453
 30
0.0
 10
11.8342402186
 20
7.870192488
 30
0.0
 10
11.8687889585
 20
7.890946501
 30
0.0
 10
11.9076074073
 20
7.9197708653
 30
0.0
 10
11.9374477071
 20
7.9468606153
 30
0.0
 10
11.9596369709
 20
7.9701914565
 30
0.0
 10
11.9754066325
 20
7.988487621
 30
0.0
 10
11.9902582048
 20
8.0075378066
 30
0.0
 10
12.0087859393
 20
8.0338734362
 30
0.0
 10
12.0253600964
 20
8.0615415832
 30
0.0
 10
12.039834128
 20
8.0903072596
 30
0.0
 10
12.0528753057
 20
8.1197516475
 30
0.0
 10
12.066446615
 20
8.157703775
 30
0.0
 10
12.0781988391
 20
8.2046065725
 30
0.0
 10
12.0841056093
 20
8.2444754315
 30
0.0
 10
12.0864776217
 20
8.2765873959
 30
0.0
 10
12.0872748124
 20
8.3087762656
 30
0.0
 10
12.0852977958
 20
8.3490263625
 30
0.0
 10
12.0793950199
 20
8.3888896025
 30
0.0
 10
12.0723493954
 20
8.4203076494
 30
0.0
 10
12.0637668957
 20
8.4513403194
 30
0.0
 10
12.0529115154
 20
8.481707458
 30
0.0
 10
12.0398761307
 20
8.5111491521
 30
0.0
 10
12.0254070086
 20
8.5399155704
 30
0.0
 10
12.0046979284
 20
8.5744879719
 30
0.0
 10
11.9807085965
 20
8.6068706251
 30
0.0
 10
11.9596843815
 20
8.6312583151
 30
0.0
 10
11.9374907408
 20
8.6545854929
 30
0.0
 10
11.907644316
 20
8.6816678667
 30
0.0
 10
11.8688166052
 20
8.7104793356
 30
0.0
 10
11.8342569651
 20
8.7312137056
 30
0.0
 10
11.8055056247
 20
8.7457055354
 30
0.0
 10
11.7834298713
 20
8.7555011352
 30
0.0
 10
11.7609004511
 20
8.7642013677
 30
0.0
 10
11.7379689558
 20
8.7717875098
 30
0.0
 10
11.7146877681
 20
8.7782409204
 30
0.0
 10
11.6911113217
 20
8.783540624
 30
0.0
 10
11.6672992606
 20
8.7876742458
 30
0.0
 10
11.6353493069
 20
8.7916227276
 30
0.0
 10
11.6111969356
 20
8.7928232137
 30
0.0
 10
11.5951178989
 20
8.7928276417
 30
0.0
 11
11.5951320113
 21
7.8083383487
 31
0.0
 11
11.6433078337
 21
7.8107896951
 31
0.0
 11
11.6672789254
 21
7.8137813208
 31
0.0
 11
11.6910813933
 21
7.817941673
 31
0.0
 11
11.7146473853
 21
7.8232641516
 31
0.0
 11
11.737915877
 21
7.8297365499
 31
0.0
 11
11.760834085
 21
7.8373398952
 31
0.0
 11
11.7833497177
 21
7.8460548106
 31
0.0
 11
11.8054104835
 21
7.8558619193
 31
0.0
 11
11.826964282
 21
7.8667409291
 31
0.0
 11
11.8683495286
 21
7.8916001366
 31
0.0
 11
11.9071063556
 21
7.9203852383
 31
0.0
 11
11.9428521688
 21
7.9528289531
 31
0.0
 11
11.9594911032
 21
7.9703239446
 31
0.0
 11
11.975253376
 21
7.9886129943
 31
0.0
 11
11.990098883
 21
8.0076547158
 31
0.0
 11
12.0039928308
 21
8.0274029767
 31
0.0
 11
12.0288018647
 21
8.0688211874
 31
0.0
 11
12.0396549748
 21
8.0903920694
 31
0.0
 11
12.0494344592
 21
8.1124705043
 31
0.0
 11
12.0656914771
 21
8.1579318099
 31
0.0
 11
12.0774215967
 21
8.2047636053
 31
0.0
 11
12.0845021685
 21
8.2525181026
 31
0.0
 11
12.0862807591
 21
8.2765974058
 31
0.0
 11
12.0868772921
 21
8.3007342223
 31
0.0
 11
12.0845126872
 21
8.3489490486
 31
0.0
 11
12.0774407517
 21
8.3967009796
 31
0.0
 11
12.0721573103
 21
8.420259265
 31
0.0
 11
12.0657222009
 21
8.4435297645
 31
0.0
 11
12.0494724515
 21
8.4889873091
 31
0.0
 11
12.0396969415
 21
8.5110646157
 31
0.0
 11
12.0288477558
 21
8.5326347628
 31
0.0
 11
12.0040416097
 21
8.5740505012
 31
0.0
 11
11.9753019525
 21
8.6128384167
 31
0.0
 11
11.9595381485
 21
8.631125771
 31
0.0
 11
11.9428962818
 21
8.6486178529
 31
0.0
 11
11.9071427397
 21
8.681052987
 31
0.0
 11
11.8683763532
 21
8.7098240458
 31
0.0
 11
11.8269790459
 21
8.734661014
 31
0.0
 11
11.8054197795
 21
8.7455268703
 31
0.0
 11
11.7833543221
 21
8.7553185555
 31
0.0
 11
11.7608346821
 21
8.7640152478
 31
0.0
 11
11.7379131606
 21
8.7715979731
 31
0.0
 11
11.7146420585
 21
8.7780477573
 31
0.0
 11
11.6910739946
 21
8.783345872
 31
0.0
 11
11.6672692516
 21
8.7874795181
 31
0.0
 11
11.6432959812
 21
8.7904419844
 31
0.0
 11
11.5951178989
 21
8.7928276417
 31
0.0
  0
LINE
  5
2B6
100
AcDbEntity
  8
0
100
AcDbLine
 62
6
  6
CONTINUOUS
 10
11.5951178989
 20
8.7928276417
 11
11.5946324328
 21
8.7928275338
  0
LINE
  5
2B7
100
AcDbEntity
  8
0
100
AcDbLine
 62
6
  6
CONTINUOUS
 10
11.5946324328
 20
7.8105619082
 11
11.5951327764
 21
7.8105625265
  0
SPLINE
  5
2B8
100
AcDbEntity
  8
0
100
AcDbSpline
 62
6
  6
CONTINUOUS
 70
0
 71
3
 72
51
 73
47
 74
45
 42
0.0000001
 43
0.0000001
 44
0.0000000001
 12
1.537802337
 22
0.0026910028
 32
0.0
 13
-1.5378046285
 23
0.0004400054
 33
0.0
 40
0.0
 40
0.0
 40
0.0
 40
0.0
 40
0.0312263044
 40
0.0468640999
 40
0.0625060189
 40
0.0781455875
 40
0.0937802412
 40
0.1094114483
 40
0.1250406479
 40
0.1406692379
 40
0.1562986826
 40
0.1875512467
 40
0.2188034114
 40
0.2500528901
 40
0.2656818187
 40
0.2813105304
 40
0.2969393067
 40
0.3125685
 40
0.3438184984
 40
0.3594483823
 40
0.3750785834
 40
0.4063304677
 40
0.4375814816
 40
0.5000063716
 40
0.5624301846
 40
0.5936792805
 40
0.6249288341
 40
0.6405580861
 40
0.6561872709
 40
0.6874365662
 40
0.7030656883
 40
0.7186944959
 40
0.7343232807
 40
0.7499523044
 40
0.7812018666
 40
0.8124537952
 40
0.8437060683
 40
0.8593353675
 40
0.8749636833
 40
0.8905924469
 40
0.906223063
 40
0.9218569677
 40
0.937495675
 40
0.9531368929
 40
0.9687741824
 40
1.0
 40
1.0
 40
1.0
 40
1.0
 10
11.5951327764
 20
7.8105625265
 30
0.0
 10
11.6111394043
 20
7.8105905366
 30
0.0
 10
11.6351815038
 20
7.8118186106
 30
0.0
 10
11.6669837744
 20
7.8157881839
 30
0.0
 10
11.6906859948
 20
7.8199299825
 30
0.0
 10
11.71415375
 20
7.8252299194
 30
0.0
 10
11.7373271643
 20
7.8316770006
 30
0.0
 10
11.7601518274
 20
7.8392497063
 30
0.0
 10
11.7825755247
 20
7.847929139
 30
0.0
 10
11.8045471132
 20
7.857696023
 30
0.0
 10
11.8331618507
 20
7.872139983
 30
0.0
 10
11.8675546453
 20
7.892801359
 30
0.0
 10
11.9061980014
 20
7.9214960077
 30
0.0
 10
11.9359030767
 20
7.9484638962
 30
0.0
 10
11.957991217
 20
7.9716893195
 30
0.0
 10
11.9736887113
 20
7.9899020472
 30
0.0
 10
11.9884723081
 20
8.0088645874
 30
0.0
 10
12.0069147106
 20
8.0350784466
 30
0.0
 10
12.0234123379
 20
8.0626185217
 30
0.0
 10
12.0378192032
 20
8.0912514723
 30
0.0
 10
12.0508005046
 20
8.1205600097
 30
0.0
 10
12.0643119756
 20
8.158340212
 30
0.0
 10
12.0798983134
 20
8.2205389309
 30
0.0
 10
12.0878149233
 20
8.3007157825
 30
0.0
 10
12.0799193724
 20
8.3808935046
 30
0.0
 10
12.0643514026
 20
8.4430941242
 30
0.0
 10
12.0508472638
 20
8.4808742282
 30
0.0
 10
12.0378717918
 20
8.5101831017
 30
0.0
 10
12.0234699498
 20
8.5388172524
 30
0.0
 10
12.0069747069
 20
8.5663580066
 30
0.0
 10
11.9885332092
 20
8.5925720392
 30
0.0
 10
11.9737496785
 20
8.6115346763
 30
0.0
 10
11.9580509273
 20
8.6297464957
 30
0.0
 10
11.9359597146
 20
8.652969205
 30
0.0
 10
11.9062492758
 20
8.679931341
 30
0.0
 10
11.867596922
 20
8.7086138905
 30
0.0
 10
11.8331942039
 20
8.7292584645
 30
0.0
 10
11.8045716178
 20
8.7436861059
 30
0.0
 10
11.7825940326
 20
8.7534385056
 30
0.0
 10
11.7601644805
 20
8.7621010384
 30
0.0
 10
11.7373343866
 20
8.7696545632
 30
0.0
 10
11.7141561708
 20
8.7760802481
 30
0.0
 10
11.6906843118
 20
8.7813567449
 30
0.0
 10
11.6669785513
 20
8.7854723155
 30
0.0
 10
11.6351723548
 20
8.7894035207
 30
0.0
 10
11.6111289002
 20
8.7905988869
 30
0.0
 10
11.5951224979
 20
8.7906034667
 30
0.0
 11
11.5951327764
 21
7.8105625265
 31
0.0
 11
11.6430906668
 21
7.813003236
 31
0.0
 11
11.6669533975
 21
7.8159815543
 31
0.0
 11
11.6906483583
 21
7.8201233133
 31
0.0
 11
11.7141080235
 21
7.8254219512
 31
0.0
 11
11.7372715784
 21
7.8318653723
 31
0.0
 11
11.7600864579
 21
7.8394346783
 31
0.0
 11
11.7825006031
 21
7.848110553
 31
0.0
 11
11.8044619554
 21
7.8578736806
 31
0.0
 11
11.8259186283
 21
7.8687039168
 31
0.0
 11
11.8671173014
 21
7.8934519589
 31
0.0
 11
11.9056993735
 21
7.9221078646
 31
0.0
 11
11.9412831219
 21
7.9544054969
 31
0.0
 11
11.9578461651
 21
7.9718213024
 31
0.0
 11
11.9735363607
 21
7.990026972
 31
0.0
 11
11.988313828
 21
8.0089811241
 31
0.0
 11
12.0021437946
 21
8.028638089
 31
0.0
 11
12.0268380323
 21
8.0698644355
 31
0.0
 11
12.0376408605
 21
8.0913356767
 31
0.0
 11
12.0473754997
 21
8.1133123813
 31
0.0
 11
12.0635594746
 21
8.1585647262
 31
0.0
 11
12.0752369837
 21
8.2051823506
 31
0.0
 11
12.0846532586
 21
8.3007167067
 31
0.0
 11
12.0752625032
 21
8.3962519106
 31
0.0
 11
12.0635979636
 21
8.4428697413
 31
0.0
 11
12.0474237934
 21
8.4881217854
 31
0.0
 11
12.0376934481
 21
8.5100987953
 31
0.0
 11
12.0268943266
 21
8.5315706977
 31
0.0
 11
12.0022040383
 21
8.5727981492
 31
0.0
 11
11.9883746876
 21
8.5924554137
 31
0.0
 11
11.9735971299
 21
8.6114095563
 31
0.0
 11
11.9579057076
 21
8.629614317
 31
0.0
 11
11.9413403897
 21
8.6470281607
 31
0.0
 11
11.9057500696
 21
8.6793187425
 31
0.0
 11
11.8671590447
 21
8.707961981
 31
0.0
 11
11.8259490063
 21
8.7326902233
 31
0.0
 11
11.8044863568
 21
8.7435081139
 31
0.0
 11
11.782519023
 21
8.7532567356
 31
0.0
 11
11.7600990692
 21
8.7619157279
 31
0.0
 11
11.7372787941
 21
8.7694658586
 31
0.0
 11
11.7141104966
 21
8.7758878957
 31
0.0
 11
11.6906468706
 21
8.7811629314
 31
0.0
 11
11.6669484393
 21
8.7852784898
 31
0.0
 11
11.6430829146
 21
8.7882279998
 31
0.0
 11
11.5951224979
 21
8.7906034667
 31
0.0
  0
LINE
  5
2B9
100
AcDbEntity
  8
0
100
AcDbLine
 62
6
  6
CONTINUOUS
 10
11.5951224979
 20
8.7906034667
 11
11.5946324328
 21
8.7906033596
  0
LINE
  5
2BA
100
AcDbEntity
  8
0
100
AcDbLine
 62
6
  6
CONTINUOUS
 10
11.5946324328
 20
7.8127860839
 11
11.5951241758
 21
7.8127866899
  0
SPLINE
  5
2BB
100
AcDbEntity
  8
0
100
AcDbSpline
 62
6
  6
CONTINUOUS
 70
0
 71
3
 72
39
 73
35
 74
33
 42
0.0000001
 43
0.0000001
 44
0.0000000001
 12
1.122333408
 22
0.0019527052
 32
0.0
 13
-0.7498127901
 23
0.8351148853
 33
0.0
 40
0.0
 40
0.0
 40
0.0
 40
0.0
 40
0.0312165108
 40
0.0624748217
 40
0.0937452663
 40
0.1250046638
 40
0.1562538885
 40
0.1874994715
 40
0.2187475916
 40
0.2499990497
 40
0.2812508296
 40
0.3125008269
 40
0.3437498085
 40
0.3749982949
 40
0.4062470136
 40
0.43749687
 40
0.468746782
 40
0.4999958002
 40
0.5312446538
 40
0.5624932723
 40
0.5937414444
 40
0.6249901512
 40
0.6562391875
 40
0.687488037
 40
0.7187376147
 40
0.7499880342
 40
0.7812389073
 40
0.8124910319
 40
0.8437440366
 40
0.8749966391
 40
0.9062489297
 40
0.9375009023
 40
0.968751288
 40
1.0
 40
1.0
 40
1.0
 40
1.0
 10
11.5951241758
 20
7.8127866899
 30
0.0
 10
11.6068026201
 20
7.8128070088
 30
0.0
 10
11.6301822453
 20
7.8136927848
 30
0.0
 10
11.665071676
 20
7.8175276562
 30
0.0
 10
11.6996157415
 20
7.8238501925
 30
0.0
 10
11.7336102845
 20
7.8326465956
 30
0.0
 10
11.7668763828
 20
7.8438582649
 30
0.0
 10
11.7992495562
 20
7.857423958
 30
0.0
 10
11.8305626571
 20
7.8732859813
 30
0.0
 10
11.8606592796
 20
7.8913537829
 30
0.0
 10
11.8893865529
 20
7.9115295274
 30
0.0
 10
11.9165858176
 20
7.9337211368
 30
0.0
 10
11.942118625
 20
7.9578091714
 30
0.0
 10
11.9658606751
 20
7.9836634824
 30
0.0
 10
11.9876806543
 20
8.0111599896
 30
0.0
 10
12.0074677005
 20
8.040154092
 30
0.0
 10
12.0251284283
 20
8.0704904435
 30
0.0
 10
12.0405610586
 20
8.1020185885
 30
0.0
 10
12.0536843688
 20
8.1345749423
 30
0.0
 10
12.06444235
 20
8.1679871769
 30
0.0
 10
12.0727700049
 20
8.2020867358
 30
0.0
 10
12.0786208085
 20
8.2366973238
 30
0.0
 10
12.0819776003
 20
8.2716382299
 30
0.0
 10
12.082814301
 20
8.3067307048
 30
0.0
 10
12.0811202822
 20
8.3417925902
 30
0.0
 10
12.0769182467
 20
8.3766435445
 30
0.0
 10
12.0702230557
 20
8.4111038565
 30
0.0
 10
12.0610599943
 20
8.4449924496
 30
0.0
 10
12.0494910434
 20
8.4781373287
 30
0.0
 10
12.0355727547
 20
8.5103667944
 30
0.0
 10
12.0193649561
 20
8.5415072307
 30
0.0
 10
12.0009648302
 20
8.5714038209
 30
0.0
 10
11.9804699087
 20
8.5999016286
 30
0.0
 10
11.9654690584
 20
8.6178681999
 30
0.0
 10
11.9576588304
 20
8.6265669547
 30
0.0
 11
11.5951241758
 21
7.8127866899
 31
0.0
 11
11.6301345954
 21
7.8141091097
 31
0.0
 11
11.6650069592
 21
7.8179413395
 31
0.0
 11
11.6995287337
 21
7.8242635652
 31
0.0
 11
11.7334940165
 21
7.8330506516
 31
0.0
 11
11.7667295049
 21
7.8442513052
 31
0.0
 11
11.7990718958
 21
7.8578062088
 31
0.0
 11
11.8303584768
 21
7.8736528244
 31
0.0
 11
11.8604308494
 21
7.8917049868
 31
0.0
 11
11.8891325378
 21
7.9118660033
 31
0.0
 11
11.9163085167
 21
7.9340375917
 31
0.0
 11
11.9418203536
 21
7.9581037375
 31
0.0
 11
11.9655402409
 21
7.9839370717
 31
0.0
 11
11.9873415267
 21
8.0114091747
 31
0.0
 11
12.0071132892
 21
8.0403777692
 31
0.0
 11
12.0247572656
 21
8.0706894261
 31
0.0
 11
12.0401762312
 21
8.102190086
 31
0.0
 11
12.0532901946
 21
8.1347177217
 31
0.0
 11
12.0640373452
 21
8.1681019
 31
0.0
 11
12.0723571524
 21
8.2021716855
 31
0.0
 11
12.0782051165
 21
8.2367522129
 31
0.0
 11
12.0815575869
 21
8.2716635069
 31
0.0
 11
12.0823925211
 21
8.3067252478
 31
0.0
 11
12.0807023159
 21
8.3417569954
 31
0.0
 11
12.0765027727
 21
8.376578113
 31
0.0
 11
12.0698118872
 21
8.411007957
 31
0.0
 11
12.0606591383
 21
8.4448680786
 31
0.0
 11
12.0490994337
 21
8.4779848894
 31
0.0
 11
12.0351910921
 21
8.5101854531
 31
0.0
 11
12.0189994388
 21
8.5413001454
 31
0.0
 11
12.0006152422
 21
8.5711713687
 31
0.0
 11
11.9801350443
 21
8.5996442545
 31
0.0
 11
11.9576588304
 21
8.6265669547
 31
0.0
  0
LINE
  5
2BC
100
AcDbEntity
  8
0
100
AcDbLine
 62
6
  6
CONTINUOUS
 10
11.5951264451
 20
8.7883792896
 11
11.5946324328
 21
8.7883791832
  0
LINE
  5
2BD
100
AcDbEntity
  8
0
100
AcDbLine
 62
6
  6
CONTINUOUS
 10
11.5946324328
 20
7.8150102602
 11
11.5951267724
 21
7.8150108735
  0
SPLINE
  5
2BE
100
AcDbEntity
  8
0
100
AcDbSpline
 62
6
  6
CONTINUOUS
 70
0
 71
3
 72
38
 73
34
 74
32
 42
0.0000001
 43
0.0000001
 44
0.0000000001
 12
1.1171610809
 22
0.0019588128
 32
0.0
 13
-0.7463587732
 23
0.8312648792
 33
0.0
 40
0.0
 40
0.0
 40
0.0
 40
0.0
 40
0.0624368836
 40
0.0937084699
 40
0.1249681385
 40
0.1562166505
 40
0.1874609185
 40
0.2187073984
 40
0.2499571311
 40
0.2812075435
 40
0.3124570893
 40
0.3437066206
 40
0.3749564289
 40
0.4062071863
 40
0.4374597378
 40
0.468713033
 40
0.4999662657
 40
0.5312199403
 40
0.5624731806
 40
0.5937248009
 40
0.6249754647
 40
0.6562256689
 40
0.6874753615
 40
0.7187257117
 40
0.7499770478
 40
0.7812288953
 40
0.8124819643
 40
0.8437361646
 40
0.8749901793
 40
0.906243848
 40
0.9374974026
 40
0.9687496166
 40
1.0
 40
1.0
 40
1.0
 40
1.0
 10
11.5951267724
 20
7.8150108735
 30
0.0
 10
11.6183774578
 20
7.8150516409
 30
0.0
 10
11.6533357799
 20
7.8176400629
 30
0.0
 10
11.6991378297
 20
7.8260248654
 30
0.0
 10
11.7329788087
 20
7.8347809316
 30
0.0
 10
11.7660901563
 20
7.8459408779
 30
0.0
 10
11.7983130247
 20
7.8594436424
 30
0.0
 10
11.8294804328
 20
7.8752312888
 30
0.0
 10
11.8594374164
 20
7.8932139761
 30
0.0
 10
11.888031647
 20
7.9132954024
 30
0.0
 10
11.9151052797
 20
7.9353843183
 30
0.0
 10
11.940521907
 20
7.9593604945
 30
0.0
 10
11.9641567113
 20
7.9850956752
 30
0.0
 10
11.9858780354
 20
8.0124668361
 30
0.0
 10
12.0055767828
 20
8.0413289888
 30
0.0
 10
12.0231592119
 20
8.0715281906
 30
0.0
 10
12.0385233103
 20
8.1029149431
 30
0.0
 10
12.0515880313
 20
8.1353259987
 30
0.0
 10
12.0622981355
 20
8.1685887135
 30
0.0
 10
12.0705900946
 20
8.2025343179
 30
0.0
 10
12.0764142089
 20
8.2369878982
 30
0.0
 10
12.0797547656
 20
8.2717693043
 30
0.0
 10
12.0805888042
 20
8.3067010441
 30
0.0
 10
12.0789025412
 20
8.3416023357
 30
0.0
 10
12.0747190133
 20
8.3762935427
 30
0.0
 10
12.0680559501
 20
8.4105963401
 30
0.0
 10
12.0589352516
 20
8.44433005
 30
0.0
 10
12.0474183472
 20
8.4773231262
 30
0.0
 10
12.0335646332
 20
8.5094058143
 30
0.0
 10
12.0174319566
 20
8.5404048474
 30
0.0
 10
11.9991148456
 20
8.5701646858
 30
0.0
 10
11.9787135568
 20
8.5985328234
 30
0.0
 10
11.9637819805
 20
8.6164184401
 30
0.0
 10
11.9560073146
 20
8.6250775555
 30
0.0
 11
11.5951267724
 21
7.8150108735
 31
0.0
 11
11.6646898741
 21
7.8201430473
 31
0.0
 11
11.6990537767
 21
7.8264365405
 31
0.0
 11
11.732862817
 21
7.8351832303
 31
0.0
 11
11.7659443318
 21
7.8463321672
 31
0.0
 11
11.798136305
 21
7.8598240635
 31
0.0
 11
11.8292772994
 21
7.8755963616
 31
0.0
 11
11.8592099141
 21
7.8935635319
 31
0.0
 11
11.8877784803
 21
7.9136301877
 31
0.0
 11
11.9148291461
 21
7.9356988881
 31
0.0
 11
11.9402248127
 21
7.9596535334
 31
0.0
 11
11.9638374492
 21
7.985367925
 31
0.0
 11
11.9855404142
 21
8.0127146227
 31
0.0
 11
12.0052238297
 21
8.0415514684
 31
0.0
 11
12.0227894676
 21
8.0717260751
 31
0.0
 11
12.0381400144
 21
8.1030855134
 31
0.0
 11
12.05119568
 21
8.1354681897
 31
0.0
 11
12.0618953252
 21
8.1687032892
 31
0.0
 11
12.0701788997
 21
8.2026195135
 31
0.0
 11
12.0760003218
 21
8.237042824
 31
0.0
 11
12.0793370277
 21
8.2717945694
 31
0.0
 11
12.0801687612
 21
8.3066956543
 31
0.0
 11
12.0784863722
 21
8.3415668224
 31
0.0
 11
12.0743058137
 21
8.376228453
 31
0.0
 11
12.0676464886
 21
8.4105008761
 31
0.0
 11
12.0585360452
 21
8.4442060791
 31
0.0
 11
12.0470288642
 21
8.4771714234
 31
0.0
 11
12.0331847337
 21
8.5092253578
 31
0.0
 11
12.0170678062
 21
8.5401984481
 31
0.0
 11
11.9987670896
 21
8.5699333188
 31
0.0
 11
11.9783803779
 21
8.5982768573
 31
0.0
 11
11.9560073146
 21
8.6250775555
 31
0.0
  0
LINE
  5
2BF
100
AcDbEntity
  8
0
100
AcDbLine
 62
6
  6
CONTINUOUS
 10
11.5951221407
 20
8.7861551161
 11
11.5946324328
 21
8.786155008
  0
LINE
  5
2C0
100
AcDbEntity
  8
0
100
AcDbLine
 62
6
  6
CONTINUOUS
 10
11.5946324328
 20
7.817234434
 11
11.5951311088
 21
7.8172350579
  0
SPLINE
  5
2C1
100
AcDbEntity
  8
0
100
AcDbSpline
 62
6
  6
CONTINUOUS
 70
0
 71
3
 72
38
 73
34
 74
32
 42
0.0000001
 43
0.0000001
 44
0.0000000001
 12
1.1119145575
 22
0.0019686762
 32
0.0
 13
-0.7426412415
 23
0.8275517177
 33
0.0
 40
0.0
 40
0.0
 40
0.0
 40
0.0
 40
0.0624377472
 40
0.0937111431
 40
0.1249735964
 40
0.1562249923
 40
0.1874716266
 40
0.2187195292
 40
0.249970255
 40
0.2812213776
 40
0.3124711561
 40
0.3437205044
 40
0.3749700966
 40
0.4062207562
 40
0.4374735411
 40
0.4687273835
 40
0.499981155
 40
0.5312353044
 40
0.5624892971
 40
0.5937419866
 40
0.6249937782
 40
0.6562448721
 40
0.6874945437
 40
0.7187433921
 40
0.7499923714
 40
0.7812414946
 40
0.8124917013
 40
0.8437432569
 40
0.8749950233
 40
0.9062468508
 40
0.9374990044
 40
0.9687502459
 40
1.0
 40
1.0
 40
1.0
 40
1.0
 10
11.5951311088
 20
7.8172350579
 30
0.0
 10
11.6182729222
 20
7.8172760311
 30
0.0
 10
11.6530679883
 20
7.8198529108
 30
0.0
 10
11.6986569399
 20
7.8281985817
 30
0.0
 10
11.7323417415
 20
7.8369140069
 30
0.0
 10
11.7653003713
 20
7.8480226115
 30
0.0
 10
11.7973744285
 20
7.8614622971
 30
0.0
 10
11.8283975587
 20
7.8771756385
 30
0.0
 10
11.8582146914
 20
7.8950747715
 30
0.0
 10
11.8866755183
 20
7.9150617837
 30
0.0
 10
11.9136238379
 20
7.9370451682
 30
0.0
 10
11.9389216087
 20
7.9609081694
 30
0.0
 10
11.9624462066
 20
7.9865214457
 30
0.0
 10
11.9840679771
 20
8.0137620764
 30
0.0
 10
12.0036756252
 20
8.0424880732
 30
0.0
 10
12.0211773667
 20
8.0725448508
 30
0.0
 10
12.0364736291
 20
8.1037827202
 30
0.0
 10
12.0494797312
 20
8.136041227
 30
0.0
 10
12.0601419665
 20
8.1691477943
 30
0.0
 10
12.0683999449
 20
8.2029338722
 30
0.0
 10
12.0742003032
 20
8.2372262575
 30
0.0
 10
12.0775279715
 20
8.2718447521
 30
0.0
 10
12.0783638474
 20
8.3066120243
 30
0.0
 10
12.0766908027
 20
8.3413482737
 30
0.0
 10
12.0725309933
 20
8.3758745829
 30
0.0
 10
12.0659055142
 20
8.4100144505
 30
0.0
 10
12.0568349716
 20
8.4435885652
 30
0.0
 10
12.0453786747
 20
8.4764259297
 30
0.0
 10
12.0315973805
 20
8.5083583637
 30
0.0
 10
12.0155485098
 20
8.5392137006
 30
0.0
 10
11.9973247255
 20
8.5688364426
 30
0.0
 10
11.9770265389
 20
8.597075198
 30
0.0
 10
11.9621700864
 20
8.6148802099
 30
0.0
 10
11.9544343011
 20
8.6235004725
 30
0.0
 11
11.5951311088
 21
7.8172350579
 31
0.0
 11
11.6643684211
 21
7.8223440134
 31
0.0
 11
11.6985729316
 21
7.8286082546
 31
0.0
 11
11.7322262308
 21
7.8373144972
 31
0.0
 11
11.7651554447
 21
7.8484120403
 31
0.0
 11
11.7971988919
 21
7.8618410445
 31
0.0
 11
11.8281953993
 21
7.8775392986
 31
0.0
 11
11.8579884149
 21
7.8954226157
 31
0.0
 11
11.8864238977
 21
7.9153948661
 31
0.0
 11
11.9133489397
 21
7.9373586025
 31
0.0
 11
11.9386259805
 21
7.9611997765
 31
0.0
 11
11.962128677
 21
7.9867922064
 31
0.0
 11
11.9837316669
 21
8.0140087916
 31
0.0
 11
12.0033243247
 21
8.0427093785
 31
0.0
 11
12.0208097582
 21
8.072741649
 31
0.0
 11
12.0360918748
 21
8.10395269
 31
0.0
 11
12.0490891258
 21
8.1361826892
 31
0.0
 11
12.0597414266
 21
8.1692616515
 31
0.0
 11
12.0679904464
 21
8.2030187579
 31
0.0
 11
12.0737882455
 21
8.2372810505
 31
0.0
 11
12.0771127149
 21
8.2718702562
 31
0.0
 11
12.0779456922
 21
8.3066072897
 31
0.0
 11
12.0762763453
 21
8.3413132693
 31
0.0
 11
12.0721200717
 21
8.3758100407
 31
0.0
 11
12.0654981329
 21
8.4099196126
 31
0.0
 11
12.0564375399
 21
8.4434651392
 31
0.0
 11
12.0449912372
 21
8.4762749408
 31
0.0
 11
12.0312194769
 21
8.5081787938
 31
0.0
 11
12.015186066
 21
8.5390081901
 31
0.0
 11
11.99697873
 21
8.568606164
 31
0.0
 11
11.9766950593
 21
8.5968205107
 31
0.0
 11
11.9544343011
 21
8.6235004725
 31
0.0
  0
LINE
  5
2C2
100
AcDbEntity
  8
0
100
AcDbLine
 62
6
  6
CONTINUOUS
 10
11.5951190336
 20
8.7839309436
 11
11.5946324328
 21
8.7839308341
  0
LINE
  5
2C3
100
AcDbEntity
  8
0
100
AcDbLine
 62
6
  6
CONTINUOUS
 10
11.5946324328
 20
7.8194586094
 11
11.5951327633
 21
7.8194592391
  0
SPLINE
  5
2C4
100
AcDbEntity
  8
0
100
AcDbSpline
 62
6
  6
CONTINUOUS
 70
0
 71
3
 72
38
 73
34
 74
32
 42
0.0000001
 43
0.0000001
 44
0.0000000001
 12
1.1066169894
 22
0.0019722027
 32
0.0
 13
-0.7387967848
 23
0.8238837063
 33
0.0
 40
0.0
 40
0.0
 40
0.0
 40
0.0
 40
0.0624393767
 40
0.0937141559
 40
0.1249784844
 40
0.1562320367
 40
0.187481038
 40
0.2187315031
 40
0.2499850362
 40
0.2812388109
 40
0.3124904625
 40
0.343740541
 40
0.3749897359
 40
0.4062386445
 40
0.4374886108
 40
0.4687393832
 40
0.4999905432
 40
0.5312428066
 40
0.5624954397
 40
0.5937471547
 40
0.624998334
 40
0.6562492526
 40
0.6874994442
 40
0.7187496739
 40
0.7500002342
 40
0.781250426
 40
0.8125007125
 40
0.8437513879
 40
0.8750015866
 40
0.9062515002
 40
0.9375015945
 40
0.9687510582
 40
1.0
 40
1.0
 40
1.0
 40
1.0
 10
11.5951327633
 20
7.8194592391
 30
0.0
 10
11.6181649217
 20
7.8195002868
 30
0.0
 10
11.6527952706
 20
7.8220651123
 30
0.0
 10
11.6981689
 20
7.8303707093
 30
0.0
 10
11.7316953613
 20
7.8390442819
 30
0.0
 10
11.7644994911
 20
7.8500998489
 30
0.0
 10
11.7964236524
 20
7.8634752792
 30
0.0
 10
11.8273022515
 20
7.8791136328
 30
0.0
 10
11.8569803626
 20
7.8969281959
 30
0.0
 10
11.8853087619
 20
7.916820101
 30
0.0
 10
11.912132328
 20
7.9386973625
 30
0.0
 10
11.9373114182
 20
7.9624459482
 30
0.0
 10
11.9607252153
 20
7.9879352389
 30
0.0
 10
11.9822463682
 20
8.0150418137
 30
0.0
 10
12.0017623079
 20
8.0436263893
 30
0.0
 10
12.0191825771
 20
8.0735352053
 30
0.0
 10
12.0344090485
 20
8.1046195976
 30
0.0
 10
12.0473578666
 20
8.1367201662
 30
0.0
 10
12.0579751014
 20
8.169665498
 30
0.0
 10
12.0661996764
 20
8.2032880269
 30
0.0
 10
12.0719796654
 20
8.2374151079
 30
0.0
 10
12.0752997094
 20
8.2718677821
 30
0.0
 10
12.0761390913
 20
8.3064698798
 30
0.0
 10
12.0744818997
 20
8.3410422685
 30
0.0
 10
12.0703509205
 20
8.3754066506
 30
0.0
 10
12.0637658003
 20
8.4093866024
 30
0.0
 10
12.0547475256
 20
8.4428032834
 30
0.0
 10
12.04335586
 20
8.4754867705
 30
0.0
 10
12.0296499945
 20
8.5072695384
 30
0.0
 10
12.0136878574
 20
8.5379808572
 30
0.0
 10
11.9955626915
 20
8.567467195
 30
0.0
 10
11.9753718599
 20
8.5955770054
 30
0.0
 10
11.9605923609
 20
8.6133010582
 30
0.0
 10
11.9528968216
 20
8.6218828895
 30
0.0
 11
11.5951327633
 21
7.8194592391
 31
0.0
 11
11.6640419908
 21
7.824544158
 31
0.0
 11
11.6980851321
 21
7.8307783537
 31
0.0
 11
11.7315803069
 21
7.8394428539
 31
0.0
 11
11.7643552076
 21
7.8504873615
 31
0.0
 11
11.7962489099
 21
7.8638521918
 31
0.0
 11
11.8271009211
 21
7.8794756475
 31
0.0
 11
11.8567552685
 21
7.8972743408
 31
0.0
 11
11.8850587478
 21
7.9171515981
 31
0.0
 11
11.9118588985
 21
7.9390098163
 31
0.0
 11
11.9370175522
 21
7.9627364158
 31
0.0
 11
11.9604098509
 21
7.988204869
 31
0.0
 11
11.9819118789
 21
8.0152877535
 31
0.0
 11
12.0014127955
 21
8.0438467283
 31
0.0
 11
12.0188168106
 21
8.0737308838
 31
0.0
 11
12.0340292272
 21
8.104788484
 31
0.0
 11
12.0469692071
 21
8.1368608013
 31
0.0
 11
12.0575764333
 21
8.1697787548
 31
0.0
 11
12.0657923082
 21
8.2033724154
 31
0.0
 11
12.0715696991
 21
8.2374695617
 31
0.0
 11
12.074886286
 21
8.271893012
 31
0.0
 11
12.075722998
 21
8.3064649363
 31
0.0
 11
12.0740696111
 21
8.3410074791
 31
0.0
 11
12.0699418759
 21
8.3753427097
 31
0.0
 11
12.0633602856
 21
8.4092926834
 31
0.0
 11
12.0543520017
 21
8.4426809465
 31
0.0
 11
12.0429700865
 21
8.4753368353
 31
0.0
 11
12.0292738901
 21
8.5070910915
 31
0.0
 11
12.0133273625
 21
8.5377766746
 31
0.0
 11
11.9952182506
 21
8.5672380163
 31
0.0
 11
11.9750419738
 21
8.595323247
 31
0.0
 11
11.9528968216
 21
8.6218828895
 31
0.0
  0
LINE
  5
2C5
100
AcDbEntity
  8
0
100
AcDbLine
 62
6
  6
CONTINUOUS
 10
11.952022314
 20
8.6195245894
 11
11.9513187185
 21
8.6203113534
  0
SPLINE
  5
2C6
100
AcDbEntity
  8
0
100
AcDbSpline
 62
6
  6
CONTINUOUS
 70
0
 71
3
 72
38
 73
34
 74
32
 42
0.0000001
 43
0.0000001
 44
0.0000000001
 12
0.7319826747
 22
-0.816770958
 32
0.0
 13
-1.0967738017
 23
-0.0008135355
 33
0.0
 40
0.0
 40
0.0
 40
0.0
 40
0.0
 40
0.0312510959
 40
0.0625026706
 40
0.0937539069
 40
0.1250049109
 40
0.1562564477
 40
0.1875078058
 40
0.2187587493
 40
0.2500101981
 40
0.2812616482
 40
0.3125125792
 40
0.3437639089
 40
0.3750154269
 40
0.4062664135
 40
0.4375176208
 40
0.4687691866
 40
0.5000203086
 40
0.5312714594
 40
0.5625230634
 40
0.5937742116
 40
0.6250249353
 40
0.6562762128
 40
0.6875277556
 40
0.7187797576
 40
0.750032433
 40
0.7812834996
 40
0.8125305136
 40
0.8437761374
 40
0.8750271971
 40
0.9062907869
 40
0.9375653809
 40
1.0
 40
1.0
 40
1.0
 40
1.0
 10
11.9496579606
 20
8.6188339645
 30
0.0
 10
11.9572830475
 20
8.6103256353
 30
0.0
 10
11.9719238944
 20
8.592751283
 30
0.0
 10
11.9919318901
 20
8.5648870904
 30
0.0
 10
12.009891574
 20
8.5356582561
 30
0.0
 10
12.0256955303
 20
8.5052102058
 30
0.0
 10
12.039270651
 20
8.4737054219
 30
0.0
 10
12.0505533401
 20
8.441308764
 30
0.0
 10
12.059472308
 20
8.4081831237
 30
0.0
 10
12.0659846436
 20
8.3745018837
 30
0.0
 10
12.0700675564
 20
8.3404406749
 30
0.0
 10
12.0716892738
 20
8.3061737181
 30
0.0
 10
12.0708381822
 20
8.2718791724
 30
0.0
 10
12.0675326406
 20
8.2377338378
 30
0.0
 10
12.0617829405
 20
8.2039138285
 30
0.0
 10
12.0536097221
 20
8.170596513
 30
0.0
 10
12.0430700271
 20
8.1379507901
 30
0.0
 10
12.0302157766
 20
8.1061448164
 30
0.0
 10
12.0151009925
 20
8.0753487862
 30
0.0
 10
11.9978168503
 20
8.0457162691
 30
0.0
 10
11.9784541073
 20
8.0173980649
 30
0.0
 10
11.9571007599
 20
7.9905490303
 30
0.0
 10
11.9338749543
 20
7.9653025753
 30
0.0
 10
11.9089003838
 20
7.9417837211
 30
0.0
 10
11.8822961478
 20
7.9201243066
 30
0.0
 10
11.8542040638
 20
7.9004338406
 30
0.0
 10
11.8247769517
 20
7.8828043751
 30
0.0
 10
11.7941618393
 20
7.8673347991
 30
0.0
 10
11.7625128213
 20
7.8541084025
 30
0.0
 10
11.7299926484
 20
7.8431820099
 30
0.0
 10
11.6967570322
 20
7.8346191437
 30
0.0
 10
11.6517809994
 20
7.8264324862
 30
0.0
 10
11.6174579843
 20
7.8239238908
 30
0.0
 10
11.5946324328
 20
7.8239069599
 30
0.0
 11
11.9496579606
 21
8.6188339645
 31
0.0
 11
11.971598245
 21
8.5925009726
 31
0.0
 11
11.9915905751
 21
8.5646595415
 31
0.0
 11
12.0095323307
 21
8.5354549785
 31
0.0
 11
12.0253239711
 21
8.5050342663
 31
0.0
 11
12.0388886022
 21
8.4735567112
 31
0.0
 11
12.0501594342
 21
8.4411871174
 31
0.0
 11
12.0590711606
 21
8.4080907095
 31
0.0
 11
12.0655797376
 21
8.3744385549
 31
0.0
 11
12.0696573744
 21
8.3404061872
 31
0.0
 11
12.0712771388
 21
8.3061692699
 31
0.0
 11
12.0704291095
 21
8.2719041131
 31
0.0
 11
12.0671252543
 21
8.2377878587
 31
0.0
 11
12.0613790397
 21
8.2039976923
 31
0.0
 11
12.0532153459
 21
8.1707085796
 31
0.0
 11
12.0426842106
 21
8.1380905928
 31
0.0
 11
12.0298390281
 21
8.1063131512
 31
0.0
 11
12.0147395109
 21
8.075542853
 31
0.0
 11
11.9974703122
 21
8.0459351593
 31
0.0
 11
11.9781222377
 21
8.0176427843
 31
0.0
 11
11.956788832
 21
7.990816298
 31
0.0
 11
11.9335836163
 21
7.9655906333
 31
0.0
 11
11.9086289639
 21
7.9420937938
 31
0.0
 11
11.8820483436
 21
7.9204525993
 31
0.0
 11
11.853980805
 21
7.9007768637
 31
0.0
 11
11.8245772777
 21
7.8831634334
 31
0.0
 11
11.7939890684
 21
7.8677084304
 31
0.0
 11
11.7623704454
 21
7.8544927641
 31
0.0
 11
11.7298794973
 21
7.8435777231
 31
0.0
 11
11.6966746334
 21
7.835023245
 31
0.0
 11
11.6629284302
 21
7.828878029
 31
0.0
 11
11.5946324328
 21
7.8239069599
 31
0.0
  0
LINE
  5
2C7
100
AcDbEntity
  8
0
100
AcDbLine
 62
6
  6
CONTINUOUS
 10
11.5946324328
 20
8.7989145033
 11
11.5950615268
 21
8.798914622
  0
SPLINE
  5
2C8
100
AcDbEntity
  8
0
100
AcDbSpline
 62
6
  6
CONTINUOUS
 70
0
 71
3
 72
54
 73
50
 74
48
 42
0.0000001
 43
0.0000001
 44
0.0000000001
 12
1.5642871527
 22
-0.000247174
 32
0.0
 13
-1.5642852373
 23
-0.0024604065
 33
0.0
 40
0.0
 40
0.0
 40
0.0
 40
0.0
 40
0.0312211893
 40
0.0468564971
 40
0.0624959248
 40
0.0781329693
 40
0.0937650919
 40
0.1093937838
 40
0.1250204934
 40
0.1406466233
 40
0.156273632
 40
0.1875212906
 40
0.2187684327
 40
0.2500127923
 40
0.265639308
 40
0.2812658104
 40
0.2968926603
 40
0.3125201869
 40
0.3437671869
 40
0.3593955108
 40
0.3750239739
 40
0.4062720062
 40
0.437518825
 40
0.4687645568
 40
0.5000093363
 40
0.5312534885
 40
0.562497628
 40
0.578124054
 40
0.59375051
 40
0.6249944937
 40
0.6406211833
 40
0.6562480121
 40
0.6874930985
 40
0.7031201913
 40
0.7187468712
 40
0.7343733456
 40
0.7499999272
 40
0.7812443509
 40
0.8124907851
 40
0.843737456
 40
0.8593638448
 40
0.8749890464
 40
0.8906145122
 40
0.9062417222
 40
0.9218721657
 40
0.937507416
 40
0.9531453635
 40
0.9687796019
 40
1.0
 40
1.0
 40
1.0
 40
1.0
 10
11.5950615268
 20
8.798914622
 30
0.0
 10
11.6113411619
 20
8.7989120496
 30
0.0
 10
11.6357953734
 20
8.7976990812
 30
0.0
 10
11.668145397
 20
8.7937042962
 30
0.0
 10
11.6922570604
 20
8.789521004
 30
0.0
 10
11.7161311007
 20
8.7841570662
 30
0.0
 10
11.7397064242
 20
8.7776238082
 30
0.0
 10
11.7629275
 20
8.7699431894
 30
0.0
 10
11.7857410326
 20
8.7611345028
 30
0.0
 10
11.8080948106
 20
8.7512174211
 30
0.0
 10
11.8372073163
 20
8.7365458984
 30
0.0
 10
11.8721982492
 20
8.7155505901
 30
0.0
 10
11.9115121674
 20
8.6863814692
 30
0.0
 10
11.9417310453
 20
8.6589611369
 30
0.0
 10
11.964199922
 20
8.6353430655
 30
0.0
 10
11.9801673874
 20
8.6168208662
 30
0.0
 10
11.9952044566
 20
8.5975347107
 30
0.0
 10
12.0139622137
 20
8.5708720335
 30
0.0
 10
12.0307402046
 20
8.5428590813
 30
0.0
 10
12.0453900514
 20
8.5137342404
 30
0.0
 10
12.0585883793
 20
8.4839216956
 30
0.0
 10
12.0723208563
 20
8.4454953834
 30
0.0
 10
12.0842070345
 20
8.3980040867
 30
0.0
 10
12.0913684459
 20
8.3495745948
 30
0.0
 10
12.0937671272
 20
8.3006786291
 30
0.0
 10
12.0913490227
 20
8.2517862838
 30
0.0
 10
12.0853603788
 20
8.2114262662
 30
0.0
 10
12.0782172172
 20
8.1796191365
 30
0.0
 10
12.06951896
 20
8.1482029202
 30
0.0
 10
12.0585208942
 20
8.1174613136
 30
0.0
 10
12.045316386
 20
8.0876566974
 30
0.0
 10
12.0306619553
 20
8.0585369509
 30
0.0
 10
12.0138792279
 20
8.0305293391
 30
0.0
 10
11.9951189449
 20
8.0038700872
 30
0.0
 10
11.9800814063
 20
7.9845847467
 30
0.0
 10
11.9641136888
 20
7.9660628624
 30
0.0
 10
11.9416451205
 20
7.9424444514
 30
0.0
 10
11.9114299474
 20
7.9150208384
 30
0.0
 10
11.8721245645
 20
7.8858418546
 30
0.0
 10
11.8371419112
 20
7.8648355227
 30
0.0
 10
11.8080382023
 20
7.8501496269
 30
0.0
 10
11.7856916351
 20
7.8402199517
 30
0.0
 10
11.7628856991
 20
7.8313969832
 30
0.0
 10
11.7396725603
 20
7.8236998233
 30
0.0
 10
11.7161052988
 20
7.8171473636
 30
0.0
 10
11.692239014
 20
7.8117609296
 30
0.0
 10
11.6681340109
 20
7.8075527954
 30
0.0
 10
11.635790324
 20
7.803521338
 30
0.0
 10
11.6113389036
 20
7.802276857
 30
0.0
 10
11.595059701
 20
7.802251252
 30
0.0
 11
11.5950615268
 21
8.798914622
 31
0.0
 11
11.643840923
 21
8.7965043876
 31
0.0
 11
11.6681146926
 21
8.7935071674
 31
0.0
 11
11.6922189433
 21
8.7893239142
 31
0.0
 11
11.7160847086
 21
8.7839613262
 31
0.0
 11
11.7396499561
 21
8.7774318064
 31
0.0
 11
11.7628610416
 21
8.7697546597
 31
0.0
 11
11.7856648235
 21
8.7609496042
 31
0.0
 11
11.8080081602
 21
8.7510363581
 31
0.0
 11
11.8298380973
 21
8.7400355313
 31
0.0
 11
11.8717531152
 21
8.7148876463
 31
0.0
 11
11.9110045967
 21
8.6857581583
 31
0.0
 11
11.9472036003
 21
8.6529189665
 31
0.0
 11
11.9640521528
 21
8.6352087175
 31
0.0
 11
11.9800121518
 21
8.6166937491
 31
0.0
 11
11.995043028
 21
8.5974161725
 31
0.0
 11
12.0091094714
 21
8.5774226954
 31
0.0
 11
12.0342235324
 21
8.5354886034
 31
0.0
 11
12.0452085248
 21
8.5136483912
 31
0.0
 11
12.055105865
 21
8.4912940127
 31
0.0
 11
12.071555777
 21
8.4452642135
 31
0.0
 11
12.08341974
 21
8.3978468875
 31
0.0
 11
12.0905747307
 21
8.3494961243
 31
0.0
 11
12.0929643335
 21
8.3006787669
 31
0.0
 11
12.0905543747
 21
8.2518633926
 31
0.0
 11
12.0833792854
 21
8.2035181259
 31
0.0
 11
12.0780228042
 21
8.1796680129
 31
0.0
 11
12.0715008825
 21
8.156109859
 31
0.0
 11
12.0550373345
 21
8.1100916617
 31
0.0
 11
12.0451351814
 21
8.087742449
 31
0.0
 11
12.0341466577
 21
8.0659066314
 31
0.0
 11
12.0090263179
 21
8.0239797898
 31
0.0
 11
11.9949578995
 21
8.0039885322
 31
0.0
 11
11.9799262812
 21
7.9847118715
 31
0.0
 11
11.963966045
 21
7.9661971655
 31
0.0
 11
11.9471177913
 21
7.9484864899
 31
0.0
 11
11.9109226829
 21
7.9156428557
 31
0.0
 11
11.8716794612
 21
7.8865040987
 31
0.0
 11
11.8297749229
 21
7.8613417561
 31
0.0
 11
11.8079514388
 21
7.8503302857
 31
0.0
 11
11.7856152691
 21
7.8404044773
 31
0.0
 11
11.762819119
 21
7.8315850733
 31
0.0
 11
11.7396159683
 21
7.8238913396
 31
0.0
 11
11.7160587971
 21
7.817342542
 31
0.0
 11
11.6922009267
 21
7.8119576713
 31
0.0
 11
11.6681033595
 21
7.8077495279
 31
0.0
 11
11.6438346887
 21
7.804724795
 31
0.0
 11
11.595059701
 21
7.802251252
 31
0.0
  0
LINE
  5
2C9
100
AcDbEntity
  8
0
100
AcDbLine
 62
6
  6
CONTINUOUS
 10
11.595059701
 20
7.802251252
 11
11.5946324328
 21
7.8022507644
  0
LINE
  5
2CA
100
AcDbEntity
  8
0
100
AcDbLine
 62
6
  6
CONTINUOUS
 10
11.5946324328
 20
8.7966903268
 11
11.5950580597
 21
8.7966904465
  0
SPLINE
  5
2CB
100
AcDbEntity
  8
0
100
AcDbSpline
 62
6
  6
CONTINUOUS
 70
0
 71
3
 72
49
 73
45
 74
43
 42
0.0000001
 43
0.0000001
 44
0.0000000001
 12
1.5570255345
 22
-0.0002360587
 32
0.0
 13
-1.5570235998
 23
-0.0024658761
 33
0.0
 40
0.0
 40
0.0
 40
0.0
 40
0.0
 40
0.0312265173
 40
0.0468641646
 40
0.0625055822
 40
0.0781442052
 40
0.0937776904
 40
0.1094076154
 40
0.1250354863
 40
0.1406627751
 40
0.156290934
 40
0.1875407043
 40
0.2187907972
 40
0.2500404153
 40
0.2656701178
 40
0.2813000163
 40
0.3125520829
 40
0.3438059792
 40
0.3594376564
 40
0.3750694653
 40
0.4063239486
 40
0.4375769093
 40
0.5000043377
 40
0.5624298009
 40
0.5936815784
 40
0.6249352273
 40
0.640566712
 40
0.6561980797
 40
0.6874514732
 40
0.7187032758
 40
0.7343330994
 40
0.749962781
 40
0.7812125766
 40
0.8124630473
 40
0.8437131168
 40
0.8593411807
 40
0.8749680747
 40
0.8905953175
 40
0.906224505
 40
0.9218572508
 40
0.937495231
 40
0.9531361993
 40
0.9687735765
 40
1.0
 40
1.0
 40
1.0
 40
1.0
 10
11.5950580597
 20
8.7966904465
 30
0.0
 10
11.611264888
 20
8.7966879894
 30
0.0
 10
11.6356095717
 20
8.7954807067
 30
0.0
 10
11.6678144425
 20
8.7915042122
 30
0.0
 10
11.6918172443
 20
8.7873400573
 30
0.0
 10
11.7155829643
 20
8.7820005013
 30
0.0
 10
11.7390510432
 20
8.7754973989
 30
0.0
 10
11.7621663591
 20
8.7678523811
 30
0.0
 10
11.784875948
 20
8.7590845379
 30
0.0
 10
11.8071278022
 20
8.7492131939
 30
0.0
 10
11.8361075818
 20
8.734609548
 30
0.0
 10
11.8709409593
 20
8.7137135403
 30
0.0
 10
11.9100768751
 20
8.6846766305
 30
0.0
 10
11.9401611431
 20
8.6573815271
 30
0.0
 10
11.9625323065
 20
8.6338702135
 30
0.0
 10
11.9837254138
 20
8.6092892774
 30
0.0
 10
12.0079076499
 20
8.5766487473
 30
0.0
 10
12.0287828776
 20
8.5417997935
 30
0.0
 10
12.0433689905
 20
8.5128030093
 30
0.0
 10
12.0565092159
 20
8.4831235654
 30
0.0
 10
12.0701844341
 20
8.4448656811
 30
0.0
 10
12.0859502175
 20
8.3818818066
 30
0.0
 10
12.0939418011
 20
8.3006970617
 30
0.0
 10
12.0859215292
 20
8.2195160818
 30
0.0
 10
12.0701374878
 20
8.1565389764
 30
0.0
 10
12.0564523368
 20
8.1182860094
 30
0.0
 10
12.0433060279
 20
8.0886101195
 30
0.0
 10
12.0287150797
 20
8.059616441
 30
0.0
 10
12.0078353067
 20
8.0247709706
 30
0.0
 10
11.9836517985
 20
7.992132109
 30
0.0
 10
11.9624594876
 20
7.9675507624
 30
0.0
 10
11.9400900157
 20
7.9440378094
 30
0.0
 10
11.9100099345
 20
7.9167379416
 30
0.0
 10
11.8708819805
 20
7.8876898609
 30
0.0
 10
11.8360570229
 20
7.866779663
 30
0.0
 10
11.8070852602
 20
7.8521604326
 30
0.0
 10
11.7848400912
 20
7.8422755372
 30
0.0
 10
11.7621374777
 20
7.8334922663
 30
0.0
 10
11.7390291839
 20
7.82582963
 30
0.0
 10
11.7155678531
 20
7.8193064764
 30
0.0
 10
11.6918082814
 20
7.8139441237
 30
0.0
 10
11.6678106717
 20
7.8097545106
 30
0.0
 10
11.6356109133
 20
7.8057405149
 30
0.0
 10
11.6112682586
 20
7.8045010998
 30
0.0
 10
11.5950614992
 20
7.804475433
 30
0.0
 11
11.5950580597
 21
8.7966904465
 31
0.0
 11
11.6436193234
 21
8.794291434
 31
0.0
 11
11.6677840582
 21
8.7913079399
 31
0.0
 11
11.6917795029
 21
8.7871437852
 31
0.0
 11
11.7155369082
 21
8.7818056849
 31
0.0
 11
11.7389949095
 21
8.7753062786
 31
0.0
 11
11.7621002485
 21
8.7676647092
 31
0.0
 11
11.7848000815
 21
8.7589004526
 31
0.0
 11
11.8070415648
 21
8.7490329844
 31
0.0
 11
11.8287721364
 21
8.7380831584
 31
0.0
 11
11.8704971037
 21
8.7130531629
 31
0.0
 11
11.9095708929
 21
8.6840572763
 31
0.0
 11
11.9456097014
 21
8.6513669905
 31
0.0
 11
11.9623848539
 21
8.6337366851
 31
0.0
 11
11.9782751747
 21
8.615304486
 31
0.0
 11
12.0072456545
 21
8.5762080307
 31
0.0
 11
12.0322513469
 21
8.5344610054
 31
0.0
 11
12.0431881822
 21
8.5127177604
 31
0.0
 11
12.0530422879
 21
8.4904626565
 31
0.0
 11
12.069421778
 21
8.4446379903
 31
0.0
 11
12.0812342839
 21
8.3974318286
 31
0.0
 11
12.0907402329
 21
8.3006966694
 31
0.0
 11
12.0812014004
 21
8.203967822
 31
0.0
 11
12.0693751874
 21
8.1567669917
 31
0.0
 11
12.0529840788
 21
8.1109478599
 31
0.0
 11
12.0431253879
 21
8.0886953387
 31
0.0
 11
12.0321848853
 21
8.0669544784
 31
0.0
 11
12.0071740482
 21
8.0252114477
 31
0.0
 11
11.9782019509
 21
7.9861167027
 31
0.0
 11
11.9623121851
 21
7.967684179
 31
0.0
 11
11.9455383654
 21
7.9500526506
 31
0.0
 11
11.9095045361
 21
7.9173564651
 31
0.0
 11
11.8704384356
 21
7.8883492336
 31
0.0
 11
11.82872346
 21
7.8633016846
 31
0.0
 11
11.8069989182
 21
7.8523402283
 31
0.0
 11
11.7847641099
 21
7.8424592419
 31
0.0
 11
11.7620712932
 21
7.8336795445
 31
0.0
 11
11.7389730018
 21
7.826020346
 31
0.0
 11
11.7155217691
 21
7.8195008564
 31
0.0
 11
11.6917705185
 21
7.8141399815
 31
0.0
 11
11.6677802183
 21
7.8099503553
 31
0.0
 11
11.643619399
 21
7.8069387157
 31
0.0
 11
11.5950614992
 21
7.804475433
 31
0.0
  0
LINE
  5
2CC
100
AcDbEntity
  8
0
100
AcDbLine
 62
6
  6
CONTINUOUS
 10
11.5950614992
 20
7.804475433
 11
11.5946324328
 21
7.8044749403
  0
LINE
  5
2CD
100
AcDbEntity
  8
0
100
AcDbLine
 62
6
  6
CONTINUOUS
 10
11.5946324328
 20
8.7944661517
 11
11.5950539971
 21
8.7944662727
  0
SPLINE
  5
2CE
100
AcDbEntity
  8
0
100
AcDbSpline
 62
6
  6
CONTINUOUS
 70
0
 71
3
 72
54
 73
50
 74
48
 42
0.0000001
 43
0.0000001
 44
0.0000000001
 12
1.5503168881
 22
-0.0002231064
 32
0.0
 13
-1.5503149184
 23
-0.0024813431
 33
0.0
 40
0.0
 40
0.0
 40
0.0
 40
0.0
 40
0.0312205192
 40
0.0468547964
 40
0.0624925594
 40
0.0781272651
 40
0.0937568798
 40
0.1093831392
 40
0.1250076895
 40
0.1406321675
 40
0.1562580821
 40
0.1875041281
 40
0.2187501417
 40
0.249994459
 40
0.2656211256
 40
0.2812477945
 40
0.3124928917
 40
0.3437389151
 40
0.3593662711
 40
0.3749935195
 40
0.4062384331
 40
0.4218651283
 40
0.4374915658
 40
0.4687352488
 40
0.4999789429
 40
0.5156058387
 40
0.5312331965
 40
0.5624793421
 40
0.5937267365
 40
0.624975526
 40
0.6406044835
 40
0.6562334057
 40
0.6874817616
 40
0.7031099142
 40
0.7187372712
 40
0.7343641241
 40
0.7499908469
 40
0.7812351916
 40
0.8124816556
 40
0.8437284176
 40
0.8593550069
 40
0.8749807632
 40
0.8906071485
 40
0.9062355696
 40
0.9218674725
 40
0.9375043355
 40
0.9531436129
 40
0.9687788147
 40
1.0
 40
1.0
 40
1.0
 40
1.0
 10
11.5950539971
 20
8.7944662727
 30
0.0
 10
11.6111878965
 20
8.7944639508
 30
0.0
 10
11.6354228534
 20
8.7932624267
 30
0.0
 10
11.6674823374
 20
8.7893043165
 30
0.0
 10
11.6913761992
 20
8.7851593576
 30
0.0
 10
11.7150337748
 20
8.779844229
 30
0.0
 10
11.7383951868
 20
8.7733713093
 30
0.0
 10
11.7614057977
 20
8.765761655
 30
0.0
 10
11.7840130353
 20
8.7570339724
 30
0.0
 10
11.8061651259
 20
8.7472070547
 30
0.0
 10
11.8350159927
 20
8.7326683968
 30
0.0
 10
11.869695441
 20
8.7118661775
 30
0.0
 10
11.9086580128
 20
8.6829593488
 30
0.0
 10
11.9386082598
 20
8.6557865573
 30
0.0
 10
11.9608791719
 20
8.6323811212
 30
0.0
 10
11.9819766369
 20
8.6079113962
 30
0.0
 10
12.0060496218
 20
8.5754194222
 30
0.0
 10
12.0268309716
 20
8.5407298696
 30
0.0
 10
12.0413506209
 20
8.5118657714
 30
0.0
 10
12.0544315346
 20
8.482323979
 30
0.0
 10
12.0653248395
 20
8.4518534292
 30
0.0
 10
12.0739373257
 20
8.4207149669
 30
0.0
 10
12.0810075663
 20
8.3891897486
 30
0.0
 10
12.0869309492
 20
8.3491904295
 30
0.0
 10
12.0889148323
 20
8.3088028717
 30
0.0
 10
12.0881148057
 20
8.2765040768
 30
0.0
 10
12.0857344444
 20
8.2442824653
 30
0.0
 10
12.079806939
 20
8.2042775242
 30
0.0
 10
12.068013514
 20
8.1572148073
 30
0.0
 10
12.0543946775
 20
8.1191334817
 30
0.0
 10
12.041307854
 20
8.0895890295
 30
0.0
 10
12.0267831863
 20
8.060725723
 30
0.0
 10
12.0101510923
 20
8.032963877
 30
0.0
 10
11.991558646
 20
8.0065393218
 30
0.0
 10
11.9766552257
 20
7.9874249579
 30
0.0
 10
11.9608305507
 20
7.9690673088
 30
0.0
 10
11.9385639347
 20
7.9456582875
 30
0.0
 10
11.9086197116
 20
7.9184782275
 30
0.0
 10
11.8696662977
 20
7.8895586392
 30
0.0
 10
11.8349976758
 20
7.8687368881
 30
0.0
 10
11.8061538872
 20
7.854181129
 30
0.0
 10
11.784006461
 20
7.8443389959
 30
0.0
 10
11.7614033666
 20
7.8355931351
 30
0.0
 10
11.7383961711
 20
7.8279629398
 30
0.0
 10
11.7150375076
 20
7.8214674388
 30
0.0
 10
11.6913822161
 20
7.8161282919
 30
0.0
 10
11.6674906362
 20
7.8119566501
 30
0.0
 10
11.6354343727
 20
7.8079598195
 30
0.0
 10
11.6112004572
 20
7.8067254425
 30
0.0
 10
11.5950662341
 20
7.806699619
 30
0.0
 11
11.5950539971
 21
8.7944662727
 31
0.0
 11
11.6433967674
 21
8.7920785967
 31
0.0
 11
11.667452238
 21
8.7891089067
 31
0.0
 11
11.6913387582
 21
8.7849639248
 31
0.0
 11
11.7149879274
 21
8.7796503824
 31
0.0
 11
11.7383392183
 21
8.7731811023
 31
0.0
 11
11.7613398193
 21
8.7655748765
 31
0.0
 11
11.7839372419
 21
8.756850747
 31
0.0
 11
11.806078998
 21
8.747027756
 31
0.0
 11
11.827712891
 21
8.7361267884
 31
0.0
 11
11.8692537033
 21
8.7112085648
 31
0.0
 11
11.9081547258
 21
8.6823422776
 31
0.0
 11
11.9440326272
 21
8.6497988681
 31
0.0
 11
11.9607324362
 21
8.6322481049
 31
0.0
 11
11.9765511611
 21
8.6138992353
 31
0.0
 11
12.0053910251
 21
8.5749803876
 31
0.0
 11
12.0302837369
 21
8.5334243235
 31
0.0
 11
12.041170807
 21
8.5117809321
 31
0.0
 11
12.05098046
 21
8.4896285663
 31
0.0
 11
12.0672869765
 21
8.4440162388
 31
0.0
 11
12.0737445694
 21
8.4206664092
 31
0.0
 11
12.0790464694
 21
8.397027764
 31
0.0
 11
12.0861430927
 21
8.3491128394
 31
0.0
 11
12.088515909
 21
8.3007333658
 31
0.0
 11
12.0879172539
 21
8.2765141228
 31
0.0
 11
12.086132403
 21
8.2523526011
 31
0.0
 11
12.0790269772
 21
8.2044351216
 31
0.0
 11
12.0672557389
 21
8.1574436602
 31
0.0
 11
12.0509417895
 21
8.1118276094
 31
0.0
 11
12.041128077
 21
8.0896741435
 31
0.0
 11
12.0302369988
 21
8.0680300505
 31
0.0
 11
12.005341247
 21
8.0264715921
 31
0.0
 11
11.9913987718
 21
8.0066566503
 31
0.0
 11
11.976501441
 21
7.9875507794
 31
0.0
 11
11.9606841813
 21
7.9692002702
 31
0.0
 11
11.943987243
 21
7.9516466557
 31
0.0
 11
11.9081169529
 21
7.9190947937
 31
0.0
 11
11.8692253855
 21
7.8902145977
 31
0.0
 11
11.8276965429
 21
7.865274274
 31
0.0
 11
11.806068073
 21
7.854360229
 31
0.0
 11
11.7839309646
 21
7.8445218876
 31
0.0
 11
11.761337507
 21
7.8357796082
 31
0.0
 11
11.7383401796
 21
7.8281528371
 31
0.0
 11
11.7149914619
 21
7.8216610208
 31
0.0
 11
11.6913443331
 21
7.8163231953
 31
0.0
 11
11.6674600652
 21
7.8121515879
 31
0.0
 11
11.6434067575
 21
7.8091528199
 31
0.0
 11
11.5950662341
 21
7.806699619
 31
0.0
  0
LINE
  5
2CF
100
AcDbEntity
  8
0
100
AcDbLine
 62
6
  6
CONTINUOUS
 10
11.5950662341
 20
7.806699619
 11
11.5946324328
 21
7.8066991166
  0
LINE
  5
2D0
100
AcDbEntity
  8
0
100
AcDbLine
 62
6
  6
CONTINUOUS
 10
11.5946324328
 20
7.8066991166
 11
11.5942090083
 21
7.8066989962
  0
SPLINE
  5
2D1
100
AcDbEntity
  8
0
100
AcDbSpline
 62
6
  6
CONTINUOUS
 70
0
 71
3
 72
39
 73
35
 74
33
 42
0.0000001
 43
0.0000001
 44
0.0000000001
 12
-1.1530681927
 22
0.0001700379
 32
0.0
 13
0.794406951
 23
0.8357534817
 33
0.0
 40
0.0
 40
0.0
 40
0.0
 40
0.0
 40
0.031216519
 40
0.0624754253
 40
0.0937454958
 40
0.1250028464
 40
0.156249322
 40
0.1874923001
 40
0.2187383967
 40
0.2499878635
 40
0.2812377236
 40
0.3124864342
 40
0.3437349675
 40
0.3749836442
 40
0.4062333808
 40
0.4374847468
 40
0.4687365125
 40
0.4999881366
 40
0.5312400343
 40
0.5624910614
 40
0.5937403652
 40
0.6249890012
 40
0.6562372889
 40
0.6874856173
 40
0.718735237
 40
0.7499858187
 40
0.7812370089
 40
0.812489597
 40
0.8437428417
 40
0.8749956351
 40
0.9062484064
 40
0.9375006558
 40
0.9687510501
 40
1.0
 40
1.0
 40
1.0
 40
1.0
 10
11.5942090083
 20
7.8066989962
 30
0.0
 10
11.5822107499
 20
7.8067007656
 30
0.0
 10
11.5581890141
 20
7.8075855508
 30
0.0
 10
11.5223432184
 20
7.8115250667
 30
0.0
 10
11.4868596793
 20
7.8180571209
 30
0.0
 10
11.4519540986
 20
7.8271663922
 30
0.0
 10
11.4178145944
 20
7.8387897394
 30
0.0
 10
11.3846144196
 20
7.8528630517
 30
0.0
 10
11.35252941
 20
7.8693234678
 30
0.0
 10
11.3217231521
 20
7.8880726666
 30
0.0
 10
11.2923581001
 20
7.9090094279
 30
0.0
 10
11.2646013978
 20
7.9320355507
 30
0.0
 10
11.2385939724
 20
7.9570193408
 30
0.0
 10
11.2144688129
 20
7.9838260368
 30
0.0
 10
11.1923647955
 20
8.0123237861
 30
0.0
 10
11.1723916097
 20
8.0423544178
 30
0.0
 10
11.1546495885
 20
8.0737559477
 30
0.0
 10
11.1392470552
 20
8.1063692375
 30
0.0
 10
11.1262600326
 20
8.1400167297
 30
0.0
 10
11.1157479203
 20
8.1745168018
 30
0.0
 10
11.1077795513
 20
8.2096905565
 30
0.0
 10
11.1023948254
 20
8.2453499595
 30
0.0
 10
11.0996105984
 20
8.2813056496
 30
0.0
 10
11.0994541148
 20
8.3173692946
 30
0.0
 10
11.1019252279
 20
8.3533490935
 30
0.0
 10
11.1069988058
 20
8.3890560934
 30
0.0
 10
11.1146600815
 20
8.4243001257
 30
0.0
 10
11.1248704386
 20
8.45889261
 30
0.0
 10
11.1375620765
 20
8.4926542543
 30
0.0
 10
11.1526765821
 20
8.5254035046
 30
0.0
 10
11.1701400213
 20
8.5569620004
 30
0.0
 10
11.1898455035
 20
8.5871705527
 30
0.0
 10
11.2116914245
 20
8.6158654733
 30
0.0
 10
11.227615404
 20
8.6338846993
 30
0.0
 10
11.2358901984
 20
8.6425901722
 30
0.0
 11
11.5942090083
 21
7.8066989962
 31
0.0
 11
11.5582384638
 21
7.8080195233
 31
0.0
 11
11.5224104479
 21
7.81195628
 31
0.0
 11
11.4869504658
 21
7.8184879412
 31
0.0
 11
11.4520761051
 21
7.8275870858
 31
0.0
 11
11.4179692077
 21
7.8391987729
 31
0.0
 11
11.3848015332
 21
7.8532602986
 31
0.0
 11
11.3527440536
 21
7.8697040888
 31
0.0
 11
11.3219636249
 21
7.8884370936
 31
0.0
 11
11.2926257616
 21
7.9093579619
 31
0.0
 11
11.2648928345
 21
7.9323619222
 31
0.0
 11
11.2389077653
 21
7.9573230696
 31
0.0
 11
11.2148060449
 21
7.9841074249
 31
0.0
 11
11.1927204165
 21
8.012578598
 31
0.0
 11
11.1727636177
 21
8.042582669
 31
0.0
 11
11.1550394941
 21
8.073957926
 31
0.0
 11
11.1396496647
 21
8.106541552
 31
0.0
 11
11.1266723645
 21
8.1401592848
 31
0.0
 11
11.1161716537
 21
8.1746299245
 31
0.0
 11
11.1082100753
 21
8.2097719221
 31
0.0
 11
11.102828218
 21
8.2453995356
 31
0.0
 11
11.100048555
 21
8.2813235633
 31
0.0
 11
11.0998920248
 21
8.3173546772
 31
0.0
 11
11.1023589157
 21
8.3533030767
 31
0.0
 11
11.1074300129
 21
8.3889785149
 31
0.0
 11
11.1150847528
 21
8.4241908484
 31
0.0
 11
11.1252838767
 21
8.4587537985
 31
0.0
 11
11.1379659516
 21
8.4924856706
 31
0.0
 11
11.1530681039
 21
8.5252051099
 31
0.0
 11
11.1705138815
 21
8.5567373112
 31
0.0
 11
11.1902027973
 21
8.5869190623
 31
0.0
 11
11.2120318849
 21
8.6155883538
 31
0.0
 11
11.2358901984
 21
8.6425901722
 31
0.0
  0
LINE
  5
2D2
100
AcDbEntity
  8
0
100
AcDbLine
 62
6
  6
CONTINUOUS
 10
11.5942006577
 20
8.7966898287
 11
11.5946324328
 21
8.7966903268
  0
LINE
  5
2D3
100
AcDbEntity
  8
0
100
AcDbLine
 62
6
  6
CONTINUOUS
 10
11.5946324328
 20
8.7922419778
 11
11.5950579907
 21
8.7922420986
  0
SPLINE
  5
2D4
100
AcDbEntity
  8
0
100
AcDbSpline
 62
6
  6
CONTINUOUS
 70
0
 71
3
 72
51
 73
47
 74
45
 42
0.0000001
 43
0.0000001
 44
0.0000000001
 12
1.5430805827
 22
-0.0002357316
 32
0.0
 13
-1.543078603
 23
-0.0024830351
 33
0.0
 40
0.0
 40
0.0
 40
0.0
 40
0.0
 40
0.0312257287
 40
0.0468630032
 40
0.0625042234
 40
0.0781429459
 40
0.0937768637
 40
0.1094074892
 40
0.1250362589
 40
0.1406645777
 40
0.156293878
 40
0.1875461547
 40
0.2187980912
 40
0.2500476604
 40
0.2656766881
 40
0.2813054768
 40
0.2969342878
 40
0.3125634133
 40
0.3438127144
 40
0.3594419029
 40
0.3750711584
 40
0.4063207177
 40
0.4375698194
 40
0.4999936308
 40
0.5624185192
 40
0.5936695391
 40
0.624921429
 40
0.6405516334
 40
0.6561815209
 40
0.6874315245
 40
0.703060721
 40
0.7186895006
 40
0.7343182161
 40
0.7499471487
 40
0.7811966342
 40
0.812448807
 40
0.8437013744
 40
0.8593308202
 40
0.8749594136
 40
0.8905886196
 40
0.9062198364
 40
0.9218545035
 40
0.9374940874
 40
0.9531360082
 40
0.9687737878
 40
1.0
 40
1.0
 40
1.0
 40
1.0
 10
11.5950579907
 20
8.7922420986
 30
0.0
 10
11.6111192626
 20
8.792239645
 30
0.0
 10
11.6352453153
 20
8.7910432695
 30
0.0
 10
11.6671610623
 20
8.7871024711
 30
0.0
 10
11.6909486426
 20
8.7829755878
 30
0.0
 10
11.7145016538
 20
8.7776836897
 30
0.0
 10
11.73776012
 20
8.7712385155
 30
0.0
 10
11.7606693569
 20
8.7636614949
 30
0.0
 10
11.7831767543
 20
8.7549715267
 30
0.0
 10
11.8052307036
 20
8.7451878226
 30
0.0
 10
11.833952852
 20
8.7307133751
 30
0.0
 10
11.8684754145
 20
8.7100009631
 30
0.0
 10
11.9072626747
 20
8.6812230702
 30
0.0
 10
11.9370769741
 20
8.6541705258
 30
0.0
 10
11.9592454823
 20
8.6308695626
 30
0.0
 10
11.9749992
 20
8.6125962066
 30
0.0
 10
11.9898345266
 20
8.5935693424
 30
0.0
 10
12.0083406618
 20
8.5672663271
 30
0.0
 10
12.0248937621
 20
8.5396318241
 30
0.0
 10
12.039346152
 20
8.5108999981
 30
0.0
 10
12.0523671781
 20
8.4814910216
 30
0.0
 10
12.0659187409
 20
8.4435816709
 30
0.0
 10
12.0815414023
 20
8.3811679536
 30
0.0
 10
12.0894646655
 20
8.3007151211
 30
0.0
 10
12.0815201303
 20
8.2202631754
 30
0.0
 10
12.0658789215
 20
8.1578513947
 30
0.0
 10
12.0523199255
 20
8.1199419725
 30
0.0
 10
12.0392929862
 20
8.0905333619
 30
0.0
 10
12.0248354925
 20
8.0618027727
 30
0.0
 10
12.0082799334
 20
8.0341689912
 30
0.0
 10
11.9897728216
 20
8.0078661986
 30
0.0
 10
11.9749373765
 20
7.9888394725
 30
0.0
 10
11.9591848676
 20
7.9705652502
 30
0.0
 10
11.937019371
 20
7.9472616312
 30
0.0
 10
11.9072103616
 20
7.9202034143
 30
0.0
 10
11.8684320231
 20
7.8914135221
 30
0.0
 10
11.8339193295
 20
7.8706843931
 30
0.0
 10
11.8052049891
 20
7.8561937012
 30
0.0
 10
11.7831570088
 20
7.8463955667
 30
0.0
 10
11.7606554401
 20
7.8376887531
 30
0.0
 10
11.7377516096
 20
7.8300926067
 30
0.0
 10
11.714497922
 20
7.8236260932
 30
0.0
 10
11.6909489946
 20
7.8183108131
 30
0.0
 10
11.6671649384
 20
7.8141577582
 30
0.0
 10
11.6352531024
 20
7.8101786678
 30
0.0
 10
11.6111283982
 20
7.8089496412
 30
0.0
 10
11.5950668982
 20
7.808923796
 30
0.0
 11
11.5950579907
 21
8.7922420986
 31
0.0
 11
11.6431831191
 21
8.7898646703
 31
0.0
 11
11.6671308594
 21
8.7869079631
 31
0.0
 11
11.6909110865
 21
8.7827810937
 31
0.0
 11
11.714455841
 21
8.7774906534
 31
0.0
 11
11.7377043539
 21
8.7710491402
 31
0.0
 11
11.7606037363
 21
8.7634755255
 31
0.0
 11
11.7831015011
 21
8.7547891106
 31
0.0
 11
11.8051451614
 21
8.7450091968
 31
0.0
 11
11.8266824637
 21
8.7341562099
 31
0.0
 11
11.8680360528
 21
8.7093467308
 31
0.0
 11
11.906761759
 21
8.6806082785
 31
0.0
 11
11.9424764817
 21
8.6482094324
 31
0.0
 11
11.9590997608
 21
8.6307369105
 31
0.0
 11
11.9748461231
 21
8.612470638
 31
0.0
 11
11.9896754529
 21
8.5934522974
 31
0.0
 11
12.0035532756
 21
8.5737283084
 31
0.0
 11
12.0283301606
 21
8.5323605345
 31
0.0
 11
12.0391671839
 21
8.5108153883
 31
0.0
 11
12.0489316898
 21
8.4887633178
 31
0.0
 11
12.0651626587
 21
8.4433564811
 31
0.0
 11
12.0768681726
 21
8.3965789435
 31
0.0
 11
12.0862918762
 21
8.3007160512
 31
0.0
 11
12.0768423954
 21
8.2048540265
 31
0.0
 11
12.0651237798
 21
8.1580767179
 31
0.0
 11
12.0488828812
 21
8.1126696124
 31
0.0
 11
12.0391140192
 21
8.0906178699
 31
0.0
 11
12.0282732287
 21
8.0690734117
 31
0.0
 11
12.0034922816
 21
8.0277068072
 31
0.0
 11
11.9896137894
 21
8.0079831553
 31
0.0
 11
11.9747844983
 21
7.988964846
 31
0.0
 11
11.9590393144
 21
7.9706977069
 31
0.0
 11
11.9424182643
 21
7.9532232671
 31
0.0
 11
11.9067100268
 21
7.9208174655
 31
0.0
 11
11.8679931965
 21
7.8920664453
 31
0.0
 11
11.8266509068
 21
7.8672372701
 31
0.0
 11
11.8051195509
 21
7.8563719925
 31
0.0
 11
11.7830818443
 21
7.8465776271
 31
0.0
 11
11.7605898621
 21
7.8378743842
 31
0.0
 11
11.7376958509
 21
7.8302816496
 31
0.0
 11
11.7144520574
 21
7.8238188092
 31
0.0
 11
11.6909112432
 21
7.8185048241
 31
0.0
 11
11.6671344705
 21
7.8143518109
 31
0.0
 11
11.6431895121
 21
7.8113663523
 31
0.0
 11
11.5950668982
 21
7.808923796
 31
0.0
  0
LINE
  5
2D5
100
AcDbEntity
  8
0
100
AcDbLine
 62
6
  6
CONTINUOUS
 10
11.5950668982
 20
7.808923796
 11
11.5946324328
 21
7.8089232902
  0
LINE
  5
2D6
100
AcDbEntity
  8
0
100
AcDbLine
 62
6
  6
CONTINUOUS
 10
11.5946324328
 20
8.7900178013
 11
11.5950614183
 21
8.7900179221
  0
SPLINE
  5
2D7
100
AcDbEntity
  8
0
100
AcDbSpline
 62
6
  6
CONTINUOUS
 70
0
 71
3
 72
53
 73
49
 74
47
 42
0.0000001
 43
0.0000001
 44
0.0000000001
 12
1.5363306551
 22
-0.0002468247
 32
0.0
 13
-1.5363287063
 23
-0.0024594502
 33
0.0
 40
0.0
 40
0.0
 40
0.0
 40
0.0
 40
0.031221485
 40
0.0468569322
 40
0.0624964937
 40
0.0781336675
 40
0.0937659211
 40
0.1093947459
 40
0.1250215902
 40
0.1406478562
 40
0.1562750015
 40
0.1875229333
 40
0.2187703646
 40
0.2500150574
 40
0.265641765
 40
0.2812684817
 40
0.2968955729
 40
0.3125233646
 40
0.3437709214
 40
0.3593995105
 40
0.3750282145
 40
0.4062766792
 40
0.4375238867
 40
0.4687699558
 40
0.5000150305
 40
0.5312594097
 40
0.5625037664
 40
0.5781303119
 40
0.593756897
 40
0.6250011796
 40
0.6406280384
 40
0.6562550452
 40
0.6875005123
 40
0.7187452566
 40
0.7343718917
 40
0.749998618
 40
0.7812432972
 40
0.8124899421
 40
0.8437368065
 40
0.8593632742
 40
0.8749885216
 40
0.890614005
 40
0.9062412211
 40
0.921871674
 40
0.937506953
 40
0.9531449715
 40
0.9687793175
 40
1.0
 40
1.0
 40
1.0
 40
1.0
 10
11.5950614183
 20
8.7900179221
 30
0.0
 10
11.6110502598
 20
8.7900153534
 30
0.0
 10
11.635067653
 20
8.7888239822
 30
0.0
 10
11.6668398014
 20
8.7849004416
 30
0.0
 10
11.6905207348
 20
8.7807917799
 30
0.0
 10
11.7139682767
 20
8.7755235478
 30
0.0
 10
11.7371224318
 20
8.7691068845
 30
0.0
 10
11.7599286634
 20
8.7615633535
 30
0.0
 10
11.7823346267
 20
8.7529119012
 30
0.0
 10
11.8042890402
 20
8.7431718461
 30
0.0
 10
11.8328814186
 20
8.7287622313
 30
0.0
 10
11.8672471974
 20
8.7081417704
 30
0.0
 10
11.9058586895
 20
8.6794934234
 30
0.0
 10
11.9355376395
 20
8.6525626676
 30
0.0
 10
11.957605071
 20
8.6293662754
 30
0.0
 10
11.9732872617
 20
8.6111747399
 30
0.0
 10
11.9880556741
 20
8.592232856
 30
0.0
 10
12.0064782897
 20
8.5660460847
 30
0.0
 10
12.0229564805
 20
8.5385331554
 30
0.0
 10
12.0373445864
 20
8.5099282556
 30
0.0
 10
12.0503070362
 20
8.4806479832
 30
0.0
 10
12.0637938486
 20
8.4429077518
 30
0.0
 10
12.0754674774
 20
8.3962645664
 30
0.0
 10
12.0825005547
 20
8.348700007
 30
0.0
 10
12.0848560445
 20
8.3006774474
 30
0.0
 10
12.0824809696
 20
8.2526585179
 30
0.0
 10
12.0765990113
 20
8.2130195657
 30
0.0
 10
12.0695834161
 20
8.1817806583
 30
0.0
 10
12.0610404744
 20
8.1509256677
 30
0.0
 10
12.0502386794
 20
8.1207331245
 30
0.0
 10
12.0372701942
 20
8.0914610874
 30
0.0
 10
12.0228768626
 20
8.0628605091
 30
0.0
 10
12.0022803507
 20
8.0284863833
 30
0.0
 10
11.9784239945
 20
7.9962886634
 30
0.0
 10
11.9575181133
 20
7.9720388791
 30
0.0
 10
11.9354507093
 20
7.948841897
 30
0.0
 10
11.9057755845
 20
7.921908216
 30
0.0
 10
11.8671726467
 20
7.893250035
 30
0.0
 10
11.8328151429
 20
7.8726187631
 30
0.0
 10
11.8042316331
 20
7.8581948392
 30
0.0
 10
11.7822845293
 20
7.8484422386
 30
0.0
 10
11.7598862793
 20
7.8397765822
 30
0.0
 10
11.7370881119
 20
7.8322165915
 30
0.0
 10
11.7139421368
 20
7.825780799
 30
0.0
 10
11.690502444
 20
7.8204901116
 30
0.0
 10
11.6668282274
 20
7.8163566332
 30
0.0
 10
11.6350624375
 20
7.8123964365
 30
0.0
 10
11.6110478405
 20
7.8111735571
 30
0.0
 10
11.5950594302
 20
7.8111479618
 30
0.0
 11
11.5950614183
 21
8.7900179221
 31
0.0
 11
11.6429694898
 21
8.7876505983
 31
0.0
 11
11.6668096473
 21
8.7847068318
 31
0.0
 11
11.6904832993
 21
8.7805982077
 31
0.0
 11
11.7139227116
 21
8.7753313047
 31
0.0
 11
11.7370669703
 21
8.7689183125
 31
0.0
 11
11.7598633901
 21
8.7613781911
 31
0.0
 11
11.7822597767
 21
8.7527303046
 31
0.0
 11
11.8042039357
 21
8.7429940167
 31
0.0
 11
11.8256438581
 21
8.7321895729
 31
0.0
 11
11.8668099994
 21
8.7074906689
 31
0.0
 11
11.905360164
 21
8.6788812645
 31
0.0
 11
11.9409124005
 21
8.6466283923
 31
0.0
 11
11.9574599308
 21
8.6292343349
 31
0.0
 11
11.9731347861
 21
8.6110499026
 31
0.0
 11
11.9878971172
 21
8.5921164437
 31
0.0
 11
12.0017122399
 21
8.5724798362
 31
0.0
 11
12.0263775832
 21
8.5312942494
 31
0.0
 11
12.0371663029
 21
8.5098439273
 31
0.0
 11
12.0468867547
 21
8.4878886524
 31
0.0
 11
12.0630424796
 21
8.4426807086
 31
0.0
 11
12.0746942232
 21
8.3961101483
 31
0.0
 11
12.081721032
 21
8.3486229264
 31
0.0
 11
12.084067621
 21
8.3006775499
 31
0.0
 11
12.0817004853
 21
8.2527342532
 31
0.0
 11
12.0746533169
 21
8.205252708
 31
0.0
 11
12.0693924746
 21
8.1818286697
 31
0.0
 11
12.0629870042
 21
8.1586913644
 31
0.0
 11
12.0468174195
 21
8.1134951995
 31
0.0
 11
12.0370921276
 21
8.0915451689
 31
0.0
 11
12.0262998933
 21
8.0700993361
 31
0.0
 11
12.0016281906
 21
8.028921301
 31
0.0
 11
11.9730480076
 21
7.9903546054
 31
0.0
 11
11.9573729314
 21
7.9721705291
 31
0.0
 11
11.9408256938
 21
7.9547761536
 31
0.0
 11
11.9052773512
 21
7.9225190207
 31
0.0
 11
11.8667354766
 21
7.8939004756
 31
0.0
 11
11.8255798222
 21
7.869187287
 31
0.0
 11
11.8041464046
 21
7.8583722555
 31
0.0
 11
11.7822095113
 21
7.8486234611
 31
0.0
 11
11.759820882
 21
7.8399613039
 31
0.0
 11
11.7370325316
 21
7.8324046784
 31
0.0
 11
11.7138964747
 21
7.8259724793
 31
0.0
 11
11.6904650548
 21
7.8206833376
 31
0.0
 11
11.6667981385
 21
7.8165498474
 31
0.0
 11
11.6429630977
 21
7.8135785805
 31
0.0
 11
11.5950594302
 21
7.8111479618
 31
0.0
  0
LINE
  5
2D8
100
AcDbEntity
  8
0
100
AcDbLine
 62
6
  6
CONTINUOUS
 10
11.5950594302
 20
7.8111479618
 11
11.5946324328
 21
7.8111474658
  0
LINE
  5
2D9
100
AcDbEntity
  8
0
100
AcDbLine
 62
6
  6
CONTINUOUS
 10
11.5946324328
 20
7.8022507644
 11
11.5939566493
 21
7.8022507464
  0
LINE
  5
2DA
100
AcDbEntity
  8
0
100
AcDbLine
 62
6
  6
CONTINUOUS
 10
11.0951884329
 20
8.3012100011
 11
11.0951886006
 21
8.3019924145
  0
LINE
  5
2DB
100
AcDbEntity
  8
0
100
AcDbLine
 62
6
  6
CONTINUOUS
 10
11.5939488461
 20
8.8011377226
 11
11.5946324328
 21
8.8011386777
  0
LINE
  5
2DC
100
AcDbEntity
  8
0
100
AcDbLine
 62
6
  6
CONTINUOUS
 10
11.5946324328
 20
8.7877936259
 11
11.5950576805
 21
8.7877937479
  0
SPLINE
  5
2DD
100
AcDbEntity
  8
0
100
AcDbSpline
 62
6
  6
CONTINUOUS
 70
0
 71
3
 72
38
 73
34
 74
32
 42
0.0000001
 43
0.0000001
 44
0.0000000001
 12
0.7491543204
 22
-0.8340421975
 32
0.0
 13
-1.121095586
 23
-0.0018082991
 33
0.0
 40
0.0
 40
0.0
 40
0.0
 40
0.0
 40
0.0312503845
 40
0.0625025979
 40
0.0937561554
 40
0.1250098288
 40
0.1562638465
 40
0.1875180523
 40
0.2187711287
 40
0.2500229817
 40
0.2812743233
 40
0.3125246795
 40
0.3437743764
 40
0.3750245844
 40
0.4062752521
 40
0.4375268755
 40
0.4687801193
 40
0.5000337985
 40
0.5312870357
 40
0.5625403352
 40
0.5937928912
 40
0.6250436529
 40
0.6562934656
 40
0.6875430011
 40
0.7187925515
 40
0.7500429686
 40
0.781292704
 40
0.8125391844
 40
0.8437834576
 40
0.8750319834
 40
0.9062916771
 40
0.9375632717
 40
1.0
 40
1.0
 40
1.0
 40
1.0
 10
11.9571614607
 20
8.6262448037
 30
0.0
 10
11.9649652475
 20
8.6175567572
 30
0.0
 10
11.9799529317
 20
8.5996110875
 30
0.0
 10
12.000431326
 20
8.5711468173
 30
0.0
 10
12.0188181361
 20
8.5412853594
 30
0.0
 10
12.035012745
 20
8.5101798096
 30
0.0
 10
12.0489201932
 20
8.4779862582
 30
0.0
 10
12.0604823728
 20
8.4448786236
 30
0.0
 10
12.0696396801
 20
8.411027314
 30
0.0
 10
12.0763304158
 20
8.3766045156
 30
0.0
 10
12.0805325379
 20
8.3417915889
 30
0.0
 10
12.0822282677
 20
8.3067675439
 30
0.0
 10
12.0813944634
 20
8.271712697
 30
0.0
 10
12.0780449096
 20
8.236808524
 30
0.0
 10
12.0722026676
 20
8.2022331952
 30
0.0
 10
12.063883503
 20
8.1681675457
 30
0.0
 10
12.0531372682
 20
8.1347871669
 30
0.0
 10
12.0400277414
 20
8.1022614717
 30
0.0
 10
12.0246103717
 20
8.0707637617
 30
0.0
 10
12.0069664979
 20
8.0404579167
 30
0.0
 10
11.9871985241
 20
8.0114940058
 30
0.0
 10
11.9654005489
 20
7.9840265599
 30
0.0
 10
11.9416820879
 20
7.9582011195
 30
0.0
 10
11.9161753014
 20
7.9341411775
 30
0.0
 10
11.8890054813
 20
7.9119754841
 30
0.0
 10
11.8603095721
 20
7.8918247109
 30
0.0
 10
11.8302460229
 20
7.8737804507
 30
0.0
 10
11.7989677388
 20
7.857939381
 30
0.0
 10
11.7666302895
 20
7.8443916567
 30
0.0
 10
11.7334012941
 20
7.8331954194
 30
0.0
 10
11.6994402135
 20
7.8244119851
 30
0.0
 10
11.6534759568
 20
7.8160028363
 30
0.0
 10
11.6183941981
 20
7.8134097789
 30
0.0
 10
11.5950616846
 20
7.8133721442
 30
0.0
 11
11.9571614607
 21
8.6262448037
 31
0.0
 11
11.9796185751
 21
8.5993541144
 31
0.0
 11
12.0000823333
 21
8.5709145391
 31
0.0
 11
12.0184526904
 21
8.5410781451
 31
0.0
 11
12.0346314791
 21
8.5099986288
 31
0.0
 11
12.0485293
 21
8.4778339406
 31
0.0
 11
12.0600817224
 21
8.4447541448
 31
0.0
 11
12.06922873
 21
8.410931447
 31
0.0
 11
12.0759157034
 21
8.3765391381
 31
0.0
 11
12.0801148478
 21
8.3417559016
 31
0.0
 11
12.081806686
 21
8.3067620932
 31
0.0
 11
12.0809751869
 21
8.2717380192
 31
0.0
 11
12.0776295008
 21
8.2368636206
 31
0.0
 11
12.0717899601
 21
8.2023186762
 31
0.0
 11
12.063479206
 21
8.1682825212
 31
0.0
 11
12.0527434715
 21
8.1349298633
 31
0.0
 11
12.0396430343
 21
8.1024326551
 31
0.0
 11
12.0242392651
 21
8.070962365
 31
0.0
 11
12.006612247
 21
8.0406812092
 31
0.0
 11
11.9868596636
 21
8.011742702
 31
0.0
 11
11.9650801179
 21
7.9842998124
 31
0.0
 11
11.9413839094
 21
7.9584952403
 31
0.0
 11
11.9158981633
 21
7.9344569122
 31
0.0
 11
11.8887514003
 21
7.9123115084
 31
0.0
 11
11.8600812531
 21
7.892175561
 31
0.0
 11
11.8300421654
 21
7.8741468787
 31
0.0
 11
11.798790401
 21
7.8583212123
 31
0.0
 11
11.7664839663
 21
7.8447843951
 31
0.0
 11
11.7332849176
 21
7.8335992119
 31
0.0
 11
11.6993558907
 21
7.8248251768
 31
0.0
 11
11.6648702506
 21
7.8185134014
 31
0.0
 11
11.5950616846
 21
7.8133721442
 31
0.0
  0
LINE
  5
2DE
100
AcDbEntity
  8
0
100
AcDbLine
 62
6
  6
CONTINUOUS
 10
11.5950616846
 20
7.8133721442
 11
11.5946324328
 21
7.8133716422
  0
LINE
  5
2DF
100
AcDbEntity
  8
0
100
AcDbLine
 62
6
  6
CONTINUOUS
 10
11.5946324328
 20
8.7855694522
 11
11.5950549826
 21
8.7855695752
  0
SPLINE
  5
2E0
100
AcDbEntity
  8
0
100
AcDbSpline
 62
6
  6
CONTINUOUS
 70
0
 71
3
 72
38
 73
34
 74
32
 42
0.0000001
 43
0.0000001
 44
0.0000000001
 12
0.7454431894
 22
-0.8303275321
 32
0.0
 13
-1.1158521668
 23
-0.0018168588
 33
0.0
 40
0.0
 40
0.0
 40
0.0
 40
0.0
 40
0.0312497561
 40
0.062500998
 40
0.0937531557
 40
0.1250049889
 40
0.1562567595
 40
0.1875083213
 40
0.2187585357
 40
0.2500076641
 40
0.2812566482
 40
0.3125055009
 40
0.3437551751
 40
0.3750062722
 40
0.4062580678
 40
0.4375107606
 40
0.4687647571
 40
0.5000189113
 40
0.5312726873
 40
0.5625265343
 40
0.5937793239
 40
0.6250299879
 40
0.6562795845
 40
0.6875289373
 40
0.7187787208
 40
0.7500298483
 40
0.7812805772
 40
0.812528481
 40
0.8437751217
 40
0.8750265319
 40
0.90628901
 40
0.9375624124
 40
1.0
 40
1.0
 40
1.0
 40
1.0
 10
11.9555867758
 20
8.6246696205
 30
0.0
 10
11.9633517484
 20
8.6160204429
 30
0.0
 10
11.9782644404
 20
8.5981554037
 30
0.0
 10
11.9986399254
 20
8.5698205365
 30
0.0
 10
12.0169335978
 20
8.5400961809
 30
0.0
 10
12.033044583
 20
8.5091343178
 30
0.0
 10
12.0468797828
 20
8.4770909961
 30
0.0
 10
12.0583815218
 20
8.4441390378
 30
0.0
 10
12.0674888315
 20
8.4104472755
 30
0.0
 10
12.0741421225
 20
8.3761873451
 30
0.0
 10
12.0783206657
 20
8.3415392448
 30
0.0
 10
12.0800033044
 20
8.3066801569
 30
0.0
 10
12.0791677639
 20
8.2717896798
 30
0.0
 10
12.0758311982
 20
8.2370483095
 30
0.0
 10
12.070012797
 20
8.2026340584
 30
0.0
 10
12.0617276728
 20
8.1687278163
 30
0.0
 10
12.0510293597
 20
8.1355034626
 30
0.0
 10
12.0379784888
 20
8.1031301935
 30
0.0
 10
12.0226289696
 20
8.0717812488
 30
0.0
 10
12.00506579
 20
8.0416177099
 30
0.0
 10
11.9853889091
 20
8.0127898402
 30
0.0
 10
11.963690463
 20
7.9854528199
 30
0.0
 10
11.9400821759
 20
7.9597491827
 30
0.0
 10
11.9146942011
 20
7.9358023215
 30
0.0
 10
11.887649633
 20
7.913742079
 30
0.0
 10
11.8590870595
 20
7.8936856428
 30
0.0
 10
11.8291632831
 20
7.8757248693
 30
0.0
 10
11.7980291854
 20
7.8599580545
 30
0.0
 10
11.765840449
 20
7.846473368
 30
0.0
 10
11.7327640669
 20
7.8353284443
 30
0.0
 10
11.6989590564
 20
7.8265856412
 30
0.0
 10
11.6532077605
 20
7.8182156292
 30
0.0
 10
11.6182891557
 20
7.8156341398
 30
0.0
 10
11.5950654499
 20
7.8155963264
 30
0.0
 11
11.9555867758
 21
8.6246696205
 31
0.0
 11
11.9779317828
 21
8.5978997061
 31
0.0
 11
11.998292693
 21
8.5695893436
 31
0.0
 11
12.0165698581
 21
8.5398898521
 31
0.0
 11
12.0326653115
 21
8.5089540204
 31
0.0
 11
12.0464909346
 21
8.4769393897
 31
0.0
 11
12.0579826449
 21
8.4440151011
 31
0.0
 11
12.0670799584
 21
8.4103520321
 31
0.0
 11
12.0737296881
 21
8.376122514
 31
0.0
 11
12.077904685
 21
8.3415040655
 31
0.0
 11
12.079583606
 21
8.306675362
 31
0.0
 11
12.0787509687
 21
8.2718152415
 31
0.0
 11
12.0754176165
 21
8.2371032727
 31
0.0
 11
12.0696017817
 21
8.2027192292
 31
0.0
 11
12.0613256449
 21
8.1688420723
 31
0.0
 11
12.050637306
 21
8.1356454296
 31
0.0
 11
12.0375953195
 21
8.1033007774
 31
0.0
 11
12.0222599974
 21
8.0719787659
 31
0.0
 11
12.0047131893
 21
8.0418398282
 31
0.0
 11
11.9850513562
 21
8.0130374662
 31
0.0
 11
11.9633717631
 21
7.9857245837
 31
0.0
 11
11.9397854616
 21
7.9600418729
 31
0.0
 11
11.9144182964
 21
7.9361169236
 31
0.0
 11
11.8873970976
 21
7.9140764017
 31
0.0
 11
11.8588599652
 21
7.8940347834
 31
0.0
 11
11.8289603984
 21
7.8760898881
 31
0.0
 11
11.7978530311
 21
7.8603382144
 31
0.0
 11
11.7656950233
 21
7.8468642484
 31
0.0
 11
11.7326481703
 21
7.8357304313
 31
0.0
 11
11.6988747763
 21
7.8269968325
 31
0.0
 11
11.664548424
 21
7.8207143132
 31
0.0
 11
11.5950654499
 21
7.8155963264
 31
0.0
  0
LINE
  5
2E1
100
AcDbEntity
  8
0
100
AcDbLine
 62
6
  6
CONTINUOUS
 10
11.5950654499
 20
7.8155963264
 11
11.5946324328
 21
7.815595816
  0
LINE
  5
2E2
100
AcDbEntity
  8
0
100
AcDbLine
 62
6
  6
CONTINUOUS
 10
11.5946324328
 20
8.7833452758
 11
11.5950586621
 21
8.7833453988
  0
SPLINE
  5
2E3
100
AcDbEntity
  8
0
100
AcDbSpline
 62
6
  6
CONTINUOUS
 70
0
 71
3
 72
38
 73
34
 74
32
 42
0.0000001
 43
0.0000001
 44
0.0000000001
 12
0.7415560699
 22
-0.826674125
 32
0.0
 13
-1.110536898
 23
-0.0018198775
 33
0.0
 40
0.0
 40
0.0
 40
0.0
 40
0.0
 40
0.0312489468
 40
0.062498413
 40
0.0937485115
 40
0.12499843
 40
0.156248632
 40
0.1874993118
 40
0.2187496037
 40
0.2499997993
 40
0.281250364
 40
0.3125005988
 40
0.3437507943
 40
0.3750017169
 40
0.4062529006
 40
0.4375046194
 40
0.4687572568
 40
0.5000095249
 40
0.5312606895
 40
0.5625114664
 40
0.593761437
 40
0.6250103499
 40
0.6562595495
 40
0.6875096329
 40
0.7187612904
 40
0.7500150705
 40
0.7812686063
 40
0.812519072
 40
0.8437680796
 40
0.8750216463
 40
0.9062860001
 40
0.9375607849
 40
1.0
 40
1.0
 40
1.0
 40
1.0
 10
11.9540612992
 20
8.623038711
 30
0.0
 10
11.9617855813
 20
8.6144278124
 30
0.0
 10
11.9766204276
 20
8.5966434701
 30
0.0
 10
11.9968872374
 20
8.5684372846
 30
0.0
 10
12.0150809812
 20
8.5388491841
 30
0.0
 10
12.0311039449
 20
8.5080313015
 30
0.0
 10
12.0448624765
 20
8.4761377214
 30
0.0
 10
12.0562983903
 20
8.4433398152
 30
0.0
 10
12.065352288
 20
8.4098057526
 30
0.0
 10
12.0719641419
 20
8.3757060907
 30
0.0
 10
12.0761128455
 20
8.3412203488
 30
0.0
 10
12.0777786923
 20
8.3065256256
 30
0.0
 10
12.0769387893
 20
8.2718008948
 30
0.0
 10
12.0736090731
 20
8.2372259753
 30
0.0
 10
12.0678103507
 20
8.2029777091
 30
0.0
 10
12.0595580307
 20
8.1692357368
 30
0.0
 10
12.0489042131
 20
8.1361733692
 30
0.0
 10
12.0359102135
 20
8.1039588108
 30
0.0
 10
12.0206301652
 20
8.0727641286
 30
0.0
 10
12.0031482359
 20
8.0427493357
 30
0.0
 10
11.983562929
 20
8.0140636628
 30
0.0
 10
11.961965046
 20
7.9868614584
 30
0.0
 10
11.9384675937
 20
7.9612825314
 30
0.0
 10
11.9131984081
 20
7.9374507736
 30
0.0
 10
11.8862787674
 20
7.9154973068
 30
0.0
 10
11.8578488679
 20
7.8955365753
 30
0.0
 10
11.8280644216
 20
7.8776609153
 30
0.0
 10
11.7970752174
 20
7.8619695789
 30
0.0
 10
11.7650367907
 20
7.8485495726
 30
0.0
 10
11.7321153647
 20
7.8374580433
 30
0.0
 10
11.6984691863
 20
7.8287573804
 30
0.0
 10
11.6529339066
 20
7.8204277234
 30
0.0
 10
11.6181805707
 20
7.8178583836
 30
0.0
 10
11.5950668867
 20
7.8178205063
 30
0.0
 11
11.9540612992
 21
8.623038711
 31
0.0
 11
11.9762893678
 21
8.5963887215
 31
0.0
 11
11.9965415622
 21
8.5682072094
 31
0.0
 11
12.0147191943
 21
8.5386442016
 31
0.0
 11
12.0307264805
 21
8.5078521464
 31
0.0
 11
12.0444752996
 21
8.4759871862
 31
0.0
 11
12.0559014289
 21
8.4432169845
 31
0.0
 11
12.064945292
 21
8.4097114448
 31
0.0
 11
12.0715535957
 21
8.3756418755
 31
0.0
 11
12.0756990453
 21
8.3411853968
 31
0.0
 11
12.0773610696
 21
8.3065206319
 31
0.0
 11
12.0765238407
 21
8.2718261905
 31
0.0
 11
12.0731975967
 21
8.2372806066
 31
0.0
 11
12.0674014807
 21
8.2030623888
 31
0.0
 11
12.05915789
 21
8.1693493965
 31
0.0
 11
12.0485141204
 21
8.1363145116
 31
0.0
 11
12.0355289922
 21
8.1041283121
 31
0.0
 11
12.020263051
 21
8.0729605249
 31
0.0
 11
12.0027974381
 21
8.0429704865
 31
0.0
 11
11.9832272115
 21
8.0143105125
 31
0.0
 11
11.9616485278
 21
7.9871320878
 31
0.0
 11
11.9381726557
 21
7.9615740777
 31
0.0
 11
11.9129239847
 21
7.9377643907
 31
0.0
 11
11.8860278515
 21
7.9158300356
 31
0.0
 11
11.8576229663
 21
7.8958840075
 31
0.0
 11
11.8278623744
 21
7.8780242796
 31
0.0
 11
11.7968998657
 21
7.8623478929
 31
0.0
 11
11.7648920149
 21
7.8489385252
 31
0.0
 11
11.7319999296
 21
7.8378581002
 31
0.0
 11
11.6983851499
 21
7.8291665301
 31
0.0
 11
11.6642206865
 21
7.8229142674
 31
0.0
 11
11.5950668867
 21
7.8178205063
 31
0.0
  0
LINE
  5
2E4
100
AcDbEntity
  8
0
100
AcDbLine
 62
6
  6
CONTINUOUS
 10
11.5950668867
 20
7.8178205063
 11
11.5946324328
 21
7.8178199912
  0
LINE
  5
2E5
100
AcDbEntity
  8
0
100
AcDbLine
 62
6
  6
CONTINUOUS
 10
11.5946324328
 20
7.8044749403
 11
11.5942043225
 21
7.8044748213
  0
SPLINE
  5
2E6
100
AcDbEntity
  8
0
100
AcDbSpline
 62
6
  6
CONTINUOUS
 70
0
 71
3
 72
39
 73
35
 74
33
 42
0.0000001
 43
0.0000001
 44
0.0000000001
 12
-1.1583219281
 22
0.0001811058
 32
0.0
 13
0.7981560914
 23
0.8394382501
 33
0.0
 40
0.0
 40
0.0
 40
0.0
 40
0.0
 40
0.0312165191
 40
0.0624762329
 40
0.0937485605
 40
0.1250095
 40
0.1562597004
 40
0.187505588
 40
0.2187532162
 40
0.2500035902
 40
0.2812539799
 40
0.3125026316
 40
0.3437506879
 40
0.374998949
 40
0.4062485408
 40
0.4375003171
 40
0.4687529643
 40
0.5000055179
 40
0.5312584762
 40
0.5625110102
 40
0.5937621303
 40
0.6250125188
 40
0.6562620473
 40
0.687510125
 40
0.7187577551
 40
0.7500054549
 40
0.7812532256
 40
0.8125021493
 40
0.843752004
 40
0.8750018816
 40
0.9062522342
 40
0.9375026786
 40
0.9687518438
 40
1.0
 40
1.0
 40
1.0
 40
1.0
 10
11.5942043225
 20
7.8044748213
 30
0.0
 10
11.5821513963
 20
7.8044767058
 30
0.0
 10
11.5580199023
 20
7.805365832
 30
0.0
 10
11.522009689
 20
7.8093242149
 30
0.0
 10
11.4863620829
 20
7.8158872468
 30
0.0
 10
11.4512941835
 20
7.8250402104
 30
0.0
 10
11.4169960956
 20
7.8367198711
 30
0.0
 10
11.3836423339
 20
7.8508598774
 30
0.0
 10
11.3514100795
 20
7.8673978662
 30
0.0
 10
11.3204646293
 20
7.8862366734
 30
0.0
 10
11.2909672006
 20
7.9072716321
 30
0.0
 10
11.263085002
 20
7.9304038771
 30
0.0
 10
11.2369623038
 20
7.9555043929
 30
0.0
 10
11.2127302689
 20
7.9824353598
 30
0.0
 10
11.1905274655
 20
8.0110644071
 30
0.0
 10
11.1704671843
 20
8.0412350547
 30
0.0
 10
11.1526477352
 20
8.0727824934
 30
0.0
 10
11.1371764867
 20
8.1055463205
 30
0.0
 10
11.1241350104
 20
8.1393504736
 30
0.0
 10
11.1135800021
 20
8.174010959
 30
0.0
 10
11.1055777736
 20
8.2093475546
 30
0.0
 10
11.1001748181
 20
8.2451723554
 30
0.0
 10
11.0973846604
 20
8.2812933661
 30
0.0
 10
11.0972302938
 20
8.3175209456
 30
0.0
 10
11.0997190831
 20
8.3536623582
 30
0.0
 10
11.1048227751
 20
8.3895277529
 30
0.0
 10
11.1125220051
 20
8.4249277318
 30
0.0
 10
11.1227832953
 20
8.4596723739
 30
0.0
 10
11.1355375912
 20
8.4935818808
 30
0.0
 10
11.1507237239
 20
8.5264753312
 30
0.0
 10
11.1682700118
 20
8.5581726864
 30
0.0
 10
11.1880691333
 20
8.588513838
 30
0.0
 10
11.2100177131
 20
8.6173352441
 30
0.0
 10
11.2260163365
 20
8.6354336978
 30
0.0
 10
11.2343299719
 20
8.6441773303
 30
0.0
 11
11.5942043225
 21
7.8044748213
 31
0.0
 11
11.5580699016
 21
7.8058018211
 31
0.0
 11
11.5220777904
 21
7.8097573264
 31
0.0
 11
11.4864538217
 21
7.8163200429
 31
0.0
 11
11.4514168786
 21
7.8254629932
 31
0.0
 11
11.4171511163
 21
7.8371308008
 31
0.0
 11
11.3838298638
 21
7.8512592366
 31
0.0
 11
11.3516257269
 21
7.8677806799
 31
0.0
 11
11.320706032
 21
7.8866026678
 31
0.0
 11
11.2912357564
 21
7.9076216814
 31
0.0
 11
11.2633779753
 21
7.9307321633
 31
0.0
 11
11.2372775082
 21
7.9558093646
 31
0.0
 11
11.2130689536
 21
7.9827177922
 31
0.0
 11
11.1908852105
 21
8.0113204269
 31
0.0
 11
11.1708409365
 21
8.0414640736
 31
0.0
 11
11.1530391213
 21
8.0729851898
 31
0.0
 11
11.1375815081
 21
8.1057195715
 31
0.0
 11
11.1245493423
 21
8.1394934392
 31
0.0
 11
11.1140052838
 21
8.1741243319
 31
0.0
 11
11.1060108963
 21
8.2094293897
 31
0.0
 11
11.1006102263
 21
8.2452222485
 31
0.0
 11
11.0978239279
 21
8.2813118647
 31
0.0
 11
11.0976708255
 21
8.317506875
 31
0.0
 11
11.1001548982
 21
8.3536163482
 31
0.0
 11
11.1052553427
 21
8.3894500752
 31
0.0
 11
11.1129488683
 21
8.4248179437
 31
0.0
 11
11.1231986414
 21
8.4595327144
 31
0.0
 11
11.1359428594
 21
8.4934124446
 31
0.0
 11
11.1511169829
 21
8.5262757845
 31
0.0
 11
11.168645493
 21
8.5579466593
 31
0.0
 11
11.1884277448
 21
8.5882610647
 31
0.0
 11
11.2103595892
 21
8.6170566824
 31
0.0
 11
11.2343299719
 21
8.6441773303
 31
0.0
  0
LINE
  5
2E7
100
AcDbEntity
  8
0
100
AcDbLine
 62
6
  6
CONTINUOUS
 10
11.5942051012
 20
8.7989140145
 11
11.5946324328
 21
8.7989145033
  0
SPLINE
  5
2E8
100
AcDbEntity
  8
0
100
AcDbSpline
 62
6
  6
CONTINUOUS
 70
0
 71
3
 72
38
 73
34
 74
32
 42
0.0000001
 43
0.0000001
 44
0.0000000001
 12
0.7378505848
 22
-0.8229697164
 32
0.0
 13
-1.1053051135
 23
-0.0018016092
 33
0.0
 40
0.0
 40
0.0
 40
0.0
 40
0.0
 40
0.0312501517
 40
0.0625020533
 40
0.0937555606
 40
0.1250093561
 40
0.156263404
 40
0.1875178001
 40
0.218771275
 40
0.2500234641
 40
0.2812751661
 40
0.3125259869
 40
0.3437760273
 40
0.3750262236
 40
0.4062761016
 40
0.4375254895
 40
0.468775375
 40
0.5000255354
 40
0.5312758853
 40
0.5625271426
 40
0.5937783414
 40
0.6250283693
 40
0.6562781136
 40
0.6875283178
 40
0.7187795048
 40
0.7500324487
 40
0.7812850446
 40
0.8125342531
 40
0.8437808413
 40
0.8750310417
 40
0.9062914603
 40
0.9375630078
 40
1.0
 40
1.0
 40
1.0
 40
1.0
 10
11.9524864724
 20
8.6214635519
 30
0.0
 10
11.9601724533
 20
8.6128909091
 30
0.0
 10
11.9749338959
 20
8.5951856747
 30
0.0
 10
11.9950995108
 20
8.5671050418
 30
0.0
 10
12.0132016775
 20
8.5376485484
 30
0.0
 10
12.029144369
 20
8.5069687553
 30
0.0
 10
12.0428319878
 20
8.4752181483
 30
0.0
 10
12.0542058079
 20
8.4425677024
 30
0.0
 10
12.0632102818
 20
8.4091864639
 30
0.0
 10
12.0697845101
 20
8.3752437699
 30
0.0
 10
12.0739036716
 20
8.3409178767
 30
0.0
 10
12.0755533084
 20
8.3063857119
 30
0.0
 10
12.0747112105
 20
8.2718248002
 30
0.0
 10
12.0713878282
 20
8.2374144288
 30
0.0
 10
12.0656089731
 20
8.2033305045
 30
0.0
 10
12.0573916556
 20
8.1697508619
 30
0.0
 10
12.0467816941
 20
8.1368490182
 30
0.0
 10
12.033843169
 20
8.1047908664
 30
0.0
 10
12.0186313084
 20
8.0737460133
 30
0.0
 10
12.0012260365
 20
8.0438755183
 30
0.0
 10
11.9817276862
 20
8.0153274292
 30
0.0
 10
11.9602283321
 20
7.9882545749
 30
0.0
 10
11.9368370009
 20
7.9627993874
 30
0.0
 10
11.9116830682
 20
7.9390839138
 30
0.0
 10
11.8848890161
 20
7.9172360964
 30
0.0
 10
11.8565910295
 20
7.8973736195
 30
0.0
 10
11.8269453429
 20
7.879587031
 30
0.0
 10
11.7961026311
 20
7.8639724782
 30
0.0
 10
11.7642164982
 20
7.8506191061
 30
0.0
 10
11.7314526398
 20
7.8395837825
 30
0.0
 10
11.6979684321
 20
7.8309263841
 30
0.0
 10
11.6526508255
 20
7.8226378685
 30
0.0
 10
11.6180631672
 20
7.8200821683
 30
0.0
 10
11.5950591916
 20
7.8200446726
 30
0.0
 11
11.9524864724
 21
8.6214635519
 31
0.0
 11
11.9746039873
 21
8.5949325115
 31
0.0
 11
11.9947551484
 21
8.566876409
 31
0.0
 11
12.0128416451
 21
8.5374448707
 31
0.0
 11
12.0287684604
 21
8.5067904197
 31
0.0
 11
12.0424463129
 21
8.4750682754
 31
0.0
 11
12.0538110472
 21
8.4424454691
 31
0.0
 11
12.0628053859
 21
8.4090922653
 31
0.0
 11
12.0693753862
 21
8.3751795651
 31
0.0
 11
12.0734921217
 21
8.3408830429
 31
0.0
 11
12.075138026
 21
8.3063805407
 31
0.0
 11
12.0742976641
 21
8.2718498897
 31
0.0
 11
12.0709785606
 21
8.2374686808
 31
0.0
 11
12.065202524
 21
8.2034143555
 31
0.0
 11
12.0569929379
 21
8.169864021
 31
0.0
 11
12.0463936542
 21
8.1369897846
 31
0.0
 11
12.0334643438
 21
8.1049598897
 31
0.0
 11
12.0182659273
 21
8.0739420909
 31
0.0
 11
12.0008771641
 21
8.0440958868
 31
0.0
 11
11.981393874
 21
8.0155728799
 31
0.0
 11
11.9599128978
 21
7.9885240578
 31
0.0
 11
11.9365434051
 21
7.963089509
 31
0.0
 11
11.9114101369
 21
7.939395556
 31
0.0
 11
11.8846389918
 21
7.9175674683
 31
0.0
 11
11.8563661973
 21
7.8977194743
 31
0.0
 11
11.8267444018
 21
7.8799482492
 31
0.0
 11
11.7959277239
 21
7.8643488611
 31
0.0
 11
11.7640721102
 21
7.8510061339
 31
0.0
 11
11.7313376654
 21
7.8399815973
 31
0.0
 11
11.6978850713
 21
7.8313335576
 31
0.0
 11
11.663884888
 21
7.8251124343
 31
0.0
 11
11.5950591916
 21
7.8200446726
 31
0.0
  0
LINE
  5
2E9
100
AcDbEntity
  8
0
100
AcDbLine
 62
6
  6
CONTINUOUS
 10
11.5950591916
 20
7.8200446726
 11
11.5946324328
 21
7.8200441678
  0
LINE
  5
2EA
100
AcDbEntity
  8
0
100
AcDbLine
 62
6
  6
CONTINUOUS
 10
12.0645388018
 20
8.2114975325
 11
12.0643186055
 21
8.2103457884
  0
SPLINE
  5
2EB
100
AcDbEntity
  8
0
100
AcDbSpline
 62
6
  6
CONTINUOUS
 70
0
 71
3
 72
38
 73
34
 74
32
 42
0.0000001
 43
0.0000001
 44
0.0000000001
 12
1.0952675236
 22
0.0008134174
 32
0.0
 13
-0.7307663223
 23
0.8158383371
 33
0.0
 40
0.0
 40
0.0
 40
0.0
 40
0.0
 40
0.0624359931
 40
0.0937100661
 40
0.124972833
 40
0.1562235045
 40
0.1874691578
 40
0.2187165688
 40
0.249967874
 40
0.2812205299
 40
0.3124724336
 40
0.3437239554
 40
0.3749751566
 40
0.4062258776
 40
0.4374771449
 40
0.468728724
 40
0.4999798048
 40
0.5312310465
 40
0.5624826084
 40
0.5937337105
 40
0.6249848258
 40
0.6562363794
 40
0.6874875691
 40
0.7187385849
 40
0.7499901016
 40
0.7812413856
 40
0.8124923473
 40
0.8437438263
 40
0.8749952156
 40
0.9062461637
 40
0.9374975766
 40
0.9687490429
 40
1.0
 40
1.0
 40
1.0
 40
1.0
 10
11.5946324328
 20
7.8244925167
 30
0.0
 10
11.617427138
 20
7.8245094456
 30
0.0
 10
11.6517033444
 20
7.8270138281
 30
0.0
 10
11.6966177879
 20
7.8351884102
 30
0.0
 10
11.7298072955
 20
7.8437386995
 30
0.0
 10
11.7622829694
 20
7.8546481756
 30
0.0
 10
11.7938893219
 20
7.8678545575
 30
0.0
 10
11.8244634043
 20
7.883301374
 30
0.0
 10
11.8538520203
 20
7.9009037961
 30
0.0
 10
11.8819076036
 20
7.9205643909
 30
0.0
 10
11.908476525
 20
7.9421924643
 30
0.0
 10
11.9334196309
 20
7.9656758155
 30
0.0
 10
11.9566171974
 20
7.9908842316
 30
0.0
 10
11.9779435852
 20
8.0176945352
 30
0.0
 10
11.9972839847
 20
8.0459708967
 30
0.0
 10
12.0145500391
 20
8.0755594637
 30
0.0
 10
12.0296478541
 20
8.1063113822
 30
0.0
 10
12.0424895313
 20
8.1380715608
 30
0.0
 10
12.0530222723
 20
8.1706700185
 30
0.0
 10
12.0611900877
 20
8.2039402164
 30
0.0
 10
12.0669373302
 20
8.2377128135
 30
0.0
 10
12.0702475293
 20
8.2718103209
 30
0.0
 10
12.071105365
 20
8.3060576525
 30
0.0
 10
12.069491419
 20
8.3402777713
 30
0.0
 10
12.0654244228
 20
8.3742933358
 30
0.0
 10
12.0589307187
 20
8.4079302717
 30
0.0
 10
12.0500296709
 20
8.4410119161
 30
0.0
 10
12.0387730839
 20
8.4733676326
 30
0.0
 10
12.0252274204
 20
8.5048338942
 30
0.0
 10
12.0094510767
 20
8.5352431939
 30
0.0
 10
11.9915260447
 20
8.5644378622
 30
0.0
 10
11.9715563839
 20
8.5922716251
 30
0.0
 10
11.9569401937
 20
8.6098255887
 30
0.0
 10
11.9493278114
 20
8.6183241649
 30
0.0
 11
11.5946324328
 21
7.8244925167
 31
0.0
 11
11.6628362037
 21
7.8294559296
 31
0.0
 11
11.6965356156
 21
7.8355919659
 31
0.0
 11
11.7296942204
 21
7.8441336306
 31
0.0
 11
11.7621406829
 21
7.8550319395
 31
0.0
 11
11.7937166671
 21
7.8682276607
 31
0.0
 11
11.8242642075
 21
7.8836597502
 31
0.0
 11
11.8536291995
 21
7.9012464161
 31
0.0
 11
11.881660033
 21
7.9208924647
 31
0.0
 11
11.9082057279
 21
7.9425018268
 31
0.0
 11
11.9331288404
 21
7.9659634609
 31
0.0
 11
11.9563054598
 21
7.9911513565
 31
0.0
 11
11.9776124564
 21
8.0179386981
 31
0.0
 11
11.996938186
 21
8.0461894841
 31
0.0
 11
12.0141887523
 21
8.0757535175
 31
0.0
 11
12.0292718093
 21
8.1064793721
 31
0.0
 11
12.042104667
 21
8.1382111633
 31
0.0
 11
12.0526281654
 21
8.1707821443
 31
0.0
 11
12.0607866599
 21
8.204023945
 31
0.0
 11
12.0665311336
 21
8.2377668014
 31
0.0
 11
12.0698388092
 21
8.2718354303
 31
0.0
 11
12.0706934026
 21
8.3060531828
 31
0.0
 11
12.0690825929
 21
8.3402434909
 31
0.0
 11
12.0650199561
 21
8.3742303179
 31
0.0
 11
12.0585294694
 21
8.4078378404
 31
0.0
 11
12.049637139
 21
8.4408907417
 31
0.0
 11
12.038391557
 21
8.4732194207
 31
0.0
 11
12.0248555708
 21
8.5046578836
 31
0.0
 11
12.0090930487
 21
8.5350406041
 31
0.0
 11
11.9911852826
 21
8.5642110267
 31
0.0
 11
11.9712304922
 21
8.5920213126
 31
0.0
 11
11.9493278114
 21
8.6183241649
 31
0.0
  0
LINE
  5
2EC
100
AcDbEntity
  8
0
100
AcDbLine
 62
6
  6
CONTINUOUS
 10
11.5946324328
 20
7.8111474658
 11
11.594203555
 21
7.8111473452
  0
LINE
  5
2ED
100
AcDbEntity
  8
0
100
AcDbLine
 62
6
  6
CONTINUOUS
 10
11.5941994753
 20
8.7922414733
 11
11.5946324328
 21
8.7922419778
  0
LINE
  5
2EE
100
AcDbEntity
  8
0
100
AcDbLine
 62
6
  6
CONTINUOUS
 10
11.5940189064
 20
8.7877927903
 11
11.5946324328
 21
8.7877936259
  0
LINE
  5
2EF
100
AcDbEntity
  8
0
100
AcDbLine
 62
6
  6
CONTINUOUS
 10
11.5946324328
 20
7.815595816
 11
11.5939848651
 21
7.815595779
  0
LINE
  5
2F0
100
AcDbEntity
  8
0
100
AcDbLine
 62
6
  6
CONTINUOUS
 10
11.5946324328
 20
7.8133716422
 11
11.5942045219
 21
7.8133715209
  0
LINE
  5
2F1
100
AcDbEntity
  8
0
100
AcDbLine
 62
6
  6
CONTINUOUS
 10
11.594204879
 20
8.7900173032
 11
11.5946324328
 21
8.7900178013
  0
SPLINE
  5
2F2
100
AcDbEntity
  8
0
100
AcDbSpline
 62
6
  6
CONTINUOUS
 70
0
 71
3
 72
33
 73
29
 74
27
 42
0.0000001
 43
0.0000001
 44
0.0000000001
 12
-0.2569202019
 22
0.8587652664
 32
0.0
 13
-0.6931529644
 23
-0.5683526554
 33
0.0
 40
0.0
 40
0.0
 40
0.0
 40
0.0
 40
0.0624513532
 40
0.0937321657
 40
0.1250075309
 40
0.1562693885
 40
0.1875242969
 40
0.2187778978
 40
0.2500348454
 40
0.2812959992
 40
0.3125592491
 40
0.3438217534
 40
0.3750826675
 40
0.4063431866
 40
0.4376030615
 40
0.4688616135
 40
0.5001199994
 40
0.5626100938
 40
0.6251041498
 40
0.6875989298
 40
0.750084542
 40
0.7813362972
 40
0.8125820904
 40
0.8438239117
 40
0.8750669657
 40
0.9063157138
 40
0.9375695024
 40
1.0
 40
1.0
 40
1.0
 40
1.0
 10
12.0076501851
 20
8.444866691
 30
0.0
 10
12.0023018471
 20
8.4627437086
 30
0.0
 10
11.9925268044
 20
8.4890962389
 30
0.0
 10
11.976263374
 20
8.5227390917
 30
0.0
 10
11.9624722614
 20
8.5471677977
 30
0.0
 10
11.9471595797
 20
8.5706605707
 30
0.0
 10
11.9303978013
 20
8.593134655
 30
0.0
 10
11.912254667
 20
8.6145070815
 30
0.0
 10
11.8927985696
 20
8.6346940841
 30
0.0
 10
11.8721147623
 20
8.6536250181
 30
0.0
 10
11.8502900753
 20
8.6712310667
 30
0.0
 10
11.8274097184
 20
8.6874416043
 30
0.0
 10
11.8035624644
 20
8.7021910273
 30
0.0
 10
11.7788484351
 20
8.7154348083
 30
0.0
 10
11.7533650548
 20
8.7271277041
 30
0.0
 10
11.7272069667
 20
8.7372226288
 30
0.0
 10
11.6915799408
 20
8.7485029932
 30
0.0
 10
11.645844413
 20
8.7584821654
 30
0.0
 10
11.5899295439
 20
8.7636518747
 30
0.0
 10
11.5338022515
 20
8.7620257362
 30
0.0
 10
11.4875260307
 20
8.7550142844
 30
0.0
 10
11.4512375404
 20
8.746122273
 30
0.0
 10
11.4244659154
 20
8.7378309365
 30
0.0
 10
11.3982428676
 20
8.7279511316
 30
0.0
 10
11.372654574
 20
8.716526225
 30
0.0
 10
11.3477873772
 20
8.703595081
 30
0.0
 10
11.3157399338
 20
8.6844247421
 30
0.0
 10
11.2930129273
 20
8.6679364948
 30
0.0
 10
11.2785882992
 20
8.6561089818
 30
0.0
 11
12.0076501851
 21
8.444866691
 31
0.0
 11
11.9882020659
 21
8.497359576
 31
0.0
 11
11.9759983363
 21
8.5226038063
 31
0.0
 11
11.9622158993
 21
8.5470163607
 31
0.0
 11
11.9469162706
 21
8.5704933923
 31
0.0
 11
11.9301671923
 21
8.5929515524
 31
0.0
 11
11.9120367259
 21
8.6143085444
 31
0.0
 11
11.8925951943
 21
8.6344835253
 31
0.0
 11
11.8719252956
 21
8.6534036093
 31
0.0
 11
11.8501139396
 21
8.6709986186
 31
0.0
 11
11.8272480597
 21
8.6871984232
 31
0.0
 11
11.8034177868
 21
8.7019402126
 31
0.0
 11
11.7787199316
 21
8.7151764641
 31
0.0
 11
11.7532521416
 21
8.7268615712
 31
0.0
 11
11.7271122013
 21
8.7369505313
 31
0.0
 11
11.7004005096
 21
8.7454098918
 31
0.0
 11
11.6456729558
 21
8.7573479133
 31
0.0
 11
11.5898941319
 21
8.7625191939
 31
0.0
 11
11.5338990277
 21
8.7608942776
 31
0.0
 11
11.4785183736
 21
8.7525184456
 31
0.0
 11
11.4513100496
 21
8.7458514129
 31
0.0
 11
11.4245558087
 21
8.7375656764
 31
0.0
 11
11.3983491313
 21
8.727693824
 31
0.0
 11
11.3727768236
 21
8.7162761894
 31
0.0
 11
11.3479253478
 21
8.7033535208
 31
0.0
 11
11.3238824832
 21
8.6889734998
 31
0.0
 11
11.2785882992
 21
8.6561089818
 31
0.0
  0
LINE
  5
2F3
100
AcDbEntity
  8
0
100
AcDbLine
 62
6
  6
CONTINUOUS
 10
11.5946324328
 20
7.8178199912
 11
11.5942112707
 21
7.8178198678
  0
LINE
  5
2F4
100
AcDbEntity
  8
0
100
AcDbLine
 62
6
  6
CONTINUOUS
 10
11.5941981343
 20
8.7855689385
 11
11.5946324328
 21
8.7855694522
  0
SPLINE
  5
2F5
100
AcDbEntity
  8
0
100
AcDbSpline
 62
6
  6
CONTINUOUS
 70
0
 71
3
 72
39
 73
35
 74
33
 42
0.0000001
 43
0.0000001
 44
0.0000000001
 12
-0.82786705
 22
0.7862828556
 32
0.0
 13
1.1417547339
 23
0.0008420472
 33
0.0
 40
0.0
 40
0.0
 40
0.0
 40
0.0
 40
0.0312484632
 40
0.0625183379
 40
0.093781355
 40
0.1250329612
 40
0.1562799095
 40
0.1875286764
 40
0.2187810096
 40
0.2500338583
 40
0.2812848619
 40
0.3125344854
 40
0.3437827404
 40
0.3750299129
 40
0.4062772883
 40
0.4375248813
 40
0.4687732168
 40
0.50002296
 40
0.5312730505
 40
0.5625231455
 40
0.5937735537
 40
0.6250230119
 40
0.6562710271
 40
0.6875188773
 40
0.7187670398
 40
0.7500165
 40
0.7812664625
 40
0.8125136334
 40
0.8437566161
 40
0.8750014999
 40
0.906256091
 40
0.9375240875
 40
0.9687828635
 40
1.0
 40
1.0
 40
1.0
 40
1.0
 10
11.2644751936
 20
7.9539095703
 30
0.0
 10
11.2558520026
 20
7.9620996139
 30
0.0
 10
11.2392032811
 20
7.9791343297
 30
0.0
 10
11.2161947478
 20
8.0064610179
 30
0.0
 10
11.1952874678
 20
8.0354313848
 30
0.0
 10
11.1766029499
 20
8.0658714324
 30
0.0
 10
11.1602324165
 20
8.0976100813
 30
0.0
 10
11.1462746974
 20
8.1304817496
 30
0.0
 10
11.1347994706
 20
8.1643021106
 30
0.0
 10
11.1258623823
 20
8.1988810016
 30
0.0
 10
11.1195294962
 20
8.2340294183
 30
0.0
 10
11.1158311648
 20
8.2695496458
 30
0.0
 10
11.1147769738
 20
8.3052449756
 30
0.0
 10
11.1163867687
 20
8.3409189196
 30
0.0
 10
11.1206452034
 20
8.3763737248
 30
0.0
 10
11.1275208362
 20
8.4114158131
 30
0.0
 10
11.1369909588
 20
8.4458485875
 30
0.0
 10
11.1489944265
 20
8.4794827331
 30
0.0
 10
11.1634587652
 20
8.5121352421
 30
0.0
 10
11.1803185906
 20
8.5436182438
 30
0.0
 10
11.199471083
 20
8.5737607157
 30
0.0
 10
11.2208046219
 20
8.6024003023
 30
0.0
 10
11.2442134123
 20
8.6293690993
 30
0.0
 10
11.2695606206
 20
8.6545235137
 30
0.0
 10
11.2967038511
 20
8.6777297381
 30
0.0
 10
11.3255032012
 20
8.6988471588
 30
0.0
 10
11.3557899257
 20
8.7177681691
 30
0.0
 10
11.3873930714
 20
8.7343926556
 30
0.0
 10
11.4201452348
 20
8.7486158303
 30
0.0
 10
11.4538656675
 20
8.7603682404
 30
0.0
 10
11.488374985
 20
8.7695872021
 30
0.0
 10
11.5234818353
 20
8.7762054563
 30
0.0
 10
11.5589656047
 20
8.7802047616
 30
0.0
 10
11.5827516617
 20
8.781112338
 30
0.0
 10
11.5946324328
 20
8.7811211001
 30
0.0
 11
11.2644751936
 21
7.9539095703
 31
0.0
 11
11.2395363409
 21
7.9794238754
 31
0.0
 11
11.216543535
 21
8.0067369133
 31
0.0
 11
11.1956547083
 21
8.0356811539
 31
0.0
 11
11.176987272
 21
8.0660901828
 31
0.0
 11
11.1606348484
 21
8.0977982411
 31
0.0
 11
11.1466890661
 21
8.1306382479
 31
0.0
 11
11.1352226026
 21
8.1644282119
 31
0.0
 11
11.1262962334
 21
8.1989767776
 31
0.0
 11
11.1199684727
 21
8.2340921953
 31
0.0
 11
11.1162718033
 21
8.2695795918
 31
0.0
 11
11.1152209721
 21
8.3052419659
 31
0.0
 11
11.1168282027
 21
8.3408823616
 31
0.0
 11
11.1210813774
 21
8.3763047841
 31
0.0
 11
11.1279531493
 21
8.4113138401
 31
0.0
 11
11.137412975
 21
8.4457148203
 31
0.0
 11
11.1494044843
 21
8.4793188993
 31
0.0
 11
11.1638579938
 21
8.5119402847
 31
0.0
 11
11.1807006638
 21
8.5433947527
 31
0.0
 11
11.1998348742
 21
8.573510639
 31
0.0
 11
11.2211509418
 21
8.602122393
 31
0.0
 11
11.244536578
 21
8.6290668109
 31
0.0
 11
11.2698598004
 21
8.6541986752
 31
0.0
 11
11.2969793785
 21
8.6773812145
 31
0.0
 11
11.3257509961
 21
8.6984810104
 31
0.0
 11
11.3560106126
 21
8.7173861395
 31
0.0
 11
11.3875862978
 21
8.7339932754
 31
0.0
 11
11.4203054886
 21
8.748203632
 31
0.0
 11
11.4539920911
 21
8.7599444729
 31
0.0
 11
11.4884687484
 21
8.7691523796
 31
0.0
 11
11.5235504951
 21
8.7757697122
 31
0.0
 11
11.5590158597
 21
8.7797665088
 31
0.0
 11
11.5946324328
 21
8.7811211001
 31
0.0
  0
LINE
  5
2F6
100
AcDbEntity
  8
0
100
AcDbLine
 62
6
  6
CONTINUOUS
 10
11.5946324328
 20
7.8200441678
 11
11.5942035199
 21
7.820044045
  0
SPLINE
  5
2F7
100
AcDbEntity
  8
0
100
AcDbSpline
 62
6
  6
CONTINUOUS
 70
0
 71
3
 72
39
 73
35
 74
33
 42
0.0000001
 43
0.0000001
 44
0.0000000001
 12
-0.8315006755
 22
0.7895276031
 32
0.0
 13
1.1466227291
 23
0.0018778555
 33
0.0
 40
0.0
 40
0.0
 40
0.0
 40
0.0
 40
0.031248512
 40
0.0624962997
 40
0.0937446795
 40
0.1249940977
 40
0.1562439182
 40
0.1874947227
 40
0.2187462507
 40
0.2499970354
 40
0.2812471318
 40
0.3124970327
 40
0.3437462183
 40
0.3749953838
 40
0.4062449223
 40
0.43749412
 40
0.4687435077
 40
0.4999932395
 40
0.5312423595
 40
0.5624912533
 40
0.5937401722
 40
0.6249882918
 40
0.6562362557
 40
0.6874850856
 40
0.7187350587
 40
0.7499871529
 40
0.7812397982
 40
0.812489842
 40
0.8437372616
 40
0.874988061
 40
0.9062487878
 40
0.9375213113
 40
0.9687822328
 40
1.0
 40
1.0
 40
1.0
 40
1.0
 10
11.2629460507
 20
7.9522930464
 30
0.0
 10
11.2542849978
 20
7.9605169007
 30
0.0
 10
11.2375678315
 20
7.9776150775
 30
0.0
 10
11.2144714705
 20
8.0050488657
 30
0.0
 10
11.1934852146
 20
8.0341314871
 30
0.0
 10
11.1747147892
 20
8.0646910552
 30
0.0
 10
11.1582653999
 20
8.0965617136
 30
0.0
 10
11.1442406601
 20
8.1295719845
 30
0.0
 10
11.1327034923
 20
8.1635317734
 30
0.0
 10
11.12371953
 20
8.1982545448
 30
0.0
 10
11.117352288
 20
8.233550332
 30
0.0
 10
11.1136213777
 20
8.2692202876
 30
0.0
 10
11.1125487517
 20
8.3050688096
 30
0.0
 10
11.1141537725
 20
8.3408972524
 30
0.0
 10
11.1184118444
 20
8.3765076196
 30
0.0
 10
11.1253014964
 20
8.4117041498
 30
0.0
 10
11.1347976214
 20
8.4462886531
 30
0.0
 10
11.1468321931
 20
8.480073368
 30
0.0
 10
11.1613410697
 20
8.5128719146
 30
0.0
 10
11.1782557697
 20
8.5444965597
 30
0.0
 10
11.1974682231
 20
8.5747794829
 30
0.0
 10
11.2188748414
 20
8.6035532889
 30
0.0
 10
11.242367016
 20
8.6306509941
 30
0.0
 10
11.2678036969
 20
8.6559328672
 30
0.0
 10
11.2950486285
 20
8.6792578216
 30
0.0
 10
11.3239583451
 20
8.7004866854
 30
0.0
 10
11.3543610201
 20
8.7195153358
 30
0.0
 10
11.3860895008
 20
8.7362370332
 30
0.0
 10
11.4189752654
 20
8.7505474096
 30
0.0
 10
11.4528355815
 20
8.7623801942
 30
0.0
 10
11.4874906091
 20
8.7716685689
 30
0.0
 10
11.5227464927
 20
8.7783449157
 30
0.0
 10
11.5583808333
 20
8.7823925125
 30
0.0
 10
11.5822685601
 20
8.7833252224
 30
0.0
 10
11.5942002272
 20
8.7833447633
 30
0.0
 11
11.2629460507
 21
7.9522930464
 31
0.0
 11
11.2378975529
 21
7.9779130252
 31
0.0
 11
11.2148233261
 21
8.0053234446
 31
0.0
 11
11.1938548121
 21
8.0343772071
 31
0.0
 11
11.1751017801
 21
8.0649093018
 31
0.0
 11
11.1586697245
 21
8.0967511865
 31
0.0
 11
11.1446553798
 21
8.1297299232
 31
0.0
 11
11.1331289355
 21
8.1636592536
 31
0.0
 11
11.1241555702
 21
8.1983504055
 31
0.0
 11
11.1177916518
 21
8.2336128683
 31
0.0
 11
11.1140644023
 21
8.2692503807
 31
0.0
 11
11.1129950238
 21
8.3050654938
 31
0.0
 11
11.1145959367
 21
8.3408607635
 31
0.0
 11
11.1188504596
 21
8.3764387614
 31
0.0
 11
11.1257358876
 21
8.4116020629
 31
0.0
 11
11.1352206596
 21
8.4461552337
 31
0.0
 11
11.1472446767
 21
8.4799092526
 31
0.0
 11
11.1617420995
 21
8.5126763893
 31
0.0
 11
11.1786387571
 21
8.5442729855
 31
0.0
 11
11.1978341244
 21
8.5745282637
 31
0.0
 11
11.2192224719
 21
8.603273992
 31
0.0
 11
11.2426907915
 21
8.6303480293
 31
0.0
 11
11.2681045554
 21
8.6556062415
 31
0.0
 11
11.2953252679
 21
8.678907817
 31
0.0
 11
11.3242069997
 21
8.7001198531
 31
0.0
 11
11.3545831117
 21
8.7191314817
 31
0.0
 11
11.3862833856
 21
8.7358356444
 31
0.0
 11
11.4191358429
 21
8.7501337858
 31
0.0
 11
11.4529628722
 21
8.7619545557
 31
0.0
 11
11.4875857377
 21
8.7712320333
 31
0.0
 11
11.52281668
 21
8.7779077352
 31
0.0
 11
11.5584322611
 21
8.7819525827
 31
0.0
 11
11.5942002272
 21
8.7833447633
 31
0.0
  0
LINE
  5
2F8
100
AcDbEntity
  8
0
100
AcDbLine
 62
6
  6
CONTINUOUS
 10
11.5942002272
 20
8.7833447633
 11
11.5946324328
 21
8.7833452758
  0
SPLINE
  5
2F9
100
AcDbEntity
  8
0
100
AcDbSpline
 62
6
  6
CONTINUOUS
 70
0
 71
3
 72
38
 73
34
 74
32
 42
0.0000001
 43
0.0000001
 44
0.0000000001
 12
-0.7727456865
 22
0.7733216214
 32
0.0
 13
1.090919953
 23
0.0711047273
 33
0.0
 40
0.0
 40
0.0
 40
0.0
 40
0.0
 40
0.0312486557
 40
0.0624981713
 40
0.0937495081
 40
0.1250017473
 40
0.156253954
 40
0.1875066132
 40
0.2187590262
 40
0.250009906
 40
0.281259699
 40
0.3125090382
 40
0.3437577673
 40
0.3750068797
 40
0.4062569787
 40
0.4375075958
 40
0.4687592808
 40
0.5000122523
 40
0.5312652338
 40
0.5625177687
 40
0.5937702855
 40
0.6250217079
 40
0.6562712313
 40
0.6875199202
 40
0.7187682139
 40
0.7500165308
 40
0.7812655704
 40
0.8125136274
 40
0.8437585422
 40
0.8750025558
 40
0.9062519881
 40
0.9375134382
 40
1.0
 40
1.0
 40
1.0
 40
1.0
 10
11.2570176082
 20
7.9642841457
 30
0.0
 10
11.2489685203
 20
7.9723392328
 30
0.0
 10
11.2334398952
 20
7.9890310016
 30
0.0
 10
11.2120069953
 20
8.0156708663
 30
0.0
 10
11.1925364561
 20
8.043780343
 30
0.0
 10
11.1751207746
 20
8.0732077507
 30
0.0
 10
11.1598580411
 20
8.1038082495
 30
0.0
 10
11.1468308106
 20
8.1354250122
 30
0.0
 10
11.1360927953
 20
8.1678900526
 30
0.0
 10
11.1277046779
 20
8.2010393476
 30
0.0
 10
11.121718745
 20
8.2347041728
 30
0.0
 10
11.1181511464
 20
8.268709352
 30
0.0
 10
11.1170227238
 20
8.3028826258
 30
0.0
 10
11.1183508779
 20
8.3370489515
 30
0.0
 10
11.1221150196
 20
8.3710336348
 30
0.0
 10
11.1282963661
 20
8.4046640494
 30
0.0
 10
11.1368770902
 20
8.4377647889
 30
0.0
 10
11.1478007971
 20
8.4701684072
 30
0.0
 10
11.1610083967
 20
8.5017107567
 30
0.0
 10
11.1764457222
 20
8.5322238414
 30
0.0
 10
11.1940258401
 20
8.5615536134
 30
0.0
 10
11.2136515015
 20
8.5895547028
 30
0.0
 10
11.2352322454
 20
8.6160767723
 30
0.0
 10
11.2586558536
 20
8.6409843245
 30
0.0
 10
11.2837952602
 20
8.6641582707
 30
0.0
 10
11.3105299215
 20
8.6854727491
 30
0.0
 10
11.3387225717
 20
8.7048170105
 30
0.0
 10
11.3682204462
 20
8.7221029831
 30
0.0
 10
11.3988772159
 20
8.7372358253
 30
0.0
 10
11.4305388506
 20
8.7501334227
 30
0.0
 10
11.4630488326
 20
8.7607416953
 30
0.0
 10
11.5072778447
 20
8.7717438846
 30
0.0
 10
11.5412762769
 20
8.7764056698
 30
0.0
 10
11.5639988893
 20
8.7778866998
 30
0.0
 11
11.2570176082
 21
7.9642841457
 31
0.0
 11
11.2337501924
 21
7.9892976932
 31
0.0
 11
11.212334583
 21
8.0159150954
 31
0.0
 11
11.1928792015
 21
8.0439995858
 31
0.0
 11
11.1754796329
 21
8.0734032062
 31
0.0
 11
11.160230698
 21
8.1039774672
 31
0.0
 11
11.1472122913
 21
8.1355665531
 31
0.0
 11
11.1364842416
 21
8.1680047992
 31
0.0
 11
11.1281049171
 21
8.2011258386
 31
0.0
 11
11.1221217583
 21
8.2347611915
 31
0.0
 11
11.1185576558
 21
8.2687376308
 31
0.0
 11
11.1174321492
 21
8.3028812819
 31
0.0
 11
11.1187568402
 21
8.3370182048
 31
0.0
 11
11.1225178366
 21
8.3709742486
 31
0.0
 11
11.1286961389
 21
8.4045752202
 31
0.0
 11
11.1372674147
 21
8.4376480143
 31
0.0
 11
11.1481814299
 21
8.4700248093
 31
0.0
 11
11.1613800975
 21
8.5015393854
 31
0.0
 11
11.1768029044
 21
8.5320267106
 31
0.0
 11
11.1943670842
 21
8.5613326522
 31
0.0
 11
11.2139779056
 21
8.5893089375
 31
0.0
 11
11.2355397124
 21
8.6158080602
 31
0.0
 11
11.2589419731
 21
8.6406955444
 31
0.0
 11
11.2840611118
 21
8.6638483419
 31
0.0
 11
11.3107727207
 21
8.6851442297
 31
0.0
 11
11.3389405904
 21
8.704474258
 31
0.0
 11
11.3684148723
 21
8.7217448164
 31
0.0
 11
11.3990449092
 21
8.736863402
 31
0.0
 11
11.4306774343
 21
8.74975087
 31
0.0
 11
11.4631553343
 21
8.7603477668
 31
0.0
 11
11.4963210986
 21
8.7685962901
 31
0.0
 11
11.5639988893
 21
8.7778866998
 31
0.0
  0
LINE
  5
2FA
100
AcDbEntity
  8
0
100
AcDbLine
 62
6
  6
CONTINUOUS
 10
11.5940191583
 20
8.7944653281
 11
11.5946324328
 21
8.7944661517
  0
LINE
  5
2FB
100
AcDbEntity
  8
0
100
AcDbLine
 62
6
  6
CONTINUOUS
 10
11.5946324328
 20
7.8089232902
 11
11.5939413475
 21
7.8089232825
  0
ENDSEC
  0
SECTION
  2
OBJECTS
  0
DICTIONARY
  5
C
100
AcDbDictionary
280
0
281
1
  3
ACAD_GROUP
350
D
  3
ACAD_MLINESTYLE
350
17
  3
ACAD_LAYOUT
350
1A
  3
ACAD_PLOTSETTINGS
350
19
  3
ACAD_PLOTSTYLENAME
350
E
  0
DICTIONARY
  5
D
102
{ACAD_REACTORS
330
C
102
}
100
AcDbDictionary
280
0
281
1
  0
ACDBDICTIONARYWDFLT
  5
E
102
{ACAD_REACTORS
330
C
102
}
100
AcDbDictionary
281
1
  3
Normal
350
F
100
AcDbDictionaryWithDefault
340
F
  0
DICTIONARY
  5
17
102
{ACAD_REACTORS
330
C
102
}
100
AcDbDictionary
280
0
281
1
  3
Standard
350
18
  0
DICTIONARY
  5
19
102
{ACAD_REACTORS
330
C
102
}
100
AcDbDictionary
281
1
  0
DICTIONARY
  5
1A
102
{ACAD_REACTORS
330
C
102
}
100
AcDbDictionary
281
1
  3
Model
350
2FC
  3
Layout1
350
2FD
  0
ACDBPLACEHOLDER
  5
F
102
{ACAD_REACTORS
330
E
102
}
  0
MLINESTYLE
  5
18
102
{ACAD_REACTORS
330
17
102
}
100
AcDbMlineStyle
  2
STANDARD
 70
0
  3

 62
256
 51
90.0
 52
90.0
 71
2
 49
0.5
 62
256
  6
BYLAYER
 49
-0.5
 62
256
  6
BYLAYER
  0
LAYOUT
  5
2FC
102
{ACAD_REACTORS
330
1A
102
}
100
AcDbPlotSettings
  1

  2
none_device
  4
ISO_A2_(594.00_x_420.00_MM)
  6

 40
0.0
 41
0.0
 42
0.0
 43
0.0
 44
594.0
 45
420.0
 46
0.0
 47
0.0
 48
0.0
 49
0.0
140
0.0
141
0.0
142
1.0
143
1.0
 70
1024
 72
0
 73
0
 74
0
  7

 75
0
147
1.0
148
0.0
149
0.0
100
AcDbLayout
  1
Model
 70
0
 71
0
 10
0.0
 20
0.0
 11
23.3858267717
 21
16.5354330709
 12
0.0
 22
0.0
 32
0.0
 14
0.0
 24
0.0
 34
0.0
 15
0.0
 25
0.0
 35
0.0
146
0.0
 13
0.0
 23
0.0
 33
0.0
 16
1.0
 26
0.0
 36
0.0
 17
0.0
 27
1.0
 37
0.0
 76
0
330
203
345
0
346
0
  0
LAYOUT
  5
2FD
102
{ACAD_REACTORS
330
1A
102
}
100
AcDbPlotSettings
  1

  2
none_device
  4
ISO_A2_(594.00_x_420.00_MM)
  6

 40
0.0
 41
0.0
 42
0.0
 43
0.0
 44
594.0
 45
420.0
 46
0.0
 47
0.0
 48
0.0
 49
0.0
140
0.0
141
0.0
142
1.0
143
1.0
 70
0
 72
0
 73
0
 74
0
  7

 75
0
147
1.0
148
0.0
149
0.0
100
AcDbLayout
  1
Layout1
 70
0
 71
1
 10
0.0
 20
0.0
 11
23.3858267717
 21
16.5354330709
 12
0.0
 22
0.0
 32
0.0
 14
0.0
 24
0.0
 34
0.0
 15
0.0
 25
0.0
 35
0.0
146
0.0
 13
0.0
 23
0.0
 33
0.0
 16
1.0
 26
0.0
 36
0.0
 17
0.0
 27
1.0
 37
0.0
 76
0
330
204
345
0
346
0
  0
ENDSEC
  0
EOF
