  0
SECTION
  2
HEADER
  9
$ACADVER
  1
AC1015
  9
$DWGCODEPAGE
  3
ANSI_1252
  9
$EXTMAX
 10
33.1102362205
 20
23.3858267717
 30
0.0
  9
$EXTMIN
 10
0.0
 20
0.0
 30
0.0
  9
$LIMMIN
 10
0.0
 20
0.0
  9
$LIMMAX
 10
33.1102362205
 20
23.3858267717
  9
$VIEWCTR
 10
16.5551181102
 20
11.6929133858
  9
$VIEWSIZE
 40
23.3858267717
  9
$CLAYER
  8
0
  9
$LTSCALE
 40
1.8210629921
  9
$CELTYPE
  6
BYLAYER
  9
$DIMSCALE
 40
1.0
  9
$DIMASZ
 40
0.1
  9
$DIMEXO
 40
0.2069389764
  9
$DIMDLI
 40
1.2581889764
  9
$DIMEXE
 40
0.595984252
  9
$DIMCEN
 40
0.297992126
  9
$DIMLFAC
 40
1.0
  9
$DIMBLK
  1
_FILLED
  9
$DIMTXT
 40
0.08
  9
$DIMTOL
 70
1
  9
$DIMLIM
 70
0
  9
$DIMTFAC
 40
1.0
  9
$DIMTP
 40
0.01
  9
$DIMTM
 40
0.01
  9
$PDMODE
 70
3
  9
$PDSIZE
 40
0.06
  9
$HANDSEED
  5
302
  9
$TILEMODE
 70
1
  9
$MEASUREMENT
 70
0
  9
$INSUNITS
 70
1
  0
ENDSEC
  0
SECTION
  2
CLASSES
  0
CLASS
  1
ACDBDICTIONARYWDFLT
  2
AcDbDictionaryWithDefault
  3
AutoCAD 2000
 90
0
280
0
281
0
  0
CLASS
  1
ACDBPLACEHOLDER
  2
AcDbPlaceHolder
  3
AutoCAD 2000
 90
0
280
0
281
0
  0
CLASS
  1
LAYOUT
  2
AcDbLayout
  3
AutoCAD 2000
 90
0
280
0
281
0
  0
ENDSEC
  0
SECTION
  2
TABLES
  0
TABLE
  2
VPORT
  5
8
100
AcDbSymbolTable
 70
2
  0
VPORT
  5
1F4
100
AcDbSymbolTableRecord
100
AcDbViewportTableRecord
  2
*ACTIVE
 70
0
 10
0.0
 20
0.0
 11
1.0
 21
1.0
 12
16.5551181102
 22
11.6929133858
 13
0.0
 23
0.0
 14
1.0
 24
1.0
 15
0.0
 25
0.0
 16
0.0
 26
0.0
 36
1.0
 17
0.0
 27
0.0
 37
0.0
 40
23.3858267717
 41
1.4158249158
 42
50.0
 43
0.0
 44
0.0
 50
0.0
 51
0.0
 71
0
 72
100
 73
1
 74
1
 75
0
 76
0
 77
0
 78
0
  0
ENDTAB
  0
TABLE
  2
LTYPE
  5
5
100
AcDbSymbolTable
 70
6
  0
LTYPE
  5
14
100
AcDbSymbolTableRecord
100
AcDbLinetypeTableRecord
  2
BYBLOCK
 70
0
  3

 72
65
 73
0
 40
0.0
  0
LTYPE
  5
15
100
AcDbSymbolTableRecord
100
AcDbLinetypeTableRecord
  2
BYLAYER
 70
0
  3

 72
65
 73
0
 40
0.0
  0
LTYPE
  5
16
100
AcDbSymbolTableRecord
100
AcDbLinetypeTableRecord
  2
CONTINUOUS
 70
64
  3
Solid line
 72
65
 73
0
 40
0.0
  0
LTYPE
  5
1F5
100
AcDbSymbolTableRecord
100
AcDbLinetypeTableRecord
  2
CENTER
 70
64
  3
____ _ ____ _ ____ _ ____ _ ____ _ ____ _ ____
 72
65
 73
4
 40
0.6
 49
0.375
 74
0
 49
-0.075
 74
0
 49
0.075
 74
0
 49
-0.075
 74
0
  0
LTYPE
  5
1F6
100
AcDbSymbolTableRecord
100
AcDbLinetypeTableRecord
  2
HIDDEN
 70
64
  3
- - - - - - - - - - - - - - - - - - - -
 72
65
 73
2
 40
0.2
 49
0.1
 74
0
 49
-0.1
 74
0
  0
LTYPE
  5
1F7
100
AcDbSymbolTableRecord
100
AcDbLinetypeTableRecord
  2
PHANTOM
 70
64
  3
_____ _ _ _____ _ _ _____ _ _ _____
 72
65
 73
6
 40
0.8
 49
0.45
 74
0
 49
-0.05
 74
0
 49
0.1
 74
0
 49
-0.05
 74
0
 49
0.1
 74
0
 49
-0.05
 74
0
  0
LTYPE
  5
1F8
100
AcDbSymbolTableRecord
100
AcDbLinetypeTableRecord
  2
DOT
 70
64
  3
. . . . . . . . . . . . . . . . . . . .
 72
65
 73
2
 40
0.2
 49
0.1
 74
0
 49
-0.1
 74
0
  0
LTYPE
  5
1F9
100
AcDbSymbolTableRecord
100
AcDbLinetypeTableRecord
  2
DASHED
 70
64
  3
- - - - - - - - - - - - - - - - - - - -
 72
65
 73
2
 40
0.2
 49
0.1
 74
0
 49
-0.1
 74
0
  0
ENDTAB
  0
TABLE
  2
LAYER
  5
2
100
AcDbSymbolTable
 70
36
  0
LAYER
  5
10
100
AcDbSymbolTableRecord
100
AcDbLayerTableRecord
  2
0
 70
0
 62
7
  6
CONTINUOUS
370
-3
390
F
  0
LAYER
  5
1FA
100
AcDbSymbolTableRecord
100
AcDbLayerTableRecord
  2
DEFAULT_1
 70
0
 62
7
  6
CENTER
370
-3
390
F
  0
LAYER
  5
1FB
100
AcDbSymbolTableRecord
100
AcDbLayerTableRecord
  2
DEFAULT_2
 70
0
 62
8
  6
HIDDEN
370
-3
390
F
  0
LAYER
  5
1FC
100
AcDbSymbolTableRecord
100
AcDbLayerTableRecord
  2
DEFAULT_3
 70
0
 62
7
  6
PHANTOM
370
-3
390
F
  0
LAYER
  5
1FD
100
AcDbSymbolTableRecord
100
AcDbLayerTableRecord
  2
DEFAULT_COORDINATE_SYSTEM
 70
0
 62
7
  6
CONTINUOUS
370
-3
390
F
  0
LAYER
  5
1FE
100
AcDbSymbolTableRecord
100
AcDbLayerTableRecord
  2
DEFAULT_DATUM_AXES
 70
0
 62
7
  6
CONTINUOUS
370
-3
390
F
  0
LAYER
  5
1FF
100
AcDbSymbolTableRecord
100
AcDbLayerTableRecord
  2
DEFAULT_DATUM_CURVES
 70
0
 62
7
  6
CONTINUOUS
370
-3
390
F
  0
LAYER
  5
200
100
AcDbSymbolTableRecord
100
AcDbLayerTableRecord
  2
DEFAULT_DATUM_PLANES
 70
0
 62
7
  6
CONTINUOUS
370
-3
390
F
  0
ENDTAB
  0
TABLE
  2
STYLE
  5
3
100
AcDbSymbolTable
 70
1
  0
STYLE
  5
11
100
AcDbSymbolTableRecord
100
AcDbTextStyleTableRecord
  2
STANDARD
 70
0
 40
0.0
 41
0.8
 50
0.0
 71
0
 42
0.2
  3
txt
  4

  0
STYLE
  5
201
100
AcDbSymbolTableRecord
100
AcDbTextStyleTableRecord
  2
TEXTSTYLE_1
 70
0
 40
0.0
 41
0.8
 50
0.0
 71
0
 42
0.2
  3
gdt
  4

  0
ENDTAB
  0
TABLE
  2
VIEW
  5
6
100
AcDbSymbolTable
 70
0
  0
ENDTAB
  0
TABLE
  2
UCS
  5
7
100
AcDbSymbolTable
 70
0
  0
ENDTAB
  0
TABLE
  2
APPID
  5
9
100
AcDbSymbolTable
 70
1
  0
APPID
  5
202
100
AcDbSymbolTableRecord
100
AcDbRegAppTableRecord
  2
ACAD
 70
0
  0
ENDTAB
  0
TABLE
  2
BLOCK_RECORD
  5
1
100
AcDbSymbolTable
 70
0
  0
BLOCK_RECORD
  5
203
100
AcDbSymbolTableRecord
100
AcDbBlockTableRecord
  2
*Model_Space
  0
BLOCK_RECORD
  5
204
100
AcDbSymbolTableRecord
100
AcDbBlockTableRecord
  2
*Paper_Space
  0
ENDTAB
  0
TABLE
  2
DIMSTYLE
  5
A
100
AcDbSymbolTable
 70
1
100
AcDbDimStyleTable
 71
0
  0
DIMSTYLE
105
205
100
AcDbSymbolTableRecord
100
AcDbDimStyleTableRecord
  2
STANDARD
 70
0
  3

  4

 40
1.0
 41
0.1
 42
0.0625
 43
0.38
 44
0.18
 45
0.0
 46
0.0
 47
0.01
 48
0.01
140
0.08
141
0.09
142
0.0
143
25.4
144
1.0
145
0.0
146
1.0
147
0.09
 71
1.0
 72
0.0
 73
1
 74
1
 75
0
 76
0
 77
0
 78
4
170
0
171
2
172
0
173
0
174
0
175
0
176
0
177
0
178
0
270
2
271
2
272
2
273
2
274
2
275
0
280
0
281
0
282
0
283
1
284
4
285
0
286
0
287
3
288
0
340
11
  0
ENDTAB
  0
ENDSEC
  0
SECTION
  2
BLOCKS
  0
BLOCK
  5
20
100
AcDbEntity
  8
0
100
AcDbBlockBegin
  2
*Model_Space
 70
0
 10
0.0
 20
0.0
 30
0.0
  3
*Model_Space
  1

  0
ENDBLK
  5
21
100
AcDbEntity
  8
0
100
AcDbBlockEnd
  0
BLOCK
  5
1C
100
AcDbEntity
  8
0
100
AcDbBlockBegin
  2
*Paper_Space
 70
0
 10
0.0
 20
0.0
 30
0.0
  3
*Paper_Space
  1

  0
ENDBLK
  5
1D
100
AcDbEntity
  8
0
100
AcDbBlockEnd
  0
ENDSEC
  0
SECTION
  2
ENTITIES
  0
LINE
  5
206
100
AcDbEntity
  8
0
100
AcDbLine
 62
7
  6
CONTINUOUS
 10
15.8034776903
 20
12.0121391076
 11
15.8034776903
 21
12.0105004897
  0
CIRCLE
  5
207
100
AcDbEntity
  8
0
100
AcDbCircle
 62
6
  6
CONTINUOUS
 10
15.8034776903
 20
11.5121391076
 40
1.18
  0
CIRCLE
  5
208
100
AcDbEntity
  8
0
100
AcDbCircle
 62
6
  6
CONTINUOUS
 10
15.8034776903
 20
11.5121391076
 40
1.0
  0
CIRCLE
  5
209
100
AcDbEntity
  8
0
100
AcDbCircle
 62
9
  6
CONTINUOUS
 10
15.8034776903
 20
11.5121391076
 40
0.8120018309
  0
CIRCLE
  5
20A
100
AcDbEntity
  8
0
100
AcDbCircle
 62
6
  6
CONTINUOUS
 10
15.8034776903
 20
11.5121391076
 40
0.741
  0
CIRCLE
  5
20B
100
AcDbEntity
  8
0
100
AcDbCircle
 62
7
  6
CONTINUOUS
 10
15.8034776903
 20
11.5121391076
 40
0.5225
  0
ARC
  5
20C
100
AcDbEntity
  8
0
100
AcDbCircle
 62
6
  6
CONTINUOUS
 10
15.8034776903
 20
11.5121391076
 40
0.5
100
AcDbArc
 50
136.3958818235
 51
90.0782610296
  0
ARC
  5
20D
100
AcDbEntity
  8
0
100
AcDbCircle
 62
6
  6
CONTINUOUS
 10
15.8038058846
 20
11.5122878111
 40
0.4998472225
100
AcDbArc
 50
90.1217925608
 51
136.4797631791
  0
ARC
  5
20E
100
AcDbEntity
  8
0
100
AcDbCircle
 62
6
  6
CONTINUOUS
 10
15.8038058208
 20
11.5122879705
 40
0.4982084454
100
AcDbArc
 50
90.0994499925
 51
136.4724687682
  0
ARC
  5
20F
100
AcDbEntity
  8
0
100
AcDbCircle
 62
6
  6
CONTINUOUS
 10
15.803805869
 20
11.5122877965
 40
0.4976230564
100
AcDbArc
 50
90.0915035831
 51
136.470038335
  0
ARC
  5
210
100
AcDbEntity
  8
0
100
AcDbCircle
 62
6
  6
CONTINUOUS
 10
15.8038058799
 20
11.5122877626
 40
0.4959844805
100
AcDbArc
 50
90.0999792929
 51
136.4626108463
  0
ARC
  5
211
100
AcDbEntity
  8
0
100
AcDbCircle
 62
6
  6
CONTINUOUS
 10
15.8038060131
 20
11.5122873253
 40
0.4953993589
100
AcDbArc
 50
90.0919940605
 51
136.4600635159
  0
ARC
  5
212
100
AcDbEntity
  8
0
100
AcDbCircle
 62
6
  6
CONTINUOUS
 10
15.8046546736
 20
11.5110690777
 40
0.4952420707
100
AcDbArc
 50
123.4248729025
 51
126.6578651685
  0
ARC
  5
213
100
AcDbEntity
  8
0
100
AcDbCircle
 62
6
  6
CONTINUOUS
 10
15.8044473259
 20
11.5120375717
 40
0.4944294624
100
AcDbArc
 50
149.2781303867
 51
151.1254268232
  0
ARC
  5
214
100
AcDbEntity
  8
0
100
AcDbCircle
 62
6
  6
CONTINUOUS
 10
15.8043222554
 20
11.5118788041
 40
0.4944153045
100
AcDbArc
 50
136.4593321052
 51
137.7475911412
  0
ARC
  5
215
100
AcDbEntity
  8
0
100
AcDbCircle
 62
6
  6
CONTINUOUS
 10
15.804016872
 20
11.5117467953
 40
0.4943422205
100
AcDbArc
 50
111.2698723388
 51
114.2522937421
  0
ARC
  5
216
100
AcDbEntity
  8
0
100
AcDbCircle
 62
6
  6
CONTINUOUS
 10
15.8044015957
 20
11.5122875378
 40
0.494299334
100
AcDbArc
 50
162.8984933888
 51
164.8187698661
  0
ARC
  5
217
100
AcDbEntity
  8
0
100
AcDbCircle
 62
6
  6
CONTINUOUS
 10
15.803883972
 20
11.5118564266
 40
0.4941943475
100
AcDbArc
 50
90.1406575605
 51
111.2601245801
  0
ARC
  5
218
100
AcDbEntity
  8
0
100
AcDbCircle
 62
6
  6
CONTINUOUS
 10
15.8040736478
 20
11.5121143017
 40
0.4940728653
100
AcDbArc
 50
135.7571717408
 51
136.4592684055
  0
ARC
  5
219
100
AcDbEntity
  8
0
100
AcDbCircle
 62
6
  6
CONTINUOUS
 10
15.8040852327
 20
11.512507354
 40
0.4939606219
100
AcDbArc
 50
176.4947217566
 51
178.0344441505
  0
ARC
  5
21A
100
AcDbEntity
  8
0
100
AcDbCircle
 62
6
  6
CONTINUOUS
 10
15.8038514107
 20
11.512624507
 40
0.4937451265
100
AcDbArc
 50
189.8038667806
 51
190.9793866999
  0
ARC
  5
21B
100
AcDbEntity
  8
0
100
AcDbCircle
 62
6
  6
CONTINUOUS
 10
15.8052377569
 20
11.511273506
 40
0.4932796003
100
AcDbArc
 50
144.3194302876
 51
145.9393016647
  0
ARC
  5
21C
100
AcDbEntity
  8
0
100
AcDbCircle
 62
6
  6
CONTINUOUS
 10
15.8038104485
 20
11.5122823479
 40
0.4931837502
100
AcDbArc
 50
90.1099940978
 51
136.4561771147
  0
ARC
  5
21D
100
AcDbEntity
  8
0
100
AcDbCircle
 62
6
  6
CONTINUOUS
 10
15.8033429314
 20
11.5126789915
 40
0.4931523789
100
AcDbArc
 50
137.7398992842
 51
149.276643009
  0
ARC
  5
21E
100
AcDbEntity
  8
0
100
AcDbCircle
 62
6
  6
CONTINUOUS
 10
15.803247569
 20
11.512524766
 40
0.4931234619
100
AcDbArc
 50
164.8102579373
 51
176.4907903921
  0
ARC
  5
21F
100
AcDbEntity
  8
0
100
AcDbCircle
 62
6
  6
CONTINUOUS
 10
15.8032255988
 20
11.5124730914
 40
0.4931026731
100
AcDbArc
 50
178.0270394598
 51
189.7989118359
  0
ARC
  5
220
100
AcDbEntity
  8
0
100
AcDbCircle
 62
6
  6
CONTINUOUS
 10
15.8032228024
 20
11.5126254667
 40
0.4930732881
100
AcDbArc
 50
151.116536534
 51
162.895744654
  0
ARC
  5
221
100
AcDbEntity
  8
0
100
AcDbCircle
 62
6
  6
CONTINUOUS
 10
15.8031915512
 20
11.5123792743
 40
0.493045597
100
AcDbArc
 50
190.9660148219
 51
269.940566543
  0
ARC
  5
222
100
AcDbEntity
  8
0
100
AcDbCircle
 62
6
  6
CONTINUOUS
 10
15.8034497579
 20
11.5129984666
 40
0.4929680696
100
AcDbArc
 50
114.2519528473
 51
123.4315160762
  0
ARC
  5
223
100
AcDbEntity
  8
0
100
AcDbCircle
 62
6
  6
CONTINUOUS
 10
15.8035909115
 20
11.5124815139
 40
0.4928829151
100
AcDbArc
 50
136.4553778096
 51
182.8810479917
  0
ARC
  5
224
100
AcDbEntity
  8
0
100
AcDbCircle
 62
6
  6
CONTINUOUS
 10
15.8046402499
 20
11.5113172462
 40
0.4928144317
100
AcDbArc
 50
131.4585651321
 51
131.7716376792
  0
ARC
  5
225
100
AcDbEntity
  8
0
100
AcDbCircle
 62
6
  6
CONTINUOUS
 10
15.8030332932
 20
11.5131475782
 40
0.4926066488
100
AcDbArc
 50
126.6509147066
 51
135.7588433632
  0
ARC
  5
226
100
AcDbEntity
  8
0
100
AcDbCircle
 62
6
  6
CONTINUOUS
 10
15.8032045366
 20
11.5123993181
 40
0.4924831428
100
AcDbArc
 50
182.8737568517
 51
269.9501559351
  0
ARC
  5
227
100
AcDbEntity
  8
0
100
AcDbCircle
 62
6
  6
CONTINUOUS
 10
15.8040701441
 20
11.5117885463
 40
0.4921025214
100
AcDbArc
 50
117.7322081926
 51
118.1295577887
  0
ARC
  5
228
100
AcDbEntity
  8
0
100
AcDbCircle
 62
6
  6
CONTINUOUS
 10
15.8040119258
 20
11.51236815
 40
0.4916746723
100
AcDbArc
 50
172.9943843674
 51
173.746675713
  0
ARC
  5
229
100
AcDbEntity
  8
0
100
AcDbCircle
 62
6
  6
CONTINUOUS
 10
15.8038245816
 20
11.5122147192
 40
0.4916118689
100
AcDbArc
 50
90.0927271648
 51
117.7299891208
  0
ARC
  5
22A
100
AcDbEntity
  8
0
100
AcDbCircle
 62
6
  6
CONTINUOUS
 10
15.8038835662
 20
11.5123483439
 40
0.4915662074
100
AcDbArc
 50
158.5259191238
 51
159.9443984611
  0
ARC
  5
22B
100
AcDbEntity
  8
0
100
AcDbCircle
 62
6
  6
CONTINUOUS
 10
15.8037251352
 20
11.5123243802
 40
0.4914536895
100
AcDbArc
 50
131.7702873834
 51
136.4530061141
  0
ARC
  5
22C
100
AcDbEntity
  8
0
100
AcDbCircle
 62
6
  6
CONTINUOUS
 10
15.8037440047
 20
11.5124599268
 40
0.4913976766
100
AcDbArc
 50
159.9510394586
 51
173.0011953179
  0
ARC
  5
22D
100
AcDbEntity
  8
0
100
AcDbCircle
 62
6
  6
CONTINUOUS
 10
15.8036803461
 20
11.5125100467
 40
0.4912933221
100
AcDbArc
 50
136.4651016596
 51
144.3306300652
  0
ARC
  5
22E
100
AcDbEntity
  8
0
100
AcDbCircle
 62
6
  6
CONTINUOUS
 10
15.8035505654
 20
11.5126778312
 40
0.4910733129
100
AcDbArc
 50
118.1250145267
 51
131.468385211
  0
ARC
  5
22F
100
AcDbEntity
  8
0
100
AcDbCircle
 62
6
  6
CONTINUOUS
 10
15.803805306
 20
11.5122889139
 40
0.4909494084
100
AcDbArc
 50
90.0925667438
 51
136.4403725667
  0
ARC
  5
230
100
AcDbEntity
  8
0
100
AcDbCircle
 62
6
  6
CONTINUOUS
 10
15.8032033149
 20
11.5123980623
 40
0.4908429424
100
AcDbArc
 50
182.8715914239
 51
269.9721823922
  0
ARC
  5
231
100
AcDbEntity
  8
0
100
AcDbCircle
 62
6
  6
CONTINUOUS
 10
15.8036381554
 20
11.5124657203
 40
0.490706401
100
AcDbArc
 50
136.4418833631
 51
182.8570305104
  0
ARC
  5
232
100
AcDbEntity
  8
0
100
AcDbCircle
 62
6
  6
CONTINUOUS
 10
15.8029745516
 20
11.5127742438
 40
0.4905644234
100
AcDbArc
 50
145.9364662118
 51
158.5333430109
  0
ARC
  5
233
100
AcDbEntity
  8
0
100
AcDbCircle
 62
6
  6
CONTINUOUS
 10
15.8026342601
 20
11.5125166461
 40
0.4902890289
100
AcDbArc
 50
173.74638951
 51
182.8887633916
  0
ARC
  5
234
100
AcDbEntity
  8
0
100
AcDbCircle
 62
6
  6
CONTINUOUS
 10
15.8032024531
 20
11.5123975115
 40
0.4902561923
100
AcDbArc
 50
182.8516070726
 51
269.9786091151
  0
ARC
  5
235
100
AcDbEntity
  8
0
100
AcDbCircle
 62
6
  6
CONTINUOUS
 10
15.8037351398
 20
11.5124190385
 40
0.4891700276
100
AcDbArc
 50
90.0929516047
 51
182.8592504437
  0
ARC
  5
236
100
AcDbEntity
  8
0
100
AcDbCircle
 62
6
  6
CONTINUOUS
 10
15.8032027671
 20
11.5123978124
 40
0.4886179744
100
AcDbArc
 50
182.8598785415
 51
269.9703546527
  0
ARC
  5
237
100
AcDbEntity
  8
0
100
AcDbCircle
 62
6
  6
CONTINUOUS
 10
15.803735184
 20
11.5124190647
 40
0.4885844885
100
AcDbArc
 50
90.0846917013
 51
182.8620267694
  0
ARC
  5
238
100
AcDbEntity
  8
0
100
AcDbCircle
 62
6
  6
CONTINUOUS
 10
15.8032027933
 20
11.5123976744
 40
0.4880323425
100
AcDbArc
 50
182.8626395018
 51
269.9788056238
  0
ARC
  5
239
100
AcDbEntity
  8
0
100
AcDbCircle
 62
6
  6
CONTINUOUS
 10
15.8044879103
 20
11.5130735888
 40
0.48783721
100
AcDbArc
 50
206.6435630303
 51
209.4881985687
  0
ARC
  5
23A
100
AcDbEntity
  8
0
100
AcDbCircle
 62
6
  6
CONTINUOUS
 10
15.8044077744
 20
11.5127342344
 40
0.4876405824
100
AcDbArc
 50
193.8720167612
 51
196.3587149443
  0
ARC
  5
23B
100
AcDbEntity
  8
0
100
AcDbCircle
 62
6
  6
CONTINUOUS
 10
15.8043570097
 20
11.5124939419
 40
0.4875598467
100
AcDbArc
 50
181.5940332262
 51
182.8756811642
  0
ARC
  5
23C
100
AcDbEntity
  8
0
100
AcDbCircle
 62
6
  6
CONTINUOUS
 10
15.8038489447
 20
11.5133191241
 40
0.4875180612
100
AcDbArc
 50
232.341160997
 51
234.7341276211
  0
ARC
  5
23D
100
AcDbEntity
  8
0
100
AcDbCircle
 62
6
  6
CONTINUOUS
 10
15.8040186148
 20
11.5130898085
 40
0.4874600233
100
AcDbArc
 50
219.6136620985
 51
222.304923796
  0
ARC
  5
23E
100
AcDbEntity
  8
0
100
AcDbCircle
 62
6
  6
CONTINUOUS
 10
15.8042337488
 20
11.5123045647
 40
0.4874594509
100
AcDbArc
 50
168.3646030639
 51
170.1192944417
  0
ARC
  5
23F
100
AcDbEntity
  8
0
100
AcDbCircle
 62
6
  6
CONTINUOUS
 10
15.8038233963
 20
11.512028302
 40
0.4873483858
100
AcDbArc
 50
45.557421329
 51
89.9783423214
  0
ARC
  5
240
100
AcDbEntity
  8
0
100
AcDbCircle
 62
6
  6
CONTINUOUS
 10
15.8040240795
 20
11.5124778713
 40
0.4872265295
100
AcDbArc
 50
182.8757578854
 51
183.4616263157
  0
ARC
  5
241
100
AcDbEntity
  8
0
100
AcDbCircle
 62
6
  6
CONTINUOUS
 10
15.8039179743
 20
11.5122614655
 40
0.4871825293
100
AcDbArc
 50
155.2174635145
 51
156.4040702675
  0
ARC
  5
242
100
AcDbEntity
  8
0
100
AcDbCircle
 62
6
  6
CONTINUOUS
 10
15.8037829791
 20
11.5123414951
 40
0.4870312625
100
AcDbArc
 50
90.1303626064
 51
155.2193543626
  0
ARC
  5
243
100
AcDbEntity
  8
0
100
AcDbCircle
 62
6
  6
CONTINUOUS
 10
15.8036055843
 20
11.5127084833
 40
0.4868978961
100
AcDbArc
 50
222.3044510973
 51
226.3991686801
  0
ARC
  5
244
100
AcDbEntity
  8
0
100
AcDbCircle
 62
6
  6
CONTINUOUS
 10
15.8038105204
 20
11.5119974867
 40
0.4867952329
100
AcDbArc
 50
45.5586017165
 51
89.984955906
  0
ARC
  5
245
100
AcDbEntity
  8
0
100
AcDbCircle
 62
6
  6
CONTINUOUS
 10
15.803380607
 20
11.5125512706
 40
0.486574089
100
AcDbArc
 50
156.4100139153
 51
168.3727954232
  0
ARC
  5
246
100
AcDbEntity
  8
0
100
AcDbCircle
 62
6
  6
CONTINUOUS
 10
15.8036908393
 20
11.5128863994
 40
0.4864989342
100
AcDbArc
 50
226.5070824259
 51
229.2624860468
  0
ARC
  5
247
100
AcDbEntity
  8
0
100
AcDbCircle
 62
6
  6
CONTINUOUS
 10
15.8037362115
 20
11.5124160543
 40
0.4863634206
100
AcDbArc
 50
90.1127093569
 51
182.8660233045
  0
ARC
  5
248
100
AcDbEntity
  8
0
100
AcDbCircle
 62
6
  6
CONTINUOUS
 10
15.8031122997
 20
11.5125266229
 40
0.4863165321
100
AcDbArc
 50
170.122396153
 51
181.6019614221
  0
ARC
  5
249
100
AcDbEntity
  8
0
100
AcDbCircle
 62
6
  6
CONTINUOUS
 10
15.8031567209
 20
11.5122235102
 40
0.486223847
100
AcDbArc
 50
234.7261867192
 51
269.9462189026
  0
ARC
  5
24A
100
AcDbEntity
  8
0
100
AcDbCircle
 62
6
  6
CONTINUOUS
 10
15.8029771958
 20
11.5121951321
 40
0.4860956363
100
AcDbArc
 50
229.4039577123
 51
232.3415639427
  0
ARC
  5
24B
100
AcDbEntity
  8
0
100
AcDbCircle
 62
6
  6
CONTINUOUS
 10
15.8027942061
 20
11.5124014051
 40
0.4859942831
100
AcDbArc
 50
183.4613826499
 51
193.8795310255
  0
ARC
  5
24C
100
AcDbEntity
  8
0
100
AcDbCircle
 62
6
  6
CONTINUOUS
 10
15.8033193727
 20
11.5124617987
 40
0.4859359942
100
AcDbArc
 50
182.873867606
 51
226.504399566
  0
ARC
  5
24D
100
AcDbEntity
  8
0
100
AcDbCircle
 62
6
  6
CONTINUOUS
 10
15.8047949354
 20
11.5124256568
 40
0.485770686
100
AcDbArc
 50
172.9034186696
 51
173.4904044931
  0
ARC
  5
24E
100
AcDbEntity
  8
0
100
AcDbCircle
 62
6
  6
CONTINUOUS
 10
15.8031364729
 20
11.5122561938
 40
0.4856584722
100
AcDbArc
 50
229.263521709
 51
269.9642000832
  0
ARC
  5
24F
100
AcDbEntity
  8
0
100
AcDbCircle
 62
6
  6
CONTINUOUS
 10
15.8024966788
 20
11.5121443237
 40
0.4856407058
100
AcDbArc
 50
196.3554387517
 51
206.6509197409
  0
ARC
  5
250
100
AcDbEntity
  8
0
100
AcDbCircle
 62
6
  6
CONTINUOUS
 10
15.8025288895
 20
11.5119035089
 40
0.4855560043
100
AcDbArc
 50
209.4818044164
 51
219.617907883
  0
ARC
  5
251
100
AcDbEntity
  8
0
100
AcDbCircle
 62
6
  6
CONTINUOUS
 10
15.8043033609
 20
11.5131315869
 40
0.4854853545
100
AcDbArc
 50
214.2932811223
 51
215.6293555738
  0
ARC
  5
252
100
AcDbEntity
  8
0
100
AcDbCircle
 62
6
  6
CONTINUOUS
 10
15.8044445947
 20
11.5124249322
 40
0.4854226878
100
AcDbArc
 50
173.4856314961
 51
182.8629941154
  0
ARC
  5
253
100
AcDbEntity
  8
0
100
AcDbCircle
 62
6
  6
CONTINUOUS
 10
15.8043923831
 20
11.5126809793
 40
0.4853863775
100
AcDbArc
 50
186.5795154192
 51
187.1202633286
  0
ARC
  5
254
100
AcDbEntity
  8
0
100
AcDbCircle
 62
6
  6
CONTINUOUS
 10
15.8038224607
 20
11.5120263751
 40
0.4851262474
100
AcDbArc
 50
45.5714983955
 51
89.978067349
  0
ARC
  5
255
100
AcDbEntity
  8
0
100
AcDbCircle
 62
6
  6
CONTINUOUS
 10
15.8037133601
 20
11.5129101433
 40
0.4848930476
100
AcDbArc
 50
226.5057014396
 51
228.4139896312
  0
ARC
  5
256
100
AcDbEntity
  8
0
100
AcDbCircle
 62
6
  6
CONTINUOUS
 10
15.8037785639
 20
11.5123520716
 40
0.4847966099
100
AcDbArc
 50
90.0958642282
 51
159.0754239871
  0
ARC
  5
257
100
AcDbEntity
  8
0
100
AcDbCircle
 62
6
  6
CONTINUOUS
 10
15.802128639
 20
11.5111750248
 40
0.4847688783
100
AcDbArc
 50
226.4005903435
 51
229.4016549753
  0
ARC
  5
258
100
AcDbEntity
  8
0
100
AcDbCircle
 62
6
  6
CONTINUOUS
 10
15.8037156454
 20
11.512622004
 40
0.4847256809
100
AcDbArc
 50
200.2514398883
 51
201.6188459321
  0
ARC
  5
259
100
AcDbEntity
  8
0
100
AcDbCircle
 62
6
  6
CONTINUOUS
 10
15.803558434
 20
11.5127368432
 40
0.4846605947
100
AcDbArc
 50
228.4140903188
 51
229.0602503085
  0
ARC
  5
25A
100
AcDbEntity
  8
0
100
AcDbCircle
 62
6
  6
CONTINUOUS
 10
15.8038104046
 20
11.5119971289
 40
0.4845714119
100
AcDbArc
 50
45.5771333438
 51
89.9847569479
  0
ARC
  5
25B
100
AcDbEntity
  8
0
100
AcDbCircle
 62
6
  6
CONTINUOUS
 10
15.8034742343
 20
11.512640025
 40
0.4845322853
100
AcDbArc
 50
229.0602695655
 51
229.2708076513
  0
ARC
  5
25C
100
AcDbEntity
  8
0
100
AcDbCircle
 62
6
  6
CONTINUOUS
 10
15.8034810176
 20
11.5125331155
 40
0.4844522268
100
AcDbArc
 50
159.0828559076
 51
159.3509472176
  0
ARC
  5
25D
100
AcDbEntity
  8
0
100
AcDbCircle
 62
6
  6
CONTINUOUS
 10
15.8037430306
 20
11.5124113503
 40
0.4841460814
100
AcDbArc
 50
90.0858244947
 51
182.8864277675
  0
ARC
  5
25E
100
AcDbEntity
  8
0
100
AcDbCircle
 62
6
  6
CONTINUOUS
 10
15.8031364679
 20
11.5122562058
 40
0.4840198684
100
AcDbArc
 50
229.271461537
 51
269.9846262686
  0
ARC
  5
25F
100
AcDbEntity
  8
0
100
AcDbCircle
 62
6
  6
CONTINUOUS
 10
15.8030126152
 20
11.5123680102
 40
0.4839776994
100
AcDbArc
 50
187.1037450814
 51
200.2520383041
  0
ARC
  5
260
100
AcDbEntity
  8
0
100
AcDbCircle
 62
6
  6
CONTINUOUS
 10
15.8029424079
 20
11.5122782281
 40
0.4838801803
100
AcDbArc
 50
201.6147360847
 51
214.300597141
  0
ARC
  5
261
100
AcDbEntity
  8
0
100
AcDbCircle
 62
6
  6
CONTINUOUS
 10
15.8027963969
 20
11.512695212
 40
0.4837536767
100
AcDbArc
 50
159.3403180129
 51
172.9058569027
  0
ARC
  5
262
100
AcDbEntity
  8
0
100
AcDbCircle
 62
6
  6
CONTINUOUS
 10
15.8033478803
 20
11.512475104
 40
0.4837417538
100
AcDbArc
 50
182.8963261742
 51
226.436288587
  0
ARC
  5
263
100
AcDbEntity
  8
0
100
AcDbCircle
 62
6
  6
CONTINUOUS
 10
15.8027559561
 20
11.5119622152
 40
0.4835464175
100
AcDbArc
 50
215.6235443487
 51
226.5106898607
  0
ARC
  5
264
100
AcDbEntity
  8
0
100
AcDbCircle
 62
6
  6
CONTINUOUS
 10
15.803138956
 20
11.5122665249
 40
0.4834436918
100
AcDbArc
 50
229.3670319097
 51
269.9860058109
  0
ARC
  5
265
100
AcDbEntity
  8
0
100
AcDbCircle
 62
6
  6
CONTINUOUS
 10
15.8038224947
 20
11.5120263925
 40
0.4829020327
100
AcDbArc
 50
45.5901941558
 51
89.9778360737
  0
ARC
  5
266
100
AcDbEntity
  8
0
100
AcDbCircle
 62
6
  6
CONTINUOUS
 10
15.8018990702
 20
11.512428169
 40
0.4828805198
100
AcDbArc
 50
182.8784638031
 51
186.5836141498
  0
ARC
  5
267
100
AcDbEntity
  8
0
100
AcDbCircle
 62
6
  6
CONTINUOUS
 10
15.8038106639
 20
11.5119974929
 40
0.4823468342
100
AcDbArc
 50
45.5974176085
 51
89.9847834642
  0
ARC
  5
268
100
AcDbEntity
  8
0
100
AcDbCircle
 62
6
  6
CONTINUOUS
 10
15.8022369086
 20
11.5112751824
 40
0.482105973
100
AcDbArc
 50
226.4336835862
 51
229.3716653854
  0
ARC
  5
269
100
AcDbEntity
  8
0
100
AcDbCircle
 62
6
  6
CONTINUOUS
 10
15.8031390297
 20
11.5122667487
 40
0.4818053135
100
AcDbArc
 50
229.3457527509
 51
269.9777147472
  0
ARC
  5
26A
100
AcDbEntity
  8
0
100
AcDbCircle
 62
6
  6
CONTINUOUS
 10
15.8033548347
 20
11.5140427703
 40
0.481364104
100
AcDbArc
 50
259.5248341246
 51
261.863885809
  0
ARC
  5
26B
100
AcDbEntity
  8
0
100
AcDbCircle
 62
6
  6
CONTINUOUS
 10
15.8031402069
 20
11.5122703321
 40
0.4812234154
100
AcDbArc
 50
229.3357637448
 51
269.9855701811
  0
ARC
  5
26C
100
AcDbEntity
  8
0
100
AcDbCircle
 62
6
  6
CONTINUOUS
 10
15.8038226604
 20
11.5120268666
 40
0.4806773864
100
AcDbArc
 50
45.6104422209
 51
90.0411194918
  0
ARC
  5
26D
100
AcDbEntity
  8
0
100
AcDbCircle
 62
6
  6
CONTINUOUS
 10
15.8023164176
 20
11.5113598067
 40
0.4805834706
100
AcDbArc
 50
226.4491039312
 51
228.8285518697
  0
ARC
  5
26E
100
AcDbEntity
  8
0
100
AcDbCircle
 62
6
  6
CONTINUOUS
 10
15.8032662436
 20
11.5132445428
 40
0.4805613737
100
AcDbArc
 50
261.8608729576
 51
270.0252101116
  0
ARC
  5
26F
100
AcDbEntity
  8
0
100
AcDbCircle
 62
6
  6
CONTINUOUS
 10
15.8036874948
 20
11.5130688203
 40
0.4805489081
100
AcDbArc
 50
229.3273385407
 51
238.7832129459
  0
ARC
  5
270
100
AcDbEntity
  8
0
100
AcDbCircle
 62
6
  6
CONTINUOUS
 10
15.8035023928
 20
11.5127432322
 40
0.480174527
100
AcDbArc
 50
238.7819668021
 51
239.4588852257
  0
ARC
  5
271
100
AcDbEntity
  8
0
100
AcDbCircle
 62
6
  6
CONTINUOUS
 10
15.8033579774
 20
11.512799365
 40
0.4801587752
100
AcDbArc
 50
247.8377927968
 51
251.2397665665
  0
ARC
  5
272
100
AcDbEntity
  8
0
100
AcDbCircle
 62
6
  6
CONTINUOUS
 10
15.8023485818
 20
11.5123244615
 40
0.4801517512
100
AcDbArc
 50
329.5798610661
 51
331.6253042572
  0
ARC
  5
273
100
AcDbEntity
  8
0
100
AcDbCircle
 62
6
  6
CONTINUOUS
 10
15.8022681984
 20
11.5120613308
 40
0.4801366999
100
AcDbArc
 50
344.3945684289
 51
346.709656867
  0
ARC
  5
274
100
AcDbEntity
  8
0
100
AcDbCircle
 62
6
  6
CONTINUOUS
 10
15.8038106002
 20
11.5119977495
 40
0.4801224659
100
AcDbArc
 50
45.6173258253
 51
90.0397279464
  0
ARC
  5
275
100
AcDbEntity
  8
0
100
AcDbCircle
 62
6
  6
CONTINUOUS
 10
15.802359416
 20
11.511776253
 40
0.4800144755
100
AcDbArc
 50
359.3637790536
 51
1.4906796244
  0
ARC
  5
276
100
AcDbEntity
  8
0
100
AcDbCircle
 62
6
  6
CONTINUOUS
 10
15.8022956289
 20
11.5113384882
 40
0.4799681634
100
AcDbArc
 50
226.4527143068
 51
228.6996969857
  0
ARC
  5
277
100
AcDbEntity
  8
0
100
AcDbCircle
 62
6
  6
CONTINUOUS
 10
15.8025640255
 20
11.5115475289
 40
0.4798390474
100
AcDbArc
 50
14.3541919738
 51
16.2698597051
  0
ARC
  5
278
100
AcDbEntity
  8
0
100
AcDbCircle
 62
6
  6
CONTINUOUS
 10
15.8017611829
 20
11.5107376222
 40
0.4797496066
100
AcDbArc
 50
228.8295498183
 51
229.3516161167
  0
ARC
  5
279
100
AcDbEntity
  8
0
100
AcDbCircle
 62
6
  6
CONTINUOUS
 10
15.8030165776
 20
11.5115122807
 40
0.4794238552
100
AcDbArc
 50
29.7083814381
 51
30.9462454924
  0
ARC
  5
27A
100
AcDbEntity
  8
0
100
AcDbCircle
 62
6
  6
CONTINUOUS
 10
15.8030253006
 20
11.5120277638
 40
0.4794177336
100
AcDbArc
 50
314.9951376203
 51
315.8587381425
  0
ARC
  5
27B
100
AcDbEntity
  8
0
100
AcDbCircle
 62
6
  6
CONTINUOUS
 10
15.8031453177
 20
11.5120024035
 40
0.4793155695
100
AcDbArc
 50
270.0397304002
 51
314.9871356814
  0
ARC
  5
27C
100
AcDbEntity
  8
0
100
AcDbCircle
 62
6
  6
CONTINUOUS
 10
15.8018156147
 20
11.5108037793
 40
0.4792496456
100
AcDbArc
 50
228.7006181251
 51
229.3416356194
  0
ARC
  5
27D
100
AcDbEntity
  8
0
100
AcDbCircle
 62
6
  6
CONTINUOUS
 10
15.803139702
 20
11.5122643531
 40
0.4789960876
100
AcDbArc
 50
229.2928223705
 51
270.0404289765
  0
ARC
  5
27E
100
AcDbEntity
  8
0
100
AcDbCircle
 62
6
  6
CONTINUOUS
 10
15.8028251992
 20
11.5115805745
 40
0.4788290506
100
AcDbArc
 50
239.457979513
 51
247.8418195318
  0
ARC
  5
27F
100
AcDbEntity
  8
0
100
AcDbCircle
 62
6
  6
CONTINUOUS
 10
15.8039679245
 20
11.511140755
 40
0.4787570307
100
AcDbArc
 50
90.0586693559
 51
105.8365415211
  0
ARC
  5
280
100
AcDbEntity
  8
0
100
AcDbCircle
 62
6
  6
CONTINUOUS
 10
15.8031539807
 20
11.5119876791
 40
0.4787145897
100
AcDbArc
 50
270.0387433786
 51
299.9183394749
  0
ARC
  5
281
100
AcDbEntity
  8
0
100
AcDbCircle
 62
6
  6
CONTINUOUS
 10
15.8036736093
 20
11.5118466202
 40
0.478689392
100
AcDbArc
 50
30.9523643895
 51
45.6327771403
  0
ARC
  5
282
100
AcDbEntity
  8
0
100
AcDbCircle
 62
6
  6
CONTINUOUS
 10
15.8037099738
 20
11.5115090801
 40
0.4785644397
100
AcDbArc
 50
315.8462142204
 51
329.5815143883
  0
ARC
  5
283
100
AcDbEntity
  8
0
100
AcDbCircle
 62
6
  6
CONTINUOUS
 10
15.8038736241
 20
11.5116034118
 40
0.4784672697
100
AcDbArc
 50
331.614487034
 51
344.3956654888
  0
ARC
  5
284
100
AcDbEntity
  8
0
100
AcDbCircle
 62
6
  6
CONTINUOUS
 10
15.8038225408
 20
11.512026716
 40
0.4784534094
100
AcDbArc
 50
45.6304460921
 51
90.0412963056
  0
ARC
  5
285
100
AcDbEntity
  8
0
100
AcDbCircle
 62
6
  6
CONTINUOUS
 10
15.803921929
 20
11.511937955
 40
0.4784266177
100
AcDbArc
 50
16.2705353903
 51
29.7178371107
  0
ARC
  5
286
100
AcDbEntity
  8
0
100
AcDbCircle
 62
6
  6
CONTINUOUS
 10
15.8022941499
 20
11.511336919
 40
0.4783273908
100
AcDbArc
 50
226.468616275
 51
228.6998205386
  0
ARC
  5
287
100
AcDbEntity
  8
0
100
AcDbCircle
 62
6
  6
CONTINUOUS
 10
15.8040803211
 20
11.5117127077
 40
0.478292973
100
AcDbArc
 50
346.7003975259
 51
359.3691017372
  0
ARC
  5
288
100
AcDbEntity
  8
0
100
AcDbCircle
 62
6
  6
CONTINUOUS
 10
15.8035193301
 20
11.5117406312
 40
0.4782870118
100
AcDbArc
 50
299.9036753978
 51
45.6358930933
  0
ARC
  5
289
100
AcDbEntity
  8
0
100
AcDbCircle
 62
6
  6
CONTINUOUS
 10
15.8041042215
 20
11.5118662595
 40
0.4782679211
100
AcDbArc
 50
1.485338283
 51
14.3629442104
  0
ARC
  5
28A
100
AcDbEntity
  8
0
100
AcDbCircle
 62
6
  6
CONTINUOUS
 10
15.8038009731
 20
11.5122916844
 40
0.4781862719
100
AcDbArc
 50
90.0387350012
 51
120.8680620991
  0
ARC
  5
28B
100
AcDbEntity
  8
0
100
AcDbCircle
 62
6
  6
CONTINUOUS
 10
15.8027253495
 20
11.510834016
 40
0.4780943825
100
AcDbArc
 50
251.2358051921
 51
259.5291020082
  0
ARC
  5
28C
100
AcDbEntity
  8
0
100
AcDbCircle
 62
6
  6
CONTINUOUS
 10
15.8035176732
 20
11.5125258454
 40
0.4778217805
100
AcDbArc
 50
120.8533098659
 51
226.4192040676
  0
ARC
  5
28D
100
AcDbEntity
  8
0
100
AcDbCircle
 62
6
  6
CONTINUOUS
 10
15.8038681976
 20
11.5120953799
 40
0.4777894645
100
AcDbArc
 50
45.63605658
 51
90.0402095893
  0
ARC
  5
28E
100
AcDbEntity
  8
0
100
AcDbCircle
 62
6
  6
CONTINUOUS
 10
15.8018133291
 20
11.5108010417
 40
0.4776074628
100
AcDbArc
 50
228.7007252166
 51
229.320555533
  0
ARC
  5
28F
100
AcDbEntity
  8
0
100
AcDbCircle
 62
6
  6
CONTINUOUS
 10
15.803139698
 20
11.5122643537
 40
0.4773574692
100
AcDbArc
 50
229.2929614764
 51
270.0405682291
  0
ARC
  5
290
100
AcDbEntity
  8
0
100
AcDbCircle
 62
6
  6
CONTINUOUS
 10
15.8036177721
 20
11.5125034373
 40
0.4773307604
100
AcDbArc
 50
105.8407432099
 51
211.8859368072
  0
ARC
  5
291
100
AcDbEntity
  8
0
100
AcDbCircle
 62
6
  6
CONTINUOUS
 10
15.8031402236
 20
11.5122681762
 40
0.4767729214
100
AcDbArc
 50
229.2730156422
 51
270.0405545707
  0
ARC
  5
292
100
AcDbEntity
  8
0
100
AcDbCircle
 62
6
  6
CONTINUOUS
 10
15.8030741855
 20
11.5122604598
 40
0.4767241489
100
AcDbArc
 50
211.895651013
 51
226.4999463307
  0
ARC
  5
293
100
AcDbEntity
  8
0
100
AcDbCircle
 62
6
  6
CONTINUOUS
 10
15.8015061415
 20
11.5103756901
 40
0.4764993713
100
AcDbArc
 50
226.4691577748
 51
229.2936101235
  0
ARC
  5
294
100
AcDbEntity
  8
0
100
AcDbCircle
 62
6
  6
CONTINUOUS
 10
15.8038286417
 20
11.512040807
 40
0.4762135904
100
AcDbArc
 50
45.6312799205
 51
102.1741340828
  0
ARC
  5
295
100
AcDbEntity
  8
0
100
AcDbCircle
 62
6
  6
CONTINUOUS
 10
15.8038346522
 20
11.5122271599
 40
0.4760325007
100
AcDbArc
 50
102.1795713125
 51
131.7379187196
  0
ARC
  5
296
100
AcDbEntity
  8
0
100
AcDbCircle
 62
6
  6
CONTINUOUS
 10
15.8038244534
 20
11.5120243214
 40
0.4756443818
100
AcDbArc
 50
45.6032981731
 51
102.153393888
  0
ARC
  5
297
100
AcDbEntity
  8
0
100
AcDbCircle
 62
6
  6
CONTINUOUS
 10
15.8034820502
 20
11.5125206074
 40
0.4755648243
100
AcDbArc
 50
131.7297557493
 51
226.4883340391
  0
ARC
  5
298
100
AcDbEntity
  8
0
100
AcDbCircle
 62
6
  6
CONTINUOUS
 10
15.8019769202
 20
11.5108966827
 40
0.4755627325
100
AcDbArc
 50
226.4854098914
 51
229.2916922456
  0
ARC
  5
299
100
AcDbEntity
  8
0
100
AcDbCircle
 62
6
  6
CONTINUOUS
 10
15.8038059907
 20
11.5123031536
 40
0.4753676699
100
AcDbArc
 50
102.1582938338
 51
131.7226407626
  0
ARC
  5
29A
100
AcDbEntity
  8
0
100
AcDbCircle
 62
6
  6
CONTINUOUS
 10
15.8034776903
 20
11.5121391076
 40
0.4752765628
100
AcDbArc
 50
131.6799396056
 51
226.4570504838
  0
ARC
  5
29B
100
AcDbEntity
  8
0
100
AcDbCircle
 62
6
  6
CONTINUOUS
 10
15.8020770723
 20
11.5111378835
 40
0.4752244859
100
AcDbArc
 50
226.4939841669
 51
229.2812405563
  0
ARC
  5
29C
100
AcDbEntity
  8
0
100
AcDbCircle
 62
6
  6
CONTINUOUS
 10
15.8027171672
 20
11.51226902
 40
0.438330864
100
AcDbArc
 50
326.6055000348
 51
334.2093658089
  0
ARC
  5
29D
100
AcDbEntity
  8
0
100
AcDbCircle
 62
6
  6
CONTINUOUS
 10
15.8035073648
 20
11.5117768942
 40
0.4373982603
100
AcDbArc
 50
334.2223735099
 51
19.2337171895
  0
CIRCLE
  5
29E
100
AcDbEntity
  8
0
100
AcDbCircle
 62
6
  6
CONTINUOUS
 10
15.8034776903
 20
11.5121391076
 40
0.375
  0
SPLINE
  5
29F
100
AcDbEntity
  8
0
100
AcDbSpline
 62
6
  6
CONTINUOUS
 70
0
 71
3
 72
32
 73
28
 74
26
 42
0.0000001
 43
0.0000001
 44
0.0000000001
 12
0.6468074244
 22
-0.5648017788
 32
0.0
 13
0.338220665
 23
0.7892830135
 33
0.0
 40
0.0
 40
0.0
 40
0.0
 40
0.0
 40
0.0624505369
 40
0.093721548
 40
0.1249921708
 40
0.1874870614
 40
0.2187437099
 40
0.2500039877
 40
0.2812695765
 40
0.3125383329
 40
0.3438084457
 40
0.3750795739
 40
0.4375968377
 40
0.4688669206
 40
0.5001354466
 40
0.5626401546
 40
0.5939007752
 40
0.6251574663
 40
0.6564108026
 40
0.6876607225
 40
0.7189078136
 40
0.7501531429
 40
0.8126070225
 40
0.8750556149
 40
0.9063034642
 40
0.9375608989
 40
1.0
 40
1.0
 40
1.0
 40
1.0
 10
15.4760605547
 20
11.1676310083
 30
0.0
 10
15.489525045
 20
11.1558736169
 30
0.0
 10
15.5107596952
 20
11.1393576151
 30
0.0
 10
15.5407706204
 20
11.1198555925
 30
0.0
 10
15.571855454
 20
11.1020854114
 30
0.0
 10
15.6044162058
 20
11.0870166836
 30
0.0
 10
15.6380732026
 20
11.0748243828
 30
0.0
 10
15.6638117243
 20
11.0671458923
 30
0.0
 10
15.6899525823
 20
11.0609645109
 30
0.0
 10
15.7164088193
 20
11.056298486
 30
0.0
 10
15.7430934335
 20
11.0531686577
 30
0.0
 10
15.7788432775
 20
11.0510748954
 30
0.0
 10
15.8147208437
 20
11.0521163942
 30
0.0
 10
15.8502894768
 20
11.0562816664
 30
0.0
 10
15.8855485376
 20
11.0625289994
 30
0.0
 10
15.9201947302
 20
11.0718865141
 30
0.0
 10
15.9537978732
 20
11.08423754
 30
0.0
 10
15.9784114493
 20
11.0949834436
 30
0.0
 10
16.0023384374
 20
11.1071722967
 30
0.0
 10
16.0254966935
 20
11.120759955
 30
0.0
 10
16.0478013107
 20
11.1357054185
 30
0.0
 10
16.076278154
 20
11.1573706543
 30
0.0
 10
16.109362301
 20
11.1875923092
 30
0.0
 10
16.1385595709
 20
11.2215858107
 30
0.0
 10
16.1593134295
 20
11.2507393424
 30
0.0
 10
16.1782465326
 20
11.281098092
 30
0.0
 10
16.1903464537
 20
11.3051309339
 30
0.0
 10
16.1973858518
 20
11.3215583079
 30
0.0
 11
15.4760605547
 21
11.1676310083
 31
0.0
 11
15.5183871531
 21
11.1347035449
 31
0.0
 11
15.5409036724
 21
11.1200729611
 31
0.0
 11
15.564216324
 21
11.1067481727
 31
0.0
 11
15.6129181011
 21
11.084209717
 31
0.0
 11
15.6381537775
 21
11.0750693634
 31
0.0
 11
15.6638767535
 21
11.0673959526
 31
0.0
 11
15.6900037989
 21
11.0612173536
 31
0.0
 11
15.7164462369
 21
11.0565546164
 31
0.0
 11
15.7431152072
 21
11.0534285611
 31
0.0
 11
15.7699217516
 21
11.0518594221
 31
0.0
 11
15.8235825338
 21
11.0534175838
 31
0.0
 11
15.8502516572
 21
11.0565421116
 31
0.0
 11
15.8766898384
 21
11.0612277916
 31
0.0
 11
15.9285057702
 21
11.0752227606
 31
0.0
 11
15.9537005961
 21
11.0844850109
 31
0.0
 11
15.9782983483
 21
11.0952245629
 31
0.0
 11
16.0022115754
 21
11.1074061199
 31
0.0
 11
16.0253554311
 21
11.1209868875
 31
0.0
 11
16.0476451354
 21
11.1359238895
 31
0.0
 11
16.0689982529
 21
11.1521691391
 31
0.0
 11
16.1085859839
 21
11.1883475608
 31
0.0
 11
16.1435240745
 21
11.2290281398
 31
0.0
 11
16.1590843894
 21
11.2508880687
 31
0.0
 11
16.1732880025
 21
11.2736625949
 31
0.0
 11
16.1973858518
 21
11.3215583079
 31
0.0
  0
LINE
  5
2A0
100
AcDbEntity
  8
0
100
AcDbLine
 62
6
  6
CONTINUOUS
 10
15.8034776903
 20
12.0060521386
 11
15.802670753
 21
12.0060508948
  0
LINE
  5
2A1
100
AcDbEntity
  8
0
100
AcDbLine
 62
6
  6
CONTINUOUS
 10
15.8026801149
 20
11.0193382431
 11
15.8034776903
 21
11.0193381644
  0
LINE
  5
2A2
100
AcDbEntity
  8
0
100
AcDbLine
 62
6
  6
CONTINUOUS
 10
15.8034776903
 20
12.0105004897
 11
15.8029410587
 21
12.0104998168
  0
SPLINE
  5
2A3
100
AcDbEntity
  8
0
100
AcDbSpline
 62
6
  6
CONTINUOUS
 70
0
 71
3
 72
32
 73
28
 74
26
 42
0.0000001
 43
0.0000001
 44
0.0000000001
 12
-0.7981118343
 22
-0.8404226166
 32
0.0
 13
1.1590049595
 23
-0.0004222925
 33
0.0
 40
0.0
 40
0.0
 40
0.0
 40
0.0
 40
0.0624720188
 40
0.1249447306
 40
0.1562022253
 40
0.1874591991
 40
0.2187166034
 40
0.2499738938
 40
0.2812303061
 40
0.3124869217
 40
0.3749608846
 40
0.437440559
 40
0.4687025469
 40
0.4999646613
 40
0.5312274701
 40
0.5624895652
 40
0.5937493727
 40
0.6250076887
 40
0.6874821187
 40
0.7499601504
 40
0.781218541
 40
0.8124736591
 40
0.8437297522
 40
0.8749928492
 40
0.9062693512
 40
0.9375549592
 40
1.0
 40
1.0
 40
1.0
 40
1.0
 10
15.4425838725
 20
11.8554048282
 30
0.0
 10
15.4259639867
 20
11.8379038623
 30
0.0
 10
15.3952182521
 20
11.8004363709
 30
0.0
 10
15.3640210348
 20
11.7485204369
 30
0.0
 10
15.3437718383
 20
11.7046447266
 30
0.0
 10
15.3310162215
 20
11.6707014816
 30
0.0
 10
15.320767668
 20
11.6359210627
 30
0.0
 10
15.313066274
 20
11.6004898121
 30
0.0
 10
15.3079626316
 20
11.5645903777
 30
0.0
 10
15.3046690261
 20
11.5163805102
 30
0.0
 10
15.3071241764
 20
11.4558530704
 30
0.0
 10
15.3183704216
 20
11.3963268456
 30
0.0
 10
15.3324434511
 20
11.3500924703
 30
0.0
 10
15.3455082744
 20
11.3162605703
 30
0.0
 10
15.3610020891
 20
11.283472168
 30
0.0
 10
15.3788313914
 20
11.2518939248
 30
0.0
 10
15.3989119845
 20
11.2216967873
 30
0.0
 10
15.4285368909
 20
11.1835180335
 30
0.0
 10
15.4706521663
 20
11.1399752784
 30
0.0
 10
15.5186647639
 20
11.1030369982
 30
0.0
 10
15.5599370799
 20
11.0779013389
 30
0.0
 10
15.592199101
 20
11.0613496025
 30
0.0
 10
15.6255814895
 20
11.0471930005
 30
0.0
 10
15.6599112762
 20
11.0354955965
 30
0.0
 10
15.695018323
 20
11.0263321488
 30
0.0
 10
15.7425412641
 20
11.017575797
 30
0.0
 10
15.7788228739
 20
11.0148985103
 30
0.0
 10
15.8029475779
 20
11.0148897203
 30
0.0
 11
15.4425838725
 21
11.8554048282
 31
0.0
 11
15.3966662481
 21
11.7994216927
 31
0.0
 11
15.3593569676
 21
11.7373678967
 31
0.0
 11
15.3441778236
 21
11.7044736398
 31
0.0
 11
15.3314341131
 21
11.6705620982
 31
0.0
 11
15.3211921777
 21
11.6358125124
 31
0.0
 11
15.313499163
 21
11.6004113976
 31
0.0
 11
15.3084014105
 21
11.5645455283
 31
0.0
 11
15.3059301432
 21
11.528403343
 31
0.0
 11
15.3088818627
 21
11.4560558942
 31
0.0
 11
15.3223080992
 21
11.3848971924
 31
0.0
 11
15.3328611342
 21
11.350235263
 31
0.0
 11
15.3459129996
 21
11.3164347404
 31
0.0
 11
15.3613915383
 21
11.2836734875
 31
0.0
 11
15.3792072218
 21
11.25212311
 31
0.0
 11
15.3992700715
 21
11.2219550004
 31
0.0
 11
15.4214779985
 21
11.1933313126
 31
0.0
 11
15.4718304346
 21
11.1412969339
 31
0.0
 11
15.5292116295
 21
11.0971274035
 31
0.0
 11
15.5601547208
 21
11.078284928
 31
0.0
 11
15.5923852029
 21
11.0617490578
 31
0.0
 11
15.6257355638
 21
11.0476042963
 31
0.0
 11
15.6600340365
 21
11.0359199553
 31
0.0
 11
15.6951085249
 21
11.026764877
 31
0.0
 11
15.7307679216
 21
11.020191607
 31
0.0
 11
15.8029475779
 21
11.0148897203
 31
0.0
  0
LINE
  5
2A4
100
AcDbEntity
  8
0
100
AcDbLine
 62
6
  6
CONTINUOUS
 10
15.8029475779
 20
11.0148897203
 11
15.8034776903
 21
11.0148898124
  0
LINE
  5
2A5
100
AcDbEntity
  8
0
100
AcDbLine
 62
6
  6
CONTINUOUS
 10
15.8034776903
 20
12.0082763151
 11
15.8029403961
 21
12.008275638
  0
SPLINE
  5
2A6
100
AcDbEntity
  8
0
100
AcDbSpline
 62
6
  6
CONTINUOUS
 70
0
 71
3
 72
32
 73
28
 74
26
 42
0.0000001
 43
0.0000001
 44
0.0000000001
 12
-0.7947448622
 22
-0.8365914427
 32
0.0
 13
1.1539083402
 23
-0.0004246311
 33
0.0
 40
0.0
 40
0.0
 40
0.0
 40
0.0
 40
0.0624712972
 40
0.1249428327
 40
0.1562000853
 40
0.1874574579
 40
0.2187158275
 40
0.2499742296
 40
0.281231471
 40
0.3124884191
 40
0.374962152
 40
0.4374410045
 40
0.4687023902
 40
0.4999637187
 40
0.53122556
 40
0.5624865543
 40
0.5937451877
 40
0.6250023801
 40
0.6874756505
 40
0.7499551581
 40
0.7812145898
 40
0.8124706398
 40
0.8437275866
 40
0.8749914478
 40
0.9062686116
 40
0.9375546576
 40
1.0
 40
1.0
 40
1.0
 40
1.0
 10
15.4442551674
 20
11.8539348468
 30
0.0
 10
15.4277055866
 20
11.8365138626
 30
0.0
 10
15.3970893766
 20
11.7992167355
 30
0.0
 10
15.3660211117
 20
11.7475349853
 30
0.0
 10
15.3458545172
 20
11.703855599
 30
0.0
 10
15.3331501793
 20
11.670062958
 30
0.0
 10
15.3229416676
 20
11.6354359702
 30
0.0
 10
15.3152690674
 20
11.6001604863
 30
0.0
 10
15.3101827739
 20
11.5644187488
 30
0.0
 10
15.3068978279
 20
11.5164208994
 30
0.0
 10
15.3093355998
 20
11.4561596128
 30
0.0
 10
15.3205260457
 20
11.3968945761
 30
0.0
 10
15.3345325435
 20
11.3508629835
 30
0.0
 10
15.3475363256
 20
11.3171794416
 30
0.0
 10
15.3629585188
 20
11.2845347871
 30
0.0
 10
15.3807060259
 20
11.2530949128
 30
0.0
 10
15.4006952596
 20
11.223030108
 30
0.0
 10
15.4301855886
 20
11.18501759
 30
0.0
 10
15.4721124445
 20
11.1416635194
 30
0.0
 10
15.5199121053
 20
11.1048844896
 30
0.0
 10
15.5610023963
 20
11.079855911
 30
0.0
 10
15.5931228311
 20
11.063375094
 30
0.0
 10
15.6263587491
 20
11.0492789985
 30
0.0
 10
15.6605380298
 20
11.0376316167
 30
0.0
 10
15.6954911971
 20
11.0285075132
 30
0.0
 10
15.7428055296
 20
11.0197886919
 30
0.0
 10
15.7789278769
 20
11.0171227349
 30
0.0
 10
15.8029466107
 20
11.0171138962
 30
0.0
 11
15.4442551674
 21
11.8539348468
 31
0.0
 11
15.398530686
 21
11.7982061679
 31
0.0
 11
15.3613760818
 21
11.7364324771
 31
0.0
 11
15.3462588626
 21
11.7036854038
 31
0.0
 11
15.3335662958
 21
11.6699243337
 31
0.0
 11
15.3233643254
 21
11.6353278902
 31
0.0
 11
15.3157000242
 21
11.600082248
 31
0.0
 11
15.3106197147
 21
11.5643738366
 31
0.0
 11
15.308154887
 21
11.5283905016
 31
0.0
 11
15.311085637
 21
11.4563611341
 31
0.0
 11
15.3244453233
 21
11.3855148948
 31
0.0
 11
15.3349484099
 21
11.3510050361
 31
0.0
 11
15.347939328
 21
11.3173527485
 31
0.0
 11
15.3633463063
 21
11.284735144
 31
0.0
 11
15.3810802791
 21
11.2533230635
 31
0.0
 11
15.4010516999
 21
11.2232871115
 31
0.0
 11
15.4231586912
 21
11.1947883914
 31
0.0
 11
15.4732849344
 21
11.1429800728
 31
0.0
 11
15.530412337
 21
11.0990000807
 31
0.0
 11
15.5612192178
 21
11.080237922
 31
0.0
 11
15.593308165
 21
11.0637727923
 31
0.0
 11
15.6265122161
 21
11.0496885224
 31
0.0
 11
15.6606603212
 21
11.0380541683
 31
0.0
 11
15.6955811002
 21
11.028938346
 31
0.0
 11
15.7310840658
 21
11.0223932431
 31
0.0
 11
15.8029466107
 21
11.0171138962
 31
0.0
  0
LINE
  5
2A7
100
AcDbEntity
  8
0
100
AcDbLine
 62
6
  6
CONTINUOUS
 10
15.8029466107
 20
11.0171138962
 11
15.8034776903
 21
11.0171139883
  0
LINE
  5
2A8
100
AcDbEntity
  8
0
100
AcDbLine
 62
6
  6
CONTINUOUS
 10
15.8034776903
 20
12.0038279637
 11
15.8030289576
 21
12.0038274346
  0
LINE
  5
2A9
100
AcDbEntity
  8
0
100
AcDbLine
 62
6
  6
CONTINUOUS
 10
15.8029650097
 20
11.0215622385
 11
15.8034776903
 21
11.0215623381
  0
LINE
  5
2AA
100
AcDbEntity
  8
0
100
AcDbLine
 62
6
  6
CONTINUOUS
 10
15.8034776903
 20
11.9993796132
 11
15.8026748433
 21
11.9993783621
  0
LINE
  5
2AB
100
AcDbEntity
  8
0
100
AcDbLine
 62
6
  6
CONTINUOUS
 10
15.8026909496
 20
11.0260107597
 11
15.8034776903
 21
11.0260106901
  0
LINE
  5
2AC
100
AcDbEntity
  8
0
100
AcDbLine
 62
6
  6
CONTINUOUS
 10
15.8034776903
 20
12.0016037895
 11
15.8029415302
 21
12.0016031053
  0
LINE
  5
2AD
100
AcDbEntity
  8
0
100
AcDbLine
 62
6
  6
CONTINUOUS
 10
15.8029499552
 20
11.0237864191
 11
15.8034776903
 21
11.0237865138
  0
LINE
  5
2AE
100
AcDbEntity
  8
0
100
AcDbLine
 62
6
  6
CONTINUOUS
 10
15.8034776903
 20
11.9971554379
 11
15.8029674172
 21
11.9971547947
  0
LINE
  5
2AF
100
AcDbEntity
  8
0
100
AcDbLine
 62
6
  6
CONTINUOUS
 10
15.8030065942
 20
11.0282347504
 11
15.8034776903
 21
11.0282348639
  0
SPLINE
  5
2B0
100
AcDbEntity
  8
0
100
AcDbSpline
 62
6
  6
CONTINUOUS
 70
0
 71
3
 72
35
 73
31
 74
29
 42
0.0000001
 43
0.0000001
 44
0.0000000001
 12
-1.1428530675
 22
-0.0008418311
 32
0.0
 13
0.8285740859
 23
-0.7871332967
 33
0.0
 40
0.0
 40
0.0
 40
0.0
 40
0.0
 40
0.0624334083
 40
0.0937124304
 40
0.1249808372
 40
0.1562365412
 40
0.1874865096
 40
0.218737499
 40
0.2499927025
 40
0.2812494787
 40
0.3125049659
 40
0.3437592857
 40
0.3750134367
 40
0.4062676408
 40
0.4375232631
 40
0.4687801151
 40
0.5000362696
 40
0.5312910831
 40
0.5625455098
 40
0.5937990685
 40
0.6250516951
 40
0.6563049106
 40
0.687558879
 40
0.7188137008
 40
0.7500707125
 40
0.8125446658
 40
0.8750197907
 40
0.9062777416
 40
0.9375336508
 40
1.0
 40
1.0
 40
1.0
 40
1.0
 10
15.8034776903
 20
11.9927070877
 30
0.0
 10
15.7796936196
 20
11.9926895682
 30
0.0
 10
15.7439227074
 20
11.9899837981
 30
0.0
 10
15.6971062011
 20
11.9811606334
 30
0.0
 10
15.6625462845
 20
11.9719329313
 30
0.0
 10
15.6287835748
 20
11.9601631285
 30
0.0
 10
15.5959913307
 20
11.9459252049
 30
0.0
 10
15.5643506118
 20
11.9292849261
 30
0.0
 10
15.5340331422
 20
11.9103362923
 30
0.0
 10
15.5051997947
 20
11.8891949919
 30
0.0
 10
15.4780173223
 20
11.8659691694
 30
0.0
 10
15.4526443734
 20
11.8407807672
 30
0.0
 10
15.4292088434
 20
11.8137815037
 30
0.0
 10
15.4078416552
 20
11.7851162926
 30
0.0
 10
15.3886733062
 20
11.7549352358
 30
0.0
 10
15.3717962074
 20
11.7234152822
 30
0.0
 10
15.3573017397
 20
11.6907310492
 30
0.0
 10
15.3452873573
 20
11.6570568874
 30
0.0
 10
15.3358102276
 20
11.6225840509
 30
0.0
 10
15.328913708
 20
11.5875043952
 30
0.0
 10
15.3246505608
 20
11.5520085459
 30
0.0
 10
15.3230426942
 20
11.5162938314
 30
0.0
 10
15.3240858093
 20
11.4805578689
 30
0.0
 10
15.3277867807
 20
11.4449949832
 30
0.0
 10
15.336239899
 20
11.3981009128
 30
0.0
 10
15.353296768
 20
11.3408452762
 30
0.0
 10
15.3786941001
 20
11.286772166
 30
0.0
 10
15.4036154263
 20
11.2461531811
 30
0.0
 10
15.4314900734
 20
11.2075156163
 30
0.0
 10
15.4555926345
 20
11.1809406733
 30
0.0
 10
15.4728453006
 20
11.1645508921
 30
0.0
 11
15.8034776903
 21
11.9927070877
 31
0.0
 11
15.7323269354
 21
11.9873488217
 31
0.0
 11
15.6971985675
 21
11.9807253927
 31
0.0
 11
15.6626727583
 21
11.9715072948
 31
0.0
 11
15.6289422415
 21
11.9597506071
 31
0.0
 11
15.5961835635
 21
11.945524988
 31
0.0
 11
15.5645729199
 21
11.9289012165
 31
0.0
 11
15.5342812356
 21
11.9099713336
 31
0.0
 11
15.5054745156
 21
11.8888472267
 31
0.0
 11
15.4783184579
 21
11.8656416604
 31
0.0
 11
15.4529671748
 21
11.8404788524
 31
0.0
 11
15.4295536287
 21
11.8135039283
 31
0.0
 11
15.40820853
 21
11.7848642395
 31
0.0
 11
15.3890554844
 21
11.7547125954
 31
0.0
 11
15.3721931788
 21
11.723220948
 31
0.0
 11
15.3577148398
 21
11.6905654437
 31
0.0
 11
15.3457101378
 21
11.6569234776
 31
0.0
 11
15.3362402229
 21
11.6224824569
 31
0.0
 11
15.3293525325
 21
11.5874346034
 31
0.0
 11
15.3250931242
 21
11.5519723183
 31
0.0
 11
15.3234845272
 21
11.5162907164
 31
0.0
 11
15.3245287443
 21
11.4805872798
 31
0.0
 11
15.3282267821
 21
11.4450595447
 31
0.0
 11
15.3345618348
 21
11.4099035872
 31
0.0
 11
15.35496446
 21
11.3414821836
 31
0.0
 11
15.3853020389
 21
11.2768479968
 31
0.0
 11
15.4039853818
 21
11.2463999488
 31
0.0
 11
15.4248849711
 21
11.2174311484
 31
0.0
 11
15.4728453006
 21
11.1645508921
 31
0.0
  0
LINE
  5
2B1
100
AcDbEntity
  8
0
100
AcDbLine
 62
6
  6
CONTINUOUS
 10
15.8034776903
 20
11.994931264
 11
15.8029480661
 21
11.9949305824
  0
SPLINE
  5
2B2
100
AcDbEntity
  8
0
100
AcDbSpline
 62
6
  6
CONTINUOUS
 70
0
 71
3
 72
35
 73
31
 74
29
 42
0.0000001
 43
0.0000001
 44
0.0000000001
 12
-1.1474547808
 22
-0.0021119489
 32
0.0
 13
0.8316432786
 23
-0.7905861063
 33
0.0
 40
0.0
 40
0.0
 40
0.0
 40
0.0
 40
0.0624347047
 40
0.093713191
 40
0.1249800348
 40
0.1562337617
 40
0.1874818926
 40
0.2187317014
 40
0.2499861805
 40
0.2812424427
 40
0.3124975949
 40
0.343751868
 40
0.3750062024
 40
0.4062608613
 40
0.4375172732
 40
0.468775169
 40
0.5000326576
 40
0.5312892002
 40
0.5625455008
 40
0.5938005965
 40
0.6250539275
 40
0.6563070297
 40
0.6875605234
 40
0.7188148795
 40
0.7500716329
 40
0.8125455302
 40
0.8750204396
 40
0.9062782487
 40
0.9375339298
 40
1.0
 40
1.0
 40
1.0
 40
1.0
 10
15.8029480661
 20
11.9949305824
 30
0.0
 10
15.7790677326
 20
11.9948866294
 30
0.0
 10
15.7431555445
 20
11.9921323373
 30
0.0
 10
15.6961594978
 20
11.9832276319
 30
0.0
 10
15.6614706247
 20
11.973930679
 30
0.0
 10
15.6275843476
 20
11.962084249
 30
0.0
 10
15.594673882
 20
11.9477619382
 30
0.0
 10
15.5629206084
 20
11.931029531
 30
0.0
 10
15.5324958146
 20
11.9119827999
 30
0.0
 10
15.5035613487
 20
11.8907369159
 30
0.0
 10
15.4762853758
 20
11.8673994163
 30
0.0
 10
15.4508256948
 20
11.842094186
 30
0.0
 10
15.4273105962
 20
11.814973045
 30
0.0
 10
15.4058722971
 20
11.7861805809
 30
0.0
 10
15.3866409338
 20
11.7558679724
 30
0.0
 10
15.369708715
 20
11.7242128502
 30
0.0
 10
15.3551680201
 20
11.691389881
 30
0.0
 10
15.3431169811
 20
11.6575739246
 30
0.0
 10
15.333612111
 20
11.6229573739
 30
0.0
 10
15.3266968565
 20
11.5877330893
 30
0.0
 10
15.3224238785
 20
11.552092599
 30
0.0
 10
15.3208162017
 20
11.5162337026
 30
0.0
 10
15.3218688244
 20
11.4803544068
 30
0.0
 10
15.3255877671
 20
11.4446491005
 30
0.0
 10
15.3340773354
 20
11.3975669219
 30
0.0
 10
15.3512013046
 20
11.3400807175
 30
0.0
 10
15.3766947844
 20
11.2857873675
 30
0.0
 10
15.4017091841
 20
11.2450006316
 30
0.0
 10
15.4296866435
 20
11.2062009565
 30
0.0
 10
15.453878556
 20
11.1795124754
 30
0.0
 10
15.4711950518
 20
11.163050873
 30
0.0
 11
15.8029480661
 21
11.9949305824
 31
0.0
 11
15.731514934
 21
11.9894754956
 31
0.0
 11
15.6962522156
 21
11.9827909086
 31
0.0
 11
15.6615977412
 21
11.9735037309
 31
0.0
 11
15.6277439654
 21
11.9616704577
 31
0.0
 11
15.5948673586
 21
11.9473605761
 31
0.0
 11
15.5631440196
 21
11.9306449603
 31
0.0
 11
15.5327450565
 21
11.9116168376
 31
0.0
 11
15.5038374251
 21
11.8903880363
 31
0.0
 11
15.4765877517
 21
11.8670711519
 31
0.0
 11
15.4511497843
 21
11.8417915303
 31
0.0
 11
15.4276568895
 21
11.8146946967
 31
0.0
 11
15.4062406264
 21
11.7859279647
 31
0.0
 11
15.387024506
 21
11.7556448637
 31
0.0
 11
15.3701072428
 21
11.724018074
 31
0.0
 11
15.3555827906
 21
11.6912239527
 31
0.0
 11
15.3435412695
 21
11.6574402582
 31
0.0
 11
15.3340435648
 21
11.622855436
 31
0.0
 11
15.3271370965
 21
11.5876628537
 31
0.0
 11
15.3228680747
 21
11.5520560093
 31
0.0
 11
15.321259584
 21
11.5162305178
 31
0.0
 11
15.3223131689
 21
11.4803839662
 31
0.0
 11
15.3260293127
 21
11.4447139991
 31
0.0
 11
15.3323915717
 21
11.409417041
 31
0.0
 11
15.3528748247
 21
11.340719644
 31
0.0
 11
15.3833273331
 21
11.2758219765
 31
0.0
 11
15.4020803795
 21
11.2452480702
 31
0.0
 11
15.4230572036
 21
11.2161578969
 31
0.0
 11
15.4711950518
 21
11.163050873
 31
0.0
  0
LINE
  5
2B3
100
AcDbEntity
  8
0
100
AcDbLine
 62
6
  6
CONTINUOUS
 10
15.8029516301
 20
11.0304589427
 11
15.8034776903
 21
11.0304590393
  0
LINE
  5
2B4
100
AcDbEntity
  8
0
100
AcDbLine
 62
6
  6
CONTINUOUS
 10
15.4741299503
 20
11.166402435
 11
15.4745333051
 21
11.1660190356
  0
LINE
  5
2B5
100
AcDbEntity
  8
0
100
AcDbLine
 62
6
  6
CONTINUOUS
 10
15.8034776903
 20
11.0148898124
 11
15.8040120211
 21
11.0148904826
  0
SPLINE
  5
2B6
100
AcDbEntity
  8
0
100
AcDbSpline
 62
6
  6
CONTINUOUS
 70
0
 71
3
 72
45
 73
41
 74
39
 42
0.0000001
 43
0.0000001
 44
0.0000000001
 12
1.5588025863
 22
0.0028007467
 32
0.0
 13
-1.5588050058
 23
0.0005487093
 33
0.0
 40
0.0
 40
0.0
 40
0.0
 40
0.0
 40
0.0312173261
 40
0.0624854196
 40
0.0781257621
 40
0.093760496
 40
0.1250083257
 40
0.1562497979
 40
0.1874947147
 40
0.2187421626
 40
0.2343704059
 40
0.2499986589
 40
0.2812465887
 40
0.3124954019
 40
0.3281254114
 40
0.3437560683
 40
0.3750084447
 40
0.4062600947
 40
0.4375115519
 40
0.4687605725
 40
0.5000077267
 40
0.5312539303
 40
0.5624998404
 40
0.5937471596
 40
0.6249950796
 40
0.6562447052
 40
0.6718742922
 40
0.6875033797
 40
0.7187506943
 40
0.7499979123
 40
0.7656263403
 40
0.7812552427
 40
0.8125050018
 40
0.8437523855
 40
0.8749952124
 40
0.9062429562
 40
0.9218771103
 40
0.9375166393
 40
0.9687833263
 40
1.0
 40
1.0
 40
1.0
 40
1.0
 10
15.8040120211
 20
11.0148904826
 30
0.0
 10
15.8202325707
 20
11.0149196266
 30
0.0
 10
15.852717589
 20
11.0165816944
 30
0.0
 10
15.8929303657
 20
11.0226020215
 30
0.0
 10
15.9246417681
 20
11.0297605081
 30
0.0
 10
15.9559511242
 20
11.0384703916
 30
0.0
 10
15.9942203668
 20
11.0522184369
 30
0.0
 10
16.038297273
 20
11.0731195321
 30
0.0
 10
16.080109722
 20
11.0982451916
 30
0.0
 10
16.1127547564
 20
11.1224874428
 30
0.0
 10
16.1373426394
 20
11.1437227558
 30
0.0
 10
16.1608562739
 20
11.1661423132
 30
0.0
 10
16.1881483365
 20
11.1962852223
 30
0.0
 10
16.2123627506
 20
11.228953849
 30
0.0
 10
16.2297317943
 20
11.2564132401
 30
0.0
 10
16.2457374216
 20
11.2846906082
 30
0.0
 10
16.2631262029
 20
11.3214554776
 30
0.0
 10
16.2795532582
 20
11.3673994108
 30
0.0
 10
16.2914039898
 20
11.4147302748
 30
0.0
 10
16.2985727729
 20
11.4629905696
 30
0.0
 10
16.3009612257
 20
11.511718942
 30
0.0
 10
16.2985847066
 20
11.5604461386
 30
0.0
 10
16.2914319199
 20
11.608704549
 30
0.0
 10
16.2795921229
 20
11.6560323699
 30
0.0
 10
16.2631770443
 20
11.701974697
 30
0.0
 10
16.245796032
 20
11.7387390128
 30
0.0
 10
16.2297949715
 20
11.7670161476
 30
0.0
 10
16.2124292951
 20
11.7944755373
 30
0.0
 10
16.1882170796
 20
11.8271438964
 30
0.0
 10
16.1609238898
 20
11.857284578
 30
0.0
 10
16.1374067504
 20
11.8797006001
 30
0.0
 10
16.1128128682
 20
11.9009315133
 30
0.0
 10
16.0801579252
 20
11.9251654319
 30
0.0
 10
16.0383317907
 20
11.950274934
 30
0.0
 10
15.9942404283
 20
11.9711507498
 30
0.0
 10
15.9559598943
 20
11.9848690992
 30
0.0
 10
15.924643496
 20
11.9935508664
 30
0.0
 10
15.8929264969
 20
12.0006781017
 30
0.0
 10
15.8527080632
 20
12.0066523535
 30
0.0
 10
15.820221666
 20
12.0082707001
 30
0.0
 10
15.8040014303
 20
12.0082764097
 30
0.0
 11
15.8040120211
 21
11.0148904826
 31
0.0
 11
15.852610673
 21
11.0173673195
 31
0.0
 11
15.9008140562
 21
11.0245857439
 31
0.0
 11
15.9245956015
 21
11.0299555189
 31
0.0
 11
15.9480757095
 21
11.0364865739
 31
0.0
 11
15.993916916
 21
11.0529540388
 31
0.0
 11
16.0379183323
 21
11.0738227627
 31
0.0
 11
16.0796681133
 21
11.0989047698
 31
0.0
 11
16.1187714113
 21
11.1279472852
 31
0.0
 11
16.1372083125
 21
11.1438707828
 31
0.0
 11
16.1548403696
 21
11.1606811487
 31
0.0
 11
16.1875324388
 21
11.1967898375
 31
0.0
 11
16.2165354805
 21
11.2359250713
 31
0.0
 11
16.2295610481
 21
11.2565150165
 31
0.0
 11
16.2415631776
 21
11.2777190092
 31
0.0
 11
16.2623866569
 21
11.3217606579
 31
0.0
 11
16.278790644
 21
11.3676309421
 31
0.0
 11
16.2906239813
 21
11.4148868057
 31
0.0
 11
16.2977761973
 21
11.4630700003
 31
0.0
 11
16.3001670705
 21
11.5117195096
 31
0.0
 11
16.2977886585
 21
11.5603681461
 31
0.0
 11
16.2906509269
 21
11.6085485871
 31
0.0
 11
16.278829761
 21
11.6558008477
 31
0.0
 11
16.2624373011
 21
11.7016690783
 31
0.0
 11
16.2416229391
 21
11.7457102937
 31
0.0
 11
16.2296241562
 21
11.7669142642
 31
0.0
 11
16.2166011588
 21
11.7875041346
 31
0.0
 11
16.1876008498
 21
11.8266384859
 31
0.0
 11
16.1549072842
 21
11.8627443232
 31
0.0
 11
16.1372724433
 21
11.879552164
 31
0.0
 11
16.118831248
 21
11.8954722605
 31
0.0
 11
16.0797160519
 21
11.9245047946
 31
0.0
 11
16.0379520252
 21
11.9495705472
 31
0.0
 11
15.9939362065
 21
11.9704138115
 31
0.0
 11
15.9480823741
 21
11.9868456895
 31
0.0
 11
15.9245973105
 21
11.9933555199
 31
0.0
 11
15.9008117509
 21
11.9987017053
 31
0.0
 11
15.8526023512
 21
12.0058649351
 31
0.0
 11
15.8040014303
 21
12.0082764097
 31
0.0
  0
LINE
  5
2B7
100
AcDbEntity
  8
0
100
AcDbLine
 62
6
  6
CONTINUOUS
 10
15.8040014303
 20
12.0082764097
 11
15.8034776903
 21
12.0082763151
  0
LINE
  5
2B8
100
AcDbEntity
  8
0
100
AcDbLine
 62
6
  6
CONTINUOUS
 10
15.8034776903
 20
11.0171139883
 11
15.8040097368
 21
11.0171146575
  0
SPLINE
  5
2B9
100
AcDbEntity
  8
0
100
AcDbSpline
 62
6
  6
CONTINUOUS
 70
0
 71
3
 72
42
 73
38
 74
36
 42
0.0000001
 43
0.0000001
 44
0.0000000001
 12
1.5517761164
 22
0.0027933917
 32
0.0
 13
-1.5517785338
 23
0.0005482033
 33
0.0
 40
0.0
 40
0.0
 40
0.0
 40
0.0
 40
0.0312180595
 40
0.0624863417
 40
0.0781264562
 40
0.093760821
 40
0.1250079917
 40
0.1562495999
 40
0.1874957355
 40
0.2187446675
 40
0.249992913
 40
0.2812417166
 40
0.3124913391
 40
0.3281218005
 40
0.3437529175
 40
0.3750062154
 40
0.406258868
 40
0.4375112825
 40
0.4687610145
 40
0.5000087513
 40
0.53125597
 40
0.562504037
 40
0.593754285
 40
0.6250050256
 40
0.6562569558
 40
0.6875081674
 40
0.718756996
 40
0.7500053842
 40
0.7812540783
 40
0.8125043721
 40
0.8437519415
 40
0.8749942193
 40
0.9062411408
 40
0.9218751045
 40
0.9375147355
 40
0.9687822793
 40
1.0
 40
1.0
 40
1.0
 40
1.0
 10
15.8040097368
 20
11.0171146575
 30
0.0
 10
15.8201575499
 20
11.0171437256
 30
0.0
 10
15.8524966074
 20
11.0187983913
 30
0.0
 10
15.8925284887
 20
11.0247915509
 30
0.0
 10
15.9240967362
 20
11.0319177662
 30
0.0
 10
15.9552643718
 20
11.0405880073
 30
0.0
 10
15.9933610093
 20
11.0542733299
 30
0.0
 10
16.0372391931
 20
11.0750801449
 30
0.0
 10
16.078865745
 20
11.1000943807
 30
0.0
 10
16.1178593563
 20
11.1290467144
 30
0.0
 10
16.1538244743
 20
11.161689149
 30
0.0
 10
16.1864208734
 20
11.1976922167
 30
0.0
 10
16.2105282842
 20
11.2302152995
 30
0.0
 10
16.2278196091
 20
11.2575513681
 30
0.0
 10
16.2437541455
 20
11.2857018131
 30
0.0
 10
16.2610657656
 20
11.3223017565
 30
0.0
 10
16.2774192073
 20
11.3680400196
 30
0.0
 10
16.2892179418
 20
11.4151585932
 30
0.0
 10
16.2963549656
 20
11.4632024545
 30
0.0
 10
16.2987337789
 20
11.5117123065
 30
0.0
 10
16.2963686797
 20
11.5602218506
 30
0.0
 10
16.2892471764
 20
11.6082659179
 30
0.0
 10
16.2774605715
 20
11.6553840383
 30
0.0
 10
16.2611179022
 20
11.7011251546
 30
0.0
 10
16.2403569433
 20
11.7450375743
 30
0.0
 10
16.2154120817
 20
11.7867146586
 30
0.0
 10
16.1864904787
 20
11.8257356972
 30
0.0
 10
16.1538909442
 20
11.8617380069
 30
0.0
 10
16.1179194905
 20
11.8943741444
 30
0.0
 10
16.0789153417
 20
11.9233156327
 30
0.0
 10
16.0372762561
 20
11.9483128482
 30
0.0
 10
15.9933846833
 20
11.9690943112
 30
0.0
 10
15.9552772527
 20
11.9827503113
 30
0.0
 10
15.9241024228
 20
11.9913925856
 30
0.0
 10
15.8925279778
 20
11.9984876759
 30
0.0
 10
15.8524898295
 20
12.0044352345
 30
0.0
 10
15.8201488881
 20
12.0060465292
 30
0.0
 10
15.8040012251
 20
12.0060522338
 30
0.0
 11
15.8040097368
 21
11.0171146575
 31
0.0
 11
15.8523904573
 21
11.0195804817
 31
0.0
 11
15.9003768511
 21
11.0267663933
 31
0.0
 11
15.9240508546
 21
11.0321118808
 31
0.0
 11
15.9474246126
 21
11.0386131967
 31
0.0
 11
15.9930584213
 21
11.0550055343
 31
0.0
 11
16.036861739
 21
11.0757801721
 31
0.0
 11
16.0784252311
 21
11.1007496252
 31
0.0
 11
16.1173546981
 21
11.129661818
 31
0.0
 11
16.1532627795
 21
11.1622490035
 31
0.0
 11
16.1858089362
 21
11.1981954449
 31
0.0
 11
16.2146822322
 21
11.2371551033
 31
0.0
 11
16.2276496867
 21
11.2576526867
 31
0.0
 11
16.2395984446
 21
11.2787615081
 31
0.0
 11
16.2603293644
 21
11.3226055995
 31
0.0
 11
16.2766602062
 21
11.3682704861
 31
0.0
 11
16.2884413364
 21
11.4153145865
 31
0.0
 11
16.2955620849
 21
11.4632815921
 31
0.0
 11
16.2979431389
 21
11.511712667
 31
0.0
 11
16.2955760212
 21
11.5601436199
 31
0.0
 11
16.2884699371
 21
11.6081101882
 31
0.0
 11
16.2767013939
 21
11.6551539736
 31
0.0
 11
16.260381783
 21
11.7008197242
 31
0.0
 11
16.23965936
 21
11.7446654848
 31
0.0
 11
16.2147484382
 21
11.7862732647
 31
0.0
 11
16.1858772168
 21
11.8252329271
 31
0.0
 11
16.153329165
 21
11.8611767829
 31
0.0
 11
16.1174146183
 21
11.893757879
 31
0.0
 11
16.0784745376
 21
11.9226593212
 31
0.0
 11
16.0368981858
 21
11.9476116798
 31
0.0
 11
15.9930815852
 21
11.9683607154
 31
0.0
 11
15.9474355549
 21
11.9847178434
 31
0.0
 11
15.9240565951
 21
11.9911980994
 31
0.0
 11
15.9003780797
 21
11.9965201449
 31
0.0
 11
15.852384686
 21
12.0036513637
 31
0.0
 11
15.8040012251
 21
12.0060522338
 31
0.0
  0
LINE
  5
2BA
100
AcDbEntity
  8
0
100
AcDbLine
 62
6
  6
CONTINUOUS
 10
15.8040012251
 20
12.0060522338
 11
15.8034776903
 21
12.0060521386
  0
LINE
  5
2BB
100
AcDbEntity
  8
0
100
AcDbLine
 62
6
  6
CONTINUOUS
 10
15.8034776903
 20
11.0193381644
 11
15.804007222
 21
11.019338832
  0
SPLINE
  5
2BC
100
AcDbEntity
  8
0
100
AcDbSpline
 62
6
  6
CONTINUOUS
 70
0
 71
3
 72
41
 73
37
 74
35
 42
0.0000001
 43
0.0000001
 44
0.0000000001
 12
1.5447792015
 22
0.0027852781
 32
0.0
 13
-1.544781615
 23
0.0005486824
 33
0.0
 40
0.0
 40
0.0
 40
0.0
 40
0.0
 40
0.0312180991
 40
0.0624858827
 40
0.0781255297
 40
0.0937594075
 40
0.1250058993
 40
0.1562475779
 40
0.1874945582
 40
0.2187443758
 40
0.2499930247
 40
0.2812418011
 40
0.3124913308
 40
0.3437435651
 40
0.3749968546
 40
0.4062494527
 40
0.4375017981
 40
0.468751622
 40
0.4999998979
 40
0.531248196
 40
0.5624981001
 40
0.5937505719
 40
0.6250032758
 40
0.6562566211
 40
0.6875088805
 40
0.7187584047
 40
0.7500071317
 40
0.7812557023
 40
0.8125054628
 40
0.8437524104
 40
0.8749940588
 40
0.9062404753
 40
0.9218743346
 40
0.9375140016
 40
0.9687818902
 40
1.0
 40
1.0
 40
1.0
 40
1.0
 10
15.804007222
 20
11.019338832
 30
0.0
 10
15.8200822454
 20
11.0193678157
 30
0.0
 10
15.8522752442
 20
11.0210149816
 30
0.0
 10
15.8921261777
 20
11.0269809091
 30
0.0
 10
15.923551333
 20
11.0340749284
 30
0.0
 10
15.9545776483
 20
11.0427057348
 30
0.0
 10
15.9925022001
 20
11.0563285498
 30
0.0
 10
16.0361826347
 20
11.0770416862
 30
0.0
 10
16.0776224244
 20
11.1019432685
 30
0.0
 10
16.1164417319
 20
11.1307650793
 30
0.0
 10
16.1522450751
 20
11.1632601794
 30
0.0
 10
16.1846962255
 20
11.1991019137
 30
0.0
 10
16.2134894645
 20
11.2379466916
 30
0.0
 10
16.2383277696
 20
11.2794340137
 30
0.0
 10
16.259004449
 20
11.3231463424
 30
0.0
 10
16.2752850901
 20
11.3686799071
 30
0.0
 10
16.2870318037
 20
11.4155852099
 30
0.0
 10
16.2941369316
 20
11.4634128408
 30
0.0
 10
16.2965060811
 20
11.5117047269
 30
0.0
 10
16.2941525988
 20
11.5599974187
 30
0.0
 10
16.2870625804
 20
11.6078274557
 30
0.0
 10
16.2753288114
 20
11.6547362164
 30
0.0
 10
16.2590594748
 20
11.7002740532
 30
0.0
 10
16.238390709
 20
11.7439903605
 30
0.0
 10
16.2135570756
 20
11.7854806451
 30
0.0
 10
16.1847652898
 20
11.8243266682
 30
0.0
 10
16.1523116193
 20
11.8601662483
 30
0.0
 10
16.1165027438
 20
11.892655379
 30
0.0
 10
16.0776746553
 20
11.92146558
 30
0.0
 10
16.0362238337
 20
11.9463491057
 30
0.0
 10
15.9925310937
 20
11.9670366838
 30
0.0
 10
15.9545960778
 20
11.9806308838
 30
0.0
 10
15.9235621001
 20
11.9892341117
 30
0.0
 10
15.8921298873
 20
11.9962972543
 30
0.0
 10
15.8522718983
 20
12.0022181664
 30
0.0
 10
15.8200764074
 20
12.0038223496
 30
0.0
 10
15.8040013534
 20
12.0038280592
 30
0.0
 11
15.804007222
 21
11.019338832
 31
0.0
 11
15.8521698563
 21
11.0217935466
 31
0.0
 11
15.899939129
 21
11.0289468787
 31
0.0
 11
15.9235056753
 21
11.0342681373
 31
0.0
 11
15.9467733425
 21
11.0407398457
 31
0.0
 11
15.9922005761
 21
11.0570574338
 31
0.0
 11
16.0358065503
 21
11.0777383073
 31
0.0
 11
16.0771839504
 21
11.1025955166
 31
0.0
 11
16.1159394098
 21
11.1313775873
 31
0.0
 11
16.1516863531
 21
11.1638179171
 31
0.0
 11
16.1840861408
 21
11.199601876
 31
0.0
 11
16.2128293212
 21
11.2383856339
 31
0.0
 11
16.2376337725
 21
11.279804143
 31
0.0
 11
16.2582719034
 21
11.323450204
 31
0.0
 11
16.2745295522
 21
11.3689089417
 31
0.0
 11
16.2862585267
 21
11.4157405702
 31
0.0
 11
16.2933477249
 21
11.463491355
 31
0.0
 11
16.2957189891
 21
11.5117048429
 31
0.0
 11
16.2933633029
 21
11.5599191287
 31
0.0
 11
16.2862889478
 21
11.6076722402
 31
0.0
 11
16.274572996
 21
11.6545073295
 31
0.0
 11
16.2583263508
 21
11.6999701744
 31
0.0
 11
16.2376961598
 21
11.7436200843
 31
0.0
 11
16.2128963822
 21
11.7850414372
 31
0.0
 11
16.1841545229
 21
11.8238261637
 31
0.0
 11
16.1517523818
 21
11.8596078886
 31
0.0
 11
16.1159998902
 21
11.8920419233
 31
0.0
 11
16.0772358195
 21
11.9208122475
 31
0.0
 11
16.035847536
 21
11.9456512329
 31
0.0
 11
15.9922294065
 21
11.9663063482
 31
0.0
 11
15.946789938
 21
11.98258949
 31
0.0
 11
15.9235165495
 21
11.9890404867
 31
0.0
 11
15.8999447491
 21
11.9943385639
 31
0.0
 11
15.8521672475
 21
12.0014378299
 31
0.0
 11
15.8040013534
 21
12.0038280592
 31
0.0
  0
LINE
  5
2BD
100
AcDbEntity
  8
0
100
AcDbLine
 62
6
  6
CONTINUOUS
 10
15.8040013534
 20
12.0038280592
 11
15.8034776903
 21
12.0038279637
  0
LINE
  5
2BE
100
AcDbEntity
  8
0
100
AcDbLine
 62
6
  6
CONTINUOUS
 10
15.8034776903
 20
11.0215623381
 11
15.8040084848
 21
11.021563011
  0
SPLINE
  5
2BF
100
AcDbEntity
  8
0
100
AcDbSpline
 62
6
  6
CONTINUOUS
 70
0
 71
3
 72
44
 73
40
 74
38
 42
0.0000001
 43
0.0000001
 44
0.0000000001
 12
1.537831385
 22
0.0027890944
 32
0.0
 13
-1.5378338101
 23
0.0005658766
 33
0.0
 40
0.0
 40
0.0
 40
0.0
 40
0.0
 40
0.031217038
 40
0.0624842721
 40
0.0781242791
 40
0.0937590312
 40
0.1250080241
 40
0.1562517564
 40
0.1874996106
 40
0.2187496998
 40
0.2343787353
 40
0.2500072604
 40
0.2812545601
 40
0.3125017165
 40
0.3437505793
 40
0.3749996998
 40
0.4062471284
 40
0.437494058
 40
0.4687398667
 40
0.499986306
 40
0.5312337984
 40
0.5624830911
 40
0.5937347335
 40
0.6249865483
 40
0.656239102
 40
0.6718698367
 40
0.6874999112
 40
0.7187488226
 40
0.7499968323
 40
0.7656251522
 40
0.7812535023
 40
0.8125012556
 40
0.8437466638
 40
0.8749889752
 40
0.9062377783
 40
0.9218729663
 40
0.937513704
 40
0.9687823626
 40
1.0
 40
1.0
 40
1.0
 40
1.0
 10
15.8040084848
 20
11.021563011
 30
0.0
 10
15.8200106651
 20
11.0215920334
 30
0.0
 10
15.8520580357
 20
11.0232318685
 30
0.0
 10
15.8917290553
 20
11.0291712732
 30
0.0
 10
15.9230131034
 20
11.0362339527
 30
0.0
 10
15.9539015396
 20
11.0448271854
 30
0.0
 10
15.9916576213
 20
11.0583907452
 30
0.0
 10
16.035144498
 20
11.0790121222
 30
0.0
 10
16.076397207
 20
11.1038030161
 30
0.0
 10
16.108605151
 20
11.1277216716
 30
0.0
 10
16.132863985
 20
11.1486722586
 30
0.0
 10
16.1560612086
 20
11.1707903332
 30
0.0
 10
16.1829853074
 20
11.2005291287
 30
0.0
 10
16.2116448953
 20
11.2391954453
 30
0.0
 10
16.2363680992
 20
11.280492857
 30
0.0
 10
16.2569472716
 20
11.3240033091
 30
0.0
 10
16.2731532552
 20
11.3693245027
 30
0.0
 10
16.28484636
 20
11.4160113776
 30
0.0
 10
16.2919177758
 20
11.4636182992
 30
0.0
 10
16.2942779685
 20
11.5116893833
 30
0.0
 10
16.2919374834
 20
11.5597634135
 30
0.0
 10
16.284880254
 20
11.6073771341
 30
0.0
 10
16.2732022581
 20
11.6540749536
 30
0.0
 10
16.2570074225
 20
11.6994051556
 30
0.0
 10
16.2398595164
 20
11.7356790322
 30
0.0
 10
16.2240731594
 20
11.7635784121
 30
0.0
 10
16.2069406242
 20
11.7906703419
 30
0.0
 10
16.1830533385
 20
11.8229007794
 30
0.0
 10
16.1561268417
 20
11.8526370778
 30
0.0
 10
16.132926519
 20
11.8747520724
 30
0.0
 10
16.1086652128
 20
11.8956972334
 30
0.0
 10
16.0764522074
 20
11.9196047793
 30
0.0
 10
16.0351909996
 20
11.9443757313
 30
0.0
 10
15.9916939143
 20
11.9649711906
 30
0.0
 10
15.9539282383
 20
11.9785069888
 30
0.0
 10
15.92303169
 20
11.987073075
 30
0.0
 10
15.8917393515
 20
11.9941051911
 30
0.0
 10
15.8520600754
 20
12.0000004969
 30
0.0
 10
15.8200092486
 20
12.001597995
 30
0.0
 10
15.8040067359
 20
12.0016038835
 30
0.0
 11
15.8040084848
 21
11.021563011
 31
0.0
 11
15.8519528564
 21
11.0240069365
 31
0.0
 11
15.8995063758
 21
11.0311284435
 31
0.0
 11
15.9229673848
 21
11.0364262661
 31
0.0
 11
15.9461315537
 21
11.0428697501
 31
0.0
 11
15.9913577121
 21
11.0591163117
 31
0.0
 11
16.0347702059
 21
11.0797059712
 31
0.0
 11
16.0759616325
 21
11.1044537844
 31
0.0
 11
16.114541712
 21
11.1331085514
 31
0.0
 11
16.132731591
 21
11.1488185112
 31
0.0
 11
16.1501266389
 21
11.1654031161
 31
0.0
 11
16.1823773874
 21
11.201026074
 31
0.0
 11
16.2109882604
 21
11.239633103
 31
0.0
 11
16.2356773415
 21
11.2808615667
 31
0.0
 11
16.256218799
 21
11.3243060549
 31
0.0
 11
16.2724012674
 21
11.3695526314
 31
0.0
 11
16.2840762119
 21
11.4161653645
 31
0.0
 11
16.2911325446
 21
11.4636952891
 31
0.0
 11
16.2934945269
 21
11.5116890365
 31
0.0
 11
16.2911514985
 21
11.5596853344
 31
0.0
 11
16.2841104263
 21
11.6072229383
 31
0.0
 11
16.2724495514
 21
11.6538466641
 31
0.0
 11
16.2562773448
 21
11.6991040724
 31
0.0
 11
16.2357422755
 21
11.7425574201
 31
0.0
 11
16.2239045663
 21
11.7634779553
 31
0.0
 11
16.2110563539
 21
11.7837923536
 31
0.0
 11
16.1824451276
 21
11.82240248
 31
0.0
 11
16.1501909903
 21
11.8580238428
 31
0.0
 11
16.1327938767
 21
11.8746058233
 31
0.0
 11
16.1146018895
 21
11.8903117288
 31
0.0
 11
16.0760162104
 21
11.9189529285
 31
0.0
 11
16.0348170499
 21
11.9436805557
 31
0.0
 11
15.9913945797
 21
11.9642440627
 31
0.0
 11
15.9461566954
 21
11.9804570802
 31
0.0
 11
15.9229861965
 21
11.9868802743
 31
0.0
 11
15.8995188903
 21
11.9921552584
 31
0.0
 11
15.8519552358
 21
11.9992236761
 31
0.0
 11
15.8040067359
 21
12.0016038835
 31
0.0
  0
LINE
  5
2C0
100
AcDbEntity
  8
0
100
AcDbLine
 62
6
  6
CONTINUOUS
 10
15.8040067359
 20
12.0016038835
 11
15.8034776903
 21
12.0016037895
  0
LINE
  5
2C1
100
AcDbEntity
  8
0
100
AcDbLine
 62
6
  6
CONTINUOUS
 10
15.8034776903
 20
11.0237865138
 11
15.8040118542
 21
11.0237871959
  0
SPLINE
  5
2C2
100
AcDbEntity
  8
0
100
AcDbSpline
 62
6
  6
CONTINUOUS
 70
0
 71
3
 72
37
 73
33
 74
31
 42
0.0000001
 43
0.0000001
 44
0.0000000001
 12
1.1531877431
 22
0.0021091593
 32
0.0
 13
-0.8232958997
 23
0.80748392
 33
0.0
 40
0.0
 40
0.0
 40
0.0
 40
0.0
 40
0.0624310755
 40
0.0937093574
 40
0.1249778837
 40
0.1562336249
 40
0.1874830546
 40
0.2187323998
 40
0.2499853472
 40
0.281239721
 40
0.3124926783
 40
0.3437439799
 40
0.3749946922
 40
0.4062449065
 40
0.4374957696
 40
0.468747705
 40
0.4999992637
 40
0.531249899
 40
0.5625006
 40
0.59375091
 40
0.6250005298
 40
0.6562508286
 40
0.6875019822
 40
0.71875381
 40
0.7500075438
 40
0.7812629138
 40
0.8125185166
 40
0.8437744473
 40
0.8750308879
 40
0.9062861147
 40
0.9375390726
 40
1.0
 40
1.0
 40
1.0
 40
1.0
 10
15.8040118542
 20
11.0237871959
 30
0.0
 10
15.8280101046
 20
11.0238310883
 30
0.0
 10
15.8640993502
 20
11.0265811301
 30
0.0
 10
15.9113398315
 20
11.0354727086
 30
0.0
 10
15.9462187851
 20
11.0447567747
 30
0.0
 10
15.9803013896
 20
11.0565894712
 30
0.0
 10
16.0134148613
 20
11.0708959023
 30
0.0
 10
16.0453796074
 20
11.0876098046
 30
0.0
 10
16.0760231177
 20
11.1066412461
 30
0.0
 10
16.1051860566
 20
11.1278740045
 30
0.0
 10
16.1327043496
 20
11.151198663
 30
0.0
 10
16.15841715
 20
11.1764976899
 30
0.0
 10
16.1821963628
 20
11.203620253
 30
0.0
 10
16.2039136444
 20
11.2324206097
 30
0.0
 10
16.2234374311
 20
11.2627514509
 30
0.0
 10
16.2406727118
 20
11.2944388174
 30
0.0
 10
16.2555301687
 20
11.3273084714
 30
0.0
 10
16.2679127814
 20
11.3611878355
 30
0.0
 10
16.277758632
 20
11.395888506
 30
0.0
 10
16.285025023
 20
11.431219126
 30
0.0
 10
16.2896593866
 20
11.4669904739
 30
0.0
 10
16.2916342218
 20
11.503006717
 30
0.0
 10
16.2909534182
 20
11.5390713405
 30
0.0
 10
16.2876116123
 20
11.5749890152
 30
0.0
 10
16.2816164599
 20
11.6105616372
 30
0.0
 10
16.2730177918
 20
11.6455972778
 30
0.0
 10
16.2618602083
 20
11.6799051544
 30
0.0
 10
16.2481872292
 20
11.7132911423
 30
0.0
 10
16.2320891069
 20
11.74557599
 30
0.0
 10
16.2136562379
 20
11.7765902918
 30
0.0
 10
16.1861077689
 20
11.8159799632
 30
0.0
 10
16.1622049829
 20
11.8431617369
 30
0.0
 10
16.1450637077
 20
11.8599738018
 30
0.0
 11
15.8040118542
 21
11.0237871959
 31
0.0
 11
15.8758003987
 21
11.0292338832
 31
0.0
 11
15.9112472141
 21
11.0359086976
 31
0.0
 11
15.9460925309
 21
11.0451835194
 31
0.0
 11
15.9801432854
 21
11.0570030577
 31
0.0
 11
16.0132236081
 21
11.0712972173
 31
0.0
 11
16.0451579253
 21
11.0879952143
 31
0.0
 11
16.0757757022
 21
11.1070077065
 31
0.0
 11
16.1049124555
 21
11.128223062
 31
0.0
 11
16.1324040788
 21
11.1515283105
 31
0.0
 11
16.1580951636
 21
11.1768019033
 31
0.0
 11
16.1818528484
 21
11.2039000537
 31
0.0
 11
16.2035478774
 21
11.2326754193
 31
0.0
 11
16.2230557573
 21
11.2629771109
 31
0.0
 11
16.2402764746
 21
11.2946360102
 31
0.0
 11
16.2551178597
 21
11.3274771579
 31
0.0
 11
16.2674900058
 21
11.3613247716
 31
0.0
 11
16.2773287714
 21
11.3959937072
 31
0.0
 11
16.2845864024
 21
11.4312928674
 31
0.0
 11
16.2892161067
 21
11.4670309756
 31
0.0
 11
16.2911916069
 21
11.5030143103
 31
0.0
 11
16.290509947
 21
11.5390463706
 31
0.0
 11
16.28716952
 21
11.5749305122
 31
0.0
 11
16.281182713
 21
11.6104712865
 31
0.0
 11
16.272591366
 21
11.6454757615
 31
0.0
 11
16.2614410434
 21
11.6797513237
 31
0.0
 11
16.2477831064
 21
11.7131074608
 31
0.0
 11
16.231699662
 21
11.7453648062
 31
0.0
 11
16.2132829719
 21
11.7763476746
 31
0.0
 11
16.1926265004
 21
11.8058812857
 31
0.0
 11
16.1450637077
 21
11.8599738018
 31
0.0
  0
LINE
  5
2C3
100
AcDbEntity
  8
0
100
AcDbLine
 62
6
  6
CONTINUOUS
 10
15.8040076141
 20
11.9993797072
 11
15.8034776903
 21
11.9993796132
  0
LINE
  5
2C4
100
AcDbEntity
  8
0
100
AcDbLine
 62
6
  6
CONTINUOUS
 10
15.8034776903
 20
11.0260106901
 11
15.8040145045
 21
11.0260113802
  0
SPLINE
  5
2C5
100
AcDbEntity
  8
0
100
AcDbSpline
 62
6
  6
CONTINUOUS
 70
0
 71
3
 72
37
 73
33
 74
31
 42
0.0000001
 43
0.0000001
 44
0.0000000001
 12
1.1480429603
 22
0.0021158121
 32
0.0
 13
-0.8198258902
 23
0.8036744521
 33
0.0
 40
0.0
 40
0.0
 40
0.0
 40
0.0
 40
0.0624325188
 40
0.0937120429
 40
0.1249818413
 40
0.1562385104
 40
0.1874885559
 40
0.2187382052
 40
0.2499912986
 40
0.2812457407
 40
0.3124986696
 40
0.3437497539
 40
0.3750000057
 40
0.4062494258
 40
0.4374990878
 40
0.4687497295
 40
0.5000003999
 40
0.5312510436
 40
0.5625024634
 40
0.5937536396
 40
0.6250037997
 40
0.6562541764
 40
0.6875051196
 40
0.7187566711
 40
0.750010175
 40
0.7812652911
 40
0.8125206281
 40
0.8437763423
 40
0.8750324875
 40
0.9062872568
 40
0.9375396489
 40
1.0
 40
1.0
 40
1.0
 40
1.0
 10
15.8040145045
 20
11.0260113802
 30
0.0
 10
15.8279062424
 20
11.026055412
 30
0.0
 10
15.8638354694
 20
11.0287943627
 30
0.0
 10
15.9108663754
 20
11.0376481546
 30
0.0
 10
15.9455906705
 20
11.0468924197
 30
0.0
 10
15.9795215593
 20
11.0586746952
 30
0.0
 10
16.0124869857
 20
11.0729198059
 30
0.0
 10
16.0443084373
 20
11.0895613552
 30
0.0
 10
16.0748138408
 20
11.1085105508
 30
0.0
 10
16.1038447388
 20
11.1296513602
 30
0.0
 10
16.1312381309
 20
11.152874372
 30
0.0
 10
16.1568335057
 20
11.178062921
 30
0.0
 10
16.1805032333
 20
11.2050667185
 30
0.0
 10
16.2021198305
 20
11.2337402657
 30
0.0
 10
16.2215525879
 20
11.263936821
 30
0.0
 10
16.2387066967
 20
11.2954836855
 30
0.0
 10
16.2534931554
 20
11.328207937
 30
0.0
 10
16.2658153412
 20
11.3619379836
 30
0.0
 10
16.2756126374
 20
11.3964857783
 30
0.0
 10
16.2828418289
 20
11.4316606045
 30
0.0
 10
16.2874499498
 20
11.4672736696
 30
0.0
 10
16.2894101549
 20
11.503129709
 30
0.0
 10
16.2887262194
 20
11.5390331807
 30
0.0
 10
16.2853924382
 20
11.5747897051
 30
0.0
 10
16.2794175048
 20
11.6102022195
 30
0.0
 10
16.2708508139
 20
11.6450797033
 30
0.0
 10
16.2597360172
 20
11.6792319716
 30
0.0
 10
16.2461169056
 20
11.7124657638
 30
0.0
 10
16.2300842324
 20
11.7446029778
 30
0.0
 10
16.2117271569
 20
11.7754745338
 30
0.0
 10
16.1842924475
 20
11.814681307
 30
0.0
 10
16.1604908555
 20
11.8417364776
 30
0.0
 10
16.1434219846
 20
11.8584690738
 30
0.0
 11
15.8040145045
 21
11.0260113802
 31
0.0
 11
15.8754842894
 21
11.0314357278
 31
0.0
 11
15.9107741405
 21
11.0380822264
 31
0.0
 11
15.9454650418
 21
11.0473174369
 31
0.0
 11
15.9793642204
 21
11.0590865252
 31
0.0
 11
16.0122966762
 21
11.0733193543
 31
0.0
 11
16.0440877097
 21
11.0899451665
 31
0.0
 11
16.0745674816
 21
11.1088754242
 31
0.0
 11
16.1035723726
 21
11.129998837
 31
0.0
 11
16.1309391811
 21
11.1532026169
 31
0.0
 11
16.1565129386
 21
11.1783658553
 31
0.0
 11
16.180161305
 21
11.2053453259
 31
0.0
 11
16.2017557936
 21
11.2339940016
 31
0.0
 11
16.2211725809
 21
11.2641614815
 31
0.0
 11
16.2383120535
 21
11.2956798518
 31
0.0
 11
16.25308243
 21
11.3283755324
 31
0.0
 11
16.2653944243
 21
11.3620739618
 31
0.0
 11
16.2751846453
 21
11.3965904051
 31
0.0
 11
16.28240506
 21
11.4317340934
 31
0.0
 11
16.287008628
 21
11.4673140972
 31
0.0
 11
16.2889694603
 21
11.5031373088
 31
0.0
 11
16.2882846059
 21
11.539008258
 31
0.0
 11
16.28495238
 21
11.5747313655
 31
0.0
 11
16.2789857152
 21
11.6101122061
 31
0.0
 11
16.2704261887
 21
11.6449586163
 31
0.0
 11
16.2593187042
 21
11.6790786953
 31
0.0
 11
16.2457146948
 21
11.7122828818
 31
0.0
 11
16.2296964724
 21
11.7443926799
 31
0.0
 11
16.2113554689
 21
11.7752328619
 31
0.0
 11
16.1907846282
 21
11.8046293565
 31
0.0
 11
16.1434219846
 21
11.8584690738
 31
0.0
  0
LINE
  5
2C6
100
AcDbEntity
  8
0
100
AcDbLine
 62
6
  6
CONTINUOUS
 10
15.8040081667
 20
11.9971555321
 11
15.8034776903
 21
11.9971554379
  0
LINE
  5
2C7
100
AcDbEntity
  8
0
100
AcDbLine
 62
6
  6
CONTINUOUS
 10
15.8034776903
 20
11.0282348639
 11
15.8040156634
 21
11.0282355594
  0
SPLINE
  5
2C8
100
AcDbEntity
  8
0
100
AcDbSpline
 62
6
  6
CONTINUOUS
 70
0
 71
3
 72
37
 73
33
 74
31
 42
0.0000001
 43
0.0000001
 44
0.0000000001
 12
1.1429381249
 22
0.0021189078
 32
0.0
 13
-0.816441347
 23
0.7998347167
 33
0.0
 40
0.0
 40
0.0
 40
0.0
 40
0.0
 40
0.0624330727
 40
0.093713127
 40
0.1249835227
 40
0.15624071
 40
0.1874912174
 40
0.2187412907
 40
0.2499948185
 40
0.2812496082
 40
0.3125026082
 40
0.3437534044
 40
0.3750034929
 40
0.4062534661
 40
0.4375048557
 40
0.4687581945
 40
0.5000120221
 40
0.5312657388
 40
0.5625200216
 40
0.5937737468
 40
0.6250257104
 40
0.6562769285
 40
0.6875280726
 40
0.7187791702
 40
0.7500315092
 40
0.7812849023
 40
0.8125377128
 40
0.8437896862
 40
0.8750415339
 40
0.906292391
 40
0.9375420062
 40
1.0
 40
1.0
 40
1.0
 40
1.0
 10
15.8040156634
 20
11.0282355594
 30
0.0
 10
15.8278013764
 20
11.028279656
 30
0.0
 10
15.8635712377
 20
11.0310073433
 30
0.0
 10
15.9103933336
 20
11.0398235695
 30
0.0
 10
15.9449634466
 20
11.0490283859
 30
0.0
 10
15.9787433456
 20
11.0607604777
 30
0.0
 10
16.0115616834
 20
11.0749447836
 30
0.0
 10
16.043240806
 20
11.0915150423
 30
0.0
 10
16.0736091355
 20
11.1103831848
 30
0.0
 10
16.1025089645
 20
11.1314332635
 30
0.0
 10
16.129778238
 20
11.1545558172
 30
0.0
 10
16.1552569156
 20
11.1796351146
 30
0.0
 10
16.1788178444
 20
11.2065220237
 30
0.0
 10
16.2003346206
 20
11.2350718884
 30
0.0
 10
16.2196771097
 20
11.2651389345
 30
0.0
 10
16.2367506817
 20
11.2965511413
 30
0.0
 10
16.2514670344
 20
11.3291355725
 30
0.0
 10
16.2637297283
 20
11.3627210838
 30
0.0
 10
16.2734758822
 20
11.3971208288
 30
0.0
 10
16.280664563
 20
11.432143727
 30
0.0
 10
16.2852454699
 20
11.467601311
 30
0.0
 10
16.2871871103
 20
11.5032996206
 30
0.0
 10
16.2864951741
 20
11.5390434217
 30
0.0
 10
16.283167524
 20
11.5746395808
 30
0.0
 10
16.2772090921
 20
11.6098917039
 30
0.0
 10
16.2686693689
 20
11.6446092437
 30
0.0
 10
16.2575949
 20
11.6786034321
 30
0.0
 10
16.2440292166
 20
11.7116821903
 30
0.0
 10
16.2280596886
 20
11.7436673941
 30
0.0
 10
16.2097762552
 20
11.7743920477
 30
0.0
 10
16.1824530682
 20
11.813412926
 30
0.0
 10
16.1587502745
 20
11.8403390169
 30
0.0
 10
16.1417525116
 20
11.8569910409
 30
0.0
 11
15.8040156634
 21
11.0282355594
 31
0.0
 11
15.8751681652
 21
11.0336374369
 31
0.0
 11
15.9103014573
 21
11.0402557518
 31
0.0
 11
15.9448383533
 21
11.0494516157
 31
0.0
 11
15.9785866712
 21
11.0611705434
 31
0.0
 11
16.0113721835
 21
11.0753425922
 31
0.0
 11
16.0430209632
 21
11.0918972318
 31
0.0
 11
16.0733638255
 21
11.1107464786
 31
0.0
 11
16.1022378727
 21
11.1317792112
 31
0.0
 11
16.1294806474
 21
11.1548827071
 31
0.0
 11
16.1549376114
 21
11.1799367158
 31
0.0
 11
16.1784771601
 21
11.2067991846
 31
0.0
 11
16.1999718167
 21
11.2353241371
 31
0.0
 11
16.2192984517
 21
11.2653622794
 31
0.0
 11
16.2363576589
 21
11.296746215
 31
0.0
 11
16.2510580847
 21
11.3293024027
 31
0.0
 11
16.2633102395
 21
11.3628565907
 31
0.0
 11
16.2730497081
 21
11.3972250036
 31
0.0
 11
16.2802300762
 21
11.4322170287
 31
0.0
 11
16.284805637
 21
11.4676418778
 31
0.0
 11
16.286748184
 21
11.5033072856
 31
0.0
 11
16.2860558945
 21
11.5390187615
 31
0.0
 11
16.282729143
 21
11.5745816312
 31
0.0
 11
16.2767789762
 21
11.609802106
 31
0.0
 11
16.2682468397
 21
11.6444889197
 31
0.0
 11
16.2571795547
 21
11.6784512523
 31
0.0
 11
16.2436285044
 21
11.7115000877
 31
0.0
 11
16.2276737827
 21
11.7434577639
 31
0.0
 11
16.2094066254
 21
11.7741510254
 31
0.0
 11
16.1889197357
 21
11.8034076706
 31
0.0
 11
16.1417525116
 21
11.8569910409
 31
0.0
  0
LINE
  5
2C9
100
AcDbEntity
  8
0
100
AcDbLine
 62
6
  6
CONTINUOUS
 10
15.8040092985
 20
11.9949313582
 11
15.8034776903
 21
11.994931264
  0
LINE
  5
2CA
100
AcDbEntity
  8
0
100
AcDbLine
 62
6
  6
CONTINUOUS
 10
15.8034776903
 20
11.0304590393
 11
15.8040150521
 21
11.0304597368
  0
SPLINE
  5
2CB
100
AcDbEntity
  8
0
100
AcDbSpline
 62
6
  6
CONTINUOUS
 70
0
 71
3
 72
37
 73
33
 74
31
 42
0.0000001
 43
0.0000001
 44
0.0000000001
 12
1.1378468191
 22
0.0021177214
 32
0.0
 13
-0.8130841275
 23
0.7959862248
 33
0.0
 40
0.0
 40
0.0
 40
0.0
 40
0.0
 40
0.0624327729
 40
0.0937125339
 40
0.1249825826
 40
0.1562394665
 40
0.187489705
 40
0.2187395407
 40
0.2499928382
 40
0.2812474676
 40
0.312500492
 40
0.3437516263
 40
0.3750023918
 40
0.406253414
 40
0.4375062637
 40
0.4687613026
 40
0.5000167541
 40
0.5312716612
 40
0.5625266973
 40
0.5937809166
 40
0.6250331377
 40
0.6562843223
 40
0.687535185
 40
0.7187856623
 40
0.7500369698
 40
0.7812891607
 40
0.8125407677
 40
0.8437915985
 40
0.8750424649
 40
0.906292627
 40
0.9375419273
 40
1.0
 40
1.0
 40
1.0
 40
1.0
 10
15.8040150521
 20
11.0304597368
 30
0.0
 10
15.8276946961
 20
11.0305038085
 30
0.0
 10
15.8633049966
 20
11.0332198837
 30
0.0
 10
15.9099178936
 20
11.0419983023
 30
0.0
 10
15.9443332616
 20
11.0511635739
 30
0.0
 10
15.9779617606
 20
11.0628450216
 30
0.0
 10
16.0106327705
 20
11.0769680272
 30
0.0
 10
16.0421693026
 20
11.093466704
 30
0.0
 10
16.0724006586
 20
11.1122530824
 30
0.0
 10
16.1011697751
 20
11.1332118927
 30
0.0
 10
16.1283151745
 20
11.1562344153
 30
0.0
 10
16.1536777495
 20
11.1812052132
 30
0.0
 10
16.1771309385
 20
11.2079758473
 30
0.0
 10
16.1985486931
 20
11.2364024621
 30
0.0
 10
16.2178011193
 20
11.2663400029
 30
0.0
 10
16.2347940357
 20
11.2976168599
 30
0.0
 10
16.2494397515
 20
11.3300603095
 30
0.0
 10
16.2616424135
 20
11.3634996482
 30
0.0
 10
16.2713379028
 20
11.3977492102
 30
0.0
 10
16.2784865116
 20
11.4326183181
 30
0.0
 10
16.2830394514
 20
11.467919209
 30
0.0
 10
16.2849636099
 20
11.503458991
 30
0.0
 10
16.2842652036
 20
11.539043023
 30
0.0
 10
16.2809435169
 20
11.5744790433
 30
0.0
 10
16.2750024772
 20
11.6095715125
 30
0.0
 10
16.266490969
 20
11.6441306534
 30
0.0
 10
16.2554562871
 20
11.6779688763
 30
0.0
 10
16.2419419718
 20
11.7108952086
 30
0.0
 10
16.2260341965
 20
11.7427320669
 30
0.0
 10
16.2078228126
 20
11.7733133902
 30
0.0
 10
16.1806087957
 20
11.8121512422
 30
0.0
 10
16.15700238
 20
11.8389492183
 30
0.0
 10
16.1400744908
 20
11.8555211402
 30
0.0
 11
15.8040150521
 21
11.0304597368
 31
0.0
 11
15.874850171
 21
11.0358387031
 31
0.0
 11
15.9098264146
 21
11.0424286267
 31
0.0
 11
15.944208679
 21
11.0515849396
 31
0.0
 11
15.9778057302
 21
11.0632532981
 31
0.0
 11
16.0104440437
 21
11.0773641144
 31
0.0
 11
16.0419503939
 21
11.093847195
 31
0.0
 11
16.0721563592
 21
11.1126147692
 31
0.0
 11
16.100899737
 21
11.1335563117
 31
0.0
 11
16.1280187486
 21
11.1565597743
 31
0.0
 11
16.153359705
 21
11.1815053763
 31
0.0
 11
16.1767915736
 21
11.2082516812
 31
0.0
 11
16.1981872579
 21
11.23665349
 31
0.0
 11
16.2174239656
 21
11.2665622683
 31
0.0
 11
16.2344027025
 21
11.2978110381
 31
0.0
 11
16.2490326533
 21
11.3302264827
 31
0.0
 11
16.2612245597
 21
11.3636347131
 31
0.0
 11
16.2709135315
 21
11.3978529351
 31
0.0
 11
16.2780540643
 21
11.4326912699
 31
0.0
 11
16.2826013802
 21
11.4679596267
 31
0.0
 11
16.2845265213
 21
11.5034665984
 31
0.0
 11
16.2838279851
 21
11.5390184927
 31
0.0
 11
16.2805070129
 21
11.5744213897
 31
0.0
 11
16.2745741451
 21
11.6094822257
 31
0.0
 11
16.2660703672
 21
11.6440107413
 31
0.0
 11
16.2550428857
 21
11.67781725
 31
0.0
 11
16.2415430298
 21
11.7107137005
 31
0.0
 11
16.2256500853
 21
11.7425231295
 31
0.0
 11
16.2074549501
 21
11.7730731788
 31
0.0
 11
16.1870499646
 21
11.8021925072
 31
0.0
 11
16.1400744908
 21
11.8555211402
 31
0.0
  0
SPLINE
  5
2CC
100
AcDbEntity
  8
0
100
AcDbSpline
 62
6
  6
CONTINUOUS
 70
0
 71
3
 72
38
 73
34
 74
32
 42
0.0000001
 43
0.0000001
 44
0.0000000001
 12
0.806473374
 22
-0.7887810504
 32
0.0
 13
-1.1280842824
 23
-0.0008367601
 33
0.0
 40
0.0
 40
0.0
 40
0.0
 40
0.0
 40
0.031250996
 40
0.0625028116
 40
0.093754351
 40
0.1250051262
 40
0.1562565631
 40
0.1875084348
 40
0.2187595592
 40
0.2500104768
 40
0.2812622448
 40
0.3125138739
 40
0.3437646725
 40
0.3750159956
 40
0.406267877
 40
0.4375191199
 40
0.4687700179
 40
0.5000217832
 40
0.5312734959
 40
0.5625241888
 40
0.5937750778
 40
0.6250267565
 40
0.6562784449
 40
0.6875305668
 40
0.7187837266
 40
0.7500354821
 40
0.7812827685
 40
0.8125264733
 40
0.843773417
 40
0.8750304588
 40
0.9063047709
 40
0.9375855871
 40
1.0
 40
1.0
 40
1.0
 40
1.0
 10
16.1368356355
 20
11.8524679397
 30
0.0
 10
16.1452366675
 20
11.8442512086
 30
0.0
 10
16.1614336835
 20
11.8271854979
 30
0.0
 10
16.1837676742
 20
11.7998688622
 30
0.0
 10
16.2040298353
 20
11.7709794359
 30
0.0
 10
16.2220951984
 20
11.7406681523
 30
0.0
 10
16.2378626811
 20
11.70910051
 30
0.0
 10
16.2512614379
 20
11.6764571706
 30
0.0
 10
16.26221595
 20
11.6429141667
 30
0.0
 10
16.2706477782
 20
11.6086498917
 30
0.0
 10
16.2765257022
 20
11.5738567052
 30
0.0
 10
16.2798255686
 20
11.5387250742
 30
0.0
 10
16.2805165862
 20
11.5034453476
 30
0.0
 10
16.2785879082
 20
11.4682117272
 30
0.0
 10
16.2740688788
 20
11.4332161433
 30
0.0
 10
16.2669830088
 20
11.3986484897
 30
0.0
 10
16.2573501065
 20
11.3647022668
 30
0.0
 10
16.2452349318
 20
11.3315610265
 30
0.0
 10
16.2307133697
 20
11.2994014586
 30
0.0
 10
16.2138551869
 20
11.2684027055
 30
0.0
 10
16.1947430067
 20
11.2387406963
 30
0.0
 10
16.173497369
 20
11.2105674935
 30
0.0
 10
16.1502336909
 20
11.1840350863
 30
0.0
 10
16.1250648324
 20
11.1593015146
 30
0.0
 10
16.0981361528
 20
11.1364971843
 30
0.0
 10
16.0696050139
 20
11.1157360115
 30
0.0
 10
16.0396235864
 20
11.0971363545
 30
0.0
 10
16.0083471041
 20
11.0808120612
 30
0.0
 10
15.9759485698
 20
11.0668375783
 30
0.0
 10
15.9425977141
 20
11.0552858207
 30
0.0
 10
15.9084649338
 20
11.046238821
 30
0.0
 10
15.8622482398
 20
11.0375839837
 30
0.0
 10
15.826947263
 20
11.0349247984
 30
0.0
 10
15.8034776903
 20
11.0349073898
 30
0.0
 11
16.1368356355
 21
11.8524679397
 31
0.0
 11
16.1611065522
 21
11.8268993907
 31
0.0
 11
16.1834224374
 21
11.7996066344
 31
0.0
 11
16.2036638732
 21
11.7707421997
 31
0.0
 11
16.2217120914
 21
11.7404589972
 31
0.0
 11
16.2374678138
 21
11.7089213947
 31
0.0
 11
16.2508541707
 21
11.6763069316
 31
0.0
 11
16.2617955294
 21
11.6427938749
 31
0.0
 11
16.2702220563
 21
11.608562084
 31
0.0
 11
16.2760960298
 21
11.5738002381
 31
0.0
 11
16.2793907813
 21
11.538700052
 31
0.0
 11
16.2800799773
 21
11.503453245
 31
0.0
 11
16.278156202
 21
11.4682516371
 31
0.0
 11
16.273641026
 21
11.4332872022
 31
0.0
 11
16.2665584743
 21
11.3987519275
 31
0.0
 11
16.2569365048
 21
11.3648367687
 31
0.0
 11
16.2448338509
 21
11.33172461
 31
0.0
 11
16.2303237383
 21
11.2995945348
 31
0.0
 11
16.2134795608
 21
11.2686255556
 31
0.0
 11
16.1943876358
 21
11.2389891257
 31
0.0
 11
16.1731610794
 21
11.2108410227
 31
0.0
 11
16.1499163383
 21
11.1843350766
 31
0.0
 11
16.1247718175
 21
11.1596233239
 31
0.0
 11
16.0978684146
 21
11.136837207
 31
0.0
 11
16.0693614098
 21
11.1160949993
 31
0.0
 11
16.0394063205
 21
11.0975147496
 31
0.0
 11
16.0081617612
 21
11.0812044539
 31
0.0
 11
15.9757951904
 21
11.0672434046
 31
0.0
 11
15.9424756345
 21
11.0557058048
 31
0.0
 11
15.9083737692
 21
11.0466644502
 31
0.0
 11
15.873689702
 21
11.0401670228
 31
0.0
 11
15.8034776903
 21
11.0349073898
 31
0.0
  0
LINE
  5
2CD
100
AcDbEntity
  8
0
100
AcDbLine
 62
6
  6
CONTINUOUS
 10
15.8034776903
 20
12.0054665816
 11
15.8039324218
 21
12.0054666964
  0
SPLINE
  5
2CE
100
AcDbEntity
  8
0
100
AcDbSpline
 62
6
  6
CONTINUOUS
 70
0
 71
3
 72
41
 73
37
 74
35
 42
0.0000001
 43
0.0000001
 44
0.0000000001
 12
1.550066043
 22
-0.0003301126
 32
0.0
 13
-1.5500639561
 23
-0.0025649219
 33
0.0
 40
0.0
 40
0.0
 40
0.0
 40
0.0
 40
0.0312180055
 40
0.0624858724
 40
0.0781255557
 40
0.0937594328
 40
0.1250058692
 40
0.1562475226
 40
0.1874944716
 40
0.218744239
 40
0.2499928171
 40
0.2812415505
 40
0.3124910806
 40
0.3437433454
 40
0.3749966978
 40
0.4062494085
 40
0.4375018874
 40
0.4687517988
 40
0.5000001037
 40
0.5312483864
 40
0.5624982174
 40
0.5937505698
 40
0.6250031748
 40
0.6562564712
 40
0.6875087109
 40
0.7187582464
 40
0.7500070292
 40
0.7812556855
 40
0.8125055097
 40
0.8437524912
 40
0.8749941748
 40
0.9062406862
 40
0.9218745817
 40
0.9375142449
 40
0.9687820064
 40
1.0
 40
1.0
 40
1.0
 40
1.0
 10
15.8039324218
 20
12.0054666964
 30
0.0
 10
15.8200624119
 20
12.0054632612
 30
0.0
 10
15.8523682039
 20
12.0038580029
 30
0.0
 10
15.8923632484
 20
11.9979219348
 30
0.0
 10
15.9239038581
 20
11.9908384845
 30
0.0
 10
15.9550450419
 20
11.9822094856
 30
0.0
 10
15.9931113639
 20
11.9685729743
 30
0.0
 10
16.0369557153
 20
11.9478191028
 30
0.0
 10
16.0785506725
 20
11.9228543138
 30
0.0
 10
16.1175140331
 20
11.8939488256
 30
0.0
 10
16.1534478998
 20
11.8613512713
 30
0.0
 10
16.1860149915
 20
11.8253912357
 30
0.0
 10
16.2149075489
 20
11.7864139912
 30
0.0
 10
16.2398281799
 20
11.7447829744
 30
0.0
 10
16.2605694146
 20
11.7009179317
 30
0.0
 10
16.2768958455
 20
11.6552248075
 30
0.0
 10
16.2886707984
 20
11.6081558174
 30
0.0
 10
16.2957857127
 20
11.5601622341
 30
0.0
 10
16.2981474516
 20
11.5117043282
 30
0.0
 10
16.295769966
 20
11.4632472322
 30
0.0
 10
16.2886398637
 20
11.4152560673
 30
0.0
 10
16.2768518902
 20
11.3681905552
 30
0.0
 10
16.2605140806
 20
11.3225017307
 30
0.0
 10
16.2397648631
 20
11.2786407003
 30
0.0
 10
16.2148394947
 20
11.2370126858
 30
0.0
 10
16.1859454234
 20
11.1980367317
 30
0.0
 10
16.153380797
 20
11.1620745913
 30
0.0
 10
16.1174524127
 20
11.1294711214
 30
0.0
 10
16.0784977902
 20
11.1005540794
 30
0.0
 10
16.0369138275
 20
11.0755712924
 30
0.0
 10
15.9930817502
 20
11.0547919222
 30
0.0
 10
15.9550258709
 20
11.0411268455
 30
0.0
 10
15.923892335
 20
11.0324703079
 30
0.0
 10
15.8923587704
 20
11.0253560204
 30
0.0
 10
15.8523707694
 20
11.0193749853
 30
0.0
 10
15.8200674628
 20
11.0177267821
 30
0.0
 10
15.8039375006
 20
11.0177000915
 30
0.0
 11
15.8039324218
 21
12.0054666964
 31
0.0
 11
15.8522632475
 21
12.0030749149
 31
0.0
 11
15.900205062
 21
11.9959574931
 31
0.0
 11
15.9238581699
 21
11.9906441741
 31
0.0
 11
15.9472119598
 21
11.9841738508
 31
0.0
 11
15.9928087042
 21
11.9678400443
 31
0.0
 11
16.0365781651
 21
11.9471187384
 31
0.0
 11
16.078110351
 21
11.9221986494
 31
0.0
 11
16.1170094666
 21
11.89333318
 31
0.0
 11
16.1528867343
 21
11.860790906
 31
0.0
 11
16.185402115
 21
11.8248889384
 31
0.0
 11
16.2142445564
 21
11.7859732032
 31
0.0
 11
16.2391312074
 21
11.7444113676
 31
0.0
 11
16.2598337286
 21
11.7006129599
 31
0.0
 11
16.2761373787
 21
11.6549950958
 31
0.0
 11
16.2878944522
 21
11.6080000434
 31
0.0
 11
16.2949936441
 21
11.5600836618
 31
0.0
 11
16.2973575941
 21
11.5117044447
 31
0.0
 11
16.2949779867
 21
11.4633260298
 31
0.0
 11
16.2878638735
 21
11.4154119873
 31
0.0
 11
16.2760937013
 21
11.3684204159
 31
0.0
 11
16.2597789739
 21
11.3228066864
 31
0.0
 11
16.2390684433
 21
11.2790121613
 31
0.0
 11
16.2141770532
 21
11.2374532093
 31
0.0
 11
16.1853332301
 21
11.1985384876
 31
0.0
 11
16.1528201478
 21
11.1626343354
 31
0.0
 11
16.1169483789
 21
11.1300858196
 31
0.0
 11
16.0780578313
 21
11.1012086598
 31
0.0
 11
16.0365364917
 21
11.0762704052
 31
0.0
 11
15.9927791546
 21
11.0555234005
 31
0.0
 11
15.9471946193
 21
11.0391552074
 31
0.0
 11
15.9238465398
 21
11.0326642022
 31
0.0
 11
15.9001986766
 21
11.0273277313
 31
0.0
 11
15.8522650763
 21
11.0201563015
 31
0.0
 11
15.8039375006
 21
11.0177000915
 31
0.0
  0
LINE
  5
2CF
100
AcDbEntity
  8
0
100
AcDbLine
 62
6
  6
CONTINUOUS
 10
15.8039375006
 20
11.0177000915
 11
15.8034776903
 21
11.0176995465
  0
LINE
  5
2D0
100
AcDbEntity
  8
0
100
AcDbLine
 62
6
  6
CONTINUOUS
 10
15.8034776903
 20
11.0132511943
 11
15.8027522553
 21
11.013251212
  0
SPLINE
  5
2D1
100
AcDbEntity
  8
0
100
AcDbSpline
 62
6
  6
CONTINUOUS
 70
0
 71
3
 72
32
 73
28
 74
26
 42
0.0000001
 43
0.0000001
 44
0.0000000001
 12
-1.1625628937
 22
0.0008816246
 32
0.0
 13
0.8004548403
 23
0.8431045651
 33
0.0
 40
0.0
 40
0.0
 40
0.0
 40
0.0
 40
0.0624455291
 40
0.0937311348
 40
0.1250075476
 40
0.1562705848
 40
0.1875266445
 40
0.2187817542
 40
0.2500401395
 40
0.312518151
 40
0.3749925665
 40
0.4062508676
 40
0.437510664
 40
0.4687727461
 40
0.5000355379
 40
0.5312976346
 40
0.562559606
 40
0.6250392616
 40
0.687513209
 40
0.7187698076
 40
0.7500262033
 40
0.7812834771
 40
0.8125408649
 40
0.843797822
 40
0.8750552996
 40
0.9375279986
 40
1.0
 40
1.0
 40
1.0
 40
1.0
 10
15.8027522553
 20
11.013251212
 30
0.0
 10
15.7785533036
 20
11.0132695632
 30
0.0
 10
15.7421612053
 20
11.015968609
 30
0.0
 10
15.6944952937
 20
11.0247685245
 30
0.0
 10
15.6592836326
 20
11.0339719277
 30
0.0
 10
15.6248522555
 20
11.0457161292
 30
0.0
 10
15.591371699
 20
11.0599262358
 30
0.0
 10
15.5590154126
 20
11.0765380275
 30
0.0
 10
15.5176231671
 20
11.1017619221
 30
0.0
 10
15.4694723006
 20
11.1388252816
 30
0.0
 10
15.4272370481
 20
11.1825105544
 30
0.0
 10
15.3975283632
 20
11.2208120429
 30
0.0
 10
15.3773913355
 20
11.2511053169
 30
0.0
 10
15.3595121877
 20
11.2827832319
 30
0.0
 10
15.3439753557
 20
11.3156744104
 30
0.0
 10
15.330874601
 20
11.3496117514
 30
0.0
 10
15.3167632793
 20
11.3959895244
 30
0.0
 10
15.305487403
 20
11.4556992991
 30
0.0
 10
15.3030277114
 20
11.5164125603
 30
0.0
 10
15.3063326378
 20
11.5647703165
 30
0.0
 10
15.3114522695
 20
11.6007798833
 30
0.0
 10
15.3191770474
 20
11.6363199317
 30
0.0
 10
15.3294562498
 20
11.6712073328
 30
0.0
 10
15.3422496703
 20
11.7052552582
 30
0.0
 10
15.3625585921
 20
11.7492667575
 30
0.0
 10
15.3938473903
 20
11.8013444601
 30
0.0
 10
15.4246832702
 20
11.8389303347
 30
0.0
 10
15.4413519421
 20
11.8564871446
 30
0.0
 11
15.8027522553
 21
11.013251212
 31
0.0
 11
15.7303524342
 21
11.0185965172
 31
0.0
 11
15.6945858729
 21
11.0252024788
 31
0.0
 11
15.6594068857
 21
11.0343974323
 31
0.0
 11
15.6250069034
 21
11.0461285429
 31
0.0
 11
15.5915584615
 21
11.0603267783
 31
0.0
 11
15.5592337745
 21
11.0769226365
 31
0.0
 11
15.528200761
 21
11.0958312778
 31
0.0
 11
15.4706542249
 21
11.1401504265
 31
0.0
 11
15.4201582491
 21
11.1923552144
 31
0.0
 11
15.3978875221
 21
11.2210709287
 31
0.0
 11
15.3777682653
 21
11.2513350889
 31
0.0
 11
15.3599027746
 21
11.2829850694
 31
0.0
 11
15.3443812614
 21
11.3158490258
 31
0.0
 11
15.3312934847
 21
11.3497549009
 31
0.0
 11
15.3207117371
 21
11.3845243457
 31
0.0
 11
15.307250106
 21
11.4559025839
 31
0.0
 11
15.3042929033
 21
11.5284722701
 31
0.0
 11
15.306772666
 21
11.5647253315
 31
0.0
 11
15.3118863907
 21
11.6007012452
 31
0.0
 11
15.3196027679
 21
11.6362110784
 31
0.0
 11
15.329875334
 21
11.6710675663
 31
0.0
 11
15.3426568225
 21
11.7050837026
 31
0.0
 11
15.3578807361
 21
11.7380797692
 31
0.0
 11
15.39529961
 21
11.8003270299
 31
0.0
 11
15.4413519421
 21
11.8564871446
 31
0.0
  0
LINE
  5
2D2
100
AcDbEntity
  8
0
100
AcDbLine
 62
6
  6
CONTINUOUS
 10
15.8027433608
 20
12.0121380433
 11
15.8034776903
 21
12.0121391076
  0
LINE
  5
2D3
100
AcDbEntity
  8
0
100
AcDbLine
 62
6
  6
CONTINUOUS
 10
15.8034776903
 20
12.0032424077
 11
15.8039370957
 21
12.0032425219
  0
SPLINE
  5
2D4
100
AcDbEntity
  8
0
100
AcDbSpline
 62
6
  6
CONTINUOUS
 70
0
 71
3
 72
44
 73
40
 74
38
 42
0.0000001
 43
0.0000001
 44
0.0000000001
 12
1.5431192741
 22
-0.0003450416
 32
0.0
 13
-1.5431171754
 23
-0.0025682403
 33
0.0
 40
0.0
 40
0.0
 40
0.0
 40
0.0
 40
0.0312175301
 40
0.0624861644
 40
0.0781269172
 40
0.0937621231
 40
0.1250109471
 40
0.1562532663
 40
0.187498677
 40
0.2187464367
 40
0.2343747914
 40
0.2500031153
 40
0.2812511311
 40
0.3125000484
 40
0.3281301262
 40
0.3437608647
 40
0.3750134252
 40
0.4062652468
 40
0.4375168963
 40
0.4687661962
 40
0.5000136953
 40
0.5312601412
 40
0.5625059567
 40
0.5937528931
 40
0.6250003286
 40
0.6562494563
 40
0.6874983248
 40
0.7187454876
 40
0.749992794
 40
0.7656213238
 40
0.7812503646
 40
0.8125004608
 40
0.8437483169
 40
0.8749920554
 40
0.9062410674
 40
0.9218758363
 40
0.9375158581
 40
0.9687830682
 40
1.0
 40
1.0
 40
1.0
 40
1.0
 10
15.8039370957
 20
12.0032425219
 30
0.0
 10
15.8199945532
 20
12.0032389314
 30
0.0
 10
15.8521557029
 20
12.0016404027
 30
0.0
 10
15.8919720684
 20
11.9957299896
 30
0.0
 10
15.9233728377
 20
11.9886776018
 30
0.0
 10
15.9543766325
 20
11.9800857775
 30
0.0
 10
15.992273664
 20
11.9665076973
 30
0.0
 10
16.0359224192
 20
11.9458459778
 30
0.0
 10
16.0773278128
 20
11.9209938005
 30
0.0
 10
16.1096535986
 20
11.8970068401
 30
0.0
 10
16.1339999698
 20
11.875991625
 30
0.0
 10
16.1572816979
 20
11.8538023588
 30
0.0
 10
16.1843027744
 20
11.8239656752
 30
0.0
 10
16.208274089
 20
11.7916258705
 30
0.0
 10
16.2254669364
 20
11.7644417214
 30
0.0
 10
16.2413088903
 20
11.7364472017
 30
0.0
 10
16.2585172345
 20
11.7000493414
 30
0.0
 10
16.274769206
 20
11.6545638444
 30
0.0
 10
16.2864884169
 20
11.6077057724
 30
0.0
 10
16.2935705749
 20
11.5599284823
 30
0.0
 10
16.2959193388
 20
11.5116892123
 30
0.0
 10
16.2935508287
 20
11.4634528974
 30
0.0
 10
16.286454463
 20
11.415682426
 30
0.0
 10
16.2747201128
 20
11.3688353314
 30
0.0
 10
16.258456972
 20
11.3233588675
 30
0.0
 10
16.2378052775
 20
11.2796996952
 30
0.0
 10
16.2129950137
 20
11.238261569
 30
0.0
 10
16.1842345981
 20
11.1994640553
 30
0.0
 10
16.1572159077
 20
11.1696248816
 30
0.0
 10
16.1339372678
 20
11.1474325452
 30
0.0
 10
16.1095933542
 20
11.1264119099
 30
0.0
 10
16.0772726132
 20
11.1024138445
 30
0.0
 10
16.0358757008
 20
11.0775417307
 30
0.0
 10
15.9922371401
 20
11.0568541045
 30
0.0
 10
15.9543496959
 20
11.0432482733
 30
0.0
 10
15.923354012
 20
11.0346293073
 30
0.0
 10
15.8919615332
 20
11.0275463615
 30
0.0
 10
15.8521534216
 20
11.0215918562
 30
0.0
 10
15.8199957249
 20
11.0199509935
 30
0.0
 10
15.803938597
 20
11.0199242694
 30
0.0
 11
15.8039370957
 21
12.0032425219
 31
0.0
 11
15.8520505565
 21
12.0008608292
 31
0.0
 11
15.8997785656
 21
11.9937743148
 31
0.0
 11
15.9233272059
 21
11.9884841155
 31
0.0
 11
15.9465781369
 21
11.982041619
 31
0.0
 11
15.9919733598
 21
11.9657779736
 31
0.0
 11
16.0355472211
 21
11.9451483087
 31
0.0
 11
16.0768903332
 21
11.9203396094
 31
0.0
 11
16.1156111005
 21
11.8916032871
 31
0.0
 11
16.1338668702
 21
11.8758448484
 31
0.0
 11
16.151325026
 21
11.8592071797
 31
0.0
 11
16.1836924521
 21
11.8234655811
 31
0.0
 11
16.2124043113
 21
11.7847244474
 31
0.0
 11
16.2252977526
 21
11.7643409013
 31
0.0
 11
16.2371771523
 21
11.7433490264
 31
0.0
 11
16.2577845932
 21
11.6997471696
 31
0.0
 11
16.2740138462
 21
11.6543347276
 31
0.0
 11
16.2857158759
 21
11.6075510186
 31
0.0
 11
16.2927818155
 21
11.5598501199
 31
0.0
 11
16.2951331312
 21
11.511688864
 31
0.0
 11
16.2927628254
 21
11.4635301662
 31
0.0
 11
16.2856815994
 21
11.4158369702
 31
0.0
 11
16.2739654737
 21
11.3690642868
 31
0.0
 11
16.25772594
 21
11.3236627082
 31
0.0
 11
16.2371120962
 21
11.280069738
 31
0.0
 11
16.2123360824
 21
11.2387008102
 31
0.0
 11
16.1836245658
 21
11.1999627926
 31
0.0
 11
16.1512605163
 21
11.1642196129
 31
0.0
 11
16.1338044172
 21
11.1475793258
 31
0.0
 11
16.1155507453
 21
11.1318168373
 31
0.0
 11
16.0768355558
 21
11.1030669528
 31
0.0
 11
16.0355001582
 21
11.0782380728
 31
0.0
 11
15.9919362592
 21
11.057582266
 31
0.0
 11
15.9465527556
 21
11.0412850884
 31
0.0
 11
15.9233081549
 21
11.0348223062
 31
0.0
 11
15.8997658124
 21
11.0295092727
 31
0.0
 11
15.8520479372
 21
11.0223696765
 31
0.0
 11
15.803938597
 21
11.0199242694
 31
0.0
  0
LINE
  5
2D5
100
AcDbEntity
  8
0
100
AcDbLine
 62
6
  6
CONTINUOUS
 10
15.803938597
 20
11.0199242694
 11
15.8034776903
 21
11.0199237201
  0
LINE
  5
2D6
100
AcDbEntity
  8
0
100
AcDbLine
 62
6
  6
CONTINUOUS
 10
15.8034776903
 20
12.0010182312
 11
15.8039378585
 21
12.0010183457
  0
SPLINE
  5
2D7
100
AcDbEntity
  8
0
100
AcDbSpline
 62
6
  6
CONTINUOUS
 70
0
 71
3
 72
43
 73
39
 74
37
 42
0.0000001
 43
0.0000001
 44
0.0000000001
 12
1.5361162263
 22
-0.0003474425
 32
0.0
 13
-1.5361141031
 23
-0.0025775863
 33
0.0
 40
0.0
 40
0.0
 40
0.0
 40
0.0
 40
0.0312178271
 40
0.0624870065
 40
0.07812824
 40
0.0937640685
 40
0.1250143568
 40
0.1562581381
 40
0.1875048447
 40
0.2187536541
 40
0.2343823028
 40
0.2500106973
 40
0.2812584713
 40
0.3125070379
 40
0.3437582443
 40
0.3750107389
 40
0.4062624417
 40
0.4375139387
 40
0.4687631709
 40
0.5000106654
 40
0.5312571606
 40
0.5625029974
 40
0.5937497462
 40
0.6249964869
 40
0.6562443482
 40
0.6874918907
 40
0.718738237
 40
0.7499851947
 40
0.7656136912
 40
0.7812427944
 40
0.8124931661
 40
0.843741524
 40
0.8749864177
 40
0.906237191
 40
0.9218729583
 40
0.9375139313
 40
0.9687824578
 40
1.0
 40
1.0
 40
1.0
 40
1.0
 10
15.8039378585
 20
12.0010183457
 30
0.0
 10
15.8199225954
 20
12.0010147303
 30
0.0
 10
15.8519382194
 20
11.9994233657
 30
0.0
 10
15.8915745357
 20
11.9935395078
 30
0.0
 10
15.9228336015
 20
11.9865188395
 30
0.0
 10
15.9536979161
 20
11.9779654796
 30
0.0
 10
15.9914245134
 20
11.96444797
 30
0.0
 10
16.0348770901
 20
11.9438789881
 30
0.0
 10
16.0760957582
 20
11.9191376799
 30
0.0
 10
16.1082752114
 20
11.8952578984
 30
0.0
 10
16.1325117419
 20
11.8743376344
 30
0.0
 10
16.1556875584
 20
11.8522489792
 30
0.0
 10
16.1825858123
 20
11.8225458077
 30
0.0
 10
16.2112152845
 20
11.7839211752
 30
0.0
 10
16.2359088716
 20
11.7426642455
 30
0.0
 10
16.2564596983
 20
11.6991940972
 30
0.0
 10
16.2726389099
 20
11.6539135702
 30
0.0
 10
16.2843038508
 20
11.6072685549
 30
0.0
 10
16.291353789
 20
11.5597080861
 30
0.0
 10
16.2936916644
 20
11.5116877595
 30
0.0
 10
16.2913336178
 20
11.4636703338
 30
0.0
 10
16.2842695118
 20
11.4161167099
 30
0.0
 10
16.2725883069
 20
11.3694827014
 30
0.0
 10
16.2563996782
 20
11.3242135659
 30
0.0
 10
16.2358431517
 20
11.280753707
 30
0.0
 10
16.2111466118
 20
11.2395049787
 30
0.0
 10
16.1825178419
 20
11.2008843414
 30
0.0
 10
16.1556232424
 20
11.1711800875
 30
0.0
 10
16.1324507275
 20
11.1490881801
 30
0.0
 10
16.1082173705
 20
11.1281626263
 30
0.0
 10
16.0760439989
 20
11.1042718602
 30
0.0
 10
16.0348347131
 20
11.0795110085
 30
0.0
 10
15.9913928647
 20
11.0589160216
 30
0.0
 10
15.9536759117
 20
11.0453700488
 30
0.0
 10
15.9228191847
 20
11.0367892126
 30
0.0
 10
15.8915676011
 20
11.0297377838
 30
0.0
 10
15.8519388156
 20
11.0238093147
 30
0.0
 10
15.8199260918
 20
11.0221752744
 30
0.0
 10
15.8039415228
 20
11.0221484524
 30
0.0
 11
15.8039378585
 21
12.0010183457
 31
0.0
 11
15.8518334184
 21
11.9986473158
 31
0.0
 11
15.8993456296
 21
11.9915926711
 31
0.0
 11
15.9227881017
 21
11.9863262328
 31
0.0
 11
15.9459343987
 21
11.979912583
 31
0.0
 11
15.9911255834
 21
11.9637215935
 31
0.0
 11
16.0345035793
 21
11.9431842797
 31
0.0
 11
16.075660291
 21
11.9184863404
 31
0.0
 11
16.1142060501
 21
11.8898786895
 31
0.0
 11
16.1323792796
 21
11.8741914331
 31
0.0
 11
16.1497581321
 21
11.8576290352
 31
0.0
 11
16.1819776249
 21
11.822049198
 31
0.0
 11
16.2105583308
 21
11.78348392
 31
0.0
 11
16.235217962
 21
11.7422961872
 31
0.0
 11
16.2557312356
 21
11.6988920132
 31
0.0
 11
16.2718866368
 21
11.6536857862
 31
0.0
 11
16.2835349735
 21
11.6071144878
 31
0.0
 11
16.2905685793
 21
11.5596301329
 31
0.0
 11
16.2929090151
 21
11.5116874412
 31
0.0
 11
16.2905492432
 21
11.4637472343
 31
0.0
 11
16.2835000932
 21
11.4162704573
 31
0.0
 11
16.2718371194
 21
11.3697103415
 31
0.0
 11
16.2556719396
 21
11.3245157054
 31
0.0
 11
16.2351530481
 21
11.2811220596
 31
0.0
 11
16.2104908603
 21
11.2399424179
 31
0.0
 11
16.181910893
 21
11.2013808378
 31
0.0
 11
16.1496950445
 21
11.1657993922
 31
0.0
 11
16.1323184952
 21
11.1492343508
 31
0.0
 11
16.1141478117
 21
11.133543077
 31
0.0
 11
16.07560891
 21
11.1049221638
 31
0.0
 11
16.0344611012
 21
11.0802044682
 31
0.0
 11
15.9910936673
 21
11.0596408721
 31
0.0
 11
15.9459139869
 21
11.0434156038
 31
0.0
 11
15.9227735014
 21
11.0369813688
 31
0.0
 11
15.8993366305
 21
11.0316918771
 31
0.0
 11
15.8518334274
 21
11.0245836027
 31
0.0
 11
15.8039415228
 21
11.0221484524
 31
0.0
  0
LINE
  5
2D8
100
AcDbEntity
  8
0
100
AcDbLine
 62
6
  6
CONTINUOUS
 10
15.8039415228
 20
11.0221484524
 11
15.8034776903
 21
11.0221478957
  0
LINE
  5
2D9
100
AcDbEntity
  8
0
100
AcDbLine
 62
6
  6
CONTINUOUS
 10
15.8034776903
 20
11.9987940558
 11
15.8039383381
 21
11.9987941707
  0
SPLINE
  5
2DA
100
AcDbEntity
  8
0
100
AcDbSpline
 62
6
  6
CONTINUOUS
 70
0
 71
3
 72
37
 73
33
 74
31
 42
0.0000001
 43
0.0000001
 44
0.0000000001
 12
0.8223565278
 22
-0.8065575728
 32
0.0
 13
-1.1518687361
 23
-0.0019472442
 33
0.0
 40
0.0
 40
0.0
 40
0.0
 40
0.0
 40
0.0624603643
 40
0.0937127667
 40
0.1249675478
 40
0.1562236986
 40
0.1874794145
 40
0.2187347563
 40
0.2499898743
 40
0.281243376
 40
0.3124949285
 40
0.3437458749
 40
0.3749962541
 40
0.4062464202
 40
0.4374976034
 40
0.4687490263
 40
0.4999996726
 40
0.5312503484
 40
0.562500993
 40
0.5937506566
 40
0.6250000825
 40
0.6562503407
 40
0.687501432
 40
0.7187543709
 40
0.7500088179
 40
0.781261909
 40
0.8125115566
 40
0.8437616145
 40
0.8750183092
 40
0.9062881465
 40
0.9375676707
 40
1.0
 40
1.0
 40
1.0
 40
1.0
 10
16.1446556333
 20
11.8595543454
 30
0.0
 10
16.1617771961
 20
11.8427617188
 30
0.0
 10
16.1856514556
 20
11.815610559
 30
0.0
 10
16.2131680561
 20
11.776266464
 30
0.0
 10
16.2315789462
 20
11.7452876605
 30
0.0
 10
16.2476575074
 20
11.7130395957
 30
0.0
 10
16.2613142577
 20
11.6796918885
 30
0.0
 10
16.2724582538
 20
11.6454232705
 30
0.0
 10
16.2810456431
 20
11.6104276443
 30
0.0
 10
16.2870326044
 20
11.5748958018
 30
0.0
 10
16.2903696109
 20
11.5390193993
 30
0.0
 10
16.2910480839
 20
11.5029961462
 30
0.0
 10
16.2890737176
 20
11.4670210433
 30
0.0
 10
16.2844427224
 20
11.4312902803
 30
0.0
 10
16.2771821805
 20
11.395999737
 30
0.0
 10
16.2673452169
 20
11.3613388118
 30
0.0
 10
16.2549751662
 20
11.3274988561
 30
0.0
 10
16.2401329725
 20
11.2946684836
 30
0.0
 10
16.2229155851
 20
11.2630198256
 30
0.0
 10
16.2034122711
 20
11.2327263836
 30
0.0
 10
16.1817182298
 20
11.2039613718
 30
0.0
 10
16.1579646344
 20
11.1768719673
 30
0.0
 10
16.1322793621
 20
11.1516041602
 30
0.0
 10
16.1047905011
 20
11.1283087006
 30
0.0
 10
16.075659148
 20
11.1071025527
 30
0.0
 10
16.0450488134
 20
11.0880955021
 30
0.0
 10
16.0131184734
 20
11.071403958
 30
0.0
 10
15.9800408058
 20
11.0571168981
 30
0.0
 10
15.9459948881
 20
11.0453009383
 30
0.0
 10
15.9111533571
 20
11.0360315284
 30
0.0
 10
15.8639643932
 20
11.0271557123
 30
0.0
 10
15.8279151065
 20
11.0244131589
 30
0.0
 10
15.8039438238
 20
11.0243726353
 30
0.0
 11
16.1446556333
 21
11.8595543454
 31
0.0
 11
16.1921628334
 21
11.8055235401
 31
0.0
 11
16.2127950949
 21
11.7760240928
 31
0.0
 11
16.2311898654
 21
11.7450767618
 31
0.0
 11
16.2472539226
 21
11.7128562009
 31
0.0
 11
16.260895538
 21
11.6795382066
 31
0.0
 11
16.2720322122
 21
11.6453018827
 31
0.0
 11
16.2806124092
 21
11.6103374287
 31
0.0
 11
16.2865910792
 21
11.5748373684
 31
0.0
 11
16.2899265493
 21
11.5389944925
 31
0.0
 11
16.2906059394
 21
11.5030038647
 31
0.0
 11
16.2886309438
 21
11.4670616999
 31
0.0
 11
16.2840045412
 21
11.4313641012
 31
0.0
 11
16.276752802
 21
11.3961047936
 31
0.0
 11
16.2669229333
 21
11.3614753257
 31
0.0
 11
16.2545631295
 21
11.3276670837
 31
0.0
 11
16.2397370714
 21
11.29486537
 31
0.0
 11
16.222534364
 21
11.2632453023
 31
0.0
 11
16.203047087
 21
11.2329810244
 31
0.0
 11
16.1813752321
 21
11.2042409569
 31
0.0
 11
16.157643064
 21
11.1771759613
 31
0.0
 11
16.131979487
 21
11.1519335429
 31
0.0
 11
16.1045173038
 21
11.1286573622
 31
0.0
 11
16.0754120378
 21
11.1074686702
 31
0.0
 11
16.0448274221
 21
11.0884806214
 31
0.0
 11
16.0129276129
 21
11.0718048508
 31
0.0
 11
15.9798830215
 21
11.0575301123
 31
0.0
 11
15.945868918
 21
11.0457273858
 31
0.0
 11
15.911060876
 21
11.0364670329
 31
0.0
 11
15.8756523775
 21
11.0298039959
 31
0.0
 11
15.8039438238
 21
11.0243726353
 31
0.0
  0
LINE
  5
2DB
100
AcDbEntity
  8
0
100
AcDbLine
 62
6
  6
CONTINUOUS
 10
15.8039438238
 20
11.0243726353
 11
15.8034776903
 21
11.0243720721
  0
LINE
  5
2DC
100
AcDbEntity
  8
0
100
AcDbLine
 62
6
  6
CONTINUOUS
 10
15.8034776903
 20
11.0154753702
 11
15.8030165186
 21
11.0154752577
  0
SPLINE
  5
2DD
100
AcDbEntity
  8
0
100
AcDbSpline
 62
6
  6
CONTINUOUS
 70
0
 71
3
 72
32
 73
28
 74
26
 42
0.0000001
 43
0.0000001
 44
0.0000000001
 12
-1.1577308999
 22
0.0002601358
 32
0.0
 13
0.7972690175
 23
0.8394659123
 33
0.0
 40
0.0
 40
0.0
 40
0.0
 40
0.0
 40
0.0624451574
 40
0.0937312018
 40
0.1250084015
 40
0.156272287
 40
0.1875292463
 40
0.2187852967
 40
0.250044727
 40
0.3125242487
 40
0.3749975302
 40
0.4062547262
 40
0.4375133596
 40
0.4687743551
 40
0.5000362012
 40
0.5312975352
 40
0.5625589251
 40
0.6250377932
 40
0.6875115361
 40
0.7187684894
 40
0.7500257333
 40
0.7812841387
 40
0.8125425143
 40
0.8437998928
 40
0.8750571498
 40
0.9375286975
 40
1.0
 40
1.0
 40
1.0
 40
1.0
 10
15.8030165186
 20
11.0154752577
 30
0.0
 10
15.7789182892
 20
11.0154806725
 30
0.0
 10
15.7426759717
 20
11.0181503468
 30
0.0
 10
15.6952037258
 20
11.0268913283
 30
0.0
 10
15.6601334436
 20
11.0360406629
 30
0.0
 10
15.6258392625
 20
11.0477218007
 30
0.0
 10
15.5924912428
 20
11.061859905
 30
0.0
 10
15.5602620619
 20
11.0783907629
 30
0.0
 10
15.5190321296
 20
11.1034964799
 30
0.0
 10
15.4710689557
 20
11.140390643
 30
0.0
 10
15.4289971356
 20
11.1838824755
 30
0.0
 10
15.3994038254
 20
11.2220168188
 30
0.0
 10
15.3793441763
 20
11.2521784294
 30
0.0
 10
15.3615335353
 20
11.283720006
 30
0.0
 10
15.3460557559
 20
11.3164706802
 30
0.0
 10
15.3330042276
 20
11.3502640079
 30
0.0
 10
15.3189450177
 20
11.3964461777
 30
0.0
 10
15.3077093992
 20
11.4559060224
 30
0.0
 10
15.305255369
 20
11.5163666186
 30
0.0
 10
15.3085447223
 20
11.5645239181
 30
0.0
 10
15.313643032
 20
11.6003847482
 30
0.0
 10
15.321336336
 20
11.6357781187
 30
0.0
 10
15.3315740533
 20
11.6705211788
 30
0.0
 10
15.3443159573
 20
11.7044274695
 30
0.0
 10
15.3645435882
 20
11.7482542246
 30
0.0
 10
15.3957079633
 20
11.8001112841
 30
0.0
 10
15.4264207386
 20
11.8375359638
 30
0.0
 10
15.4430228833
 20
11.8550168068
 30
0.0
 11
15.8030165186
 21
11.0154752577
 31
0.0
 11
15.7309153801
 21
11.0207618495
 31
0.0
 11
15.6952938777
 21
11.0273235913
 31
0.0
 11
15.6602560781
 21
11.0364646422
 31
0.0
 11
15.6259931769
 21
11.0481327066
 31
0.0
 11
15.5926771282
 21
11.0622589454
 31
0.0
 11
15.5604795509
 21
11.0787740771
 31
0.0
 11
15.5295679779
 21
11.0975940513
 31
0.0
 11
15.4722451477
 21
11.1417117275
 31
0.0
 11
15.4219456025
 21
11.1936846713
 31
0.0
 11
15.3997614073
 21
11.2222747227
 31
0.0
 11
15.3797196456
 21
11.2524073924
 31
0.0
 11
15.3619225824
 21
11.2839210795
 31
0.0
 11
15.3464600649
 21
11.3166446149
 31
0.0
 11
15.3334214603
 21
11.3504065918
 31
0.0
 11
15.3228788415
 21
11.3850293326
 31
0.0
 11
15.3094652171
 21
11.4561084535
 31
0.0
 11
15.3065149813
 21
11.5283760432
 31
0.0
 11
15.3089831148
 21
11.5644789175
 31
0.0
 11
15.3140754364
 21
11.6003063068
 31
0.0
 11
15.3217604105
 21
11.6356697351
 31
0.0
 11
15.3319915636
 21
11.6703821522
 31
0.0
 11
15.3447216742
 21
11.7042567611
 31
0.0
 11
15.3598846381
 21
11.7371143202
 31
0.0
 11
15.3971541964
 21
11.79909755
 31
0.0
 11
15.4430228833
 21
11.8550168068
 31
0.0
  0
LINE
  5
2DE
100
AcDbEntity
  8
0
100
AcDbLine
 62
6
  6
CONTINUOUS
 10
15.8030111394
 20
12.0099143807
 11
15.8034776903
 21
12.0099149332
  0
LINE
  5
2DF
100
AcDbEntity
  8
0
100
AcDbLine
 62
6
  6
CONTINUOUS
 10
15.8034776903
 20
11.9965698821
 11
15.8039393211
 21
11.9965699973
  0
SPLINE
  5
2E0
100
AcDbEntity
  8
0
100
AcDbSpline
 62
6
  6
CONTINUOUS
 70
0
 71
3
 72
37
 73
33
 74
31
 42
0.0000001
 43
0.0000001
 44
0.0000000001
 12
0.8189709089
 22
-0.8027185749
 32
0.0
 13
-1.146763558
 23
-0.0019499441
 33
0.0
 40
0.0
 40
0.0
 40
0.0
 40
0.0
 40
0.0624580014
 40
0.0937076227
 40
0.1249584889
 40
0.1562103423
 40
0.1874623208
 40
0.2187151394
 40
0.2499685362
 40
0.2812208745
 40
0.3124719753
 40
0.3437231244
 40
0.374974347
 40
0.4062263197
 40
0.4374800531
 40
0.4687343395
 40
0.4999880596
 40
0.531241892
 40
0.5624952317
 40
0.5937466198
 40
0.6249965964
 40
0.6562466903
 40
0.6874974938
 40
0.7187505048
 40
0.7500052998
 40
0.7812588253
 40
0.8125088967
 40
0.8437594167
 40
0.8750166299
 40
0.906287065
 40
0.9375671189
 40
1.0
 40
1.0
 40
1.0
 40
1.0
 10
16.1429865445
 20
11.8580759917
 30
0.0
 10
16.1600369733
 20
11.8413639257
 30
0.0
 10
16.1838123937
 20
11.814341835
 30
0.0
 10
16.2112174224
 20
11.7751836334
 30
0.0
 10
16.2295546325
 20
11.7443517384
 30
0.0
 10
16.2455700108
 20
11.7122556905
 30
0.0
 10
16.2591732881
 20
11.6790630203
 30
0.0
 10
16.2702769351
 20
11.644952492
 30
0.0
 10
16.2788373336
 20
11.6101168165
 30
0.0
 10
16.284807757
 20
11.57474537
 30
0.0
 10
16.2881386106
 20
11.5390293397
 30
0.0
 10
16.288825067
 20
11.503165762
 30
0.0
 10
16.2868692371
 20
11.4673483928
 30
0.0
 10
16.2822654279
 20
11.431773115
 30
0.0
 10
16.2750453806
 20
11.396634501
 30
0.0
 10
16.265259537
 20
11.3621216286
 30
0.0
 10
16.2529489483
 20
11.3284262167
 30
0.0
 10
16.2381768416
 20
11.295735672
 30
0.0
 10
16.2210399733
 20
11.2642216835
 30
0.0
 10
16.201626912
 20
11.2340577682
 30
0.0
 10
16.1800326812
 20
11.205416459
 30
0.0
 10
16.1563878761
 20
11.178443965
 30
0.0
 10
16.1308192929
 20
11.1532854327
 30
0.0
 10
16.1034545458
 20
11.1300904515
 30
0.0
 10
16.0744542586
 20
11.108975053
 30
0.0
 10
16.0439809963
 20
11.0900490746
 30
0.0
 10
16.0121929849
 20
11.0734288404
 30
0.0
 10
15.9792624074
 20
11.0592026032
 30
0.0
 10
15.9453674822
 20
11.0474368443
 30
0.0
 10
15.9106801375
 20
11.0382069005
 30
0.0
 10
15.8636999927
 20
11.0293686702
 30
0.0
 10
15.8278100808
 20
11.0266373936
 30
0.0
 10
15.8039448299
 20
11.0265968133
 30
0.0
 11
16.1429865445
 21
11.8580759917
 31
0.0
 11
16.1902982487
 21
11.8043015083
 31
0.0
 11
16.2108465201
 21
11.7749419117
 31
0.0
 11
16.2291674054
 21
11.7441415081
 31
0.0
 11
16.2451679225
 21
11.7120730768
 31
0.0
 11
16.2587565395
 21
11.6789104382
 31
0.0
 11
16.2698529891
 21
11.6448318676
 31
0.0
 11
16.2784057711
 21
11.610027017
 31
0.0
 11
16.2843679112
 21
11.5746873285
 31
0.0
 11
16.2876978837
 21
11.5390046961
 31
0.0
 11
16.288384689
 21
11.5031735471
 31
0.0
 11
16.2864279525
 21
11.4673891905
 31
0.0
 11
16.281829531
 21
11.4318467489
 31
0.0
 11
16.2746178192
 21
11.3967391061
 31
0.0
 11
16.2648386804
 21
11.3622576723
 31
0.0
 11
16.2525386889
 21
11.3285936784
 31
0.0
 11
16.2377825604
 21
11.2959314651
 31
0.0
 11
16.2206601003
 21
11.2644458435
 31
0.0
 11
16.2012629608
 21
11.2343109208
 31
0.0
 11
16.1796909274
 21
11.2056945976
 31
0.0
 11
16.156067569
 21
11.1787466265
 31
0.0
 11
16.1305207783
 21
11.1536134606
 31
0.0
 11
16.1031826233
 21
11.1304375838
 31
0.0
 11
16.0742081979
 21
11.1093395908
 31
0.0
 11
16.04376049
 21
11.090432572
 31
0.0
 11
16.0120029345
 21
11.0738279932
 31
0.0
 11
15.979105288
 21
11.059614053
 31
0.0
 11
15.9452420479
 21
11.0478615044
 31
0.0
 11
15.910588015
 21
11.0386405151
 31
0.0
 11
15.8753360818
 21
11.0320056771
 31
0.0
 11
15.8039448299
 21
11.0265968133
 31
0.0
  0
LINE
  5
2E1
100
AcDbEntity
  8
0
100
AcDbLine
 62
6
  6
CONTINUOUS
 10
15.8039448299
 20
11.0265968133
 11
15.8034776903
 21
11.0265962459
  0
LINE
  5
2E2
100
AcDbEntity
  8
0
100
AcDbLine
 62
6
  6
CONTINUOUS
 10
15.8034776903
 20
11.9943457057
 11
15.8039387653
 21
11.9943458217
  0
SPLINE
  5
2E3
100
AcDbEntity
  8
0
100
AcDbSpline
 62
6
  6
CONTINUOUS
 70
0
 71
3
 72
37
 73
33
 74
31
 42
0.0000001
 43
0.0000001
 44
0.0000000001
 12
0.8156166439
 22
-0.7988688919
 32
0.0
 13
-1.1416734288
 23
-0.0019489309
 33
0.0
 40
0.0
 40
0.0
 40
0.0
 40
0.0
 40
0.0624580796
 40
0.0937073848
 40
0.124957555
 40
0.1562084264
 40
0.187459262
 40
0.2187108769
 40
0.2499630717
 40
0.2812143795
 40
0.3124648614
 40
0.3437157297
 40
0.3749669197
 40
0.4062191507
 40
0.4374733788
 40
0.4687284196
 40
0.4999833314
 40
0.5312387885
 40
0.5624938282
 40
0.5937466755
 40
0.6249977
 40
0.65624847
 40
0.6874996109
 40
0.7187526457
 40
0.7500072802
 40
0.7812605753
 40
0.8125104091
 40
0.8437606602
 40
0.87501757
 40
0.9062876581
 40
0.9375674189
 40
1.0
 40
1.0
 40
1.0
 40
1.0
 10
16.1413076552
 20
11.8566070012
 30
0.0
 10
16.1582882717
 20
11.8399750622
 30
0.0
 10
16.1819674069
 20
11.8130811157
 30
0.0
 10
16.2092633873
 20
11.7741059641
 30
0.0
 10
16.2275286373
 20
11.7434174109
 30
0.0
 10
16.2434823496
 20
11.7114697125
 30
0.0
 10
16.2570343423
 20
11.6784294651
 30
0.0
 10
16.2680982872
 20
11.6444748936
 30
0.0
 10
16.2766305509
 20
11.6097976003
 30
0.0
 10
16.2825836525
 20
11.5745857829
 30
0.0
 10
16.2859086165
 20
11.5390298608
 30
0.0
 10
16.2866016109
 20
11.5033260146
 30
0.0
 10
16.2846633204
 20
11.4676671302
 30
0.0
 10
16.280087532
 20
11.4322484981
 30
0.0
 10
16.2729076065
 20
11.397263622
 30
0.0
 10
16.2631724668
 20
11.3629008768
 30
0.0
 10
16.2509219388
 20
11.3293515804
 30
0.0
 10
16.2362204954
 20
11.2968019565
 30
0.0
 10
16.2191643014
 20
11.2654232574
 30
0.0
 10
16.1998413146
 20
11.2353887894
 30
0.0
 10
16.1783461109
 20
11.2068706749
 30
0.0
 10
16.154809046
 20
11.1800144033
 30
0.0
 10
16.1293565621
 20
11.1549643198
 30
0.0
 10
16.10211568
 20
11.1318693228
 30
0.0
 10
16.0732460916
 20
11.1108451494
 30
0.0
 10
16.042909785
 20
11.0920008948
 30
0.0
 10
16.0112643424
 20
11.0754522055
 30
0.0
 10
15.9784810674
 20
11.0612872365
 30
0.0
 10
15.9447375139
 20
11.0495720939
 30
0.0
 10
15.9102048834
 20
11.0403816711
 30
0.0
 10
15.8634338928
 20
11.0315812243
 30
0.0
 10
15.8277035055
 20
11.0288615492
 30
0.0
 10
15.8039442992
 20
11.0288209903
 30
0.0
 11
16.1413076552
 21
11.8566070012
 31
0.0
 11
16.1884277943
 21
11.8030873128
 31
0.0
 11
16.2088942522
 21
11.7738650515
 31
0.0
 11
16.2271432046
 21
11.7432078718
 31
0.0
 11
16.2430820309
 21
11.7112876921
 31
0.0
 11
16.2566195378
 21
11.6782774355
 31
0.0
 11
16.2676762678
 21
11.64435468
 31
0.0
 11
16.2762007705
 21
11.6097081113
 31
0.0
 11
16.2821456844
 21
11.5745280374
 31
0.0
 11
16.2854699497
 21
11.5390053464
 31
0.0
 11
16.286163069
 21
11.5033337416
 31
0.0
 11
16.2842237969
 21
11.4677077787
 31
0.0
 11
16.279653674
 21
11.4323217816
 31
0.0
 11
16.2724818463
 21
11.3973677774
 31
0.0
 11
16.2627532437
 21
11.3630364793
 31
0.0
 11
16.2505135306
 21
11.3295183848
 31
0.0
 11
16.2358279023
 21
11.2969968538
 31
0.0
 11
16.2187859311
 21
11.2656463376
 31
0.0
 11
16.1994787305
 21
11.235640721
 31
0.0
 11
16.1780056752
 21
11.2071474863
 31
0.0
 11
16.1544899976
 21
11.1803156266
 31
0.0
 11
16.1290592109
 21
11.155290817
 31
0.0
 11
16.1018448104
 21
11.1322149268
 31
0.0
 11
16.0730010407
 21
11.1112080808
 31
0.0
 11
16.0426902121
 21
11.0923826942
 31
0.0
 11
16.0110750643
 21
11.0758496378
 31
0.0
 11
15.9783245914
 21
11.0616968979
 31
0.0
 11
15.9446125899
 21
11.0499948906
 31
0.0
 11
15.910113158
 21
11.0408134288
 31
0.0
 11
15.87501824
 21
11.0342069639
 31
0.0
 11
15.8039442992
 21
11.0288209903
 31
0.0
  0
LINE
  5
2E4
100
AcDbEntity
  8
0
100
AcDbLine
 62
6
  6
CONTINUOUS
 10
15.8039442992
 20
11.0288209903
 11
15.8034776903
 21
11.0288204212
  0
LINE
  5
2E5
100
AcDbEntity
  8
0
100
AcDbLine
 62
6
  6
CONTINUOUS
 10
15.8034776903
 20
11.0176995465
 11
15.8030159959
 21
11.0176994336
  0
SPLINE
  5
2E6
100
AcDbEntity
  8
0
100
AcDbSpline
 62
6
  6
CONTINUOUS
 70
0
 71
3
 72
34
 73
30
 74
28
 42
0.0000001
 43
0.0000001
 44
0.0000000001
 12
-1.1527307308
 22
0.0002614335
 32
0.0
 13
0.7939710379
 23
0.835702218
 33
0.0
 40
0.0
 40
0.0
 40
0.0
 40
0.0
 40
0.0624402967
 40
0.0937240396
 40
0.1249989787
 40
0.1562605654
 40
0.1875151992
 40
0.2187689044
 40
0.2500259888
 40
0.3125005529
 40
0.3749678368
 40
0.4062215008
 40
0.4374761663
 40
0.4687328755
 40
0.4999904197
 40
0.5312478072
 40
0.562505737
 40
0.5937635618
 40
0.6250198237
 40
0.6562748807
 40
0.6875298525
 40
0.7187846931
 40
0.750040258
 40
0.7812972448
 40
0.8125542541
 40
0.8438102416
 40
0.8750660232
 40
0.9375337855
 40
1.0
 40
1.0
 40
1.0
 40
1.0
 10
15.8030159959
 20
11.0176994336
 30
0.0
 10
15.779023713
 20
11.0177048749
 30
0.0
 10
15.7429406791
 20
11.0203631707
 30
0.0
 10
15.6956771711
 20
11.0290665413
 30
0.0
 10
15.6607610952
 20
11.0381764358
 30
0.0
 10
15.6266178794
 20
11.0498073058
 30
0.0
 10
15.5934168703
 20
11.0638845232
 30
0.0
 10
15.5613299366
 20
11.0803440362
 30
0.0
 10
15.5202824993
 20
11.1053414728
 30
0.0
 10
15.4725325843
 20
11.1420758591
 30
0.0
 10
15.4306492
 20
11.1853786468
 30
0.0
 10
15.4011897329
 20
11.223346391
 30
0.0
 10
15.3812213589
 20
11.2533754026
 30
0.0
 10
15.3634921876
 20
11.2847776589
 30
0.0
 10
15.3480857559
 20
11.3173841286
 30
0.0
 10
15.3350960123
 20
11.3510272161
 30
0.0
 10
15.3245963586
 20
11.3855285216
 30
0.0
 10
15.3166266178
 20
11.4206997504
 30
0.0
 10
15.3112333034
 20
11.4563563816
 30
0.0
 10
15.308459424
 20
11.492310618
 30
0.0
 10
15.3083033791
 20
11.5283704068
 30
0.0
 10
15.3107640299
 20
11.5643470212
 30
0.0
 10
15.315844942
 20
11.6000488245
 30
0.0
 10
15.3235085814
 20
11.6352871756
 30
0.0
 10
15.3337057678
 20
11.6698773448
 30
0.0
 10
15.3463971188
 20
11.7036338141
 30
0.0
 10
15.3665426582
 20
11.7472660189
 30
0.0
 10
15.3975783009
 20
11.7988909801
 30
0.0
 10
15.4281624577
 20
11.8361463356
 30
0.0
 10
15.4446945794
 20
11.853547387
 30
0.0
 11
15.8030159959
 21
11.0176994336
 31
0.0
 11
15.731231892
 21
11.0229634116
 31
0.0
 11
15.6957669551
 21
11.0294969266
 31
0.0
 11
15.6608832032
 21
11.0385986068
 31
0.0
 11
15.6267711364
 21
11.0502164414
 31
0.0
 11
15.5936019548
 21
11.064281824
 31
0.0
 11
15.5615465186
 21
11.0807257125
 31
0.0
 11
15.5307716868
 21
11.0994645193
 31
0.0
 11
15.4737034558
 21
11.1433914124
 31
0.0
 11
15.4236294207
 21
11.1951382699
 31
0.0
 11
15.4015456284
 21
11.2236032512
 31
0.0
 11
15.3815951005
 21
11.2536033956
 31
0.0
 11
15.3638795431
 21
11.2849779237
 31
0.0
 11
15.348488545
 21
11.317556882
 31
0.0
 11
15.335511101
 21
11.3511700384
 31
0.0
 11
15.3250179867
 21
11.3856402855
 31
0.0
 11
15.3170558792
 21
11.4207814224
 31
0.0
 11
15.3116697992
 21
11.4564066237
 31
0.0
 11
15.3088957222
 21
11.4923283336
 31
0.0
 11
15.3087394938
 21
11.5283565624
 31
0.0
 11
15.3112006939
 21
11.5643008145
 31
0.0
 11
15.316275277
 21
11.5999709076
 31
0.0
 11
15.3239308359
 21
11.6351791092
 31
0.0
 11
15.3341216116
 21
11.6697388402
 31
0.0
 11
15.3468010286
 21
11.7034638224
 31
0.0
 11
15.3619026028
 21
11.736175707
 31
0.0
 11
15.3990184405
 21
11.7978817866
 31
0.0
 11
15.4446945794
 21
11.853547387
 31
0.0
  0
LINE
  5
2E7
100
AcDbEntity
  8
0
100
AcDbLine
 62
6
  6
CONTINUOUS
 10
15.8030105939
 20
12.0076902007
 11
15.8034776903
 21
12.0076907567
  0
SPLINE
  5
2E8
100
AcDbEntity
  8
0
100
AcDbSpline
 62
6
  6
CONTINUOUS
 70
0
 71
3
 72
37
 73
33
 74
31
 42
0.0000001
 43
0.0000001
 44
0.0000000001
 12
0.8122543543
 22
-0.7950211345
 32
0.0
 13
-1.1365790553
 23
-0.001947151
 33
0.0
 40
0.0
 40
0.0
 40
0.0
 40
0.0
 40
0.0624585858
 40
0.0937084419
 40
0.1249592974
 40
0.1562106763
 40
0.187461463
 40
0.2187122963
 40
0.2499633768
 40
0.2812137052
 40
0.3124636975
 40
0.3437144877
 40
0.3749658433
 40
0.4062183704
 40
0.4374729999
 40
0.468728574
 40
0.4999841906
 40
0.5312405425
 40
0.5624966353
 40
0.5937506392
 40
0.6250028051
 40
0.6562545009
 40
0.687506039
 40
0.7187586573
 40
0.7500123767
 40
0.7812646333
 40
0.8125135253
 40
0.8437628996
 40
0.8750190138
 40
0.9062884067
 40
0.9375677157
 40
1.0
 40
1.0
 40
1.0
 40
1.0
 10
16.1396320429
 20
11.8551348242
 30
0.0
 10
16.1565427956
 20
11.838582859
 30
0.0
 10
16.1801256283
 20
11.8118165485
 30
0.0
 10
16.2073124696
 20
11.7730233557
 30
0.0
 10
16.225505721
 20
11.7424766144
 30
0.0
 10
16.241397727
 20
11.710675725
 30
0.0
 10
16.2548988766
 20
11.677786989
 30
0.0
 10
16.2659227274
 20
11.6439877117
 30
0.0
 10
16.2744257066
 20
11.6094684247
 30
0.0
 10
16.2803607211
 20
11.5744161477
 30
0.0
 10
16.2836793427
 20
11.539020266
 30
0.0
 10
16.2843777476
 20
11.5034760511
 30
0.0
 10
16.2824562214
 20
11.4679756835
 30
0.0
 10
16.277908288
 20
11.4327137947
 30
0.0
 10
16.2707673921
 20
11.397883109
 30
0.0
 10
16.2610820686
 20
11.3636712331
 30
0.0
 10
16.2488918805
 20
11.330268694
 30
0.0
 10
16.2342609071
 20
11.2978609947
 30
0.0
 10
16.217284965
 20
11.2666187164
 30
0.0
 10
16.1980518996
 20
11.2367143643
 30
0.0
 10
16.176655344
 20
11.2083198823
 30
0.0
 10
16.153225462
 20
11.1815803102
 30
0.0
 10
16.1278890599
 20
11.1566389808
 30
0.0
 10
16.1007725032
 20
11.1336442861
 30
0.0
 10
16.072033962
 20
11.1127123518
 30
0.0
 10
16.041835138
 20
11.0939508682
 30
0.0
 10
16.0103330128
 20
11.0774743214
 30
0.0
 10
15.9776977131
 20
11.0633711136
 30
0.0
 10
15.9441061307
 20
11.0517069392
 30
0.0
 10
15.9097286941
 20
11.0425562156
 30
0.0
 10
15.8631672004
 20
11.0337937001
 30
0.0
 10
15.8275965259
 20
11.0310856897
 30
0.0
 10
15.8039434504
 20
11.031045168
 30
0.0
 11
16.1396320429
 21
11.8551348242
 31
0.0
 11
16.1865602505
 21
11.8018693256
 31
0.0
 11
16.2069449386
 21
11.7727833895
 31
0.0
 11
16.2251220535
 21
11.7422678135
 31
0.0
 11
16.2409993434
 21
11.7104942111
 31
0.0
 11
16.2544859957
 21
11.6776352317
 31
0.0
 11
16.2655025625
 21
11.6438677718
 31
0.0
 11
16.2739977799
 21
11.6093792616
 31
0.0
 11
16.2799246782
 21
11.5743587363
 31
0.0
 11
16.2832426213
 21
11.5389959106
 31
0.0
 11
16.2839410998
 21
11.5034837332
 31
0.0
 11
16.282018553
 21
11.4680161132
 31
0.0
 11
16.277476302
 21
11.4327867106
 31
0.0
 11
16.2703434472
 21
11.3979867825
 31
0.0
 11
16.2606646292
 21
11.3638062416
 31
0.0
 11
16.2484851998
 21
11.3304347893
 31
0.0
 11
16.2338699841
 21
11.2980550553
 31
0.0
 11
16.2169082366
 21
11.2668407974
 31
0.0
 11
16.1976907641
 21
11.2369652079
 31
0.0
 11
16.1763162487
 21
11.208595439
 31
0.0
 11
16.1529076899
 21
11.1818799921
 31
0.0
 11
16.127592766
 21
11.1569637801
 31
0.0
 11
16.1005025324
 21
11.1339883701
 31
0.0
 11
16.0717899208
 21
11.1130736611
 31
0.0
 11
16.0416165779
 21
11.0943309186
 31
0.0
 11
16.0101445454
 21
11.0778700401
 31
0.0
 11
15.9775419303
 21
11.063778987
 31
0.0
 11
15.9439817764
 21
11.0521278677
 31
0.0
 11
15.9096374367
 21
11.0429861293
 31
0.0
 11
15.8746998286
 21
11.0364081491
 31
0.0
 11
15.8039434504
 21
11.031045168
 31
0.0
  0
LINE
  5
2E9
100
AcDbEntity
  8
0
100
AcDbLine
 62
6
  6
CONTINUOUS
 10
15.8039434504
 20
11.031045168
 11
15.8034776903
 21
11.0310445977
  0
SPLINE
  5
2EA
100
AcDbEntity
  8
0
100
AcDbSpline
 62
6
  6
CONTINUOUS
 70
0
 71
3
 72
36
 73
32
 74
30
 42
0.0000001
 43
0.0000001
 44
0.0000000001
 12
1.126362547
 22
0.0008365106
 32
0.0
 13
-0.8049500337
 23
0.7878760882
 33
0.0
 40
0.0
 40
0.0
 40
0.0
 40
0.0
 40
0.0624231782
 40
0.0937058643
 40
0.1249808526
 40
0.1562392372
 40
0.187488343
 40
0.2187350974
 40
0.249985948
 40
0.2812407847
 40
0.312496488
 40
0.3437510732
 40
0.3750054505
 40
0.4374703528
 40
0.4999359025
 40
0.531190071
 40
0.5624435971
 40
0.5936978218
 40
0.6249522612
 40
0.6562059151
 40
0.6874596945
 40
0.7187141838
 40
0.7499682682
 40
0.7812217656
 40
0.812476014
 40
0.8437304594
 40
0.8749841106
 40
0.906237925
 40
0.9374924309
 40
0.9687464993
 40
1.0
 40
1.0
 40
1.0
 40
1.0
 10
15.8034776903
 20
11.0354929466
 30
0.0
 10
15.8269147336
 20
11.0355103525
 30
0.0
 10
15.8621658548
 20
11.0381642857
 30
0.0
 10
15.9083165651
 20
11.0468049894
 30
0.0
 10
15.9423986569
 20
11.0558385015
 30
0.0
 10
15.9757009004
 20
11.0673706169
 30
0.0
 10
16.0080537469
 20
11.0813212956
 30
0.0
 10
16.0392867224
 20
11.0976197375
 30
0.0
 10
16.0692274444
 20
11.1161896068
 30
0.0
 10
16.0977217894
 20
11.1369157592
 30
0.0
 10
16.124615615
 20
11.1596821723
 30
0.0
 10
16.1497504613
 20
11.1843797075
 30
0.0
 10
16.1807162563
 20
11.219679985
 30
0.0
 10
16.2144248914
 20
11.2679421985
 30
0.0
 10
16.2406196302
 20
11.3206615148
 30
0.0
 10
16.2567553183
 20
11.3647592524
 30
0.0
 10
16.266379105
 20
11.3986567359
 30
0.0
 10
16.273466089
 20
11.433171715
 30
0.0
 10
16.2779930735
 20
11.4681151028
 30
0.0
 10
16.2799287135
 20
11.5032974834
 30
0.0
 10
16.2792463272
 20
11.5385264737
 30
0.0
 10
16.2759678502
 20
11.5736089057
 30
0.0
 10
16.2701144203
 20
11.6083547989
 30
0.0
 10
16.2617009903
 20
11.6425712625
 30
0.0
 10
16.2507771494
 20
11.6760706196
 30
0.0
 10
16.2374160205
 20
11.7086744464
 30
0.0
 10
16.2216835259
 20
11.740202886
 30
0.0
 10
16.2036524424
 20
11.7704753393
 30
0.0
 10
16.1834373102
 20
11.7993354536
 30
0.0
 10
16.161151795
 20
11.8266262312
 30
0.0
 10
16.1449828628
 20
11.8436716569
 30
0.0
 10
16.1365970273
 20
11.8518796188
 30
0.0
 11
15.8034776903
 21
11.0354929466
 31
0.0
 11
15.8735925235
 21
11.0407434607
 31
0.0
 11
15.9082259247
 21
11.0472302894
 31
0.0
 11
15.9422766554
 21
11.0562573727
 31
0.0
 11
15.9755475753
 21
11.0677755804
 31
0.0
 11
16.0078683383
 21
11.0817131435
 31
0.0
 11
16.039069706
 21
11.0979973566
 31
0.0
 11
16.0689846704
 21
11.1165478456
 31
0.0
 11
16.0974545891
 21
11.1372554666
 31
0.0
 11
16.1243227815
 21
11.1600043302
 31
0.0
 11
16.1494335176
 21
11.1846776524
 31
0.0
 11
16.1726499248
 21
11.2111409068
 31
0.0
 11
16.2129222044
 21
11.2688332997
 31
0.0
 11
16.244247074
 21
11.3318342825
 31
0.0
 11
16.2563417095
 21
11.3648949636
 31
0.0
 11
16.2659562402
 21
11.39875938
 31
0.0
 11
16.2730394044
 21
11.4332430296
 31
0.0
 11
16.2775612122
 21
11.4681552565
 31
0.0
 11
16.2794923784
 21
11.5033052014
 31
0.0
 11
16.2788136607
 21
11.5385017542
 31
0.0
 11
16.2755386664
 21
11.5735529838
 31
0.0
 11
16.2696877085
 21
11.6082667918
 31
0.0
 11
16.2612826738
 21
11.6424514524
 31
0.0
 11
16.2503709602
 21
11.6759212848
 31
0.0
 11
16.2370206584
 21
11.7084955115
 31
0.0
 11
16.221300462
 21
11.7399934995
 31
0.0
 11
16.2032885883
 21
11.7702397087
 31
0.0
 11
16.1830921331
 21
11.7990740424
 31
0.0
 11
16.160823645
 21
11.8263393197
 31
0.0
 11
16.1365970273
 21
11.8518796188
 31
0.0
  0
LINE
  5
2EB
100
AcDbEntity
  8
0
100
AcDbLine
 62
6
  6
CONTINUOUS
 10
15.8034776903
 20
11.0221478957
 11
15.8030194226
 21
11.022147781
  0
LINE
  5
2EC
100
AcDbEntity
  8
0
100
AcDbLine
 62
6
  6
CONTINUOUS
 10
15.8030121245
 20
12.0032418493
 11
15.8034776903
 21
12.0032424077
  0
LINE
  5
2ED
100
AcDbEntity
  8
0
100
AcDbLine
 62
6
  6
CONTINUOUS
 10
15.8027794341
 20
11.9987930426
 11
15.8034776903
 21
11.9987940558
  0
LINE
  5
2EE
100
AcDbEntity
  8
0
100
AcDbLine
 62
6
  6
CONTINUOUS
 10
15.8034776903
 20
11.0265962459
 11
15.8028330196
 21
11.0265962071
  0
LINE
  5
2EF
100
AcDbEntity
  8
0
100
AcDbLine
 62
6
  6
CONTINUOUS
 10
15.8034776903
 20
11.0243720721
 11
15.8030222669
 21
11.0243719562
  0
LINE
  5
2F0
100
AcDbEntity
  8
0
100
AcDbLine
 62
6
  6
CONTINUOUS
 10
15.8030129619
 20
12.0010176717
 11
15.8034776903
 21
12.0010182312
  0
SPLINE
  5
2F1
100
AcDbEntity
  8
0
100
AcDbSpline
 62
6
  6
CONTINUOUS
 70
0
 71
3
 72
15
 73
11
 74
9
 42
0.0000001
 43
0.0000001
 44
0.0000000001
 12
-0.2563592427
 22
0.8568902393
 32
0.0
 13
-0.691639535
 23
-0.5671117148
 33
0.0
 40
0.0
 40
0.0
 40
0.0
 40
0.0
 40
0.1249992955
 40
0.250003125
 40
0.3750190097
 40
0.5000278893
 40
0.6250157762
 40
0.7500073835
 40
0.8750056836
 40
1.0
 40
1.0
 40
1.0
 40
1.0
 10
16.2164954426
 20
11.6558671209
 30
0.0
 10
16.2058138677
 20
11.6915706796
 30
0.0
 10
16.1751156059
 20
11.7605437477
 30
0.0
 10
16.1047190752
 20
11.8488665257
 30
0.0
 10
16.0145769284
 20
11.9169933106
 30
0.0
 10
15.9104941425
 20
11.960850944
 30
0.0
 10
15.7989025852
 20
11.9780856497
 30
0.0
 10
15.6864573958
 20
11.9679418929
 30
0.0
 10
15.5797356095
 20
11.9313416054
 30
0.0
 10
15.5162505603
 20
11.890737992
 30
0.0
 10
15.4874335567
 20
11.8671094117
 30
0.0
 11
16.2164954426
 21
11.6558671209
 31
0.0
 11
16.1710585682
 21
11.7580192222
 31
0.0
 11
16.1014310107
 21
11.8454976273
 31
0.0
 11
16.0122508841
 21
11.9129497164
 31
0.0
 11
15.9092354982
 21
11.9564158923
 31
0.0
 11
15.7987609031
 21
11.9735227225
 31
0.0
 11
15.6874135751
 21
11.9635329097
 31
0.0
 11
15.5816504619
 21
11.9272903085
 31
0.0
 11
15.4874335567
 21
11.8671094117
 31
0.0
  0
LINE
  5
2F2
100
AcDbEntity
  8
0
100
AcDbLine
 62
6
  6
CONTINUOUS
 10
15.8034776903
 20
11.0288204212
 11
15.8030208768
 21
11.0288203045
  0
LINE
  5
2F3
100
AcDbEntity
  8
0
100
AcDbLine
 62
6
  6
CONTINUOUS
 10
15.8030178002
 20
11.9965693257
 11
15.8034776903
 21
11.9965698821
  0
SPLINE
  5
2F4
100
AcDbEntity
  8
0
100
AcDbSpline
 62
6
  6
CONTINUOUS
 70
0
 71
3
 72
38
 73
34
 74
32
 42
0.0000001
 43
0.0000001
 44
0.0000000001
 12
-0.8277800611
 22
0.786297487
 32
0.0
 13
1.1417017381
 23
0.0008420081
 33
0.0
 40
0.0
 40
0.0
 40
0.0
 40
0.0
 40
0.031244871
 40
0.0625184493
 40
0.0937901433
 40
0.1250475592
 40
0.1562968406
 40
0.1875442554
 40
0.2187953598
 40
0.2500492499
 40
0.281302458
 40
0.3125530864
 40
0.3438022572
 40
0.3750501909
 40
0.4062973206
 40
0.4375451847
 40
0.4687935686
 40
0.5000420808
 40
0.5312917746
 40
0.5625420278
 40
0.5937912241
 40
0.6250396468
 40
0.6562884396
 40
0.6875376129
 40
0.7187881577
 40
0.7500399767
 40
0.7812902773
 40
0.8125368372
 40
0.8437832958
 40
0.8750359812
 40
0.9063014568
 40
0.9375767495
 40
1.0
 40
1.0
 40
1.0
 40
1.0
 10
15.4733196087
 20
11.1649118705
 30
0.0
 10
15.464698315
 20
11.173101125
 30
0.0
 10
15.448051687
 20
11.1901364132
 30
0.0
 10
15.4250426738
 20
11.2174646838
 30
0.0
 10
15.4041276187
 20
11.2464359731
 30
0.0
 10
15.3854425774
 20
11.2768815125
 30
0.0
 10
15.3690743115
 20
11.3086221512
 30
0.0
 10
15.3551124168
 20
11.3414901674
 30
0.0
 10
15.343643144
 20
11.3753105001
 30
0.0
 10
15.3347135461
 20
11.409890097
 30
0.0
 10
15.3283720818
 20
11.4450367561
 30
0.0
 10
15.3246733756
 20
11.4805572641
 30
0.0
 10
15.3236278554
 20
11.5162520582
 30
0.0
 10
15.325231032
 20
11.5519249375
 30
0.0
 10
15.3294879442
 20
11.5873789651
 30
0.0
 10
15.336373351
 20
11.6224173547
 30
0.0
 10
15.3458360025
 20
11.6568497323
 30
0.0
 10
15.3578345427
 20
11.6904837102
 30
0.0
 10
15.3723089091
 20
11.7231293386
 30
0.0
 10
15.3891625563
 20
11.7546125998
 30
0.0
 10
15.4083064905
 20
11.7847580504
 30
0.0
 10
15.4296469056
 20
11.8133899052
 30
0.0
 10
15.4530523588
 20
11.8403593474
 30
0.0
 10
15.4783940741
 20
11.8655198084
 30
0.0
 10
15.5055442477
 20
11.8887191395
 30
0.0
 10
15.534342327
 20
11.9098380284
 30
0.0
 10
15.5646234438
 20
11.9287666946
 30
0.0
 10
15.5962277907
 20
11.9453882781
 30
0.0
 10
15.6289826201
 20
11.9596113953
 30
0.0
 10
15.6627074718
 20
11.9713694872
 30
0.0
 10
15.6972289382
 20
11.9805872763
 30
0.0
 10
15.7439918845
 20
11.9894008369
 30
0.0
 10
15.7797214458
 20
11.9921040097
 30
0.0
 10
15.8034776903
 20
11.99212153
 30
0.0
 11
15.4733196087
 21
11.1649118705
 31
0.0
 11
15.4483863616
 21
11.190423604
 31
0.0
 11
15.4253917952
 21
11.2177385208
 31
0.0
 11
15.4044954309
 21
11.2466874951
 31
0.0
 11
15.3858264043
 21
11.2771013873
 31
0.0
 11
15.369474876
 21
11.3088110412
 31
0.0
 11
15.3555284481
 21
11.3416472974
 31
0.0
 11
15.3440668412
 21
11.3754356787
 31
0.0
 11
15.3351448521
 21
11.4099848932
 31
0.0
 11
15.3288123631
 21
11.4451003331
 31
0.0
 11
15.325115511
 21
11.4805871991
 31
0.0
 11
15.3240693087
 21
11.5162490986
 31
0.0
 11
15.3256733486
 21
11.5518888502
 31
0.0
 11
15.3299259754
 21
11.5873093883
 31
0.0
 11
15.3368028277
 21
11.6223160743
 31
0.0
 11
15.3462585995
 21
11.6567165089
 31
0.0
 11
15.3582469686
 21
11.6903184578
 31
0.0
 11
15.3727053481
 21
11.7229353781
 31
0.0
 11
15.3895445171
 21
11.7543900469
 31
0.0
 11
15.4086727875
 21
11.7845061052
 31
0.0
 11
15.4299909891
 21
11.8131127295
 31
0.0
 11
15.4533748765
 21
11.840057648
 31
0.0
 11
15.4786949572
 21
11.8651924712
 31
0.0
 11
15.5058184666
 21
11.8883720482
 31
0.0
 11
15.5345901942
 21
11.9094734477
 31
0.0
 11
15.56484551
 21
11.9283830624
 31
0.0
 11
15.5964194259
 21
11.9449885063
 31
0.0
 11
15.6291409541
 21
11.9591992864
 31
0.0
 11
15.6628338358
 21
11.9709441436
 31
0.0
 11
15.6973214966
 21
11.9801525907
 31
0.0
 11
15.7324102251
 21
11.9867689099
 31
0.0
 11
15.8034776903
 21
11.99212153
 31
0.0
  0
LINE
  5
2F5
100
AcDbEntity
  8
0
100
AcDbLine
 62
6
  6
CONTINUOUS
 10
15.8034776903
 20
11.0310445977
 11
15.8030190112
 21
11.0310444809
  0
SPLINE
  5
2F6
100
AcDbEntity
  8
0
100
AcDbSpline
 62
6
  6
CONTINUOUS
 70
0
 71
3
 72
35
 73
31
 74
29
 42
0.0000001
 43
0.0000001
 44
0.0000000001
 12
-0.8307538093
 22
0.7896425718
 32
0.0
 13
1.1461603282
 23
0.0019455107
 33
0.0
 40
0.0
 40
0.0
 40
0.0
 40
0.0
 40
0.0624663264
 40
0.0937222026
 40
0.1249801214
 40
0.1874552184
 40
0.2499291445
 40
0.2811861215
 40
0.3124409088
 40
0.343694842
 40
0.3749480232
 40
0.4062006129
 40
0.4374541312
 40
0.4687085199
 40
0.4999632938
 40
0.5312194048
 40
0.5624762222
 40
0.5937318192
 40
0.6249859904
 40
0.6562401041
 40
0.6874943846
 40
0.7187498204
 40
0.7500065594
 40
0.7812617555
 40
0.8125127469
 40
0.8437626543
 40
0.8750182268
 40
0.906286419
 40
0.937565414
 40
1.0
 40
1.0
 40
1.0
 40
1.0
 10
15.4716201295
 20
11.1634546687
 30
0.0
 10
15.4543220833
 20
11.1798966922
 30
0.0
 10
15.4301561968
 20
11.206554149
 30
0.0
 10
15.4022079058
 20
11.2453085782
 30
0.0
 10
15.3772202317
 20
11.2860486225
 30
0.0
 10
15.3517540202
 20
11.340280154
 30
0.0
 10
15.3346482015
 20
11.3977013845
 30
0.0
 10
15.3261681935
 20
11.4447307025
 30
0.0
 10
15.3224532762
 20
11.4803961313
 30
0.0
 10
15.3214025324
 20
11.5162353431
 30
0.0
 10
15.3230090685
 20
11.5520536459
 30
0.0
 10
15.327277175
 20
11.587653065
 30
0.0
 10
15.3341850537
 20
11.6228358905
 30
0.0
 10
15.3436798459
 20
11.657411129
 30
0.0
 10
15.3557180698
 20
11.6911865935
 30
0.0
 10
15.3702426635
 20
11.7239706107
 30
0.0
 10
15.387156038
 20
11.7555884667
 30
0.0
 10
15.406366593
 20
11.7858652481
 30
0.0
 10
15.4277818881
 20
11.8146236056
 30
0.0
 10
15.4512713474
 20
11.8417130087
 30
0.0
 10
15.4767037414
 20
11.8669883143
 30
0.0
 10
15.5039510153
 20
11.8902975001
 30
0.0
 10
15.5328544906
 20
11.9115180825
 30
0.0
 10
15.5632470384
 20
11.9305417619
 30
0.0
 10
15.5949674694
 20
11.9472526721
 30
0.0
 10
15.6278439347
 20
11.9615562082
 30
0.0
 10
15.6616949826
 20
11.9733864453
 30
0.0
 10
15.6963471206
 20
11.9826694377
 30
0.0
 10
15.7432918963
 20
11.9915584581
 30
0.0
 10
15.7791641292
 20
11.9943046572
 30
0.0
 10
15.8030174777
 20
11.9943451462
 30
0.0
 11
15.4716201295
 21
11.1634546687
 31
0.0
 11
15.423533597
 21
11.2164994447
 31
0.0
 11
15.4025787753
 21
11.2455558673
 31
0.0
 11
15.3838456839
 21
11.2760946833
 31
0.0
 11
15.3534256974
 21
11.3409184971
 31
0.0
 11
15.3329644424
 21
11.4095380808
 31
0.0
 11
15.326609232
 21
11.4447954481
 31
0.0
 11
15.322897264
 21
11.4804256618
 31
0.0
 11
15.3218454151
 21
11.5162322856
 31
0.0
 11
15.3234526803
 21
11.5520174172
 31
0.0
 11
15.3277170663
 21
11.5875832068
 31
0.0
 11
15.3346160992
 21
11.6227341665
 31
0.0
 11
15.3441036562
 21
11.6572775357
 31
0.0
 11
15.3561322173
 21
11.6910207343
 31
0.0
 11
15.3706406577
 21
11.7237759582
 31
0.0
 11
15.3875392031
 21
11.7553654612
 31
0.0
 11
15.4067344539
 21
11.7856127697
 31
0.0
 11
15.4281276455
 21
11.8143455313
 31
0.0
 11
15.4515950693
 21
11.8414105556
 31
0.0
 11
15.4770057721
 21
11.866660217
 31
0.0
 11
15.504226617
 21
11.8899490489
 31
0.0
 11
15.5331033987
 21
11.9111524113
 31
0.0
 11
15.5634701217
 21
11.9301573196
 31
0.0
 11
15.5951604835
 21
11.9468516331
 31
0.0
 11
15.6280033175
 21
11.9611428328
 31
0.0
 11
15.6618221148
 21
11.97295995
 31
0.0
 11
15.6964400143
 21
11.9822331849
 31
0.0
 11
15.7316643373
 21
11.9889060073
 31
0.0
 11
15.8030174777
 21
11.9943451462
 31
0.0
  0
LINE
  5
2F7
100
AcDbEntity
  8
0
100
AcDbLine
 62
6
  6
CONTINUOUS
 10
15.8030174777
 20
11.9943451462
 11
15.8034776903
 21
11.9943457057
  0
LINE
  5
2F8
100
AcDbEntity
  8
0
100
AcDbLine
 62
6
  6
CONTINUOUS
 10
15.8028636539
 20
12.0054657565
 11
15.8034776903
 21
12.0054665816
  0
LINE
  5
2F9
100
AcDbEntity
  8
0
100
AcDbLine
 62
6
  6
CONTINUOUS
 10
15.8034776903
 20
11.0199237201
 11
15.8027761108
 21
11.01992372
  0
LINE
  5
2FA
100
AcDbEntity
  8
0
100
AcDbLine
 62
6
  6
CONTINUOUS
 10
15.8034776903
 20
12.0099149332
 11
15.8039324887
 21
12.0099150469
  0
SPLINE
  5
2FB
100
AcDbEntity
  8
0
100
AcDbSpline
 62
6
  6
CONTINUOUS
 70
0
 71
3
 72
45
 73
41
 74
39
 42
0.0000001
 43
0.0000001
 44
0.0000000001
 12
1.5640902854
 22
-0.0003301311
 32
0.0
 13
-1.564088195
 23
-0.002578362
 33
0.0
 40
0.0
 40
0.0
 40
0.0
 40
0.0
 40
0.0312165707
 40
0.062483235
 40
0.0781227789
 40
0.0937569496
 40
0.1250047122
 40
0.1562475447
 40
0.1874949302
 40
0.2187446962
 40
0.2343736039
 40
0.2500020363
 40
0.2812492611
 40
0.3124965816
 40
0.3281256727
 40
0.3437552635
 40
0.3750048962
 40
0.4062528231
 40
0.4375001491
 40
0.4687460659
 40
0.499992276
 40
0.5312394367
 40
0.5624884641
 40
0.5937399282
 40
0.6249915847
 40
0.6562439678
 40
0.6718746283
 40
0.6875046412
 40
0.7187534601
 40
0.7500013957
 40
0.7656296525
 40
0.7812579002
 40
0.8125053541
 40
0.8437502729
 40
0.8749917521
 40
0.9062396023
 40
0.9218743538
 40
0.9375147115
 40
0.9687827809
 40
1.0
 40
1.0
 40
1.0
 40
1.0
 10
15.8039324887
 20
12.0099150469
 30
0.0
 10
15.820207667
 20
12.0099116117
 30
0.0
 10
15.8528043779
 20
12.0082921901
 30
0.0
 10
15.8931598831
 20
12.0023027789
 30
0.0
 10
15.9249852924
 20
11.9951552305
 30
0.0
 10
15.9564089138
 20
11.9864476834
 30
0.0
 10
15.9948207764
 20
11.9726870074
 30
0.0
 10
16.039063777
 20
11.951744877
 30
0.0
 10
16.0810340638
 20
11.9265540916
 30
0.0
 10
16.1138017592
 20
11.9022407155
 30
0.0
 10
16.1384806813
 20
11.8809397163
 30
0.0
 10
16.1620791957
 20
11.858449395
 30
0.0
 10
16.1894669209
 20
11.8282082988
 30
0.0
 10
16.2137631164
 20
11.7954305486
 30
0.0
 10
16.2311890651
 20
11.7678789264
 30
0.0
 10
16.2472456819
 20
11.7395066432
 30
0.0
 10
16.2646870807
 20
11.7026183398
 30
0.0
 10
16.2811592316
 20
11.656520722
 30
0.0
 10
16.2930401917
 20
11.6090326626
 30
0.0
 10
16.3002178441
 20
11.5606106955
 30
0.0
 10
16.302602596
 20
11.5117182703
 30
0.0
 10
16.3002057808
 20
11.4628246697
 30
0.0
 10
16.2930119882
 20
11.4144008251
 30
0.0
 10
16.2811199639
 20
11.3669097355
 30
0.0
 10
16.2646356996
 20
11.3208105411
 30
0.0
 10
16.2471864231
 20
11.2839217217
 30
0.0
 10
16.2311251558
 20
11.2555492435
 30
0.0
 10
16.2136957589
 20
11.2279976644
 30
0.0
 10
16.1893972685
 20
11.1952197123
 30
0.0
 10
16.1620105837
 20
11.1649764637
 30
0.0
 10
16.1384155137
 20
11.1424826721
 30
0.0
 10
16.1137425384
 20
11.1211773435
 30
0.0
 10
16.0809846934
 20
11.0968557285
 30
0.0
 10
16.0390280309
 20
11.0716489044
 30
0.0
 10
15.9947994348
 20
11.050681609
 30
0.0
 10
15.9563988249
 20
11.0368913315
 30
0.0
 10
15.9249822156
 20
11.0281557483
 30
0.0
 10
15.8931623765
 20
11.0209770266
 30
0.0
 10
15.8528125055
 20
11.0149416363
 30
0.0
 10
15.8202171626
 20
11.0132785711
 30
0.0
 10
15.803941668
 20
11.0132517414
 30
0.0
 11
15.8039324887
 21
12.0099150469
 31
0.0
 11
15.8526983607
 21
12.0075020195
 31
0.0
 11
15.9010720911
 21
12.0003206298
 31
0.0
 11
15.9249389683
 21
11.9949591984
 31
0.0
 11
15.9485044454
 21
11.988430035
 31
0.0
 11
15.9945155816
 21
11.9719474745
 31
0.0
 11
16.0386827589
 21
11.9510379979
 31
0.0
 11
16.0805907068
 21
11.9258911157
 31
0.0
 11
16.1198409587
 21
11.8967634058
 31
0.0
 11
16.1383459174
 21
11.8807907522
 31
0.0
 11
16.1560417783
 21
11.8639272019
 31
0.0
 11
16.1888485802
 21
11.827701093
 31
0.0
 11
16.2179494632
 21
11.7884357077
 31
0.0
 11
16.2310176594
 21
11.7677766799
 31
0.0
 11
16.2430581027
 21
11.7465013626
 31
0.0
 11
16.2639447745
 21
11.7023116318
 31
0.0
 11
16.2803942189
 21
11.656288373
 31
0.0
 11
16.2922564832
 21
11.6088761448
 31
0.0
 11
16.2994190238
 21
11.5605324248
 31
0.0
 11
16.3018056749
 21
11.5117188407
 31
0.0
 11
16.2994064312
 21
11.4629043852
 31
0.0
 11
16.2922292669
 21
11.4145579154
 31
0.0
 11
16.2803546973
 21
11.3671420953
 31
0.0
 11
16.2638935907
 21
11.3211168112
 31
0.0
 11
16.2429976715
 21
11.2769266937
 31
0.0
 11
16.2309538192
 21
11.2556513834
 31
0.0
 11
16.217882992
 21
11.234992314
 31
0.0
 11
16.1887792604
 21
11.195726123
 31
0.0
 11
16.1559738516
 21
11.1594972526
 31
0.0
 11
16.1382807298
 21
11.1426312267
 31
0.0
 11
16.1197800255
 21
11.1266552248
 31
0.0
 11
16.0805416029
 21
11.0975176467
 31
0.0
 11
16.0386478423
 21
11.072354628
 31
0.0
 11
15.9944950152
 21
11.0514198066
 31
0.0
 11
15.9484964564
 21
11.0349017733
 31
0.0
 11
15.9249359109
 21
11.0283514444
 31
0.0
 11
15.9010730271
 21
11.0229664819
 31
0.0
 11
15.8527052832
 21
11.0157300137
 31
0.0
 11
15.803941668
 21
11.0132517414
 31
0.0
  0
LINE
  5
2FC
100
AcDbEntity
  8
0
100
AcDbLine
 62
6
  6
CONTINUOUS
 10
15.803941668
 20
11.0132517414
 11
15.8034776903
 21
11.0132511943
  0
LINE
  5
2FD
100
AcDbEntity
  8
0
100
AcDbLine
 62
6
  6
CONTINUOUS
 10
15.8034776903
 20
12.0076907567
 11
15.8039323106
 21
12.0076908709
  0
SPLINE
  5
2FE
100
AcDbEntity
  8
0
100
AcDbSpline
 62
6
  6
CONTINUOUS
 70
0
 71
3
 72
42
 73
38
 74
36
 42
0.0000001
 43
0.0000001
 44
0.0000000001
 12
1.5570633276
 22
-0.0003296957
 32
0.0
 13
-1.5570612383
 23
-0.002571971
 33
0.0
 40
0.0
 40
0.0
 40
0.0
 40
0.0
 40
0.0312176171
 40
0.062485139
 40
0.0781247858
 40
0.0937587669
 40
0.1250057078
 40
0.1562479905
 40
0.1874955613
 40
0.2187458621
 40
0.2499945641
 40
0.2812429589
 40
0.3124917934
 40
0.3437430106
 40
0.374994948
 40
0.4062456955
 40
0.4374959506
 40
0.4687440246
 40
0.49999125
 40
0.5312389935
 40
0.5624887327
 40
0.5937411541
 40
0.6249938134
 40
0.6562471182
 40
0.671878239
 40
0.6875087038
 40
0.7187583321
 40
0.7500071418
 40
0.7812553941
 40
0.8125043325
 40
0.8437504696
 40
0.8749920837
 40
0.9062392746
 40
0.9218736572
 40
0.9375137875
 40
0.9687820468
 40
1.0
 40
1.0
 40
1.0
 40
1.0
 10
15.8039323106
 20
12.0076908709
 30
0.0
 10
15.8201349129
 20
12.0076874401
 30
0.0
 10
15.8525861616
 20
12.0060750688
 30
0.0
 10
15.892761373
 20
12.0001123506
 30
0.0
 10
15.9244442208
 20
11.9929969487
 30
0.0
 10
15.9557262636
 20
11.9843288981
 30
0.0
 10
15.9939650095
 20
11.9706305785
 30
0.0
 10
16.0380082042
 20
11.949782811
 30
0.0
 10
16.0797914339
 20
11.9247043174
 30
0.0
 10
16.1189308593
 20
11.8956675245
 30
0.0
 10
16.1550273084
 20
11.8629229494
 30
0.0
 10
16.1877402606
 20
11.8268001672
 30
0.0
 10
16.2167626304
 20
11.7876478936
 30
0.0
 10
16.2417944813
 20
11.7458300647
 30
0.0
 10
16.2626278966
 20
11.7017688994
 30
0.0
 10
16.2790276491
 20
11.6558724902
 30
0.0
 10
16.2908554249
 20
11.6085941362
 30
0.0
 10
16.2980018074
 20
11.5603865178
 30
0.0
 10
16.3003751497
 20
11.5117117539
 30
0.0
 10
16.2979879853
 20
11.4630366841
 30
0.0
 10
16.2908259675
 20
11.4148292817
 30
0.0
 10
16.278985955
 20
11.3675504895
 30
0.0
 10
16.2625753246
 20
11.3216569686
 30
0.0
 10
16.2452032238
 20
11.2849330775
 30
0.0
 10
16.2292130598
 20
11.256687523
 30
0.0
 10
16.2118613965
 20
11.229259266
 30
0.0
 10
16.187669922
 20
11.1966268527
 30
0.0
 10
16.1549600274
 20
11.1605033907
 30
0.0
 10
16.1188698441
 20
11.1277525974
 30
0.0
 10
16.0797408986
 20
11.0987050463
 30
0.0
 10
16.0379701517
 20
11.0736096247
 30
0.0
 10
15.9939403028
 20
11.0527365955
 30
0.0
 10
15.9557123185
 20
11.0390090276
 30
0.0
 10
15.9244374464
 20
11.0303130724
 30
0.0
 10
15.8927607757
 20
11.0231666065
 30
0.0
 10
15.8525918134
 20
11.0171583626
 30
0.0
 10
15.8201424395
 20
11.0155026803
 30
0.0
 10
15.8039396846
 20
11.0154759165
 30
0.0
 11
15.8039323106
 21
12.0076908709
 31
0.0
 11
15.8524807127
 21
12.0052884461
 31
0.0
 11
15.9006384278
 21
11.9981390672
 31
0.0
 11
15.9243982551
 21
11.9928017769
 31
0.0
 11
15.9478576212
 21
11.9863021905
 31
0.0
 11
15.9936609383
 21
11.9698943883
 31
0.0
 11
16.0376288811
 21
11.9490791503
 31
0.0
 11
16.0793491435
 21
11.9240456734
 31
0.0
 11
16.1184242748
 21
11.8950490692
 31
0.0
 11
16.1544636008
 21
11.8623597184
 31
0.0
 11
16.1871248895
 21
11.826295604
 31
0.0
 11
16.2160966878
 21
11.7872049189
 31
0.0
 11
16.2410944745
 21
11.7454566441
 31
0.0
 11
16.2618892161
 21
11.7014623757
 31
0.0
 11
16.27826582
 21
11.6556416002
 31
0.0
 11
16.2900754713
 21
11.6084378488
 31
0.0
 11
16.2972063765
 21
11.5603080065
 31
0.0
 11
16.299581744
 21
11.5117121161
 31
0.0
 11
16.2971923314
 21
11.4631161064
 31
0.0
 11
16.2900466493
 21
11.4149858347
 31
0.0
 11
16.2782243025
 21
11.367781784
 31
0.0
 11
16.26183636
 21
11.3219619011
 31
0.0
 11
16.2410330184
 21
11.2779693435
 31
0.0
 11
16.2290425473
 21
11.2567892049
 31
0.0
 11
16.2160298436
 21
11.2362224967
 31
0.0
 11
16.1870558794
 21
11.1971318785
 31
0.0
 11
16.1543964037
 21
11.1610652506
 31
0.0
 11
16.1183634742
 21
11.1283698911
 31
0.0
 11
16.0792988999
 21
11.0993626243
 31
0.0
 11
16.0375914482
 21
11.0743121449
 31
0.0
 11
15.9936367447
 21
11.0534713948
 31
0.0
 11
15.9478456099
 21
11.0370284727
 31
0.0
 11
15.9243914272
 21
11.0305078724
 31
0.0
 11
15.9006360958
 21
11.0251471857
 31
0.0
 11
15.8524853574
 21
11.0179432047
 31
0.0
 11
15.8039396846
 21
11.0154759165
 31
0.0
  0
LINE
  5
2FF
100
AcDbEntity
  8
0
100
AcDbLine
 62
6
  6
CONTINUOUS
 10
15.8039396846
 20
11.0154759165
 11
15.8034776903
 21
11.0154753702
  0
ENDSEC
  0
SECTION
  2
OBJECTS
  0
DICTIONARY
  5
C
100
AcDbDictionary
280
0
281
1
  3
ACAD_GROUP
350
D
  3
ACAD_MLINESTYLE
350
17
  3
ACAD_LAYOUT
350
1A
  3
ACAD_PLOTSETTINGS
350
19
  3
ACAD_PLOTSTYLENAME
350
E
  0
DICTIONARY
  5
D
102
{ACAD_REACTORS
330
C
102
}
100
AcDbDictionary
280
0
281
1
  0
ACDBDICTIONARYWDFLT
  5
E
102
{ACAD_REACTORS
330
C
102
}
100
AcDbDictionary
281
1
  3
Normal
350
F
100
AcDbDictionaryWithDefault
340
F
  0
DICTIONARY
  5
17
102
{ACAD_REACTORS
330
C
102
}
100
AcDbDictionary
280
0
281
1
  3
Standard
350
18
  0
DICTIONARY
  5
19
102
{ACAD_REACTORS
330
C
102
}
100
AcDbDictionary
281
1
  0
DICTIONARY
  5
1A
102
{ACAD_REACTORS
330
C
102
}
100
AcDbDictionary
281
1
  3
Model
350
300
  3
Layout1
350
301
  0
ACDBPLACEHOLDER
  5
F
102
{ACAD_REACTORS
330
E
102
}
  0
MLINESTYLE
  5
18
102
{ACAD_REACTORS
330
17
102
}
100
AcDbMlineStyle
  2
STANDARD
 70
0
  3

 62
256
 51
90.0
 52
90.0
 71
2
 49
0.5
 62
256
  6
BYLAYER
 49
-0.5
 62
256
  6
BYLAYER
  0
LAYOUT
  5
300
102
{ACAD_REACTORS
330
1A
102
}
100
AcDbPlotSettings
  1

  2
none_device
  4
ISO_A1_(594.00_x_841.00_MM)
  6

 40
0.0
 41
0.0
 42
0.0
 43
0.0
 44
841.0
 45
594.0
 46
0.0
 47
0.0
 48
0.0
 49
0.0
140
0.0
141
0.0
142
1.0
143
1.0
 70
1024
 72
0
 73
0
 74
0
  7

 75
0
147
1.0
148
0.0
149
0.0
100
AcDbLayout
  1
Model
 70
0
 71
0
 10
0.0
 20
0.0
 11
33.1102362205
 21
23.3858267717
 12
0.0
 22
0.0
 32
0.0
 14
0.0
 24
0.0
 34
0.0
 15
0.0
 25
0.0
 35
0.0
146
0.0
 13
0.0
 23
0.0
 33
0.0
 16
1.0
 26
0.0
 36
0.0
 17
0.0
 27
1.0
 37
0.0
 76
0
330
203
345
0
346
0
  0
LAYOUT
  5
301
102
{ACAD_REACTORS
330
1A
102
}
100
AcDbPlotSettings
  1

  2
none_device
  4
ISO_A1_(594.00_x_841.00_MM)
  6

 40
0.0
 41
0.0
 42
0.0
 43
0.0
 44
841.0
 45
594.0
 46
0.0
 47
0.0
 48
0.0
 49
0.0
140
0.0
141
0.0
142
1.0
143
1.0
 70
0
 72
0
 73
0
 74
0
  7

 75
0
147
1.0
148
0.0
149
0.0
100
AcDbLayout
  1
Layout1
 70
0
 71
1
 10
0.0
 20
0.0
 11
33.1102362205
 21
23.3858267717
 12
0.0
 22
0.0
 32
0.0
 14
0.0
 24
0.0
 34
0.0
 15
0.0
 25
0.0
 35
0.0
146
0.0
 13
0.0
 23
0.0
 33
0.0
 16
1.0
 26
0.0
 36
0.0
 17
0.0
 27
1.0
 37
0.0
 76
0
330
204
345
0
346
0
  0
ENDSEC
  0
EOF
