  0
SECTION
  2
HEADER
  9
$ACADVER
  1
AC1015
  9
$DWGCODEPAGE
  3
ANSI_1252
  9
$EXTMAX
 10
11.6929133858
 20
8.2677165354
 30
0.0
  9
$EXTMIN
 10
0.0
 20
-0.0
 30
0.0
  9
$LIMMIN
 10
0.0
 20
-0.0
  9
$LIMMAX
 10
11.6929133858
 20
8.2677165354
  9
$VIEWCTR
 10
5.8464566929
 20
4.1338582677
  9
$VIEWSIZE
 40
8.2677165354
  9
$CLAYER
  8
0
  9
$LTSCALE
 40
0.6431102362
  9
$CELTYPE
  6
BYLAYER
  9
$DIMSCALE
 40
1.0
  9
$DIMASZ
 40
0.1
  9
$DIMEXO
 40
0.0730807087
  9
$DIMDLI
 40
0.4443307087
  9
$DIMEXE
 40
0.2104724409
  9
$DIMCEN
 40
0.1052362205
  9
$DIMLFAC
 40
1.0
  9
$DIMBLK
  1
_FILLED
  9
$DIMTXT
 40
0.08
  9
$DIMTOL
 70
1
  9
$DIMLIM
 70
0
  9
$DIMTFAC
 40
1.0
  9
$DIMTP
 40
0.01
  9
$DIMTM
 40
0.01
  9
$PDMODE
 70
3
  9
$PDSIZE
 40
0.06
  9
$HANDSEED
  5
280
  9
$TILEMODE
 70
1
  9
$MEASUREMENT
 70
0
  9
$INSUNITS
 70
1
  0
ENDSEC
  0
SECTION
  2
CLASSES
  0
CLASS
  1
ACDBDICTIONARYWDFLT
  2
AcDbDictionaryWithDefault
  3
AutoCAD 2000
 90
0
280
0
281
0
  0
CLASS
  1
ACDBPLACEHOLDER
  2
AcDbPlaceHolder
  3
AutoCAD 2000
 90
0
280
0
281
0
  0
CLASS
  1
LAYOUT
  2
AcDbLayout
  3
AutoCAD 2000
 90
0
280
0
281
0
  0
ENDSEC
  0
SECTION
  2
TABLES
  0
TABLE
  2
VPORT
  5
8
100
AcDbSymbolTable
 70
2
  0
VPORT
  5
1F4
100
AcDbSymbolTableRecord
100
AcDbViewportTableRecord
  2
*ACTIVE
 70
0
 10
0.0
 20
0.0
 11
1.0
 21
1.0
 12
5.8464566929
 22
4.1338582677
 13
0.0
 23
0.0
 14
1.0
 24
1.0
 15
0.0
 25
0.0
 16
0.0
 26
0.0
 36
1.0
 17
0.0
 27
0.0
 37
0.0
 40
8.2677165354
 41
1.4142857143
 42
50.0
 43
0.0
 44
0.0
 50
0.0
 51
0.0
 71
0
 72
100
 73
1
 74
1
 75
0
 76
0
 77
0
 78
0
  0
ENDTAB
  0
TABLE
  2
LTYPE
  5
5
100
AcDbSymbolTable
 70
6
  0
LTYPE
  5
14
100
AcDbSymbolTableRecord
100
AcDbLinetypeTableRecord
  2
BYBLOCK
 70
0
  3

 72
65
 73
0
 40
0.0
  0
LTYPE
  5
15
100
AcDbSymbolTableRecord
100
AcDbLinetypeTableRecord
  2
BYLAYER
 70
0
  3

 72
65
 73
0
 40
0.0
  0
LTYPE
  5
16
100
AcDbSymbolTableRecord
100
AcDbLinetypeTableRecord
  2
CONTINUOUS
 70
64
  3
Solid line
 72
65
 73
0
 40
0.0
  0
LTYPE
  5
1F5
100
AcDbSymbolTableRecord
100
AcDbLinetypeTableRecord
  2
CENTER
 70
64
  3
____ _ ____ _ ____ _ ____ _ ____ _ ____ _ ____
 72
65
 73
4
 40
0.6
 49
0.375
 74
0
 49
-0.075
 74
0
 49
0.075
 74
0
 49
-0.075
 74
0
  0
LTYPE
  5
1F6
100
AcDbSymbolTableRecord
100
AcDbLinetypeTableRecord
  2
HIDDEN
 70
64
  3
- - - - - - - - - - - - - - - - - - - -
 72
65
 73
2
 40
0.2
 49
0.1
 74
0
 49
-0.1
 74
0
  0
LTYPE
  5
1F7
100
AcDbSymbolTableRecord
100
AcDbLinetypeTableRecord
  2
PHANTOM
 70
64
  3
_____ _ _ _____ _ _ _____ _ _ _____
 72
65
 73
6
 40
0.8
 49
0.45
 74
0
 49
-0.05
 74
0
 49
0.1
 74
0
 49
-0.05
 74
0
 49
0.1
 74
0
 49
-0.05
 74
0
  0
LTYPE
  5
1F8
100
AcDbSymbolTableRecord
100
AcDbLinetypeTableRecord
  2
DOT
 70
64
  3
. . . . . . . . . . . . . . . . . . . .
 72
65
 73
2
 40
0.2
 49
0.1
 74
0
 49
-0.1
 74
0
  0
LTYPE
  5
1F9
100
AcDbSymbolTableRecord
100
AcDbLinetypeTableRecord
  2
DASHED
 70
64
  3
- - - - - - - - - - - - - - - - - - - -
 72
65
 73
2
 40
0.2
 49
0.1
 74
0
 49
-0.1
 74
0
  0
ENDTAB
  0
TABLE
  2
LAYER
  5
2
100
AcDbSymbolTable
 70
36
  0
LAYER
  5
10
100
AcDbSymbolTableRecord
100
AcDbLayerTableRecord
  2
0
 70
0
 62
7
  6
CONTINUOUS
370
-3
390
F
  0
LAYER
  5
1FA
100
AcDbSymbolTableRecord
100
AcDbLayerTableRecord
  2
DEFAULT_1
 70
0
 62
7
  6
CENTER
370
-3
390
F
  0
LAYER
  5
1FB
100
AcDbSymbolTableRecord
100
AcDbLayerTableRecord
  2
DEFAULT_2
 70
0
 62
8
  6
HIDDEN
370
-3
390
F
  0
LAYER
  5
1FC
100
AcDbSymbolTableRecord
100
AcDbLayerTableRecord
  2
DEFAULT_3
 70
0
 62
7
  6
PHANTOM
370
-3
390
F
  0
LAYER
  5
1FD
100
AcDbSymbolTableRecord
100
AcDbLayerTableRecord
  2
DEFAULT_COORDINATE_SYSTEM
 70
0
 62
7
  6
CONTINUOUS
370
-3
390
F
  0
LAYER
  5
1FE
100
AcDbSymbolTableRecord
100
AcDbLayerTableRecord
  2
DEFAULT_DATUM_AXES
 70
0
 62
7
  6
CONTINUOUS
370
-3
390
F
  0
LAYER
  5
1FF
100
AcDbSymbolTableRecord
100
AcDbLayerTableRecord
  2
DEFAULT_DATUM_CURVES
 70
0
 62
7
  6
CONTINUOUS
370
-3
390
F
  0
LAYER
  5
200
100
AcDbSymbolTableRecord
100
AcDbLayerTableRecord
  2
DEFAULT_DATUM_PLANES
 70
0
 62
7
  6
CONTINUOUS
370
-3
390
F
  0
ENDTAB
  0
TABLE
  2
STYLE
  5
3
100
AcDbSymbolTable
 70
1
  0
STYLE
  5
11
100
AcDbSymbolTableRecord
100
AcDbTextStyleTableRecord
  2
STANDARD
 70
0
 40
0.0
 41
0.8
 50
0.0
 71
0
 42
0.2
  3
txt
  4

  0
STYLE
  5
201
100
AcDbSymbolTableRecord
100
AcDbTextStyleTableRecord
  2
TEXTSTYLE_1
 70
0
 40
0.0
 41
0.8
 50
0.0
 71
0
 42
0.2
  3
gdt
  4

  0
ENDTAB
  0
TABLE
  2
VIEW
  5
6
100
AcDbSymbolTable
 70
0
  0
ENDTAB
  0
TABLE
  2
UCS
  5
7
100
AcDbSymbolTable
 70
0
  0
ENDTAB
  0
TABLE
  2
APPID
  5
9
100
AcDbSymbolTable
 70
1
  0
APPID
  5
202
100
AcDbSymbolTableRecord
100
AcDbRegAppTableRecord
  2
ACAD
 70
0
  0
ENDTAB
  0
TABLE
  2
BLOCK_RECORD
  5
1
100
AcDbSymbolTable
 70
0
  0
BLOCK_RECORD
  5
203
100
AcDbSymbolTableRecord
100
AcDbBlockTableRecord
  2
*Model_Space
  0
BLOCK_RECORD
  5
204
100
AcDbSymbolTableRecord
100
AcDbBlockTableRecord
  2
*Paper_Space
  0
ENDTAB
  0
TABLE
  2
DIMSTYLE
  5
A
100
AcDbSymbolTable
 70
1
100
AcDbDimStyleTable
 71
0
  0
DIMSTYLE
105
205
100
AcDbSymbolTableRecord
100
AcDbDimStyleTableRecord
  2
STANDARD
 70
0
  3

  4

 40
1.0
 41
0.1
 42
0.0625
 43
0.38
 44
0.18
 45
0.0
 46
0.0
 47
0.01
 48
0.01
140
0.08
141
0.09
142
0.0
143
25.4
144
1.0
145
0.0
146
1.0
147
0.09
 71
1.0
 72
0.0
 73
1
 74
1
 75
0
 76
0
 77
0
 78
4
170
0
171
2
172
0
173
0
174
0
175
0
176
0
177
0
178
0
270
2
271
2
272
2
273
2
274
2
275
0
280
0
281
0
282
0
283
1
284
4
285
0
286
0
287
3
288
0
340
11
  0
ENDTAB
  0
ENDSEC
  0
SECTION
  2
BLOCKS
  0
BLOCK
  5
20
100
AcDbEntity
  8
0
100
AcDbBlockBegin
  2
*Model_Space
 70
0
 10
0.0
 20
0.0
 30
0.0
  3
*Model_Space
  1

  0
ENDBLK
  5
21
100
AcDbEntity
  8
0
100
AcDbBlockEnd
  0
BLOCK
  5
1C
100
AcDbEntity
  8
0
100
AcDbBlockBegin
  2
*Paper_Space
 70
0
 10
0.0
 20
0.0
 30
0.0
  3
*Paper_Space
  1

  0
ENDBLK
  5
1D
100
AcDbEntity
  8
0
100
AcDbBlockEnd
  0
ENDSEC
  0
SECTION
  2
ENTITIES
  0
LINE
  5
206
100
AcDbEntity
  8
0
100
AcDbLine
 62
6
  6
CONTINUOUS
 10
5.6179744773
 20
4.5800977464
 11
5.6179744773
 21
4.5784591285
  0
CIRCLE
  5
207
100
AcDbEntity
  8
0
100
AcDbCircle
 62
6
  6
CONTINUOUS
 10
5.6179744773
 20
4.0800977464
 40
1.18
  0
CIRCLE
  5
208
100
AcDbEntity
  8
0
100
AcDbCircle
 62
6
  6
CONTINUOUS
 10
5.6179744773
 20
4.0800977464
 40
1.0
  0
CIRCLE
  5
209
100
AcDbEntity
  8
0
100
AcDbCircle
 62
9
  6
CONTINUOUS
 10
5.6179744773
 20
4.0800977464
 40
0.8120018309
  0
CIRCLE
  5
20A
100
AcDbEntity
  8
0
100
AcDbCircle
 62
6
  6
CONTINUOUS
 10
5.6179744773
 20
4.0800977464
 40
0.741
  0
CIRCLE
  5
20B
100
AcDbEntity
  8
0
100
AcDbCircle
 62
6
  6
CONTINUOUS
 10
5.6179744773
 20
4.0800977464
 40
0.5225
  0
CIRCLE
  5
20C
100
AcDbEntity
  8
0
100
AcDbCircle
 62
6
  6
CONTINUOUS
 10
5.6179744773
 20
4.0800977464
 40
0.5
  0
ARC
  5
20D
100
AcDbEntity
  8
0
100
AcDbCircle
 62
6
  6
CONTINUOUS
 10
5.6182377326
 20
4.0803675628
 40
0.4997172722
100
AcDbArc
 50
90.0301831162
 51
180.0360646001
  0
ARC
  5
20E
100
AcDbEntity
  8
0
100
AcDbCircle
 62
6
  6
CONTINUOUS
 10
5.6177110575
 20
4.0803674317
 40
0.4991698436
100
AcDbArc
 50
180.0562397051
 51
270.0302366339
  0
ARC
  5
20F
100
AcDbEntity
  8
0
100
AcDbCircle
 62
6
  6
CONTINUOUS
 10
5.6183040603
 20
4.0802436711
 40
0.4959894074
100
AcDbArc
 50
90.0583435291
 51
136.4800266036
  0
ARC
  5
210
100
AcDbEntity
  8
0
100
AcDbCircle
 62
6
  6
CONTINUOUS
 10
5.6183106747
 20
4.0802284851
 40
0.4954199555
100
AcDbArc
 50
90.0388814526
 51
136.4752338344
  0
ARC
  5
211
100
AcDbEntity
  8
0
100
AcDbCircle
 62
6
  6
CONTINUOUS
 10
5.6183040952
 20
4.0802435821
 40
0.4937653269
100
AcDbArc
 50
90.0586049798
 51
136.4656338986
  0
ARC
  5
212
100
AcDbEntity
  8
0
100
AcDbCircle
 62
6
  6
CONTINUOUS
 10
5.6183055814
 20
4.0802397821
 40
0.4931839923
100
AcDbArc
 50
90.0384659804
 51
136.4559432811
  0
ARC
  5
213
100
AcDbEntity
  8
0
100
AcDbCircle
 62
6
  6
CONTINUOUS
 10
5.6183055807
 20
4.0802397834
 40
0.4915453739
100
AcDbArc
 50
90.0385941349
 51
136.4560715929
  0
ARC
  5
214
100
AcDbEntity
  8
0
100
AcDbCircle
 62
6
  6
CONTINUOUS
 10
5.6183105788
 20
4.0802286334
 40
0.4909714446
100
AcDbArc
 50
90.0392225569
 51
136.4468151846
  0
ARC
  5
215
100
AcDbEntity
  8
0
100
AcDbCircle
 62
6
  6
CONTINUOUS
 10
5.6182325122
 20
4.0803746611
 40
0.4891738
100
AcDbArc
 50
90.0507776061
 51
182.8779521588
  0
ARC
  5
216
100
AcDbEntity
  8
0
100
AcDbCircle
 62
6
  6
CONTINUOUS
 10
5.617702769
 20
4.080355731
 40
0.4886211779
100
AcDbArc
 50
182.8788540385
 51
270.0117738624
  0
ARC
  5
217
100
AcDbEntity
  8
0
100
AcDbCircle
 62
6
  6
CONTINUOUS
 10
5.6182319194
 20
4.0803752175
 40
0.4885875034
100
AcDbArc
 50
90.0301888944
 51
182.8761079348
  0
ARC
  5
218
100
AcDbEntity
  8
0
100
AcDbCircle
 62
6
  6
CONTINUOUS
 10
5.6177027927
 20
4.0803557806
 40
0.4880356669
100
AcDbArc
 50
182.8769458417
 51
270.0318966807
  0
ARC
  5
219
100
AcDbEntity
  8
0
100
AcDbCircle
 62
6
  6
CONTINUOUS
 10
5.6182326314
 20
4.0803745394
 40
0.4869497799
100
AcDbArc
 50
90.0510147009
 51
182.8698860866
  0
ARC
  5
21A
100
AcDbEntity
  8
0
100
AcDbCircle
 62
6
  6
CONTINUOUS
 10
5.617702853
 20
4.0803558328
 40
0.4863971261
100
AcDbArc
 50
182.8708098037
 51
270.0117981083
  0
ARC
  5
21B
100
AcDbEntity
  8
0
100
AcDbCircle
 62
6
  6
CONTINUOUS
 10
5.6182351393
 20
4.0803714391
 40
0.4863679539
100
AcDbArc
 50
90.0307060156
 51
182.86562783
  0
ARC
  5
21C
100
AcDbEntity
  8
0
100
AcDbCircle
 62
6
  6
CONTINUOUS
 10
5.6177031333
 20
4.0803561798
 40
0.4858120392
100
AcDbArc
 50
182.8669671981
 51
270.0320025198
  0
ARC
  5
21D
100
AcDbEntity
  8
0
100
AcDbCircle
 62
6
  6
CONTINUOUS
 10
5.6182366532
 20
4.0803699838
 40
0.4847312525
100
AcDbArc
 50
90.030988659
 51
182.8655508137
  0
ARC
  5
21E
100
AcDbEntity
  8
0
100
AcDbCircle
 62
6
  6
CONTINUOUS
 10
5.6177031318
 20
4.0803561784
 40
0.4841734209
100
AcDbArc
 50
182.867075424
 51
270.0321110116
  0
ARC
  5
21F
100
AcDbEntity
  8
0
100
AcDbCircle
 62
6
  6
CONTINUOUS
 10
5.6182319473
 20
4.0803751657
 40
0.4841392249
100
AcDbArc
 50
90.0304695591
 51
182.8601295333
  0
ARC
  5
220
100
AcDbEntity
  8
0
100
AcDbCircle
 62
6
  6
CONTINUOUS
 10
5.6178090029
 20
4.0804182383
 40
0.48370579
100
AcDbArc
 50
182.8677249855
 51
229.2947530947
  0
ARC
  5
221
100
AcDbEntity
  8
0
100
AcDbCircle
 62
6
  6
CONTINUOUS
 10
5.6176435476
 20
4.0802370569
 40
0.4834593401
100
AcDbArc
 50
229.2956142948
 51
270.0392192784
  0
ARC
  5
222
100
AcDbEntity
  8
0
100
AcDbCircle
 62
6
  6
CONTINUOUS
 10
5.6176399529
 20
4.0802277857
 40
0.4818109951
100
AcDbArc
 50
229.2944480299
 51
270.019323658
  0
ARC
  5
223
100
AcDbEntity
  8
0
100
AcDbCircle
 62
6
  6
CONTINUOUS
 10
5.6176437155
 20
4.0802375236
 40
0.4812356468
100
AcDbArc
 50
229.2938897977
 51
270.0393805173
  0
ARC
  5
224
100
AcDbEntity
  8
0
100
AcDbCircle
 62
6
  6
CONTINUOUS
 10
5.6183021156
 20
4.0799484453
 40
0.4807189696
100
AcDbArc
 50
45.6553265369
 51
90.0185362133
  0
ARC
  5
225
100
AcDbEntity
  8
0
100
AcDbCircle
 62
6
  6
CONTINUOUS
 10
5.6183024614
 20
4.0799492068
 40
0.480132595
100
AcDbArc
 50
45.6500277213
 51
90.0391395244
  0
ARC
  5
226
100
AcDbEntity
  8
0
100
AcDbCircle
 62
6
  6
CONTINUOUS
 10
5.6178717926
 20
4.0805279791
 40
0.4799659118
100
AcDbArc
 50
226.5232338301
 51
229.2955603515
  0
ARC
  5
227
100
AcDbEntity
  8
0
100
AcDbCircle
 62
6
  6
CONTINUOUS
 10
5.617639967
 20
4.0802278456
 40
0.4795868764
100
AcDbArc
 50
229.2931720506
 51
270.0193926721
  0
ARC
  5
228
100
AcDbEntity
  8
0
100
AcDbCircle
 62
6
  6
CONTINUOUS
 10
5.6176433274
 20
4.0802367596
 40
0.4790108214
100
AcDbArc
 50
229.2932763438
 51
270.0396098567
  0
ARC
  5
229
100
AcDbEntity
  8
0
100
AcDbCircle
 62
6
  6
CONTINUOUS
 10
5.618302179
 20
4.0799485149
 40
0.4784947075
100
AcDbArc
 50
45.6373211268
 51
90.0392396916
  0
ARC
  5
22A
100
AcDbEntity
  8
0
100
AcDbCircle
 62
6
  6
CONTINUOUS
 10
5.6172804115
 20
4.0798253214
 40
0.4784627882
100
AcDbArc
 50
226.486505822
 51
229.2940878143
  0
ARC
  5
22B
100
AcDbEntity
  8
0
100
AcDbCircle
 62
6
  6
CONTINUOUS
 10
5.61830246
 20
4.0799491727
 40
0.4779084557
100
AcDbArc
 50
45.6328430752
 51
90.0393215155
  0
ARC
  5
22C
100
AcDbEntity
  8
0
100
AcDbCircle
 62
6
  6
CONTINUOUS
 10
5.6176433088
 20
4.0802367098
 40
0.4773721526
100
AcDbArc
 50
229.2934143875
 51
270.0397480493
  0
ARC
  5
22D
100
AcDbEntity
  8
0
100
AcDbCircle
 62
6
  6
CONTINUOUS
 10
5.6179338902
 20
4.0805961558
 40
0.4772483917
100
AcDbArc
 50
226.5068172685
 51
229.2947108236
  0
ARC
  5
22E
100
AcDbEntity
  8
0
100
AcDbCircle
 62
6
  6
CONTINUOUS
 10
5.6175395537
 20
4.0801121212
 40
0.4772105907
100
AcDbArc
 50
226.4929382652
 51
229.293101949
  0
ARC
  5
22F
100
AcDbEntity
  8
0
100
AcDbCircle
 62
6
  6
CONTINUOUS
 10
5.6176437358
 20
4.0802376169
 40
0.4767873949
100
AcDbArc
 50
229.2930441542
 51
270.0397454851
  0
ARC
  5
230
100
AcDbEntity
  8
0
100
AcDbCircle
 62
6
  6
CONTINUOUS
 10
5.6183166973
 20
4.0799798139
 40
0.4762368287
100
AcDbArc
 50
45.6218826451
 51
96.2462972293
  0
ARC
  5
231
100
AcDbEntity
  8
0
100
AcDbCircle
 62
6
  6
CONTINUOUS
 10
5.6183016852
 20
4.0802434738
 40
0.4759710114
100
AcDbArc
 50
96.2479540707
 51
131.72144408
  0
ARC
  5
232
100
AcDbEntity
  8
0
100
AcDbCircle
 62
6
  6
CONTINUOUS
 10
5.6183164939
 20
4.0799800496
 40
0.4756511484
100
AcDbArc
 50
45.6149951846
 51
96.2446981584
  0
ARC
  5
233
100
AcDbEntity
  8
0
100
AcDbCircle
 62
6
  6
CONTINUOUS
 10
5.6179804744
 20
4.080478262
 40
0.4755688975
100
AcDbArc
 50
131.711385067
 51
226.4881093505
  0
ARC
  5
234
100
AcDbEntity
  8
0
100
AcDbCircle
 62
6
  6
CONTINUOUS
 10
5.6182983526
 20
4.0802514347
 40
0.4753771544
100
AcDbArc
 50
96.2460825516
 51
131.7214118458
  0
ARC
  5
235
100
AcDbEntity
  8
0
100
AcDbCircle
 62
6
  6
CONTINUOUS
 10
5.6179744773
 20
4.0800977464
 40
0.4752765628
100
AcDbArc
 50
131.6799396051
 51
226.4570504863
  0
ARC
  5
236
100
AcDbEntity
  8
0
100
AcDbCircle
 62
6
  6
CONTINUOUS
 10
5.6179524597
 20
4.0797385605
 40
0.4374518493
100
AcDbArc
 50
334.2249607482
 51
19.2311124446
  0
CIRCLE
  5
237
100
AcDbEntity
  8
0
100
AcDbCircle
 62
6
  6
CONTINUOUS
 10
5.6179744773
 20
4.0800977464
 40
0.375
  0
SPLINE
  5
238
100
AcDbEntity
  8
0
100
AcDbSpline
 62
6
  6
CONTINUOUS
 70
0
 71
3
 72
39
 73
35
 74
33
 42
0.0000001
 43
0.0000001
 44
0.0000000001
 12
0.6469322847
 22
-0.5649108087
 32
0.0
 13
0.3382859554
 23
0.7894353775
 33
0.0
 40
0.0
 40
0.0
 40
0.0
 40
0.0
 40
0.0312352564
 40
0.0624738914
 40
0.0937111388
 40
0.1249502778
 40
0.1561913652
 40
0.187434308
 40
0.2186794019
 40
0.2499269164
 40
0.2811770128
 40
0.3124294934
 40
0.343683215
 40
0.3749376341
 40
0.4061918011
 40
0.4374451963
 40
0.4686978379
 40
0.4999499056
 40
0.5312019632
 40
0.5624540428
 40
0.5937066289
 40
0.6249594201
 40
0.6562123336
 40
0.6874653291
 40
0.7187182121
 40
0.7499713144
 40
0.7812246285
 40
0.8124785156
 40
0.8437317089
 40
0.8749832067
 40
0.9062358673
 40
0.9374949705
 40
0.9687564828
 40
1.0
 40
1.0
 40
1.0
 40
1.0
 10
5.2905573418
 20
3.7355896471
 30
0.0
 10
5.2972930404
 20
3.7297079358
 30
0.0
 10
5.3111008644
 20
3.7183220287
 30
0.0
 10
5.332743505
 20
3.7024446706
 30
0.0
 10
5.3552540933
 20
3.687820068
 30
0.0
 10
5.3785606609
 20
3.6744994772
 30
0.0
 10
5.4025904573
 20
3.6625287712
 30
0.0
 10
5.4272668961
 20
3.6519506155
 30
0.0
 10
5.4525109556
 20
3.6428037981
 30
0.0
 10
5.4782407727
 20
3.6351215465
 30
0.0
 10
5.5043726133
 20
3.6289339377
 30
0.0
 10
5.5308200535
 20
3.6242659859
 30
0.0
 10
5.5574945585
 20
3.6211354112
 30
0.0
 10
5.584306489
 20
3.6195607986
 30
0.0
 10
5.6111645737
 20
3.619546896
 30
0.0
 10
5.6379772598
 20
3.6211012757
 30
0.0
 10
5.6646525927
 20
3.6242208703
 30
0.0
 10
5.691098964
 20
3.6288985678
 30
0.0
 10
5.7172241706
 20
3.6351242183
 30
0.0
 10
5.7429378189
 20
3.6428770795
 30
0.0
 10
5.7681479121
 20
3.6521380434
 30
0.0
 10
5.792766086
 20
3.6628747006
 30
0.0
 10
5.8167025865
 20
3.6750561323
 30
0.0
 10
5.839871303
 20
3.6886413096
 30
0.0
 10
5.8621878732
 20
3.7035854496
 30
0.0
 10
5.8835688019
 20
3.7198402942
 30
0.0
 10
5.9039367734
 20
3.7373483326
 30
0.0
 10
5.9232120641
 20
3.756052741
 30
0.0
 10
5.9413244703
 20
3.7758847096
 30
0.0
 10
5.9582024869
 20
3.7967770116
 30
0.0
 10
5.9737824273
 20
3.8186564953
 30
0.0
 10
5.988002764
 20
3.841446956
 30
0.0
 10
6.0008028261
 20
3.8650601964
 30
0.0
 10
6.0083595578
 20
3.8812953674
 30
0.0
 10
6.0118826388
 20
3.8895169467
 30
0.0
 11
5.2905573418
 21
3.7355896471
 31
0.0
 11
5.31125524
 21
3.7185228817
 31
0.0
 11
5.3328883386
 21
3.7026533443
 31
0.0
 11
5.3553861919
 21
3.6880377424
 31
0.0
 11
5.3786804673
 21
3.674724849
 31
0.0
 11
5.4026974909
 21
3.6627612053
 31
0.0
 11
5.4273606412
 21
3.6521895102
 31
0.0
 11
5.4525909327
 21
3.6430482162
 31
0.0
 11
5.4783067219
 21
3.6353709358
 31
0.0
 11
5.504424255
 21
3.6291874136
 31
0.0
 11
5.5308573423
 21
3.6245222993
 31
0.0
 11
5.5575171838
 21
3.6213947648
 31
0.0
 11
5.5843142691
 21
3.6198209164
 31
0.0
 11
5.6111573129
 21
3.6198082859
 31
0.0
 11
5.6379546824
 21
3.6213621721
 31
0.0
 11
5.6646146583
 21
3.6244805862
 31
0.0
 11
5.6910454658
 21
3.6291565652
 31
0.0
 11
5.7171555478
 21
3.6353787446
 31
0.0
 11
5.7428537224
 21
3.6431283727
 31
0.0
 11
5.7680491672
 21
3.6523839561
 31
0.0
 11
5.7926524243
 21
3.6631154732
 31
0.0
 11
5.8165745979
 21
3.6752900768
 31
0.0
 11
5.8397292984
 21
3.6888678156
 31
0.0
 11
5.8620318698
 21
3.7038038547
 31
0.0
 11
5.8833998916
 21
3.7200490912
 31
0.0
 11
5.9037545347
 21
3.737547615
 31
0.0
 11
5.9230184464
 21
3.7562408748
 31
0.0
 11
5.9411190952
 21
3.7760618427
 31
0.0
 11
5.9579857785
 21
3.7969410449
 31
0.0
 11
5.9735545392
 21
3.8188063916
 31
0.0
 11
5.9877658932
 21
3.8415838849
 31
0.0
 11
6.0005611313
 21
3.8651883286
 31
0.0
 11
6.0118826388
 21
3.8895169467
 31
0.0
  0
LINE
  5
239
100
AcDbEntity
  8
0
100
AcDbLine
 62
6
  6
CONTINUOUS
 10
5.6179744773
 20
4.5740107774
 11
5.6177990454
 21
4.5740106204
  0
SPLINE
  5
23A
100
AcDbEntity
  8
0
100
AcDbSpline
 62
6
  6
CONTINUOUS
 70
0
 71
3
 72
49
 73
45
 74
43
 42
0.0000001
 43
0.0000001
 44
0.0000000001
 12
-0.7916757136
 22
-0.8333675006
 32
0.0
 13
1.149457109
 23
0.0004258038
 33
0.0
 40
0.0
 40
0.0
 40
0.0
 40
0.0
 40
0.0312478549
 40
0.0624957523
 40
0.0937439144
 40
0.1249920534
 40
0.1562400801
 40
0.1874880957
 40
0.2187362063
 40
0.2499846739
 40
0.2656116063
 40
0.2812386914
 40
0.3124879741
 40
0.3281151933
 40
0.3437424184
 40
0.3749916758
 40
0.3906187263
 40
0.4062456405
 40
0.4374940861
 40
0.4531207449
 40
0.4687472991
 40
0.4999952705
 40
0.5312434429
 40
0.5624921751
 40
0.5937412353
 40
0.6249903188
 40
0.6562393063
 40
0.6718662054
 40
0.6874930358
 40
0.7187413057
 40
0.7343678539
 40
0.7499943605
 40
0.7812424275
 40
0.7968692538
 40
0.8124963236
 40
0.8437453129
 40
0.8593717348
 40
0.8749973281
 40
0.8906225348
 40
0.9062483218
 40
0.9218756526
 40
0.937505528
 40
0.9687630239
 40
1.0
 40
1.0
 40
1.0
 40
1.0
 10
5.2603439749
 20
4.4203433392
 30
0.0
 10
5.252097919
 20
4.4116630236
 30
0.0
 10
5.2362316176
 20
4.3936953131
 30
0.0
 10
5.2144578033
 20
4.3650912726
 30
0.0
 10
5.19482351
 20
4.3349760324
 30
0.0
 10
5.1774280344
 20
4.3035149303
 30
0.0
 10
5.1623707916
 20
4.2708701157
 30
0.0
 10
5.1497238128
 20
4.2372179038
 30
0.0
 10
5.1395620798
 20
4.2027344645
 30
0.0
 10
5.1332034494
 20
4.1734550945
 30
0.0
 10
5.1294061227
 20
4.1498053616
 30
0.0
 10
5.1264730782
 20
4.1260331165
 30
0.0
 10
5.1248391448
 20
4.1021153401
 30
0.0
 10
5.1245134638
 20
4.0781647877
 30
0.0
 10
5.1250613486
 20
4.0542182956
 30
0.0
 10
5.126916597
 20
4.030316727
 30
0.0
 10
5.130070153
 20
4.0065726597
 30
0.0
 10
5.1340872445
 20
3.9829596557
 30
0.0
 10
5.1393924832
 20
3.9595811129
 30
0.0
 10
5.1459589481
 20
3.9365469279
 30
0.0
 10
5.1533604276
 20
3.9137670255
 30
0.0
 10
5.1641622521
 20
3.8858203442
 30
0.0
 10
5.1795259508
 20
3.8533190206
 30
0.0
 10
5.1972186038
 20
3.8220230532
 30
0.0
 10
5.2171387003
 20
3.7920950948
 30
0.0
 10
5.2391873063
 20
3.7636996443
 30
0.0
 10
5.2592353977
 20
3.7414325566
 30
0.0
 10
5.2762112423
 20
3.7245341883
 30
0.0
 10
5.293791447
 20
3.7082665762
 30
0.0
 10
5.312249081
 20
3.6929691418
 30
0.0
 10
5.3314978625
 20
3.6787151755
 30
0.0
 10
5.3512537587
 20
3.6651729456
 30
0.0
 10
5.3717373825
 20
3.6527186023
 30
0.0
 10
5.3928523576
 20
3.6414110353
 30
0.0
 10
5.4143662345
 20
3.6308814449
 30
0.0
 10
5.4364423738
 20
3.6215347773
 30
0.0
 10
5.4589749945
 20
3.6134138301
 30
0.0
 10
5.4760870241
 20
3.6079427314
 30
0.0
 10
5.4933866518
 20
3.6030995173
 30
0.0
 10
5.5108518485
 20
3.5988893267
 30
0.0
 10
5.5284607378
 20
3.5953176701
 30
0.0
 10
5.552097954
 20
3.5914151418
 30
0.0
 10
5.5818815584
 20
3.5881592473
 30
0.0
 10
5.6058352061
 20
3.5872922767
 30
0.0
 10
5.6178037276
 20
3.5872967103
 30
0.0
 11
5.2603439749
 21
4.4203433392
 31
0.0
 11
5.2365692453
 21
4.3934199278
 31
0.0
 11
5.2148144591
 21
4.3648395036
 31
0.0
 11
5.1951966467
 21
4.3347517211
 31
0.0
 11
5.1778177161
 21
4.3033175982
 31
0.0
 11
5.1627724994
 21
4.2707022107
 31
0.0
 11
5.1501380401
 21
4.2370794274
 31
0.0
 11
5.1399840601
 21
4.2026261887
 31
0.0
 11
5.1323618771
 21
4.1675254654
 31
0.0
 11
5.1295141806
 21
4.1497901429
 31
0.0
 11
5.127314449
 21
4.1319626775
 31
0.0
 11
5.124866787
 21
4.0961264569
 31
0.0
 11
5.1246226685
 21
4.0781652964
 31
0.0
 11
5.12503338
 21
4.0602071661
 31
0.0
 11
5.1278130173
 21
4.0243951949
 31
0.0
 11
5.1301781174
 21
4.0065889539
 31
0.0
 11
5.133190603
 21
3.9888808988
 31
0.0
 11
5.1411388423
 21
3.9538525941
 31
0.0
 11
5.1460633516
 21
3.9365786557
 31
0.0
 11
5.1516139033
 21
3.919495717
 31
0.0
 11
5.1645625249
 21
3.885992722
 31
0.0
 11
5.1799139789
 21
3.8535201654
 31
0.0
 11
5.1975897492
 21
3.822251212
 31
0.0
 11
5.2174934379
 21
3.7923505339
 31
0.0
 11
5.2395220593
 21
3.7639789081
 31
0.0
 11
5.2635564533
 21
3.7372852895
 31
0.0
 11
5.2762868373
 21
3.7246129972
 31
0.0
 11
5.2894706803
 21
3.7124132796
 31
0.0
 11
5.3171261136
 21
3.6894934382
 31
0.0
 11
5.3315612777
 21
3.6788041346
 31
0.0
 11
5.346376608
 21
3.6686483756
 31
0.0
 11
5.3770672985
 21
3.6499880731
 31
0.0
 11
5.3929021023
 21
3.6415083534
 31
0.0
 11
5.4090359502
 21
3.6336117932
 31
0.0
 11
5.442112651
 21
3.6196070302
 31
0.0
 11
5.4590106349
 21
3.6135170301
 31
0.0
 11
5.4761184707
 21
3.6080473231
 31
0.0
 11
5.4934139235
 21
3.603205103
 31
0.0
 11
5.5108749282
 21
3.5989959395
 31
0.0
 11
5.528479426
 21
3.5954253446
 31
0.0
 11
5.5462053402
 21
3.5924988197
 31
0.0
 11
5.5819215705
 21
3.5885930615
 31
0.0
 11
5.6178037276
 21
3.5872967103
 31
0.0
  0
LINE
  5
23B
100
AcDbEntity
  8
0
100
AcDbLine
 62
6
  6
CONTINUOUS
 10
5.6178037276
 20
3.5872967103
 11
5.6179744773
 21
3.5872968032
  0
LINE
  5
23C
100
AcDbEntity
  8
0
100
AcDbLine
 62
6
  6
CONTINUOUS
 10
5.6179744773
 20
4.5784591285
 11
5.6177990945
 21
4.5784589729
  0
SPLINE
  5
23D
100
AcDbEntity
  8
0
100
AcDbSpline
 62
6
  6
CONTINUOUS
 70
0
 71
3
 72
67
 73
63
 74
61
 42
0.0000001
 43
0.0000001
 44
0.0000000001
 12
-1.5633372489
 22
-0.0016628374
 32
0.0
 13
1.5633380286
 23
0.0005719469
 33
0.0
 40
0.0
 40
0.0
 40
0.0
 40
0.0
 40
0.0312353301
 40
0.0468664632
 40
0.0624952276
 40
0.0781211133
 40
0.0937457612
 40
0.1093707594
 40
0.1249966551
 40
0.1406228996
 40
0.1562489291
 40
0.1718746044
 40
0.1875000544
 40
0.203125361
 40
0.2187507131
 40
0.2343761529
 40
0.2500016009
 40
0.2656271026
 40
0.2812526719
 40
0.2968781628
 40
0.3125035287
 40
0.3281288624
 40
0.3437541299
 40
0.3593793424
 40
0.3750046253
 40
0.3906299477
 40
0.4062552816
 40
0.4218807498
 40
0.4375063506
 40
0.4531320388
 40
0.4687579067
 40
0.4843839157
 40
0.5000099214
 40
0.5156359247
 40
0.5312619338
 40
0.5468878079
 40
0.5625135043
 40
0.57813911
 40
0.5937645721
 40
0.6093898753
 40
0.6250151528
 40
0.6406404071
 40
0.6562656323
 40
0.6718909606
 40
0.6875163874
 40
0.7031418554
 40
0.7187674429
 40
0.7500092677
 40
0.781250812
 40
0.7968761749
 40
0.8125014751
 40
0.8281268986
 40
0.8437525231
 40
0.8593784737
 40
0.8750046376
 40
0.8906304583
 40
0.9062553775
 40
0.9218798764
 40
0.9375055364
 40
0.9531340096
 40
0.9687649075
 40
1.0
 40
1.0
 40
1.0
 40
1.0
 10
5.6177990945
 20
4.5784589729
 30
0.0
 10
5.6015219762
 20
4.5784416598
 30
0.0
 10
5.5770784341
 20
4.5772135136
 30
0.0
 10
5.5447509354
 20
4.5731997078
 30
0.0
 10
5.5206708052
 20
4.5690007304
 30
0.0
 10
5.4968300467
 20
4.5636267148
 30
0.0
 10
5.4732826146
 20
4.557092238
 30
0.0
 10
5.4500841983
 20
4.5494103024
 30
0.0
 10
5.4272895403
 20
4.540599987
 30
0.0
 10
5.4049527845
 20
4.5306846769
 30
0.0
 10
5.383129101
 20
4.5196861254
 30
0.0
 10
5.3618721232
 20
4.5076295668
 30
0.0
 10
5.3412312772
 20
4.4945469418
 30
0.0
 10
5.3212564362
 20
4.4804685977
 30
0.0
 10
5.3019970178
 20
4.4654263899
 30
0.0
 10
5.2834973337
 20
4.4494590418
 30
0.0
 10
5.2658019028
 20
4.4326045846
 30
0.0
 10
5.2489556654
 20
4.4149012276
 30
0.0
 10
5.23299716
 20
4.3963936882
 30
0.0
 10
5.2179641416
 20
4.3771268823
 30
0.0
 10
5.2038955032
 20
4.3571451412
 30
0.0
 10
5.1908237031
 20
4.336497713
 30
0.0
 10
5.1787786573
 20
4.3152350171
 30
0.0
 10
5.16779195
 20
4.2934066383
 30
0.0
 10
5.1578895652
 20
4.2710654703
 30
0.0
 10
5.1490930606
 20
4.2482661366
 30
0.0
 10
5.1414258848
 20
4.2250624817
 30
0.0
 10
5.1349072542
 20
4.2015102405
 30
0.0
 10
5.1295499552
 20
4.1776668369
 30
0.0
 10
5.125368468
 20
4.1535891156
 30
0.0
 10
5.1223750253
 20
4.129334831
 30
0.0
 10
5.1205735039
 20
4.1049628917
 30
0.0
 10
5.1199687594
 20
4.0805318161
 30
0.0
 10
5.1205655791
 20
4.0561005426
 30
0.0
 10
5.1223594499
 20
4.0317280336
 30
0.0
 10
5.1253453527
 20
4.007472812
 30
0.0
 10
5.1295194784
 20
3.9833937971
 30
0.0
 10
5.1348700229
 20
3.9595488641
 30
0.0
 10
5.1413823315
 20
3.9359948874
 30
0.0
 10
5.1490435626
 20
3.9127893041
 30
0.0
 10
5.1578349584
 20
3.8899880443
 30
0.0
 10
5.167732969
 20
3.8676449606
 30
0.0
 10
5.1787159317
 20
3.8458146663
 30
0.0
 10
5.1907582593
 20
3.8245502751
 30
0.0
 10
5.2038281568
 20
3.8039016079
 30
0.0
 10
5.217896002
 20
3.783918563
 30
0.0
 10
5.2379354632
 20
3.7582346519
 30
0.0
 10
5.2653105703
 20
3.7280176211
 30
0.0
 10
5.2955210576
 20
3.7006354463
 30
0.0
 10
5.3212001834
 20
3.6805904186
 30
0.0
 10
5.3411799617
 20
3.6665182871
 30
0.0
 10
5.3618259879
 20
3.6534440828
 30
0.0
 10
5.3830886313
 20
3.6413975694
 30
0.0
 10
5.404918173
 20
3.6304108415
 30
0.0
 10
5.4272610794
 20
3.6205096072
 30
0.0
 10
5.4500619057
 20
3.611715524
 30
0.0
 10
5.4732662557
 20
3.6040519253
 30
0.0
 10
5.4968192485
 20
3.5975382631
 30
0.0
 10
5.5206649274
 20
3.5921875487
 30
0.0
 10
5.5447491711
 20
3.5880142805
 30
0.0
 10
5.5770809698
 20
3.5840382239
 30
0.0
 10
5.6015260906
 20
3.5828424039
 30
0.0
 10
5.6178030932
 20
3.5828483588
 30
0.0
 11
5.6177990945
 21
4.5784589729
 31
0.0
 11
5.5690290047
 21
4.5760131062
 31
0.0
 11
5.5447785375
 21
4.5730015584
 31
0.0
 11
5.5207086764
 21
4.5688044888
 31
0.0
 11
5.4968779899
 21
4.5634330743
 31
0.0
 11
5.4733409581
 21
4.5569010526
 31
0.0
 11
5.4501520622
 21
4.5492224438
 31
0.0
 11
5.4273661089
 21
4.540415923
 31
0.0
 11
5.4050381786
 21
4.5305040791
 31
0.0
 11
5.3832233284
 21
4.5195096712
 31
0.0
 11
5.3619746571
 21
4.5074584634
 31
0.0
 11
5.3413421922
 21
4.494380932
 31
0.0
 11
5.3213756913
 21
4.4803079678
 31
0.0
 11
5.3021236851
 21
4.4652722366
 31
0.0
 11
5.2836313887
 21
4.4493112018
 31
0.0
 11
5.2659434627
 21
4.4324631292
 31
0.0
 11
5.2491036471
 21
4.4147672259
 31
0.0
 11
5.2331513748
 21
4.3962671029
 31
0.0
 11
5.2181248205
 21
4.3770076577
 31
0.0
 11
5.2040616227
 21
4.3570341634
 31
0.0
 11
5.1909948043
 21
4.3363951273
 31
0.0
 11
5.1789550312
 21
4.3151407076
 31
0.0
 11
5.167972688
 21
4.293321211
 31
0.0
 11
5.1580738906
 21
4.270989138
 31
0.0
 11
5.1492812893
 21
4.2481987706
 31
0.0
 11
5.1416173361
 21
4.2250044742
 31
0.0
 11
5.1351008339
 21
4.2014618103
 31
0.0
 11
5.1297459394
 21
4.1776278626
 31
0.0
 11
5.1255664942
 21
4.1535598161
 31
0.0
 11
5.1225736892
 21
4.1293153225
 31
0.0
 11
5.1207729675
 21
4.1049530457
 31
0.0
 11
5.1201690201
 21
4.0805317819
 31
0.0
 11
5.1207650883
 21
4.0561103283
 31
0.0
 11
5.1225581318
 21
4.0317474851
 31
0.0
 11
5.1255434085
 21
4.0075020534
 31
0.0
 11
5.1297155643
 21
3.9834327293
 31
0.0
 11
5.1350636769
 21
3.9595972511
 31
0.0
 11
5.1415738506
 21
3.9360528464
 31
0.0
 11
5.1492319337
 21
3.9128566617
 31
0.0
 11
5.1580194015
 21
3.8900643895
 31
0.0
 11
5.1679137987
 21
3.8677304157
 31
0.0
 11
5.1788924599
 21
3.8459090439
 31
0.0
 11
5.1909294838
 21
3.8246529579
 31
0.0
 11
5.2039944569
 21
3.8040125815
 31
0.0
 11
5.2180566216
 21
3.7840381646
 31
0.0
 11
5.2330831105
 21
3.7647784769
 31
0.0
 11
5.2658777327
 21
3.7285844386
 31
0.0
 11
5.3020637854
 21
3.6957816585
 31
0.0
 11
5.3213198071
 21
3.6807510425
 31
0.0
 11
5.3412909304
 21
3.6666846561
 31
0.0
 11
5.3619286188
 21
3.6536154472
 31
0.0
 11
5.3831829078
 21
3.6415743107
 31
0.0
 11
5.4050036185
 21
3.6305918132
 31
0.0
 11
5.4273376484
 21
3.6206940319
 31
0.0
 11
5.4501297382
 21
3.6119037313
 31
0.0
 11
5.4733245846
 21
3.6042435096
 31
0.0
 11
5.4968671414
 21
3.597732303
 31
0.0
 11
5.5207027044
 21
3.5923841812
 31
0.0
 11
5.5447765807
 21
3.5882128698
 31
0.0
 11
5.5690301802
 21
3.5852296634
 31
0.0
 11
5.6178030932
 21
3.5828483588
 31
0.0
  0
LINE
  5
23E
100
AcDbEntity
  8
0
100
AcDbLine
 62
6
  6
CONTINUOUS
 10
5.6178030932
 20
3.5828483588
 11
5.6179744773
 21
3.5828484512
  0
LINE
  5
23F
100
AcDbEntity
  8
0
100
AcDbLine
 62
6
  6
CONTINUOUS
 10
5.6179744773
 20
4.5762349539
 11
5.617798999
 21
4.5762347975
  0
SPLINE
  5
240
100
AcDbEntity
  8
0
100
AcDbSpline
 62
6
  6
CONTINUOUS
 70
0
 71
3
 72
49
 73
45
 74
43
 42
0.0000001
 43
0.0000001
 44
0.0000000001
 12
-0.7949486113
 22
-0.8372351803
 32
0.0
 13
1.1545154224
 23
0.000425733
 33
0.0
 40
0.0
 40
0.0
 40
0.0
 40
0.0
 40
0.031248126
 40
0.0624961185
 40
0.0937440828
 40
0.124991968
 40
0.156239887
 40
0.1874879031
 40
0.2187360463
 40
0.2499845547
 40
0.2656115074
 40
0.2812386118
 40
0.3124879309
 40
0.3281151645
 40
0.3437424017
 40
0.3749916902
 40
0.3906187655
 40
0.4062457137
 40
0.4374942219
 40
0.4531208816
 40
0.4687473979
 40
0.4999951683
 40
0.5312430112
 40
0.5624913344
 40
0.5937399928
 40
0.6249887809
 40
0.6562375645
 40
0.6718643948
 40
0.6874911791
 40
0.7187394079
 40
0.7343659627
 40
0.7499925014
 40
0.7812406934
 40
0.7968676106
 40
0.8124947897
 40
0.8437440346
 40
0.8593706161
 40
0.8749964114
 40
0.8906218731
 40
0.9062479267
 40
0.9218754902
 40
0.9375055199
 40
0.9687630668
 40
1.0
 40
1.0
 40
1.0
 40
1.0
 10
5.2586457652
 20
4.4217850122
 30
0.0
 10
5.2503655471
 20
4.4130643354
 30
0.0
 10
5.2344338375
 20
4.3950134803
 30
0.0
 10
5.2125709989
 20
4.366278323
 30
0.0
 10
5.1928573951
 20
4.3360261031
 30
0.0
 10
5.1753926209
 20
4.3044227987
 30
0.0
 10
5.1602762712
 20
4.2716311904
 30
0.0
 10
5.1475806829
 20
4.2378282792
 30
0.0
 10
5.137381175
 20
4.2031910233
 30
0.0
 10
5.1310002408
 20
4.1737815431
 30
0.0
 10
5.1271906458
 20
4.1500269938
 30
0.0
 10
5.1242490753
 20
4.1261495675
 30
0.0
 10
5.1226122266
 20
4.1021262252
 30
0.0
 10
5.1222892395
 20
4.0780701967
 30
0.0
 10
5.1228435721
 20
4.0540183968
 30
0.0
 10
5.1247108898
 20
4.0300119291
 30
0.0
 10
5.1278820614
 20
4.0061638363
 30
0.0
 10
5.1319204562
 20
3.982447491
 30
0.0
 10
5.1372525133
 20
3.9589668235
 30
0.0
 10
5.1438511364
 20
3.9358321953
 30
0.0
 10
5.1512882684
 20
3.9129531464
 30
0.0
 10
5.1621412141
 20
3.8848851091
 30
0.0
 10
5.1775763963
 20
3.8522430014
 30
0.0
 10
5.1953502014
 20
3.8208116891
 30
0.0
 10
5.2153608966
 20
3.7907545028
 30
0.0
 10
5.2375090781
 20
3.7622365282
 30
0.0
 10
5.2576471239
 20
3.7398733098
 30
0.0
 10
5.2746990396
 20
3.7229021262
 30
0.0
 10
5.2923578072
 20
3.7065643161
 30
0.0
 10
5.310897668
 20
3.6912008258
 30
0.0
 10
5.3302321347
 20
3.6768854565
 30
0.0
 10
5.3500758642
 20
3.663284832
 30
0.0
 10
5.3706503477
 20
3.6507766913
 30
0.0
 10
5.3918589281
 20
3.6394203794
 30
0.0
 10
5.4134681482
 20
3.6288454249
 30
0.0
 10
5.4356419541
 20
3.6194583511
 30
0.0
 10
5.4582742275
 20
3.611302338
 30
0.0
 10
5.4754619704
 20
3.6058076681
 30
0.0
 10
5.4928381313
 20
3.6009435568
 30
0.0
 10
5.5103805664
 20
3.5967151837
 30
0.0
 10
5.5280672592
 20
3.5931280955
 30
0.0
 10
5.5518087184
 20
3.5892087262
 30
0.0
 10
5.5817234801
 20
3.5859388056
 30
0.0
 10
5.6057825388
 20
3.5850681017
 30
0.0
 10
5.6178037125
 20
3.5850725346
 30
0.0
 11
5.2586457652
 21
4.4217850122
 31
0.0
 11
5.2347729222
 21
4.3947369566
 31
0.0
 11
5.2129291894
 21
4.3660254578
 31
0.0
 11
5.1932321818
 21
4.3358008923
 31
0.0
 11
5.175784032
 21
4.3042247628
 31
0.0
 11
5.160679752
 21
4.2714626898
 31
0.0
 11
5.1479967232
 21
4.2376893042
 31
0.0
 11
5.1378049921
 21
4.2030823686
 31
0.0
 11
5.130156067
 21
4.1678256565
 31
0.0
 11
5.1272991715
 21
4.1500117293
 31
0.0
 11
5.1250930447
 21
4.1321053846
 31
0.0
 11
5.1226410096
 21
4.0961109843
 31
0.0
 11
5.1223989135
 21
4.0780707252
 31
0.0
 11
5.1228144605
 21
4.0600336238
 31
0.0
 11
5.1256121745
 21
4.0240644762
 31
0.0
 11
5.1279904862
 21
4.0061802207
 31
0.0
 11
5.1310189503
 21
3.9883946626
 31
0.0
 11
5.1390073614
 21
3.9532133171
 31
0.0
 11
5.1439559849
 21
3.9358640586
 31
0.0
 11
5.1495332857
 21
3.9187067454
 31
0.0
 11
5.1625432027
 21
3.8850582332
 31
0.0
 11
5.1779660549
 21
3.8524450151
 31
0.0
 11
5.1957229178
 21
3.8210408721
 31
0.0
 11
5.2157170985
 21
3.7910111031
 31
0.0
 11
5.2378451941
 21
3.7625170249
 31
0.0
 11
5.2619875172
 21
3.7357082025
 31
0.0
 11
5.2747749343
 21
3.7229812736
 31
0.0
 11
5.2880176958
 21
3.7107289225
 31
0.0
 11
5.3157963889
 21
3.6877101753
 31
0.0
 11
5.330295804
 21
3.6769748019
 31
0.0
 11
5.3451769937
 21
3.6667752529
 31
0.0
 11
5.3760038694
 21
3.6480344103
 31
0.0
 11
5.3919088775
 21
3.6395181265
 31
0.0
 11
5.4081142143
 21
3.6315875309
 31
0.0
 11
5.4413372821
 21
3.617522293
 31
0.0
 11
5.4583100062
 21
3.6114060008
 31
0.0
 11
5.4754935284
 21
3.6059127131
 31
0.0
 11
5.4928655129
 21
3.601049597
 31
0.0
 11
5.5104037555
 21
3.5968222517
 31
0.0
 11
5.5280860557
 21
3.5932362286
 31
0.0
 11
5.5458901954
 21
3.5902970687
 31
0.0
 11
5.5817636979
 21
3.5863744851
 31
0.0
 11
5.6178037125
 21
3.5850725346
 31
0.0
  0
LINE
  5
241
100
AcDbEntity
  8
0
100
AcDbLine
 62
6
  6
CONTINUOUS
 10
5.6178037125
 20
3.5850725346
 11
5.6179744773
 21
3.5850726271
  0
SPLINE
  5
242
100
AcDbEntity
  8
0
100
AcDbSpline
 62
6
  6
CONTINUOUS
 70
0
 71
3
 72
51
 73
47
 74
45
 42
0.0000001
 43
0.0000001
 44
0.0000000001
 12
-0.788328387
 22
-0.8295277622
 32
0.0
 13
1.1443678472
 23
0.0004292347
 33
0.0
 40
0.0
 40
0.0
 40
0.0
 40
0.0
 40
0.0312369708
 40
0.0624944218
 40
0.0781243602
 40
0.0937518127
 40
0.1093777077
 40
0.1250029376
 40
0.1406284018
 40
0.1562545285
 40
0.1875027281
 40
0.2031294638
 40
0.2187561013
 40
0.2500041613
 40
0.2656308062
 40
0.2812575755
 40
0.3125063186
 40
0.3281332919
 40
0.3437602233
 40
0.3750088533
 40
0.4062569582
 40
0.4375046162
 40
0.4687521646
 40
0.5000000722
 40
0.5312483782
 40
0.5624970441
 40
0.5937459943
 40
0.6093730314
 40
0.6250000899
 40
0.6562489109
 40
0.67187571
 40
0.6875024041
 40
0.7187503837
 40
0.7343767854
 40
0.7500031201
 40
0.7812507644
 40
0.796877319
 40
0.8125040591
 40
0.8437524047
 40
0.8749987504
 40
0.8906237066
 40
0.9062492075
 40
0.9218762238
 40
0.9375057649
 40
0.9687629091
 40
1.0
 40
1.0
 40
1.0
 40
1.0
 10
5.2620115996
 20
4.4188696918
 30
0.0
 10
5.2538032693
 20
4.4102323803
 30
0.0
 10
5.2380065185
 20
4.3923463294
 30
0.0
 10
5.219934741
 20
4.3686157722
 30
0.0
 10
5.2065426334
 20
4.3488792567
 30
0.0
 10
5.1970447422
 20
4.333721057
 30
0.0
 10
5.1881055046
 20
4.3182291172
 30
0.0
 10
5.1797359794
 20
4.3024230087
 30
0.0
 10
5.1719475917
 20
4.2863221397
 30
0.0
 10
5.1623527942
 20
4.2644928603
 30
0.0
 10
5.1539543051
 20
4.2421528606
 30
0.0
 10
5.1467940212
 20
4.2194073948
 30
0.0
 10
5.1404676806
 20
4.1964160589
 30
0.0
 10
5.1354004801
 20
4.173093701
 30
0.0
 10
5.1316166372
 20
4.1495499661
 30
0.0
 10
5.1286936493
 20
4.1258836773
 30
0.0
 10
5.1270651294
 20
4.1020723437
 30
0.0
 10
5.1267379535
 20
4.0782283785
 30
0.0
 10
5.1272802379
 20
4.054387926
 30
0.0
 10
5.1295861477
 20
4.0246478999
 30
0.0
 10
5.1349396274
 20
3.9892602416
 30
0.0
 10
5.1428575508
 20
3.9543563143
 30
0.0
 10
5.153290877
 20
3.9201203077
 30
0.0
 10
5.1661920992
 20
3.8867356722
 30
0.0
 10
5.181485351
 20
3.8543761547
 30
0.0
 10
5.1990967425
 20
3.8232180479
 30
0.0
 10
5.2156238756
 20
3.7983853247
 30
0.0
 10
5.2299015862
 20
3.7792851173
 30
0.0
 10
5.2448658181
 20
3.7607185287
 30
0.0
 10
5.260834602
 20
3.7429805771
 30
0.0
 10
5.277733769
 20
3.7261562325
 30
0.0
 10
5.2952352194
 20
3.7099598073
 30
0.0
 10
5.3136105024
 20
3.694729747
 30
0.0
 10
5.332773179
 20
3.6805380868
 30
0.0
 10
5.3524407532
 20
3.6670550788
 30
0.0
 10
5.3728331865
 20
3.6546555892
 30
0.0
 10
5.3938538408
 20
3.6433976084
 30
0.0
 10
5.4152720602
 20
3.632913841
 30
0.0
 10
5.442739111
 20
3.6212837891
 30
0.0
 10
5.4709790003
 20
3.6116827163
 30
0.0
 10
5.4939402792
 20
3.6052542068
 30
0.0
 10
5.5113279242
 20
3.6010624492
 30
0.0
 10
5.5288584253
 20
3.5975065172
 30
0.0
 10
5.5523905744
 20
3.5936210287
 30
0.0
 10
5.5820420833
 20
3.5903794568
 30
0.0
 10
5.6058895928
 20
3.5895164147
 30
0.0
 10
5.617805167
 20
3.5895208841
 30
0.0
 11
5.2620115996
 21
4.4188696918
 31
0.0
 11
5.2383466009
 21
4.3920781566
 31
0.0
 11
5.2166760545
 21
4.3636197295
 31
0.0
 11
5.2066330507
 21
4.348819007
 31
0.0
 11
5.1971373887
 21
4.333664669
 31
0.0
 11
5.1882002709
 21
4.3181764241
 31
0.0
 11
5.1798328813
 21
4.3023739755
 31
0.0
 11
5.1720463631
 21
4.2862770718
 31
0.0
 11
5.164850775
 21
4.2699066471
 31
0.0
 11
5.1522678942
 21
4.2364341438
 31
0.0
 11
5.1468982604
 21
4.2193766162
 31
0.0
 11
5.1421538154
 21
4.2021348518
 31
0.0
 11
5.1345617267
 21
4.1671908089
 31
0.0
 11
5.1317242639
 21
4.1495347249
 31
0.0
 11
5.1295321221
 21
4.1317868207
 31
0.0
 11
5.1270918227
 21
4.0961101225
 31
0.0
 11
5.1268466452
 21
4.0782287963
 31
0.0
 11
5.1272532679
 21
4.0603504607
 31
0.0
 11
5.1300172581
 21
4.0246975092
 31
0.0
 11
5.1353670781
 21
3.9893406281
 31
0.0
 11
5.1432767967
 21
3.9544675814
 31
0.0
 11
5.1537021338
 21
3.920262371
 31
0.0
 11
5.1665906829
 21
3.8869067303
 31
0.0
 11
5.1818716142
 21
3.8545765707
 31
0.0
 11
5.1994667533
 21
3.8234448087
 31
0.0
 11
5.2192803827
 21
3.79367538
 31
0.0
 11
5.2299874072
 21
3.7793518268
 31
0.0
 11
5.2412094441
 21
3.7654280586
 31
0.0
 11
5.2651359858
 21
3.7388515874
 31
0.0
 11
5.2778091184
 21
3.7262346733
 31
0.0
 11
5.2909338437
 21
3.714088394
 31
0.0
 11
5.3184657042
 21
3.6912691914
 31
0.0
 11
5.33283633
 21
3.6806266512
 31
0.0
 11
5.3475854629
 21
3.6705153268
 31
0.0
 11
5.3781393073
 21
3.6519369922
 31
0.0
 11
5.3939034479
 21
3.6434944408
 31
0.0
 11
5.4099652349
 21
3.6356324185
 31
0.0
 11
5.4428945146
 21
3.6216892534
 31
0.0
 11
5.4767490389
 21
3.6101802646
 31
0.0
 11
5.4939675597
 21
3.6053592761
 31
0.0
 11
5.5113508841
 21
3.6011686062
 31
0.0
 11
5.5288770458
 21
3.5976137003
 31
0.0
 11
5.5465240676
 21
3.594699997
 31
0.0
 11
5.5820817446
 21
3.5908114065
 31
0.0
 11
5.617805167
 21
3.5895208841
 31
0.0
  0
LINE
  5
243
100
AcDbEntity
  8
0
100
AcDbLine
 62
6
  6
CONTINUOUS
 10
5.617805167
 20
3.5895208841
 11
5.6179744773
 21
3.5895209769
  0
LINE
  5
244
100
AcDbEntity
  8
0
100
AcDbLine
 62
6
  6
CONTINUOUS
 10
5.6179744773
 20
4.5673382519
 11
5.6177990513
 21
4.5673380928
  0
LINE
  5
245
100
AcDbEntity
  8
0
100
AcDbLine
 62
6
  6
CONTINUOUS
 10
5.6178030077
 20
3.5939692344
 11
5.6179744773
 21
3.5939693289
  0
LINE
  5
246
100
AcDbEntity
  8
0
100
AcDbLine
 62
6
  6
CONTINUOUS
 10
5.6179744773
 20
4.5695624283
 11
5.6177989762
 21
4.5695622698
  0
LINE
  5
247
100
AcDbEntity
  8
0
100
AcDbLine
 62
6
  6
CONTINUOUS
 10
5.6178031749
 20
3.5917450586
 11
5.6179744773
 21
3.5917451526
  0
LINE
  5
248
100
AcDbEntity
  8
0
100
AcDbLine
 62
6
  6
CONTINUOUS
 10
5.6179744773
 20
4.5606657265
 11
5.6177998231
 21
4.560665566
  0
SPLINE
  5
249
100
AcDbEntity
  8
0
100
AcDbSpline
 62
6
  6
CONTINUOUS
 70
0
 71
3
 72
52
 73
48
 74
46
 42
0.0000001
 43
0.0000001
 44
0.0000000001
 12
-1.1433528442
 22
-0.0012594024
 32
0.0
 13
0.8296757355
 23
-0.7866991079
 33
0.0
 40
0.0
 40
0.0
 40
0.0
 40
0.0
 40
0.0312368664
 40
0.0624942946
 40
0.093745921
 40
0.124991432
 40
0.1562377273
 40
0.1874856411
 40
0.2031121889
 40
0.2187385563
 40
0.2499856707
 40
0.2656119209
 40
0.2812383136
 40
0.2968648719
 40
0.3124915383
 40
0.3281182701
 40
0.3437451131
 40
0.3593720923
 40
0.3749991382
 40
0.3906261719
 40
0.4062531931
 40
0.4375018683
 40
0.4531287779
 40
0.4687555385
 40
0.5000034243
 40
0.5312508941
 40
0.5624981766
 40
0.5937453149
 40
0.6249924879
 40
0.6562398402
 40
0.6874874719
 40
0.718735222
 40
0.7499827441
 40
0.7812302121
 40
0.7968566023
 40
0.8124830622
 40
0.8437308235
 40
0.8593575136
 40
0.8749843559
 40
0.8906113385
 40
0.9062383732
 40
0.9218653892
 40
0.9374924099
 40
0.9531194515
 40
0.9687464391
 40
0.9843732889
 40
1.0
 40
1.0
 40
1.0
 40
1.0
 10
5.6177998231
 20
4.560665566
 30
0.0
 10
5.6058949031
 20
4.5606524527
 30
0.0
 10
5.5820688722
 20
4.5597374265
 30
0.0
 10
5.5465355133
 20
4.5557216326
 30
0.0
 10
5.5113943381
 20
4.5490711786
 30
0.0
 10
5.4768485335
 20
4.5398305647
 30
0.0
 10
5.4430878592
 20
4.528046664
 30
0.0
 10
5.4157562671
 20
4.5161639048
 30
0.0
 10
5.3944707344
 20
4.5054606977
 30
0.0
 10
5.3735992078
 20
4.4939727342
 30
0.0
 10
5.3533816316
 20
4.4813283227
 30
0.0
 10
5.3339187455
 20
4.4675887942
 30
0.0
 10
5.3197131418
 20
4.4567458266
 30
0.0
 10
5.3059204805
 20
4.445382541
 30
0.0
 10
5.2925593019
 20
4.4335145718
 30
0.0
 10
5.2796485698
 20
4.4211579332
 30
0.0
 10
5.2672072301
 20
4.4083286363
 30
0.0
 10
5.2552514601
 20
4.3950454968
 30
0.0
 10
5.2437974735
 20
4.3813273469
 30
0.0
 10
5.2328610876
 20
4.3671926185
 30
0.0
 10
5.218993747
 20
4.3478191918
 30
0.0
 10
5.2062171539
 20
4.3276835684
 30
0.0
 10
5.1945930535
 20
4.3068865452
 30
0.0
 10
5.1837512798
 20
4.2856709397
 30
0.0
 10
5.1716919331
 20
4.2584161775
 30
0.0
 10
5.1596914838
 20
4.2247306476
 30
0.0
 10
5.150232589
 20
4.1902444278
 30
0.0
 10
5.1433604916
 20
4.1551514073
 30
0.0
 10
5.1391214301
 20
4.1196439134
 30
0.0
 10
5.1375306137
 20
4.0839194825
 30
0.0
 10
5.1386056223
 20
4.0481756414
 30
0.0
 10
5.1423322168
 20
4.0126100512
 30
0.0
 10
5.1486974879
 20
3.9774217867
 30
0.0
 10
5.1561672855
 20
3.9485698031
 30
0.0
 10
5.1634175024
 20
3.9258749127
 30
0.0
 10
5.1715081191
 20
3.9034662854
 30
0.0
 10
5.1808441944
 20
3.8815233279
 30
0.0
 10
5.1913812898
 20
3.8601556738
 30
0.0
 10
5.1998775721
 20
3.844433062
 30
0.0
 10
5.2089527563
 20
3.8290376078
 30
0.0
 10
5.2185942738
 20
3.8139901514
 30
0.0
 10
5.2287892406
 20
3.7993120136
 30
0.0
 10
5.2395247339
 20
3.7850244404
 30
0.0
 10
5.2507845605
 20
3.7711463968
 30
0.0
 10
5.2625527654
 20
3.7576967413
 30
0.0
 10
5.2748130046
 20
3.7446945376
 30
0.0
 10
5.2833045664
 20
3.7363369021
 30
0.0
 10
5.2876262674
 20
3.7322390622
 30
0.0
 11
5.6177998231
 21
4.560665566
 31
0.0
 11
5.5821112529
 21
4.5592975069
 31
0.0
 11
5.5465992428
 21
4.555282212
 31
0.0
 11
5.5114906005
 21
4.5486388249
 31
0.0
 11
5.4769794435
 21
4.5394067197
 31
0.0
 11
5.4432491997
 21
4.5276344449
 31
0.0
 11
5.4104846365
 21
4.5133890448
 31
0.0
 11
5.3945223951
 21
4.5053625449
 31
0.0
 11
5.3788701658
 21
4.4967475464
 31
0.0
 11
5.3485800831
 21
4.4778030589
 31
0.0
 11
5.3339842766
 21
4.4674992672
 31
0.0
 11
5.3197820357
 21
4.4566591626
 31
0.0
 11
5.305992442
 21
4.4452984678
 31
0.0
 11
5.2926344079
 21
4.4334331561
 31
0.0
 11
5.2797268459
 21
4.4210792008
 31
0.0
 11
5.2672882075
 21
4.4082530484
 31
0.0
 11
5.2553351154
 21
4.3949730233
 31
0.0
 11
5.2438837391
 21
4.3812579156
 31
0.0
 11
5.2329502482
 21
4.367126515
 31
0.0
 11
5.2225506
 21
4.3525977673
 31
0.0
 11
5.2034078947
 21
4.3224304496
 31
0.0
 11
5.1946908083
 21
4.3068341347
 31
0.0
 11
5.1865604793
 21
4.2909242542
 31
0.0
 11
5.1721035701
 21
4.2582525001
 31
0.0
 11
5.1601150399
 21
4.2245970861
 31
0.0
 11
5.1506637045
 21
4.1901432226
 31
0.0
 11
5.1437993329
 21
4.1550823459
 31
0.0
 11
5.1395628118
 21
4.1196078567
 31
0.0
 11
5.137974919
 21
4.0839163906
 31
0.0
 11
5.1390475507
 21
4.0482054058
 31
0.0
 11
5.1427720104
 21
4.0126728425
 31
0.0
 11
5.1491305257
 21
3.9775162599
 31
0.0
 11
5.1580855691
 21
3.9429298636
 31
0.0
 11
5.1635225481
 21
3.925910737
 31
0.0
 11
5.1695897681
 21
3.9091058835
 31
0.0
 11
5.1835778524
 21
3.8762308311
 31
0.0
 11
5.1914800451
 21
3.8602065055
 31
0.0
 11
5.1999740188
 21
3.8444876539
 31
0.0
 11
5.2090471292
 21
3.8290956338
 31
0.0
 11
5.218686518
 21
3.8140517006
 31
0.0
 11
5.228879327
 21
3.7993771095
 31
0.0
 11
5.2396121191
 21
3.7850927002
 31
0.0
 11
5.2508693106
 21
3.7712177709
 31
0.0
 11
5.2626348206
 21
3.7577712623
 31
0.0
 11
5.2748925679
 21
3.7447721153
 31
0.0
 11
5.2876262674
 21
3.7322390622
 31
0.0
  0
LINE
  5
24A
100
AcDbEntity
  8
0
100
AcDbLine
 62
6
  6
CONTINUOUS
 10
5.6178022906
 20
3.6006417584
 11
5.6179744773
 21
3.6006418544
  0
LINE
  5
24B
100
AcDbEntity
  8
0
100
AcDbLine
 62
6
  6
CONTINUOUS
 10
5.6179744773
 20
4.5628899027
 11
5.6177994959
 21
4.5628897426
  0
SPLINE
  5
24C
100
AcDbEntity
  8
0
100
AcDbSpline
 62
6
  6
CONTINUOUS
 70
0
 71
3
 72
55
 73
51
 74
49
 42
0.0000001
 43
0.0000001
 44
0.0000000001
 12
-1.1720016824
 22
-0.001285814
 32
0.0
 13
0.8884899277
 23
-0.7643135779
 33
0.0
 40
0.0
 40
0.0
 40
0.0
 40
0.0
 40
0.0312365339
 40
0.0624935216
 40
0.0937442777
 40
0.1249893206
 40
0.1562355919
 40
0.187483262
 40
0.2031096334
 40
0.2187357647
 40
0.2343617721
 40
0.2499877297
 40
0.2656137581
 40
0.2812399825
 40
0.3124872545
 40
0.3281138163
 40
0.3437405051
 40
0.3749885152
 40
0.3906153177
 40
0.4062421358
 40
0.4218689672
 40
0.4374957239
 40
0.4531223267
 40
0.4687488016
 40
0.4843752117
 40
0.5000015366
 40
0.5156277494
 40
0.5312539067
 40
0.5468800781
 40
0.5625062347
 40
0.5781323312
 40
0.5937584006
 40
0.6093845179
 40
0.6250106639
 40
0.640636794
 40
0.6562629328
 40
0.6718891449
 40
0.6875153919
 40
0.7031415987
 40
0.7187677525
 40
0.7500144987
 40
0.7656406775
 40
0.7812668423
 40
0.8125138021
 40
0.8437610691
 40
0.8750088747
 40
0.9062568687
 40
0.9375048755
 40
0.968752644
 40
1.0
 40
1.0
 40
1.0
 40
1.0
 10
5.6177994959
 20
4.5628897426
 30
0.0
 10
5.6055964058
 20
4.5628763545
 30
0.0
 10
5.5811732961
 20
4.561920013
 30
0.0
 10
5.544758297
 20
4.5577212227
 30
0.0
 10
5.5087619336
 20
4.550767867
 30
0.0
 10
5.4734002115
 20
4.5411085186
 30
0.0
 10
5.4388756788
 20
4.5287937307
 30
0.0
 10
5.4109601174
 20
4.5163806684
 30
0.0
 10
5.3892463957
 20
4.5052034997
 30
0.0
 10
5.3732891964
 20
4.4962070735
 30
0.0
 10
5.3576848521
 20
4.4866124367
 30
0.0
 10
5.3424554589
 20
4.4764332326
 30
0.0
 10
5.3276233457
 20
4.4656826245
 30
0.0
 10
5.3084087634
 20
4.4506100851
 30
0.0
 10
5.2900639047
 20
4.4344542955
 30
0.0
 10
5.2726850207
 20
4.4172963967
 30
0.0
 10
5.2559704245
 20
4.3994903776
 30
0.0
 10
5.240280173
 20
4.3807450615
 30
0.0
 10
5.2256962051
 20
4.3611560069
 30
0.0
 10
5.2153229975
 20
4.3460564779
 30
0.0
 10
5.2055302266
 20
4.3305746845
 30
0.0
 10
5.196331425
 20
4.3147327478
 30
0.0
 10
5.1877404272
 20
4.298553306
 30
0.0
 10
5.1797710505
 20
4.2820589454
 30
0.0
 10
5.1724333858
 20
4.2652741666
 30
0.0
 10
5.1657374735
 20
4.2482233282
 30
0.0
 10
5.1596932777
 20
4.2309308124
 30
0.0
 10
5.1543111274
 20
4.2134209915
 30
0.0
 10
5.1495975804
 20
4.1957195131
 30
0.0
 10
5.14555869
 20
4.1778520512
 30
0.0
 10
5.1422005205
 20
4.1598442547
 30
0.0
 10
5.1395296081
 20
4.1417217834
 30
0.0
 10
5.1375488676
 20
4.12351095
 30
0.0
 10
5.1362602132
 20
4.1052380806
 30
0.0
 10
5.1356656779
 20
4.0869294514
 30
0.0
 10
5.1357677903
 20
4.0686114274
 30
0.0
 10
5.1365657949
 20
4.0503104535
 30
0.0
 10
5.1380573679
 20
4.0320529988
 30
0.0
 10
5.1402405583
 20
4.0138649125
 30
0.0
 10
5.144070642
 20
3.9897463418
 30
0.0
 10
5.1492738743
 20
3.9658621295
 30
0.0
 10
5.1558208442
 20
3.9423350661
 30
0.0
 10
5.1632574709
 20
3.9190732298
 30
0.0
 10
5.1742038645
 20
3.8905506876
 30
0.0
 10
5.1898951587
 20
3.8574224753
 30
0.0
 10
5.2080600684
 20
3.8255817135
 30
0.0
 10
5.2285861822
 20
3.7952095263
 30
0.0
 10
5.2513631379
 20
3.7664858885
 30
0.0
 10
5.2762499543
 20
3.7395730059
 30
0.0
 10
5.2941618614
 20
3.7229414713
 30
0.0
 10
5.3034161817
 20
3.7149805451
 30
0.0
 11
5.6177994959
 21
4.5628897426
 31
0.0
 11
5.581218135
 21
4.5614599443
 31
0.0
 11
5.5448262205
 21
4.5572617781
 31
0.0
 11
5.5088648488
 21
4.5503162217
 31
0.0
 11
5.473540004
 21
4.5406660458
 31
0.0
 11
5.4390474874
 21
4.5283639198
 31
0.0
 11
5.4055846753
 21
4.5134831845
 31
0.0
 11
5.3893011912
 21
4.5051012972
 31
0.0
 11
5.3733479405
 21
4.4961073337
 31
0.0
 11
5.3577473218
 21
4.4865149949
 31
0.0
 11
5.3425217063
 21
4.4763380227
 31
0.0
 11
5.3276934204
 21
4.4655902275
 31
0.0
 11
5.3132837346
 21
4.4542870183
 31
0.0
 11
5.2858009395
 21
4.4300825172
 31
0.0
 11
5.2727681239
 21
4.4172154358
 31
0.0
 11
5.2602333898
 21
4.40386246
 31
0.0
 11
5.2367273733
 21
4.3757787912
 31
0.0
 11
5.2257905011
 21
4.3610882765
 31
0.0
 11
5.2154197383
 21
4.345992769
 31
0.0
 11
5.2056291992
 21
4.3305146235
 31
0.0
 11
5.1964326853
 21
4.3146764241
 31
0.0
 11
5.1878439978
 21
4.2985007549
 31
0.0
 11
5.1798763177
 21
4.282010503
 31
0.0
 11
5.1725403253
 21
4.2652297768
 31
0.0
 11
5.1658460719
 21
4.2481829922
 31
0.0
 11
5.1598036086
 21
4.2308945648
 31
0.0
 11
5.1544225618
 21
4.2133890504
 31
0.0
 11
5.1497100209
 21
4.1956918397
 31
0.0
 11
5.1456721374
 21
4.1778286326
 31
0.0
 11
5.142315061
 21
4.1598251293
 31
0.0
 11
5.1396446395
 21
4.1417070781
 31
0.0
 11
5.1376642167
 21
4.1235006258
 31
0.0
 11
5.1363758995
 21
4.1052321159
 31
0.0
 11
5.1357817858
 21
4.0869278933
 31
0.0
 11
5.1358837714
 21
4.0686143053
 31
0.0
 11
5.1366813886
 21
4.0503177247
 31
0.0
 11
5.1381726395
 21
4.0320645408
 31
0.0
 11
5.1403555001
 21
4.0138811432
 31
0.0
 11
5.1432278304
 21
3.9957939028
 31
0.0
 11
5.1510221778
 21
3.9600117156
 31
0.0
 11
5.1559320596
 21
3.9423682271
 31
0.0
 11
5.1615088914
 21
3.9249240886
 31
0.0
 11
5.174629808
 21
3.890733788
 31
0.0
 11
5.1903072998
 21
3.8576372969
 31
0.0
 11
5.2084535392
 21
3.82582658
 31
0.0
 11
5.2289613219
 21
3.7954842872
 31
0.0
 11
5.2517148698
 21
3.7667875795
 31
0.0
 11
5.2765802619
 21
3.7399004672
 31
0.0
 11
5.3034161817
 21
3.7149805451
 31
0.0
  0
LINE
  5
24D
100
AcDbEntity
  8
0
100
AcDbLine
 62
6
  6
CONTINUOUS
 10
5.6178024489
 20
3.5984175825
 11
5.6179744773
 21
3.5984176781
  0
SPLINE
  5
24E
100
AcDbEntity
  8
0
100
AcDbSpline
 62
6
  6
CONTINUOUS
 70
0
 71
3
 72
55
 73
51
 74
49
 42
0.0000001
 43
0.0000001
 44
0.0000000001
 12
-1.1380403476
 22
-0.0008421829
 32
0.0
 13
0.8254154856
 23
-0.7834703684
 33
0.0
 40
0.0
 40
0.0
 40
0.0
 40
0.0
 40
0.0312370409
 40
0.0624930636
 40
0.0937427679
 40
0.124987211
 40
0.1562329595
 40
0.1874800224
 40
0.2187267432
 40
0.2499732032
 40
0.2812197782
 40
0.3124667539
 40
0.343714158
 40
0.3749619562
 40
0.390588557
 40
0.4062151953
 40
0.4374630146
 40
0.4530894886
 40
0.4687159132
 40
0.4999631129
 40
0.5155891856
 40
0.5312151646
 40
0.5468411013
 40
0.5624669886
 40
0.5780928468
 40
0.5937187685
 40
0.6093447808
 40
0.6249708449
 40
0.6405969469
 40
0.6562231483
 40
0.6718494483
 40
0.6874757732
 40
0.7031020671
 40
0.7187283603
 40
0.7343546513
 40
0.7499808578
 40
0.7656069033
 40
0.7812328241
 40
0.7968587553
 40
0.8124847804
 40
0.8281109896
 40
0.8437374949
 40
0.8593641315
 40
0.8749905665
 40
0.8906164536
 40
0.906241661
 40
0.9374877213
 40
0.9531158957
 40
0.9687466986
 40
1.0
 40
1.0
 40
1.0
 40
1.0
 10
5.6179744773
 20
4.5584415508
 30
0.0
 10
5.6061248064
 20
4.5584327817
 30
0.0
 10
5.5824096164
 20
4.5575308338
 30
0.0
 10
5.5470411339
 20
4.5535465393
 30
0.0
 10
5.5120624511
 20
4.5469400011
 30
0.0
 10
5.4776752007
 20
4.5377556409
 30
0.0
 10
5.444067262
 20
4.526039074
 30
0.0
 10
5.4114203127
 20
4.5118612997
 30
0.0
 10
5.3799188209
 20
4.4952929646
 30
0.0
 10
5.3497341321
 20
4.4764322845
 30
0.0
 10
5.3210366488
 20
4.4553776448
 30
0.0
 10
5.2939807102
 20
4.4322505491
 30
0.0
 10
5.2687213124
 20
4.4071743096
 30
0.0
 10
5.2492789787
 20
4.3847688999
 30
0.0
 10
5.2347605606
 20
4.3660182035
 30
0.0
 10
5.2209504822
 20
4.3467404353
 30
0.0
 10
5.2082242486
 20
4.3267050169
 30
0.0
 10
5.1966467167
 20
4.3060093443
 30
0.0
 10
5.185848006
 20
4.2848971528
 30
0.0
 10
5.1762338451
 20
4.2631963276
 30
0.0
 10
5.1678534421
 20
4.2410135356
 30
0.0
 10
5.1621914339
 20
4.2241513507
 30
0.0
 10
5.1571603459
 20
4.2070907399
 30
0.0
 10
5.152766807
 20
4.1898548759
 30
0.0
 10
5.1490178291
 20
4.1724674425
 30
0.0
 10
5.1459193574
 20
4.1549523397
 30
0.0
 10
5.1434742245
 20
4.1373340861
 30
0.0
 10
5.1416856589
 20
4.1196370458
 30
0.0
 10
5.1405569901
 20
4.1018856105
 30
0.0
 10
5.1400907544
 20
4.0841043575
 30
0.0
 10
5.1402860708
 20
4.0663179967
 30
0.0
 10
5.1411424587
 20
4.0485511519
 30
0.0
 10
5.1426594461
 20
4.0308284697
 30
0.0
 10
5.1448361462
 20
4.0131746848
 30
0.0
 10
5.1476679896
 20
3.995614132
 30
0.0
 10
5.1511507093
 20
3.9781710894
 30
0.0
 10
5.1552799986
 20
3.9608698276
 30
0.0
 10
5.1600514565
 20
3.9437346546
 30
0.0
 10
5.1654571589
 20
3.9267889031
 30
0.0
 10
5.1714893194
 20
3.9100557904
 30
0.0
 10
5.1781401142
 20
3.8935585359
 30
0.0
 10
5.1854016815
 20
3.8773206132
 30
0.0
 10
5.1932625151
 20
3.8613640777
 30
0.0
 10
5.2017109793
 20
3.845711107
 30
0.0
 10
5.2107357515
 20
3.8303833846
 30
0.0
 10
5.2235200041
 20
3.810412583
 30
0.0
 10
5.2374126364
 20
3.7911681432
 30
0.0
 10
5.2523456631
 20
3.7727443328
 30
0.0
 10
5.2679571234
 20
3.7548888153
 30
0.0
 10
5.2804078122
 20
3.7421582902
 30
0.0
 10
5.2890067985
 20
3.7339962783
 30
0.0
 11
5.6179744773
 21
4.5584415508
 31
0.0
 11
5.5824510488
 21
4.5570928345
 31
0.0
 11
5.5471042012
 21
4.553109155
 31
0.0
 11
5.5121584392
 21
4.5465097942
 31
0.0
 11
5.4778053952
 21
4.5373337177
 31
0.0
 11
5.444228027
 21
4.5256291031
 31
0.0
 11
5.4116111474
 21
4.5114628329
 31
0.0
 11
5.3801381749
 21
4.4949108433
 31
0.0
 11
5.3499820483
 21
4.4760666594
 31
0.0
 11
5.3213104051
 21
4.4550323675
 31
0.0
 11
5.2942803101
 21
4.4319258543
 31
0.0
 11
5.2690430149
 21
4.4068728986
 31
0.0
 11
5.2457366971
 21
4.3800136524
 31
0.0
 11
5.2348491199
 21
4.365952326
 31
0.0
 11
5.2244924362
 21
4.351495464
 31
0.0
 11
5.2054263157
 21
4.3214773308
 31
0.0
 11
5.196744055
 21
4.3059572325
 31
0.0
 11
5.1886456775
 21
4.2901246905
 31
0.0
 11
5.1742420652
 21
4.2576117536
 31
0.0
 11
5.167957392
 21
4.2409761969
 31
0.0
 11
5.1622965789
 21
4.2241182533
 31
0.0
 11
5.1572665971
 21
4.2070615056
 31
0.0
 11
5.1528742309
 21
4.1898296027
 31
0.0
 11
5.1491262528
 21
4.1724461957
 31
0.0
 11
5.1460282546
 21
4.1549351947
 31
0.0
 11
5.1435836561
 21
4.1373209858
 31
0.0
 11
5.1417956438
 21
4.1196280062
 31
0.0
 11
5.1406673979
 21
4.1018806935
 31
0.0
 11
5.1402010135
 21
4.0841035577
 31
0.0
 11
5.1403962491
 21
4.0663212647
 31
0.0
 11
5.1412525594
 21
4.0485585002
 31
0.0
 11
5.1427693984
 21
4.0308399502
 31
0.0
 11
5.1449453377
 21
4.0131902172
 31
0.0
 11
5.1477764777
 21
3.9956336701
 31
0.0
 11
5.151258489
 21
3.978194637
 31
0.0
 11
5.1553870427
 21
3.9608974464
 31
0.0
 11
5.1601571629
 21
3.9437662273
 31
0.0
 11
5.1655615511
 21
3.9268243938
 31
0.0
 11
5.171592387
 21
3.9100951992
 31
0.0
 11
5.1782418506
 21
3.8936018969
 31
0.0
 11
5.1855015325
 21
3.8773675693
 31
0.0
 11
5.1933605072
 21
3.8614145695
 31
0.0
 11
5.2018071776
 21
3.8457650556
 31
0.0
 11
5.2108299465
 21
3.8304411856
 31
0.0
 11
5.2204169804
 21
3.8154647836
 31
0.0
 11
5.2412305181
 21
3.7866332116
 31
0.0
 11
5.2524296166
 21
3.7728164055
 31
0.0
 11
5.2641381366
 21
3.7594245831
 31
0.0
 11
5.2890067985
 21
3.7339962783
 31
0.0
  0
LINE
  5
24F
100
AcDbEntity
  8
0
100
AcDbLine
 62
6
  6
CONTINUOUS
 10
5.6179744773
 20
3.5828484512
 11
5.6181499328
 21
3.5828486072
  0
SPLINE
  5
250
100
AcDbEntity
  8
0
100
AcDbSpline
 62
6
  6
CONTINUOUS
 70
0
 71
3
 72
69
 73
65
 74
63
 42
0.0000001
 43
0.0000001
 44
0.0000000001
 12
1.5598736905
 22
0.0016630958
 32
0.0
 13
-1.5598744717
 23
-0.0005732164
 33
0.0
 40
0.0
 40
0.0
 40
0.0
 40
0.0
 40
0.0312347567
 40
0.0468656129
 40
0.0624941038
 40
0.0781197122
 40
0.0937440786
 40
0.1093687908
 40
0.124994401
 40
0.1406203622
 40
0.1562461109
 40
0.1718715058
 40
0.1874966732
 40
0.2031216918
 40
0.2187467471
 40
0.2343718776
 40
0.2499969986
 40
0.2656221523
 40
0.2812473645
 40
0.2968725058
 40
0.3124975443
 40
0.3281225743
 40
0.3437475571
 40
0.3593725007
 40
0.3749975237
 40
0.3906225853
 40
0.4062476479
 40
0.421872832
 40
0.4374981423
 40
0.4531235399
 40
0.4687491214
 40
0.4843748463
 40
0.5000005675
 40
0.5156262839
 40
0.5312520062
 40
0.5468775972
 40
0.562503016
 40
0.578128344
 40
0.5937535171
 40
0.6093785088
 40
0.6250034627
 40
0.6406284132
 40
0.6562533859
 40
0.6718785195
 40
0.6875037792
 40
0.7031290735
 40
0.7187544594
 40
0.7343798964
 40
0.7500052347
 40
0.7656304754
 40
0.7812556775
 40
0.7968807685
 40
0.8125057809
 40
0.8281309013
 40
0.8437562086
 40
0.8593818254
 40
0.8750076493
 40
0.8906331251
 40
0.9062576868
 40
0.9218817902
 40
0.9375070273
 40
0.9531350668
 40
0.9687655662
 40
1.0
 40
1.0
 40
1.0
 40
1.0
 10
5.6181499328
 20
3.5828486072
 30
0.0
 10
5.6343906912
 20
3.5828659227
 30
0.0
 10
5.6587796331
 20
3.5840913885
 30
0.0
 10
5.6910349216
 20
3.5880963013
 30
0.0
 10
5.7150612699
 20
3.5922859507
 30
0.0
 10
5.7388487752
 20
3.5976480181
 30
0.0
 10
5.762343601
 20
3.6041679494
 30
0.0
 10
5.7854901869
 20
3.6118327669
 30
0.0
 10
5.8082339103
 20
3.6206234512
 30
0.0
 10
5.8305207548
 20
3.6305166604
 30
0.0
 10
5.852295681
 20
3.6414906765
 30
0.0
 10
5.873505161
 20
3.6535203458
 30
0.0
 10
5.8940998781
 20
3.6665737893
 30
0.0
 10
5.9140300792
 20
3.6806207071
 30
0.0
 10
5.9332464395
 20
3.695629332
 30
0.0
 10
5.951704742
 20
3.7115610203
 30
0.0
 10
5.9693605797
 20
3.7283778024
 30
0.0
 10
5.9861691169
 20
3.7460415559
 30
0.0
 10
6.0020918946
 20
3.7645076885
 30
0.0
 10
6.0170912589
 20
3.7837313988
 30
0.0
 10
6.0311284197
 20
3.8036684638
 30
0.0
 10
6.0441710065
 20
3.8242697439
 30
0.0
 10
6.056189149
 20
3.8454849436
 30
0.0
 10
6.0671513121
 20
3.8672645905
 30
0.0
 10
6.0770315868
 20
3.8895558885
 30
0.0
 10
6.0858084531
 20
3.9123043268
 30
0.0
 10
6.0934585077
 20
3.9354561717
 30
0.0
 10
6.099962573
 20
3.9589558108
 30
0.0
 10
6.1053078954
 20
3.9827459526
 30
0.0
 10
6.1094800336
 20
4.0067698867
 30
0.0
 10
6.1124667805
 20
4.0309699928
 30
0.0
 10
6.1142642693
 20
4.0552874934
 30
0.0
 10
6.1148676607
 20
4.0796639973
 30
0.0
 10
6.1142721718
 20
4.1040406975
 30
0.0
 10
6.1124822977
 20
4.1283587643
 30
0.0
 10
6.1095030542
 20
4.15255981
 30
0.0
 10
6.1053382408
 20
4.1765850469
 30
0.0
 10
6.099999627
 20
4.200376719
 30
0.0
 10
6.0935018575
 20
4.2238780685
 30
0.0
 10
6.0858577619
 20
4.2470317872
 30
0.0
 10
6.0770860162
 20
4.2697820753
 30
0.0
 10
6.0672101055
 20
4.2920752311
 30
0.0
 10
6.0562516225
 20
4.3138568067
 30
0.0
 10
6.0442361207
 20
4.3350737671
 30
0.0
 10
6.0311952226
 20
4.3556765229
 30
0.0
 10
6.0171590126
 20
4.3756147418
 30
0.0
 10
6.0021595093
 20
4.394838852
 30
0.0
 10
5.986235608
 20
4.4133044884
 30
0.0
 10
5.9694252962
 20
4.4309669581
 30
0.0
 10
5.9517668436
 20
4.4477813171
 30
0.0
 10
5.9333050017
 20
4.4637091231
 30
0.0
 10
5.9140845357
 20
4.478712608
 30
0.0
 10
5.8941497053
 20
4.4927529902
 30
0.0
 10
5.8735496683
 20
4.5057979585
 30
0.0
 10
5.8523345441
 20
4.5178174373
 30
0.0
 10
5.8305538165
 20
4.5287795926
 30
0.0
 10
5.808260852
 20
4.5386585774
 30
0.0
 10
5.7855110075
 20
4.5474328792
 30
0.0
 10
5.7623586
 20
4.5550792922
 30
0.0
 10
5.7388583613
 20
4.5615783022
 30
0.0
 10
5.715066132
 20
4.5669169475
 30
0.0
 10
5.6910358847
 20
4.5710808259
 30
0.0
 10
5.6587764796
 20
4.5750479292
 30
0.0
 10
5.6343860641
 20
4.5762410143
 30
0.0
 10
5.6181454655
 20
4.5762350463
 30
0.0
 11
5.6181499328
 21
3.5828486072
 31
0.0
 11
5.6668110738
 21
3.5852891308
 31
0.0
 11
5.6910073791
 21
3.5882940071
 31
0.0
 11
5.7150234846
 21
3.5924817552
 31
0.0
 11
5.738800941
 21
3.597841226
 31
0.0
 11
5.7622853901
 21
3.604358707
 31
0.0
 11
5.7854224736
 21
3.6120202071
 31
0.0
 11
5.8081575113
 21
3.6208071032
 31
0.0
 11
5.8304355512
 21
3.6306968515
 31
0.0
 11
5.8522016628
 21
3.641666738
 31
0.0
 11
5.8734028565
 21
3.6536910679
 31
0.0
 11
5.8939892146
 21
3.6667394272
 31
0.0
 11
5.9139110933
 21
3.6807809817
 31
0.0
 11
5.9331200593
 21
3.6957831454
 31
0.0
 11
5.9515709951
 21
3.7117085336
 31
0.0
 11
5.969219346
 21
3.7285189472
 31
0.0
 11
5.9860214686
 21
3.7461752621
 31
0.0
 11
6.0019380218
 21
3.7646339878
 31
0.0
 11
6.016930933
 21
3.7838503468
 31
0.0
 11
6.0309626675
 21
3.8037791813
 31
0.0
 11
6.0440002826
 21
3.824372092
 31
0.0
 11
6.0560131626
 21
3.8455790365
 31
0.0
 11
6.0669709769
 21
3.8673498221
 31
0.0
 11
6.0768476737
 21
3.8896320506
 31
0.0
 11
6.0856206465
 21
3.9123715475
 31
0.0
 11
6.0932674851
 21
3.9355140562
 31
0.0
 11
6.0997694261
 21
3.9590041362
 31
0.0
 11
6.1051123492
 21
3.9827848396
 31
0.0
 11
6.1092824492
 21
4.0067991186
 31
0.0
 11
6.1122685604
 21
4.0309894565
 31
0.0
 11
6.1140652523
 21
4.0552973176
 31
0.0
 11
6.1146678474
 21
4.0796640327
 31
0.0
 11
6.1140731069
 21
4.1040309335
 31
0.0
 11
6.1122840599
 21
4.1283393543
 31
0.0
 11
6.1093054412
 21
4.1525306309
 31
0.0
 11
6.1051425912
 21
4.1765462013
 31
0.0
 11
6.0998064057
 21
4.2003284459
 31
0.0
 11
6.0933107666
 21
4.2238202514
 31
0.0
 11
6.0856698075
 21
4.2469645855
 31
0.0
 11
6.0769019875
 21
4.2697058899
 31
0.0
 11
6.0670296887
 21
4.2919899433
 31
0.0
 11
6.0560755049
 21
4.3137626069
 31
0.0
 11
6.0440652691
 21
4.3349713194
 31
0.0
 11
6.0310293594
 21
4.3555657336
 31
0.0
 11
6.0169985013
 21
4.3754956731
 31
0.0
 11
6.0020054619
 21
4.3947124159
 31
0.0
 11
5.9860878298
 21
4.4131706744
 31
0.0
 11
5.9692838892
 21
4.4308256567
 31
0.0
 11
5.9516329146
 21
4.4476335861
 31
0.0
 11
5.9331785044
 21
4.4635551187
 31
0.0
 11
5.9139654367
 21
4.4785521198
 31
0.0
 11
5.8940389001
 21
4.4925870468
 31
0.0
 11
5.8734472823
 21
4.5056269671
 31
0.0
 11
5.8522404725
 21
4.5176411122
 31
0.0
 11
5.8304685537
 21
4.5285990106
 31
0.0
 11
5.8081844528
 21
4.5384745656
 31
0.0
 11
5.7854433256
 21
4.5472451079
 31
0.0
 11
5.7623003816
 21
4.5548881377
 31
0.0
 11
5.7388105622
 21
4.5613846985
 31
0.0
 11
5.7150284359
 21
4.5667207638
 31
0.0
 11
5.6910085547
 21
4.5708826784
 31
0.0
 11
5.666809301
 21
4.5738591615
 31
0.0
 11
5.6181454655
 21
4.5762350463
 31
0.0
  0
LINE
  5
251
100
AcDbEntity
  8
0
100
AcDbLine
 62
6
  6
CONTINUOUS
 10
5.6181454655
 20
4.5762350463
 11
5.6179744773
 21
4.5762349539
  0
LINE
  5
252
100
AcDbEntity
  8
0
100
AcDbLine
 62
6
  6
CONTINUOUS
 10
5.6179744773
 20
3.5850726271
 11
5.6181499479
 21
3.5850727838
  0
SPLINE
  5
253
100
AcDbEntity
  8
0
100
AcDbSpline
 62
6
  6
CONTINUOUS
 70
0
 71
3
 72
69
 73
65
 74
63
 42
0.0000001
 43
0.0000001
 44
0.0000000001
 12
1.5528873339
 22
0.0016631345
 32
0.0
 13
-1.5528881184
 23
-0.0005740903
 33
0.0
 40
0.0
 40
0.0
 40
0.0
 40
0.0
 40
0.0312347591
 40
0.0468656175
 40
0.0624941108
 40
0.0781197214
 40
0.0937440892
 40
0.1093688023
 40
0.1249944134
 40
0.1406203762
 40
0.1562461278
 40
0.1718715257
 40
0.1874966942
 40
0.2031217095
 40
0.2187467513
 40
0.2343718423
 40
0.2499968786
 40
0.2656218936
 40
0.2812469557
 40
0.2968719971
 40
0.3124970418
 40
0.3281221624
 40
0.343747263
 40
0.3593723011
 40
0.3749973801
 40
0.3906224697
 40
0.406247544
 40
0.4218727312
 40
0.4374980397
 40
0.4531234354
 40
0.4687490174
 40
0.4843747443
 40
0.5000004681
 40
0.5156261876
 40
0.5312519119
 40
0.546877503
 40
0.5625029199
 40
0.5781282465
 40
0.5937534226
 40
0.6093784267
 40
0.625003416
 40
0.6406284463
 40
0.6562535663
 40
0.6718789133
 40
0.6875044125
 40
0.7031299259
 40
0.7187554804
 40
0.7343810477
 40
0.7500064866
 40
0.7656317978
 40
0.7812570479
 40
0.7968821659
 40
0.812507174
 40
0.8281322604
 40
0.8437575086
 40
0.8593830385
 40
0.8750087605
 40
0.8906341138
 40
0.9062585091
 40
0.9218823711
 40
0.9375073475
 40
0.9531351765
 40
0.9687655771
 40
1.0
 40
1.0
 40
1.0
 40
1.0
 10
5.6181499479
 20
3.5850727838
 30
0.0
 10
5.6343179685
 20
3.5850900997
 30
0.0
 10
5.6585976737
 20
3.5863101874
 30
0.0
 10
5.6907084845
 20
3.590297296
 30
0.0
 10
5.7146272111
 20
3.5944682736
 30
0.0
 10
5.7383081606
 20
3.599806412
 30
0.0
 10
5.7616977382
 20
3.6062972217
 30
0.0
 10
5.784740633
 20
3.6139277827
 30
0.0
 10
5.8073824678
 20
3.622679163
 30
0.0
 10
5.8295694698
 20
3.632528124
 30
0.0
 10
5.8512468477
 20
3.6434530435
 30
0.0
 10
5.8723613114
 20
3.655428883
 30
0.0
 10
5.8928637623
 20
3.6684239057
 30
0.0
 10
5.9127046663
 20
3.6824079444
 30
0.0
 10
5.9318349076
 20
3.6973493689
 30
0.0
 10
5.9502104614
 20
3.7132096833
 30
0.0
 10
5.9677871089
 20
3.7299510674
 30
0.0
 10
5.9845202427
 20
3.7475355567
 30
0.0
 10
6.0003715968
 20
3.7659188116
 30
0.0
 10
6.0153036939
 20
3.785056333
 30
0.0
 10
6.0292779421
 20
3.8049041316
 30
0.0
 10
6.0422622053
 20
3.8254132151
 30
0.0
 10
6.054226644
 20
3.8465335076
 30
0.0
 10
6.0651397809
 20
3.8682157282
 30
0.0
 10
6.0749758548
 20
3.8904072666
 30
0.0
 10
6.0837134371
 20
3.9130538628
 30
0.0
 10
6.0913292321
 20
3.9361020376
 30
0.0
 10
6.0978041817
 20
3.9594964294
 30
0.0
 10
6.1031255816
 20
3.9831800158
 30
0.0
 10
6.1072790402
 20
4.007096349
 30
0.0
 10
6.1102524253
 20
4.0311880661
 30
0.0
 10
6.1120418867
 20
4.0553966547
 30
0.0
 10
6.1126425904
 20
4.0796639851
 30
0.0
 10
6.1120497825
 20
4.1039315113
 30
0.0
 10
6.1102679499
 20
4.128140667
 30
0.0
 10
6.1073020702
 20
4.1522333241
 30
0.0
 10
6.1031559227
 20
4.1761509574
 30
0.0
 10
6.0978412432
 20
4.1998360765
 30
0.0
 10
6.0913725961
 20
4.2232321817
 30
0.0
 10
6.0837627444
 20
4.2462822298
 30
0.0
 10
6.0750302858
 20
4.2689306951
 30
0.0
 10
6.0651985645
 20
4.2911241345
 30
0.0
 10
6.0542890533
 20
4.3128083561
 30
0.0
 10
6.0423271715
 20
4.3339305378
 30
0.0
 10
6.029344454
 20
4.354441285
 30
0.0
 10
6.0153709514
 20
4.3742904908
 30
0.0
 10
6.0004384089
 20
4.3934286727
 30
0.0
 10
5.9845855815
 20
4.411811666
 30
0.0
 10
5.9678504162
 20
4.4293951058
 30
0.0
 10
5.9502709385
 20
4.4461342045
 30
0.0
 10
5.9318916042
 20
4.4619905825
 30
0.0
 10
5.9127571258
 20
4.4769268013
 30
0.0
 10
5.8929115763
 20
4.4909042866
 30
0.0
 10
5.8724037456
 20
4.503890649
 30
0.0
 10
5.8512836503
 20
4.5158561191
 30
0.0
 10
5.8296005902
 20
4.5267691231
 30
0.0
 10
5.8074075496
 20
4.5366036473
 30
0.0
 10
5.7847597267
 20
4.5453384194
 30
0.0
 10
5.7617112679
 20
4.552950475
 30
0.0
 10
5.7383165993
 20
4.5594202307
 30
0.0
 10
5.7146312707
 20
4.5647347962
 30
0.0
 10
5.6907089293
 20
4.5688799072
 30
0.0
 10
5.6585941635
 20
4.5728291515
 30
0.0
 10
5.6343130421
 20
4.5740168473
 30
0.0
 10
5.6181451874
 20
4.5740108702
 30
0.0
 11
5.6181499479
 21
3.5850727838
 31
0.0
 11
5.6665931386
 21
3.5875025972
 31
0.0
 11
5.6906810646
 21
3.5904941151
 31
0.0
 11
5.7145895947
 21
3.5946632001
 31
0.0
 11
5.7382605405
 21
3.5999987536
 31
0.0
 11
5.761639788
 21
3.6064871239
 31
0.0
 11
5.7846732226
 21
3.6141143826
 31
0.0
 11
5.8073064104
 21
3.6228619911
 31
0.0
 11
5.8294846472
 21
3.6327075065
 31
0.0
 11
5.8511532505
 21
3.6436283156
 31
0.0
 11
5.8722594659
 21
3.6555988403
 31
0.0
 11
5.8927535962
 21
3.6685888024
 31
0.0
 11
5.9125862171
 21
3.6825675041
 31
0.0
 11
5.9317091052
 21
3.6975025
 31
0.0
 11
5.950077333
 21
3.7133565489
 31
0.0
 11
5.967646533
 21
3.7300915944
 31
0.0
 11
5.9843732628
 21
3.7476686659
 31
0.0
 11
6.0002183924
 21
3.766044529
 31
0.0
 11
6.0151440485
 21
3.785174707
 31
0.0
 11
6.0291129198
 21
3.8050143088
 31
0.0
 11
6.0420922399
 21
3.8255150928
 31
0.0
 11
6.0540514441
 21
3.8466271939
 31
0.0
 11
6.0649602619
 21
3.8683005961
 31
0.0
 11
6.0747927695
 21
3.8904831017
 31
0.0
 11
6.0835264723
 21
3.9131207913
 31
0.0
 11
6.091139069
 21
3.9361596663
 31
0.0
 11
6.0976119014
 21
3.9595445407
 31
0.0
 11
6.1029309094
 21
3.9832187293
 31
0.0
 11
6.107082342
 21
4.0071254485
 31
0.0
 11
6.1100550942
 21
4.0312074419
 31
0.0
 11
6.1118437596
 21
4.0554064348
 31
0.0
 11
6.1124436718
 21
4.0796640202
 31
0.0
 11
6.111851611
 21
4.1039217918
 31
0.0
 11
6.110070599
 21
4.1281213452
 31
0.0
 11
6.1071053408
 21
4.1522042766
 31
0.0
 11
6.1029611513
 21
4.176112286
 31
0.0
 11
6.0976488875
 21
4.1997880176
 31
0.0
 11
6.0911823613
 21
4.2231746187
 31
0.0
 11
6.0835756369
 21
4.2462153186
 31
0.0
 11
6.0748470875
 21
4.2688548287
 31
0.0
 11
6.0650189662
 21
4.2910391951
 31
0.0
 11
6.0541137327
 21
4.3127145435
 31
0.0
 11
6.0421570898
 21
4.3338285351
 31
0.0
 11
6.029179337
 21
4.354331007
 31
0.0
 11
6.0152111276
 21
4.374171965
 31
0.0
 11
6.000285028
 21
4.3933028075
 31
0.0
 11
5.9844384663
 21
4.4116784717
 31
0.0
 11
5.9677096315
 21
4.4292544485
 31
0.0
 11
5.9501375851
 21
4.4459871242
 31
0.0
 11
5.9317656737
 21
4.4618372826
 31
0.0
 11
5.9126385572
 21
4.476767055
 31
0.0
 11
5.8928012394
 21
4.4907390712
 31
0.0
 11
5.8723018122
 21
4.5037204345
 31
0.0
 11
5.8511899997
 21
4.5156806136
 31
0.0
 11
5.829515691
 21
4.5265893288
 31
0.0
 11
5.8073314847
 21
4.5364204635
 31
0.0
 11
5.784692336
 21
4.5451515207
 31
0.0
 11
5.7616532723
 21
4.5527601854
 31
0.0
 11
5.7382690047
 21
4.5592274939
 31
0.0
 11
5.7145937709
 21
4.5645394924
 31
0.0
 11
5.69068178
 21
4.5686826431
 31
0.0
 11
5.6665910556
 21
4.5716457234
 31
0.0
 11
5.6181451874
 21
4.5740108702
 31
0.0
  0
LINE
  5
254
100
AcDbEntity
  8
0
100
AcDbLine
 62
6
  6
CONTINUOUS
 10
5.6181451874
 20
4.5740108702
 11
5.6179744773
 21
4.5740107774
  0
LINE
  5
255
100
AcDbEntity
  8
0
100
AcDbLine
 62
6
  6
CONTINUOUS
 10
5.6179744773
 20
3.5872968032
 11
5.6181498391
 21
3.5872969605
  0
SPLINE
  5
256
100
AcDbEntity
  8
0
100
AcDbSpline
 62
6
  6
CONTINUOUS
 70
0
 71
3
 72
67
 73
63
 74
61
 42
0.0000001
 43
0.0000001
 44
0.0000000001
 12
1.5458716988
 22
0.0016627466
 32
0.0
 13
-1.5458724865
 23
-0.0005738771
 33
0.0
 40
0.0
 40
0.0
 40
0.0
 40
0.0
 40
0.0312353233
 40
0.0468664465
 40
0.0624951996
 40
0.078121076
 40
0.0937457154
 40
0.1093707044
 40
0.1249965893
 40
0.1406228245
 40
0.1562488503
 40
0.171874526
 40
0.1874999671
 40
0.2031252416
 40
0.2187505241
 40
0.2343758395
 40
0.2500010903
 40
0.2656263207
 40
0.2812516195
 40
0.2968769476
 40
0.3125023563
 40
0.3281278915
 40
0.3437534087
 40
0.3593788233
 40
0.3750042303
 40
0.3906296153
 40
0.406254969
 40
0.4218804297
 40
0.4375060075
 40
0.4531316715
 40
0.4687575234
 40
0.5000001202
 40
0.5312427201
 40
0.5468685726
 40
0.56249423
 40
0.5781198006
 40
0.5937452676
 40
0.6093706551
 40
0.6249961194
 40
0.6406216718
 40
0.6562473189
 40
0.671873175
 40
0.6874991631
 40
0.7031251393
 40
0.7187511256
 40
0.7343770992
 40
0.7500029178
 40
0.7656285746
 40
0.7812541434
 40
0.796879558
 40
0.8125048343
 40
0.8281301598
 40
0.8437556196
 40
0.8593813282
 40
0.8750072093
 40
0.8906327058
 40
0.9062572209
 40
0.921881168
 40
0.937506245
 40
0.9531342521
 40
0.9687649315
 40
1.0
 40
1.0
 40
1.0
 40
1.0
 10
5.6181498391
 20
3.5872969605
 30
0.0
 10
5.6342451065
 20
3.5873142727
 30
0.0
 10
5.658415543
 20
3.5885289657
 30
0.0
 10
5.6903818255
 20
3.5924982536
 30
0.0
 10
5.7141928779
 20
3.5966505461
 30
0.0
 10
5.737767227
 20
3.6019647267
 30
0.0
 10
5.7610515222
 20
3.6084263859
 30
0.0
 10
5.7839906952
 20
3.6160226683
 30
0.0
 10
5.8065306194
 20
3.624734701
 30
0.0
 10
5.8286177581
 20
3.6345393694
 30
0.0
 10
5.850197556
 20
3.6454151743
 30
0.0
 10
5.8712169843
 20
3.6573371433
 30
0.0
 10
5.8916271568
 20
3.6702736886
 30
0.0
 10
5.9113787327
 20
3.6841948031
 30
0.0
 10
5.9304228381
 20
3.6990689589
 30
0.0
 10
5.9487156542
 20
3.7148578323
 30
0.0
 10
5.9662131339
 20
3.7315238199
 30
0.0
 10
5.9828709183
 20
3.7490291035
 30
0.0
 10
5.9986509613
 20
3.7673295487
 30
0.0
 10
6.0135159003
 20
3.786380957
 30
0.0
 10
6.0274273056
 20
3.8061395544
 30
0.0
 10
6.0403532822
 20
3.8265564732
 30
0.0
 10
6.0522640277
 20
3.8475818611
 30
0.0
 10
6.0631281392
 20
3.8691666335
 30
0.0
 10
6.0729200136
 20
3.8912583725
 30
0.0
 10
6.0816183125
 20
3.9138030838
 30
0.0
 10
6.0891998425
 20
3.9367475367
 30
0.0
 10
6.0956456896
 20
3.9600366671
 30
0.0
 10
6.1009431793
 20
3.9836135365
 30
0.0
 10
6.1050779891
 20
4.0074226656
 30
0.0
 10
6.1090240123
 20
4.0393934699
 30
0.0
 10
6.1110120308
 20
4.0796632611
 30
0.0
 10
6.109037151
 20
4.1199337131
 30
0.0
 10
6.1051012143
 20
4.1519057623
 30
0.0
 10
6.1009737575
 20
4.1757161655
 30
0.0
 10
6.095683102
 20
4.1992945734
 30
0.0
 10
6.0892436164
 20
4.222585487
 30
0.0
 10
6.0816679502
 20
4.2455319511
 30
0.0
 10
6.0729747295
 20
4.268078777
 30
0.0
 10
6.0631871628
 20
4.2901726932
 30
0.0
 10
6.0523266198
 20
4.3117596898
 30
0.0
 10
6.0404183699
 20
4.3327871186
 30
0.0
 10
6.0274938625
 20
4.3532058122
 30
0.0
 10
6.013583101
 20
4.3729659419
 30
0.0
 10
5.9987175698
 20
4.3920181626
 30
0.0
 10
5.9829358633
 20
4.4103185037
 30
0.0
 10
5.9662758793
 20
4.4278229039
 30
0.0
 10
5.9487754233
 20
4.4444867428
 30
0.0
 10
5.930478649
 20
4.4602716957
 30
0.0
 10
5.9114302
 20
4.4751406385
 30
0.0
 10
5.8916739733
 20
4.4890552212
 30
0.0
 10
5.8712584044
 20
4.5019829967
 30
0.0
 10
5.8502333895
 20
4.5138944697
 30
0.0
 10
5.8286480453
 20
4.5247583167
 30
0.0
 10
5.8065549977
 20
4.5345484167
 30
0.0
 10
5.7840092504
 20
4.5432436986
 30
0.0
 10
5.7610647452
 20
4.550821405
 30
0.0
 10
5.7377756126
 20
4.5572619589
 30
0.0
 10
5.7141970975
 20
4.5625525169
 30
0.0
 10
5.6903825401
 20
4.5666788975
 30
0.0
 10
5.6584122933
 20
4.5706103224
 30
0.0
 10
5.6342403915
 20
4.5717926707
 30
0.0
 10
5.6181452472
 20
4.5717866957
 30
0.0
 11
5.6181498391
 21
3.5872969605
 31
0.0
 11
5.6663750343
 21
3.589716041
 31
0.0
 11
5.6903545308
 21
3.5926941866
 31
0.0
 11
5.7141554277
 21
3.5968445913
 31
0.0
 11
5.7377198181
 21
3.6021562007
 31
0.0
 11
5.7609938301
 21
3.6086154328
 31
0.0
 11
5.7839235901
 21
3.6162084246
 31
0.0
 11
5.8064549053
 21
3.6249167058
 31
0.0
 11
5.8285333144
 21
3.6347179474
 31
0.0
 11
5.8501043803
 21
3.6455896523
 31
0.0
 11
5.8711156008
 21
3.6575063344
 31
0.0
 11
5.8915174904
 21
3.6704378495
 31
0.0
 11
5.9112608266
 21
3.684353647
 31
0.0
 11
5.9302976116
 21
3.6992214025
 31
0.0
 11
5.948583126
 21
3.7150040435
 31
0.0
 11
5.9660731933
 21
3.7316637108
 31
0.0
 11
5.9827246
 21
3.7491615993
 31
0.0
 11
5.9984984247
 21
3.7674546857
 31
0.0
 11
6.0133569414
 21
3.7864987721
 31
0.0
 11
6.0272630221
 21
3.806249207
 31
0.0
 11
6.0401840811
 21
3.8266578925
 31
0.0
 11
6.0520896188
 21
3.8476751482
 31
0.0
 11
6.0629494397
 21
3.8692511417
 31
0.0
 11
6.0727377573
 21
3.8913338833
 31
0.0
 11
6.0814321885
 21
3.9138697182
 31
0.0
 11
6.0890105415
 21
3.9368049142
 31
0.0
 11
6.0954542755
 21
3.9600845392
 31
0.0
 11
6.1007493843
 21
3.9836521699
 31
0.0
 11
6.1048821606
 21
4.0074512873
 31
0.0
 11
6.107841578
 21
4.0314248917
 31
0.0
 11
6.1102194973
 21
4.0796633916
 31
0.0
 11
6.1078572015
 21
4.1279026639
 31
0.0
 11
6.1049053496
 21
4.1518772019
 31
0.0
 11
6.1007798761
 21
4.175677576
 31
0.0
 11
6.0954916117
 21
4.199246732
 31
0.0
 11
6.0890542388
 21
4.2225281267
 31
0.0
 11
6.0814817072
 21
4.2454653007
 31
0.0
 11
6.0727923645
 21
4.2680032295
 31
0.0
 11
6.0630083689
 21
4.2900881321
 31
0.0
 11
6.0521520705
 21
4.3116663005
 31
0.0
 11
6.0402490427
 21
4.3326855799
 31
0.0
 11
6.0273294894
 21
4.3530960472
 31
0.0
 11
6.0134239751
 21
4.3728479539
 31
0.0
 11
5.9985648609
 21
4.3918928646
 31
0.0
 11
5.9827894108
 21
4.4101859268
 31
0.0
 11
5.9661357172
 21
4.427682894
 31
0.0
 11
5.9486426443
 21
4.4443403155
 31
0.0
 11
5.9303532831
 21
4.4601190984
 31
0.0
 11
5.9113121633
 21
4.4749816338
 31
0.0
 11
5.8915641076
 21
4.4888907376
 31
0.0
 11
5.8711569215
 21
4.5018135587
 31
0.0
 11
5.8501401565
 21
4.5137197825
 31
0.0
 11
5.8285635107
 21
4.5245793183
 31
0.0
 11
5.806479269
 21
4.5343660598
 31
0.0
 11
5.783942158
 21
4.5430576619
 31
0.0
 11
5.761006994
 21
4.5506319792
 31
0.0
 11
5.7377282398
 21
4.5570700859
 31
0.0
 11
5.7141598059
 21
4.5623580835
 31
0.0
 11
5.6903555653
 21
4.566482517
 31
0.0
 11
5.6663732458
 21
4.5694322296
 31
0.0
 11
5.6181452472
 21
4.5717866957
 31
0.0
  0
LINE
  5
257
100
AcDbEntity
  8
0
100
AcDbLine
 62
6
  6
CONTINUOUS
 10
5.6181452472
 20
4.5717866957
 11
5.6179744773
 21
4.5717866025
  0
LINE
  5
258
100
AcDbEntity
  8
0
100
AcDbLine
 62
6
  6
CONTINUOUS
 10
5.6179744773
 20
3.5895209769
 11
5.6181499692
 21
3.5895211351
  0
SPLINE
  5
259
100
AcDbEntity
  8
0
100
AcDbSpline
 62
6
  6
CONTINUOUS
 70
0
 71
3
 72
69
 73
65
 74
63
 42
0.0000001
 43
0.0000001
 44
0.0000000001
 12
1.5389136204
 22
0.0016631791
 32
0.0
 13
-1.5389144126
 23
-0.0005726124
 33
0.0
 40
0.0
 40
0.0
 40
0.0
 40
0.0
 40
0.0312347621
 40
0.0468656227
 40
0.0624941194
 40
0.078119733
 40
0.0937441015
 40
0.1093688112
 40
0.124994418
 40
0.1406203833
 40
0.1562461516
 40
0.1718715744
 40
0.187496747
 40
0.2031217132
 40
0.2187466433
 40
0.234371616
 40
0.2499965972
 40
0.2656216759
 40
0.2812469084
 40
0.296872199
 40
0.3124975456
 40
0.3281229862
 40
0.3437483776
 40
0.3593736256
 40
0.374998826
 40
0.3906239751
 40
0.4062490609
 40
0.4218742208
 40
0.4374994713
 40
0.4531247731
 40
0.4687502214
 40
0.4843757861
 40
0.5000013214
 40
0.5156268202
 40
0.5312522902
 40
0.5468775884
 40
0.5625026704
 40
0.5781276781
 40
0.5937526501
 40
0.6093776643
 40
0.6250028683
 40
0.6406282141
 40
0.6562536513
 40
0.6718792671
 40
0.6875049955
 40
0.7031307066
 40
0.7187564322
 40
0.7343821484
 40
0.7500077096
 40
0.765633106
 40
0.7812584102
 40
0.7968835541
 40
0.8125085499
 40
0.8281335716
 40
0.8437586835
 40
0.8593839787
 40
0.8750093981
 40
0.8906344399
 40
0.9062585663
 40
0.9218822312
 40
0.9375071033
 40
0.953134946
 40
0.9687654379
 40
1.0
 40
1.0
 40
1.0
 40
1.0
 10
5.6181499692
 20
3.5895211351
 30
0.0
 10
5.6341725028
 20
3.5895384514
 30
0.0
 10
5.6582337168
 20
3.5907477792
 30
0.0
 10
5.6900555491
 20
3.5946992734
 30
0.0
 10
5.7137590144
 20
3.5988329032
 30
0.0
 10
5.7372268354
 20
3.6041231768
 30
0.0
 10
5.7604058987
 20
3.6105557319
 30
0.0
 10
5.7832413933
 20
3.6181177623
 30
0.0
 10
5.8056794354
 20
3.6267905132
 30
0.0
 10
5.8276667438
 20
3.6365509644
 30
0.0
 10
5.8491490227
 20
3.6473776945
 30
0.0
 10
5.8700734495
 20
3.6592458831
 30
0.0
 10
5.8903913487
 20
3.6721240439
 30
0.0
 10
5.9100536133
 20
3.6859822488
 30
0.0
 10
5.9290115782
 20
3.7007891592
 30
0.0
 10
5.9472216436
 20
3.7165066878
 30
0.0
 10
5.9646400365
 20
3.7330974382
 30
0.0
 10
5.9812226152
 20
3.7505238011
 30
0.0
 10
5.9969314828
 20
3.7687418292
 30
0.0
 10
6.0117294391
 20
3.7877074349
 30
0.0
 10
6.0255781554
 20
3.8073770288
 30
0.0
 10
6.0384457334
 20
3.8277020182
 30
0.0
 10
6.0503026506
 20
3.848632661
 30
0.0
 10
6.061117759
 20
3.8701200445
 30
0.0
 10
6.0708652634
 20
3.8921121406
 30
0.0
 10
6.0795240999
 20
3.9145551002
 30
0.0
 10
6.0870713951
 20
3.9373958881
 30
0.0
 10
6.0934879511
 20
3.9605797643
 30
0.0
 10
6.0987612873
 20
3.984050177
 30
0.0
 10
6.10287737
 20
4.0077511484
 30
0.0
 10
6.1058239367
 20
4.0316258838
 30
0.0
 10
6.107597164
 20
4.0556163909
 30
0.0
 10
6.108192438
 20
4.0796650564
 30
0.0
 10
6.1076050116
 20
4.1037138717
 30
0.0
 10
6.1058392176
 20
4.1277047864
 30
0.0
 10
6.102900097
 20
4.1515801962
 30
0.0
 10
6.0987914503
 20
4.175282145
 30
0.0
 10
6.0935248235
 20
4.1987537331
 30
0.0
 10
6.0871145383
 20
4.2219390792
 30
0.0
 10
6.079573142
 20
4.2447817146
 30
0.0
 10
6.070919256
 20
4.2672266695
 30
0.0
 10
6.0611759568
 20
4.2892208549
 30
0.0
 10
6.0503644996
 20
4.3107104114
 30
0.0
 10
6.0385100664
 20
4.3316428989
 30
0.0
 10
6.0256439717
 20
4.3519693731
 30
0.0
 10
6.0117960753
 20
4.3716402456
 30
0.0
 10
5.9969977198
 20
4.3906064079
 30
0.0
 10
5.9812873256
 20
4.408824092
 30
0.0
 10
5.964702625
 20
4.4262494361
 30
0.0
 10
5.9472812471
 20
4.4428380107
 30
0.0
 10
5.9290671406
 20
4.4585516522
 30
0.0
 10
5.9101047647
 20
4.4733534172
 30
0.0
 10
5.8904378273
 20
4.4872051265
 30
0.0
 10
5.8701145476
 20
4.5000744472
 30
0.0
 10
5.8491846445
 20
4.5119320374
 30
0.0
 10
5.8276970374
 20
4.5227467409
 30
0.0
 10
5.8057040734
 20
4.5324925383
 30
0.0
 10
5.7832604381
 20
4.5411484624
 30
0.0
 10
5.7604197478
 20
4.5486918544
 30
0.0
 10
5.7372358816
 20
4.5551033216
 30
0.0
 10
5.7137638311
 20
4.560370039
 30
0.0
 10
5.6900567462
 20
4.5644778023
 30
0.0
 10
5.6582308361
 20
4.568391471
 30
0.0
 10
5.6341680896
 20
4.5695684838
 30
0.0
 10
5.6181456503
 20
4.5695625221
 30
0.0
 11
5.6181499692
 21
3.5895211351
 31
0.0
 11
5.6661572251
 21
3.5919295224
 31
0.0
 11
5.6900283741
 21
3.5948943192
 31
0.0
 11
5.7137217357
 21
3.5990260734
 31
0.0
 11
5.7371796443
 21
3.6043137851
 31
0.0
 11
5.7603484716
 21
3.6107439227
 31
0.0
 11
5.7831745895
 21
3.6183026809
 31
0.0
 11
5.8056040588
 21
3.6269716936
 31
0.0
 11
5.8275826771
 21
3.6367287289
 31
0.0
 11
5.8490562633
 21
3.6475513866
 31
0.0
 11
5.8699725307
 21
3.6594143129
 31
0.0
 11
5.8902821995
 21
3.6722874664
 31
0.0
 11
5.9099362589
 21
3.6861403872
 31
0.0
 11
5.9288869104
 21
3.7009409141
 31
0.0
 11
5.9470896857
 21
3.7166522132
 31
0.0
 11
5.9645006833
 21
3.7332366556
 31
0.0
 11
5.9810769259
 21
3.7506556673
 31
0.0
 11
5.9967796307
 21
3.7688663849
 31
0.0
 11
6.0115712048
 21
3.7878247288
 31
0.0
 11
6.0254146006
 21
3.8074862142
 31
0.0
 11
6.0382773068
 21
3.8278029895
 31
0.0
 11
6.0501290602
 21
3.8487255342
 31
0.0
 11
6.0609398444
 21
3.870204204
 31
0.0
 11
6.0706838341
 21
3.8921873217
 31
0.0
 11
6.0793388554
 21
3.9146214387
 31
0.0
 11
6.0868829253
 21
3.9374530247
 31
0.0
 11
6.0932973986
 21
3.9606274574
 31
0.0
 11
6.0985684019
 21
3.9840885534
 31
0.0
 11
6.1026824358
 21
4.0077800081
 31
0.0
 11
6.1056283719
 21
4.0316450998
 31
0.0
 11
6.1074008387
 21
4.0556260947
 31
0.0
 11
6.1079953213
 21
4.0796651082
 31
0.0
 11
6.107408615
 21
4.1037042565
 31
0.0
 11
6.1056436507
 21
4.1276856587
 31
0.0
 11
6.1027051541
 21
4.1515514349
 31
0.0
 11
6.0985984411
 21
4.1752438164
 31
0.0
 11
6.0933342081
 21
4.1987060495
 31
0.0
 11
6.0869260314
 21
4.2218819241
 31
0.0
 11
6.0793877708
 21
4.2447153128
 31
0.0
 11
6.0707377286
 21
4.2671514405
 31
0.0
 11
6.0609979656
 21
4.2891366758
 31
0.0
 11
6.0501907289
 21
4.310617457
 31
0.0
 11
6.0383414975
 21
4.3315418268
 31
0.0
 11
6.0254803382
 21
4.3518601056
 31
0.0
 11
6.0116376692
 21
4.3715227888
 31
0.0
 11
5.9968457019
 21
4.3904816749
 31
0.0
 11
5.9811415353
 21
4.4086921149
 31
0.0
 11
5.9645630942
 21
4.4261100593
 31
0.0
 11
5.9471490642
 21
4.4426922442
 31
0.0
 11
5.9289423389
 21
4.4583997466
 31
0.0
 11
5.9099872576
 21
4.4731951345
 31
0.0
 11
5.890328446
 21
4.4870413896
 31
0.0
 11
5.8700135055
 21
4.4999057888
 31
0.0
 11
5.8490918068
 21
4.5117581627
 31
0.0
 11
5.8276128629
 21
4.5225685641
 31
0.0
 11
5.8056286893
 21
4.5323110031
 31
0.0
 11
5.7831936788
 21
4.5409632489
 31
0.0
 11
5.7603623127
 21
4.5485032774
 31
0.0
 11
5.7371887616
 21
4.5549123094
 31
0.0
 11
5.7137267267
 21
4.5601764722
 31
0.0
 11
5.6900298813
 21
4.5642823081
 31
0.0
 11
5.6661557938
 21
4.5672187054
 31
0.0
 11
5.6181456503
 21
4.5695625221
 31
0.0
  0
LINE
  5
25A
100
AcDbEntity
  8
0
100
AcDbLine
 62
6
  6
CONTINUOUS
 10
5.6181456503
 20
4.5695625221
 11
5.6179744773
 21
4.5695624283
  0
LINE
  5
25B
100
AcDbEntity
  8
0
100
AcDbLine
 62
6
  6
CONTINUOUS
 10
5.6179744773
 20
3.5917451526
 11
5.6181499565
 21
3.5917453115
  0
SPLINE
  5
25C
100
AcDbEntity
  8
0
100
AcDbSpline
 62
6
  6
CONTINUOUS
 70
0
 71
3
 72
69
 73
65
 74
63
 42
0.0000001
 43
0.0000001
 44
0.0000000001
 12
1.5319267867
 22
0.0016631292
 32
0.0
 13
-1.5319275828
 23
-0.0005718986
 33
0.0
 40
0.0
 40
0.0
 40
0.0
 40
0.0
 40
0.0312347591
 40
0.0468656148
 40
0.0624941055
 40
0.0781197141
 40
0.0937440791
 40
0.1093687867
 40
0.1249943912
 40
0.1406203527
 40
0.156246115
 40
0.1718715313
 40
0.1874967007
 40
0.2031216717
 40
0.2187466228
 40
0.2343716522
 40
0.2499967478
 40
0.2656220131
 40
0.2812474755
 40
0.2968729935
 40
0.3124985215
 40
0.3281240972
 40
0.3437495915
 40
0.3593749131
 40
0.3750001608
 40
0.3906253359
 40
0.4062504207
 40
0.4218755499
 40
0.4375007484
 40
0.4531259748
 40
0.4687513185
 40
0.4843767478
 40
0.5000021055
 40
0.5156273735
 40
0.5312525979
 40
0.5468776875
 40
0.562502641
 40
0.5781275932
 40
0.5937525508
 40
0.6093775625
 40
0.6250027626
 40
0.6406281037
 40
0.656253537
 40
0.6718791495
 40
0.6875048742
 40
0.7031305808
 40
0.7187563015
 40
0.7343820133
 40
0.750007572
 40
0.7656329696
 40
0.781258274
 40
0.7968834112
 40
0.8125083883
 40
0.8281333737
 40
0.843758425
 40
0.8593836298
 40
0.8750089441
 40
0.8906339088
 40
0.9062580373
 40
0.9218818143
 40
0.9375068521
 40
0.9531348472
 40
0.9687654181
 40
1.0
 40
1.0
 40
1.0
 40
1.0
 10
5.6181499565
 20
3.5917453115
 30
0.0
 10
5.6340997446
 20
3.5917626273
 30
0.0
 10
5.658051708
 20
3.5929665726
 30
0.0
 10
5.6897290426
 20
3.5969002567
 30
0.0
 10
5.7133248677
 20
3.6010152093
 30
0.0
 10
5.7366861167
 20
3.6062815445
 30
0.0
 10
5.7597599186
 20
3.6126849682
 30
0.0
 10
5.782491711
 20
3.6202127337
 30
0.0
 10
5.8048278554
 20
3.6288461667
 30
0.0
 10
5.8267153104
 20
3.6385623539
 30
0.0
 10
5.8481000249
 20
3.6493399755
 30
0.0
 10
5.8689294225
 20
3.6611543178
 30
0.0
 10
5.8891550531
 20
3.6739740424
 30
0.0
 10
5.9087280372
 20
3.6877693662
 30
0.0
 10
5.9275999481
 20
3.7025090981
 30
0.0
 10
5.945727394
 20
3.7181553528
 30
0.0
 10
5.9630668153
 20
3.7346709298
 30
0.0
 10
5.9795742472
 20
3.7520184174
 30
0.0
 10
5.9952119474
 20
3.7701540363
 30
0.0
 10
6.0099428934
 20
3.7890338127
 30
0.0
 10
6.0237288922
 20
3.8086143353
 30
0.0
 10
6.0365380442
 20
3.8288473065
 30
0.0
 10
6.0483410977
 20
3.8496831206
 30
0.0
 10
6.0591071661
 20
3.8710730463
 30
0.0
 10
6.0688103139
 20
3.8929654261
 30
0.0
 10
6.0774297062
 20
3.9153065803
 30
0.0
 10
6.0849427526
 20
3.9380436594
 30
0.0
 10
6.0913300621
 20
3.9611222686
 30
0.0
 10
6.0965792855
 20
3.9844860774
 30
0.0
 10
6.1006766542
 20
4.0080793268
 30
0.0
 10
6.1036097704
 20
4.0318455169
 30
0.0
 10
6.1053748104
 20
4.0557269006
 30
0.0
 10
6.1059673477
 20
4.0796661037
 30
0.0
 10
6.1053826439
 20
4.1036054023
 30
0.0
 10
6.1036248673
 20
4.1274870459
 30
0.0
 10
6.1006991018
 20
4.1512537598
 30
0.0
 10
6.096609151
 20
4.1748479025
 30
0.0
 10
6.091366491
 20
4.1982128355
 30
0.0
 10
6.0849853649
 20
4.2212928948
 30
0.0
 10
6.0774782451
 20
4.2440318237
 30
0.0
 10
6.0688636893
 20
4.2663748858
 30
0.0
 10
6.0591646637
 20
4.2882692254
 30
0.0
 10
6.0484023163
 20
4.3096612228
 30
0.0
 10
6.0366017402
 20
4.3304986887
 30
0.0
 10
6.0237940989
 20
4.3507328972
 30
0.0
 10
6.0100091009
 20
4.3703144732
 30
0.0
 10
5.9952779629
 20
4.3891945426
 30
0.0
 10
5.9796389311
 20
4.4073295393
 30
0.0
 10
5.9631295498
 20
4.4246757887
 30
0.0
 10
5.9457872828
 20
4.4411890656
 30
0.0
 10
5.927655897
 20
4.4568313922
 30
0.0
 10
5.9087796407
 20
4.4715659719
 30
0.0
 10
5.8892020272
 20
4.4853547863
 30
0.0
 10
5.8689710839
 20
4.4981656732
 30
0.0
 10
5.848136303
 20
4.5099694087
 30
0.0
 10
5.8267463782
 20
4.5207349716
 30
0.0
 10
5.804853421
 20
4.5304365298
 30
0.0
 10
5.7825117868
 20
4.5390531742
 30
0.0
 10
5.759774768
 20
4.5465622972
 30
0.0
 10
5.7366960242
 20
4.5529447018
 30
0.0
 10
5.7133303329
 20
4.5581875921
 30
0.0
 10
5.6897306826
 20
4.5622767541
 30
0.0
 10
5.6580491362
 20
4.5661726576
 30
0.0
 10
5.6340955845
 20
4.5673443005
 30
0.0
 10
5.6181458787
 20
4.5673383462
 30
0.0
 11
5.6181499565
 21
3.5917453115
 31
0.0
 11
5.665939239
 21
3.5941429823
 31
0.0
 11
5.6897019909
 21
3.5970944158
 31
0.0
 11
5.7132877573
 21
3.6012075007
 31
0.0
 11
5.7366391387
 21
3.606471286
 31
0.0
 11
5.7597027512
 21
3.6128723034
 31
0.0
 11
5.7824252106
 21
3.6203968111
 31
0.0
 11
5.8047528216
 21
3.6290265235
 31
0.0
 11
5.8266316261
 21
3.6387393113
 31
0.0
 11
5.8480076873
 21
3.6495128776
 31
0.0
 11
5.8688289607
 21
3.6613219808
 31
0.0
 11
5.889046396
 21
3.6741367202
 31
0.0
 11
5.9086112097
 21
3.6879267803
 31
0.0
 11
5.9274758316
 21
3.702660153
 31
0.0
 11
5.9455960118
 21
3.718300199
 31
0.0
 11
5.9629280633
 21
3.734809494
 31
0.0
 11
5.9794292001
 21
3.7521496716
 31
0.0
 11
5.9950607892
 21
3.7702780236
 31
0.0
 11
6.0097853935
 21
3.789150592
 31
0.0
 11
6.0235660718
 21
3.8087230583
 31
0.0
 11
6.0363703912
 21
3.8289478313
 31
0.0
 11
6.0481683216
 21
3.849775575
 31
0.0
 11
6.0589300406
 21
3.8711568472
 31
0.0
 11
6.0686297098
 21
3.8930402747
 31
0.0
 11
6.0772453344
 21
3.9153726207
 31
0.0
 11
6.084755123
 21
3.9381005574
 31
0.0
 11
6.0911403695
 21
3.9611697559
 31
0.0
 11
6.0963873034
 21
3.9845242856
 31
0.0
 11
6.1004826006
 21
4.0081080716
 31
0.0
 11
6.1034150853
 21
4.0318646612
 31
0.0
 11
6.1051793951
 21
4.0557365802
 31
0.0
 11
6.1057711409
 21
4.0796661829
 31
0.0
 11
6.1051871295
 21
4.1035958382
 31
0.0
 11
6.1034301929
 21
4.1274679861
 31
0.0
 11
6.1005050576
 21
4.1512250896
 31
0.0
 11
6.0964170308
 21
4.1748097126
 31
0.0
 11
6.0911767486
 21
4.1981653491
 31
0.0
 11
6.0847977137
 21
4.2212359933
 31
0.0
 11
6.077293716
 21
4.2439657246
 31
0.0
 11
6.0686829854
 21
4.266299999
 31
0.0
 11
6.0589874786
 21
4.2881854275
 31
0.0
 11
6.0482293368
 21
4.3095686914
 31
0.0
 11
6.0364339371
 21
4.3303980765
 31
0.0
 11
6.023631206
 21
4.350624125
 31
0.0
 11
6.0098514146
 21
4.3701975505
 31
0.0
 11
5.9951266361
 21
4.3890703769
 31
0.0
 11
5.9794938017
 21
4.4071981595
 31
0.0
 11
5.9629906529
 21
4.4245370428
 31
0.0
 11
5.9456557012
 21
4.4410439633
 31
0.0
 11
5.9275316581
 21
4.4566801779
 31
0.0
 11
5.9086626606
 21
4.4714084095
 31
0.0
 11
5.8890931366
 21
4.4851918005
 31
0.0
 11
5.8688704899
 21
4.4979977876
 31
0.0
 11
5.8480438729
 21
4.5097963298
 31
0.0
 11
5.8266625828
 21
4.5205576158
 31
0.0
 11
5.8047783912
 21
4.5302558124
 31
0.0
 11
5.7824453641
 21
4.5388687752
 31
0.0
 11
5.7597176493
 21
4.5463745653
 31
0.0
 11
5.7366491451
 21
4.5527545532
 31
0.0
 11
5.7132933888
 21
4.5579948997
 31
0.0
 11
5.6897039018
 21
4.5620821476
 31
0.0
 11
5.665938084
 21
4.5650052195
 31
0.0
 11
5.6181458787
 21
4.5673383462
 31
0.0
  0
LINE
  5
25D
100
AcDbEntity
  8
0
100
AcDbLine
 62
6
  6
CONTINUOUS
 10
5.6181458787
 20
4.5673383462
 11
5.6179744773
 21
4.5673382519
  0
LINE
  5
25E
100
AcDbEntity
  8
0
100
AcDbLine
 62
6
  6
CONTINUOUS
 10
5.6179744773
 20
3.5939693289
 11
5.618149819
 21
3.5939694883
  0
SPLINE
  5
25F
100
AcDbEntity
  8
0
100
AcDbSpline
 62
6
  6
CONTINUOUS
 70
0
 71
3
 72
69
 73
65
 74
63
 42
0.0000001
 43
0.0000001
 44
0.0000000001
 12
1.5249402012
 22
0.0016626821
 32
0.0
 13
-1.5249410006
 23
-0.0005715676
 33
0.0
 40
0.0
 40
0.0
 40
0.0
 40
0.0
 40
0.031234731
 40
0.04686555
 40
0.0624939961
 40
0.0781195681
 40
0.0937439069
 40
0.1093686002
 40
0.1249941893
 40
0.1406201224
 40
0.1562458344
 40
0.1718711914
 40
0.1874963321
 40
0.20312135
 40
0.2187464483
 40
0.2343716893
 40
0.2499970166
 40
0.2656224982
 40
0.2812481563
 40
0.2968738464
 40
0.3124995151
 40
0.3281252038
 40
0.3437507868
 40
0.3593761657
 40
0.3750014386
 40
0.3906266154
 40
0.4062516763
 40
0.4218767538
 40
0.4375018777
 40
0.4531270021
 40
0.4687522106
 40
0.4843774789
 40
0.5000026506
 40
0.515627707
 40
0.5312527285
 40
0.5468776703
 40
0.5625025706
 40
0.5781275433
 40
0.5937525435
 40
0.6093775709
 40
0.625002749
 40
0.6406280498
 40
0.6562534441
 40
0.6718790275
 40
0.6875047273
 40
0.703130408
 40
0.7187560993
 40
0.7343817812
 40
0.7500073156
 40
0.765632699
 40
0.7812579865
 40
0.7968830865
 40
0.8125079939
 40
0.8281328928
 40
0.8437578746
 40
0.8593830619
 40
0.8750084106
 40
0.8906334434
 40
0.9062576633
 40
0.9218815574
 40
0.9375067145
 40
0.9531348025
 40
0.9687654154
 40
1.0
 40
1.0
 40
1.0
 40
1.0
 10
5.618149819
 20
3.5939694883
 30
0.0
 10
5.6340268514
 20
3.5939867994
 30
0.0
 10
5.6578695399
 20
3.5951853479
 30
0.0
 10
5.6894023351
 20
3.5991012072
 30
0.0
 10
5.7128904736
 20
3.6031974687
 30
0.0
 10
5.7361451123
 20
3.6084398372
 30
0.0
 10
5.7591136286
 20
3.6148141064
 30
0.0
 10
5.7817416997
 20
3.622307599
 30
0.0
 10
5.8039759338
 20
3.6309016858
 30
0.0
 10
5.8257635128
 20
3.6405735674
 30
0.0
 10
5.8470506175
 20
3.6513020417
 30
0.0
 10
5.8677849575
 20
3.6630624686
 30
0.0
 10
5.8879183301
 20
3.6758237144
 30
0.0
 10
5.9074020882
 20
3.6895562136
 30
0.0
 10
5.9261880648
 20
3.7042288858
 30
0.0
 10
5.9442330558
 20
3.7198039897
 30
0.0
 10
5.9614936459
 20
3.7362444713
 30
0.0
 10
5.9779259898
 20
3.7535131096
 30
0.0
 10
5.9934924927
 20
3.7715663069
 30
0.0
 10
6.0081563658
 20
3.7903602199
 30
0.0
 10
6.0218796096
 20
3.8098516254
 30
0.0
 10
6.0346303188
 20
3.829992545
 30
0.0
 10
6.0463795008
 20
3.8507335066
 30
0.0
 10
6.0570965266
 20
3.8720259489
 30
0.0
 10
6.0667553201
 20
3.8938185801
 30
0.0
 10
6.0753352616
 20
3.9160578976
 30
0.0
 10
6.0828140428
 20
3.9386912409
 30
0.0
 10
6.0891721163
 20
3.9616645491
 30
0.0
 10
6.0943972394
 20
3.9849217195
 30
0.0
 10
6.0984758864
 20
4.0084072123
 30
0.0
 10
6.1013955734
 20
4.032064817
 30
0.0
 10
6.1031524554
 20
4.0558370483
 30
0.0
 10
6.1037422587
 20
4.0796667881
 30
0.0
 10
6.1031602769
 20
4.1034966037
 30
0.0
 10
6.1014105418
 20
4.1272690474
 30
0.0
 10
6.0984981385
 20
4.1509271651
 30
0.0
 10
6.0944268533
 20
4.174413612
 30
0.0
 10
6.0892081299
 20
4.1976719963
 30
0.0
 10
6.0828561419
 20
4.2206468471
 30
0.0
 10
6.0753832993
 20
4.2432821045
 30
0.0
 10
6.0668080715
 20
4.265523258
 30
0.0
 10
6.0571533215
 20
4.2873177077
 30
0.0
 10
6.0464400948
 20
4.3086121007
 30
0.0
 10
6.0346933916
 20
4.3293545104
 30
0.0
 10
6.0219442212
 20
4.3494964278
 30
0.0
 10
6.0082221392
 20
4.3689886828
 30
0.0
 10
5.9935582442
 20
4.3877826379
 30
0.0
 10
5.977990603
 20
4.4058349287
 30
0.0
 10
5.9615565581
 20
4.4231020615
 30
0.0
 10
5.9442934147
 20
4.4395400189
 30
0.0
 10
5.9262447794
 20
4.4551110217
 30
0.0
 10
5.907454688
 20
4.4697783991
 30
0.0
 10
5.8879664597
 20
4.4835042965
 30
0.0
 10
5.8678279176
 20
4.4962567553
 30
0.0
 10
5.8470882546
 20
4.5080066545
 30
0.0
 10
5.8257958957
 20
4.518723087
 30
0.0
 10
5.804002771
 20
4.528380473
 30
0.0
 10
5.7817629615
 20
4.5369579209
 30
0.0
 10
5.7591295045
 20
4.5444328432
 30
0.0
 10
5.7361558548
 20
4.5507861862
 30
0.0
 10
5.7128965642
 20
4.5560052093
 30
0.0
 10
5.6894044146
 20
4.5600757361
 30
0.0
 10
5.6578672838
 20
4.563953855
 30
0.0
 10
5.634022951
 20
4.5651201223
 30
0.0
 10
5.6181459848
 20
4.5651141714
 30
0.0
 11
5.618149819
 21
3.5939694883
 31
0.0
 11
5.6657210987
 21
3.5963564224
 31
0.0
 11
5.6893754101
 21
3.59929448
 31
0.0
 11
5.7128535287
 21
3.603388878
 31
0.0
 11
5.7360983432
 21
3.6086287111
 31
0.0
 11
5.7590567152
 21
3.6150005866
 31
0.0
 11
5.7816755045
 21
3.6224908321
 31
0.0
 11
5.8039012491
 21
3.6310812203
 31
0.0
 11
5.8256802191
 21
3.640749724
 31
0.0
 11
5.8469587084
 21
3.6514741506
 31
0.0
 11
5.8676849412
 21
3.6632293582
 31
0.0
 11
5.8878101314
 21
3.6759856364
 31
0.0
 11
5.9072857519
 21
3.6897128792
 31
0.0
 11
5.9260644909
 21
3.7043792284
 31
0.0
 11
5.9441022657
 21
3.719948168
 31
0.0
 11
5.9613555246
 21
3.7363824168
 31
0.0
 11
5.9777816019
 21
3.7536437804
 31
0.0
 11
5.9933420337
 21
3.7716897349
 31
0.0
 11
6.0079995992
 21
3.7904764753
 31
0.0
 11
6.0217175197
 21
3.8099598769
 31
0.0
 11
6.0344634375
 21
3.8300926194
 31
0.0
 11
6.0462075402
 21
3.8508255426
 31
0.0
 11
6.0569201925
 21
3.8721093935
 31
0.0
 11
6.0665755404
 21
3.8938930979
 31
0.0
 11
6.0751517605
 21
3.9161236395
 31
0.0
 11
6.0826272574
 21
3.9387478979
 31
0.0
 11
6.0889832841
 21
3.9617118314
 31
0.0
 11
6.0942061579
 21
3.9849597621
 31
0.0
 11
6.0982827185
 21
4.0084358432
 31
0.0
 11
6.1012017688
 21
4.0320838872
 31
0.0
 11
6.102957945
 21
4.055846695
 31
0.0
 11
6.1035469614
 21
4.0796668802
 31
0.0
 11
6.1029656496
 21
4.1034870789
 31
0.0
 11
6.1012167585
 21
4.1272500466
 31
0.0
 11
6.0983049881
 21
4.1508985783
 31
0.0
 11
6.0942356219
 21
4.1743755606
 31
0.0
 11
6.0890192584
 21
4.1976247168
 31
0.0
 11
6.0826693421
 21
4.2205902183
 31
0.0
 11
6.075199603
 21
4.2432163244
 31
0.0
 11
6.0666281868
 21
4.265448721
 31
0.0
 11
6.0569769439
 21
4.2872342909
 31
0.0
 11
6.04626791
 21
4.3085199889
 31
0.0
 11
6.0345263562
 21
4.3292543566
 31
0.0
 11
6.0217820687
 21
4.3493881511
 31
0.0
 11
6.0080651727
 21
4.3688722963
 31
0.0
 11
5.9934076087
 21
4.3876590403
 31
0.0
 11
5.9778461343
 21
4.4057041437
 31
0.0
 11
5.9614182972
 21
4.4229639436
 31
0.0
 11
5.944162436
 21
4.4393955839
 31
0.0
 11
5.9261210984
 21
4.4549605034
 31
0.0
 11
5.907338227
 21
4.469621564
 31
0.0
 11
5.8878580624
 21
4.4833420652
 31
0.0
 11
5.8677277875
 21
4.4960896286
 31
0.0
 11
5.8469962645
 21
4.507834343
 31
0.0
 11
5.8257125123
 21
4.5185465414
 31
0.0
 11
5.8039280987
 21
4.5282005742
 31
0.0
 11
5.7816968484
 21
4.5367743473
 31
0.0
 11
5.7590726585
 21
4.5442459624
 31
0.0
 11
5.7361091904
 21
4.550596904
 31
0.0
 11
5.7128597747
 21
4.5558133945
 31
0.0
 11
5.6893777302
 21
4.5598820183
 31
0.0
 11
5.6657202339
 21
4.5627917475
 31
0.0
 11
5.6181459848
 21
4.5651141714
 31
0.0
  0
LINE
  5
260
100
AcDbEntity
  8
0
100
AcDbLine
 62
6
  6
CONTINUOUS
 10
5.6181459848
 20
4.5651141714
 11
5.6179744773
 21
4.5651140766
  0
LINE
  5
261
100
AcDbEntity
  8
0
100
AcDbLine
 62
6
  6
CONTINUOUS
 10
5.6179744773
 20
3.5961935027
 11
5.6181495944
 21
3.5961936626
  0
SPLINE
  5
262
100
AcDbEntity
  8
0
100
AcDbSpline
 62
6
  6
CONTINUOUS
 70
0
 71
3
 72
65
 73
61
 74
59
 42
0.0000001
 43
0.0000001
 44
0.0000000001
 12
1.5178963694
 22
0.0016618996
 32
0.0
 13
-1.5178971721
 23
-0.0005702741
 33
0.0
 40
0.0
 40
0.0
 40
0.0
 40
0.0
 40
0.0312358791
 40
0.0468672148
 40
0.0624961215
 40
0.0781221238
 40
0.0937468775
 40
0.1093719785
 40
0.1249979405
 40
0.1406242055
 40
0.1562502157
 40
0.1718758766
 40
0.187501372
 40
0.2031268521
 40
0.2187525431
 40
0.2499950567
 40
0.2812380863
 40
0.2968643851
 40
0.3124906691
 40
0.3281169762
 40
0.3437431722
 40
0.3593691668
 40
0.3749950581
 40
0.3906208419
 40
0.4062464973
 40
0.421872151
 40
0.4374978094
 40
0.4531234145
 40
0.4687490548
 40
0.4999909694
 40
0.5312328286
 40
0.5468584318
 40
0.5624840107
 40
0.5781096555
 40
0.593735304
 40
0.6093609556
 40
0.6249867352
 40
0.6406126223
 40
0.6562386109
 40
0.6718648011
 40
0.6874911043
 40
0.7031173851
 40
0.7187436797
 40
0.7343699609
 40
0.7499960969
 40
0.7656220987
 40
0.7812479996
 40
0.7968736864
 40
0.8124991527
 40
0.8281246192
 40
0.8437502348
 40
0.8593761861
 40
0.8750023934
 40
0.8906283039
 40
0.9062533632
 40
0.9218780673
 40
0.9375040109
 40
0.9531328606
 40
0.9687641757
 40
1.0
 40
1.0
 40
1.0
 40
1.0
 10
5.6181495944
 20
3.5961936626
 30
0.0
 10
5.6339538702
 20
3.5962109663
 30
0.0
 10
5.6576872649
 20
3.5974041145
 30
0.0
 10
5.6890754612
 20
3.6013021301
 30
0.0
 10
5.7124557944
 20
3.6053796684
 30
0.0
 10
5.7356036529
 20
3.6105980091
 30
0.0
 10
5.7584666764
 20
3.6169430439
 30
0.0
 10
5.7809907851
 20
3.6244021593
 30
0.0
 10
5.8031228625
 20
3.6329566946
 30
0.0
 10
5.8248103005
 20
3.6425840415
 30
0.0
 10
5.8459994682
 20
3.6532632183
 30
0.0
 10
5.8666385441
 20
3.6649694596
 30
0.0
 10
5.88667942
 20
3.6776718221
 30
0.0
 10
5.9060740637
 20
3.6913416202
 30
0.0
 10
5.9310021161
 20
3.7108111538
 30
0.0
 10
5.9603307276
 20
3.7374032151
 30
0.0
 10
5.9869091144
 20
3.7667446532
 30
0.0
 10
6.0063671539
 20
3.7916829247
 30
0.0
 10
6.0200278275
 20
3.8110853832
 30
0.0
 10
6.0327202588
 20
3.8311338465
 30
0.0
 10
6.0444158349
 20
3.8517797408
 30
0.0
 10
6.0550837712
 20
3.8729746615
 30
0.0
 10
6.0646985104
 20
3.8946673995
 30
0.0
 10
6.0732393653
 20
3.9168047737
 30
0.0
 10
6.080683905
 20
3.9393344117
 30
0.0
 10
6.0870130006
 20
3.9622024196
 30
0.0
 10
6.0922143994
 20
3.9853527816
 30
0.0
 10
6.0962744272
 20
4.0087309335
 30
0.0
 10
6.1001490024
 20
4.0401226927
 30
0.0
 10
6.1021008509
 20
4.0796628995
 30
0.0
 10
6.1001622101
 20
4.1192037519
 30
0.0
 10
6.0962977678
 20
4.1505967025
 30
0.0
 10
6.0922451443
 20
4.1739761049
 30
0.0
 10
6.0870506017
 20
4.197127991
 30
0.0
 10
6.0807279228
 20
4.219997767
 30
0.0
 10
6.0732893371
 20
4.2425293743
 30
0.0
 10
6.0647536405
 20
4.2646687454
 30
0.0
 10
6.0551433581
 20
4.2863634579
 30
0.0
 10
6.0444792249
 20
4.3075603068
 30
0.0
 10
6.0327865293
 20
4.3282078081
 30
0.0
 10
6.0200959998
 20
4.3482576185
 30
0.0
 10
6.0064368223
 20
4.3676606205
 30
0.0
 10
5.991840231
 20
4.3863685824
 30
0.0
 10
5.9763441157
 20
4.4043383652
 30
0.0
 10
5.959985432
 20
4.4215264927
 30
0.0
 10
5.9428014007
 20
4.4378892054
 30
0.0
 10
5.9248356088
 20
4.4533890828
 30
0.0
 10
5.9061317206
 20
4.4679894069
 30
0.0
 10
5.8867328382
 20
4.4816524534
 30
0.0
 10
5.8666867042
 20
4.4943467
 30
0.0
 10
5.8460420577
 20
4.5060429727
 30
0.0
 10
5.8248470051
 20
4.5167103699
 30
0.0
 10
5.8031534568
 20
4.5263238076
 30
0.0
 10
5.7810152263
 20
4.5348622861
 30
0.0
 10
5.7584851172
 20
4.5423031369
 30
0.0
 10
5.7356164098
 20
4.5486275097
 30
0.0
 10
5.7124633994
 20
4.5538227273
 30
0.0
 10
5.6890786371
 20
4.5578746349
 30
0.0
 10
5.6576858206
 20
4.5617350009
 30
0.0
 10
5.6339506429
 20
4.5628959357
 30
0.0
 10
5.6181463864
 20
4.5628899981
 30
0.0
 11
5.6181495944
 21
3.5961936626
 31
0.0
 11
5.6655028692
 21
3.5985698516
 31
0.0
 11
5.6890486872
 21
3.601494519
 31
0.0
 11
5.7124190347
 21
3.6055701965
 31
0.0
 11
5.7355571061
 21
3.6107860172
 31
0.0
 11
5.758410027
 21
3.6171286697
 31
0.0
 11
5.7809249165
 21
3.6245845393
 31
0.0
 11
5.8030485426
 21
3.6331354105
 31
0.0
 11
5.8247273944
 21
3.6427594138
 31
0.0
 11
5.8459079993
 21
3.6534345096
 31
0.0
 11
5.8665389546
 21
3.6651355453
 31
0.0
 11
5.8865717194
 21
3.6778330636
 31
0.0
 11
5.9059579694
 21
3.6914972814
 31
0.0
 11
5.9246507443
 21
3.7060963527
 31
0.0
 11
5.959780487
 21
3.7379528298
 31
0.0
 11
5.9916207741
 21
3.7730983039
 31
0.0
 11
6.0062113098
 21
3.7917989123
 31
0.0
 11
6.019866452
 21
3.8111930483
 31
0.0
 11
6.0325541573
 21
3.8312334877
 31
0.0
 11
6.0442446262
 21
3.851871366
 31
0.0
 11
6.0549082758
 21
3.8730577097
 31
0.0
 11
6.0645195614
 21
3.8947415823
 31
0.0
 11
6.073056675
 21
3.916870231
 31
0.0
 11
6.0804980012
 21
3.9393908176
 31
0.0
 11
6.0868250515
 21
3.9622494805
 31
0.0
 11
6.0920241764
 21
3.9853907741
 31
0.0
 11
6.096082148
 21
4.008759116
 31
0.0
 11
6.0989879798
 21
4.0322985554
 31
0.0
 11
6.1013227997
 21
4.0796630604
 31
0.0
 11
6.0990036826
 21
4.1270282526
 31
0.0
 11
6.0961054569
 21
4.1505685731
 31
0.0
 11
6.0920548318
 21
4.1739381491
 31
0.0
 11
6.0868625808
 21
4.1970809649
 31
0.0
 11
6.0805419423
 21
4.2199413932
 31
0.0
 11
6.0731065141
 21
4.2424639217
 31
0.0
 11
6.0645745745
 21
4.2645945591
 31
0.0
 11
6.0549677532
 21
4.286280403
 31
0.0
 11
6.0443078625
 21
4.3074686279
 31
0.0
 11
6.0326202653
 21
4.3281081225
 31
0.0
 11
6.0199345569
 21
4.3481498191
 31
0.0
 11
6.0062805897
 21
4.3675447763
 31
0.0
 11
5.991690298
 21
4.3862455671
 31
0.0
 11
5.9762002882
 21
4.4042081619
 31
0.0
 11
5.9598478034
 21
4.4213889944
 31
0.0
 11
5.9426710412
 21
4.4377454591
 31
0.0
 11
5.9247124739
 21
4.4532392545
 31
0.0
 11
5.9060157695
 21
4.4678332826
 31
0.0
 11
5.8866249584
 21
4.4814909907
 31
0.0
 11
5.8665870523
 21
4.4941803118
 31
0.0
 11
5.8459505283
 21
4.5058713842
 31
0.0
 11
5.8247640615
 21
4.5165346428
 31
0.0
 11
5.8030791339
 21
4.5261447319
 31
0.0
 11
5.7809493883
 21
4.5346795358
 31
0.0
 11
5.7584285161
 21
4.5421171127
 31
0.0
 11
5.7355699462
 21
4.5484390938
 31
0.0
 11
5.7124267638
 21
4.5536317828
 31
0.0
 11
5.6890520451
 21
4.5576818084
 31
0.0
 11
5.6655027662
 21
4.5605782216
 31
0.0
 11
5.6181463864
 21
4.5628899981
 31
0.0
  0
LINE
  5
263
100
AcDbEntity
  8
0
100
AcDbLine
 62
6
  6
CONTINUOUS
 10
5.6181463864
 20
4.5628899981
 11
5.6179744773
 21
4.5628899027
  0
LINE
  5
264
100
AcDbEntity
  8
0
100
AcDbLine
 62
6
  6
CONTINUOUS
 10
5.6179744773
 20
3.5984176781
 11
5.6181492931
 21
3.5984178384
  0
SPLINE
  5
265
100
AcDbEntity
  8
0
100
AcDbSpline
 62
6
  6
CONTINUOUS
 70
0
 71
3
 72
54
 73
50
 74
48
 42
0.0000001
 43
0.0000001
 44
0.0000000001
 12
1.1387659595
 22
0.0012518399
 32
0.0
 13
-0.8144280484
 23
0.7959248907
 33
0.0
 40
0.0
 40
0.0
 40
0.0
 40
0.0
 40
0.0312364504
 40
0.0624935938
 40
0.078123314
 40
0.093750528
 40
0.1093762001
 40
0.1250012561
 40
0.1406266253
 40
0.1562526891
 40
0.1875004584
 40
0.2031268801
 40
0.2187530668
 40
0.2499998024
 40
0.2656258165
 40
0.2812519785
 40
0.3124994685
 40
0.3281260077
 40
0.3437526404
 40
0.3750009234
 40
0.3906277666
 40
0.4062545897
 40
0.4375029511
 40
0.4687509381
 40
0.4999985151
 40
0.5312457237
 40
0.5624927278
 40
0.5937396223
 40
0.6249864401
 40
0.6562334034
 40
0.6718595929
 40
0.6874858805
 40
0.7187332003
 40
0.7343594419
 40
0.7499856733
 40
0.7656119191
 40
0.7812381427
 40
0.7968643315
 40
0.812490565
 40
0.8281168981
 40
0.8437433089
 40
0.8593697817
 40
0.8749963793
 40
0.890623136
 40
0.9062499807
 40
0.9218768255
 40
0.9375036524
 40
0.9687520079
 40
1.0
 40
1.0
 40
1.0
 40
1.0
 10
5.6181492931
 20
3.5984178384
 30
0.0
 10
5.6300062953
 20
3.5984308727
 30
0.0
 10
5.6537357548
 20
3.5993364139
 30
0.0
 10
5.6832330537
 20
3.6026493045
 30
0.0
 10
5.7066357794
 20
3.6066025956
 30
0.0
 10
5.7240657757
 20
3.6102146172
 30
0.0
 10
5.7413486048
 20
3.6144673352
 30
0.0
 10
5.7584619317
 20
3.6193550654
 30
0.0
 10
5.7753832391
 20
3.6248725399
 30
0.0
 10
5.7976550198
 20
3.6330571604
 30
0.0
 10
5.819460217
 20
3.6424700744
 30
0.0
 10
5.8406911317
 20
3.653067529
 30
0.0
 10
5.8615150149
 20
3.6644431884
 30
0.0
 10
5.8816950008
 20
3.6769654686
 30
0.0
 10
5.9011328411
 20
3.6905743832
 30
0.0
 10
5.9200539406
 20
3.7048935151
 30
0.0
 10
5.9381693018
 20
3.7202524075
 30
0.0
 10
5.9553909879
 20
3.7365765345
 30
0.0
 10
5.9719968057
 20
3.7535271905
 30
0.0
 10
5.9876516981
 20
3.7713882372
 30
0.0
 10
6.0022805772
 20
3.7900718653
 30
0.0
 10
6.016208348
 20
3.8092844406
 30
0.0
 10
6.032271022
 20
3.8342469865
 30
0.0
 10
6.049280827
 20
3.8655384992
 30
0.0
 10
6.063928786
 20
3.898003267
 30
0.0
 10
6.0761417182
 20
3.9314596058
 30
0.0
 10
6.0858449343
 20
3.9657278371
 30
0.0
 10
6.0929935153
 20
4.0006186192
 30
0.0
 10
6.0975402353
 20
4.0359418728
 30
0.0
 10
6.0991462961
 20
4.0655811748
 30
0.0
 10
6.0991131349
 20
4.0893100317
 30
0.0
 10
6.0982019588
 20
4.1130210366
 30
0.0
 10
6.0959769202
 20
4.1366666739
 30
0.0
 10
6.0924465645
 20
4.160130879
 30
0.0
 10
6.0891483997
 20
4.1776216071
 30
0.0
 10
6.0852062032
 20
4.1949781501
 30
0.0
 10
6.0806254398
 20
4.2121772773
 30
0.0
 10
6.0754116136
 20
4.2291951791
 30
0.0
 10
6.0695707542
 20
4.2460082363
 30
0.0
 10
6.0631123353
 20
4.2625939442
 30
0.0
 10
6.0560454508
 20
4.2789297729
 30
0.0
 10
6.0483793308
 20
4.2949932411
 30
0.0
 10
6.0401230319
 20
4.310761645
 30
0.0
 10
6.0312890303
 20
4.3262139702
 30
0.0
 10
6.0218900376
 20
4.3413293311
 30
0.0
 10
6.011938614
 20
4.3560871468
 30
0.0
 10
5.9979518543
 20
4.3752566397
 30
0.0
 10
5.9791524871
 20
4.3982273274
 30
0.0
 10
5.9627953904
 20
4.4154438655
 30
0.0
 10
5.95431231
 20
4.4237342171
 30
0.0
 11
5.6181492931
 21
3.5984178384
 31
0.0
 11
5.6536945371
 21
3.5997719645
 31
0.0
 11
5.6890665778
 21
3.6037460986
 31
0.0
 11
5.7066165561
 21
3.6067106511
 31
0.0
 11
5.7240421069
 21
3.6103215923
 31
0.0
 11
5.7413206939
 21
3.6145732585
 31
0.0
 11
5.7584297915
 21
3.6194599793
 31
0.0
 11
5.7753468681
 21
3.624975999
 31
0.0
 11
5.7920492583
 21
3.631113773
 31
0.0
 11
5.8247188032
 21
3.645217532
 31
0.0
 11
5.8406403709
 21
3.653164877
 31
0.0
 11
5.8562568143
 21
3.6616956322
 31
0.0
 11
5.886491358
 21
3.6804573958
 31
0.0
 11
5.9010681689
 21
3.6906631134
 31
0.0
 11
5.9152575823
 21
3.7014012061
 31
0.0
 11
5.9423990623
 21
3.7244127817
 31
0.0
 11
5.9553139457
 21
3.736654806
 31
0.0
 11
5.9677670729
 21
3.7493664065
 31
0.0
 11
5.9912224482
 21
3.7761264921
 31
0.0
 11
6.0021929335
 21
3.7901379925
 31
0.0
 11
6.0126375292
 21
3.8045457439
 31
0.0
 11
6.0318936577
 21
3.8344700598
 31
0.0
 11
6.0488872877
 21
3.8657342465
 31
0.0
 11
6.0635230249
 21
3.8981687158
 31
0.0
 11
6.07572347
 21
3.931595036
 31
0.0
 11
6.0854191778
 21
3.96583166
 31
0.0
 11
6.0925598776
 21
4.0006907289
 31
0.0
 11
6.0971036445
 21
4.0359822613
 31
0.0
 11
6.0990281458
 21
4.0715131796
 31
0.0
 11
6.0990033747
 21
4.0893077458
 31
0.0
 11
6.0983201857
 21
4.1070893214
 31
0.0
 11
6.0949857523
 21
4.1425161517
 31
0.0
 11
6.0923382007
 21
4.1601127361
 31
0.0
 11
6.089041062
 21
4.1775992387
 31
0.0
 11
6.0850997726
 21
4.1949519249
 31
0.0
 11
6.0805199255
 21
4.2121470865
 31
0.0
 11
6.0753071156
 21
4.2291610157
 31
0.0
 11
6.0694678455
 21
4.2459702961
 31
0.0
 11
6.0630109413
 21
4.2625522564
 31
0.0
 11
6.0559455949
 21
4.2788843428
 31
0.0
 11
6.0482809988
 21
4.2949440018
 31
0.0
 11
6.0400267883
 21
4.3107088916
 31
0.0
 11
6.0311948901
 21
4.3261577672
 31
0.0
 11
6.0217979681
 21
4.3412697364
 31
0.0
 11
6.0118486867
 21
4.3560239073
 31
0.0
 11
6.0013598388
 21
4.3703994805
 31
0.0
 11
5.9788228632
 21
4.397937589
 31
0.0
 11
5.95431231
 21
4.4237342171
 31
0.0
  0
LINE
  5
266
100
AcDbEntity
  8
0
100
AcDbLine
 62
6
  6
CONTINUOUS
 10
5.6181465949
 20
4.5606658223
 11
5.6179744773
 21
4.5606657265
  0
LINE
  5
267
100
AcDbEntity
  8
0
100
AcDbLine
 62
6
  6
CONTINUOUS
 10
5.6179744773
 20
3.6006418544
 11
5.6181490941
 21
3.6006420153
  0
SPLINE
  5
268
100
AcDbEntity
  8
0
100
AcDbSpline
 62
6
  6
CONTINUOUS
 70
0
 71
3
 72
52
 73
48
 74
46
 42
0.0000001
 43
0.0000001
 44
0.0000000001
 12
1.1333385034
 22
0.0012511789
 32
0.0
 13
-0.8102972088
 23
0.7923863718
 33
0.0
 40
0.0
 40
0.0
 40
0.0
 40
0.0
 40
0.0312367935
 40
0.062494191
 40
0.0937459118
 40
0.1249913817
 40
0.1562375138
 40
0.1874853559
 40
0.2031118933
 40
0.2187382748
 40
0.2499855179
 40
0.2656117811
 40
0.2812381597
 40
0.2968646942
 40
0.3124913372
 40
0.3281180458
 40
0.3437448592
 40
0.3749935246
 40
0.3906205589
 40
0.4062475719
 40
0.4374963096
 40
0.4687446795
 40
0.4999926602
 40
0.5312402242
 40
0.5624875068
 40
0.5937347004
 40
0.6249819649
 40
0.6562294998
 40
0.6718560076
 40
0.6874826252
 40
0.7187305914
 40
0.7343571244
 40
0.7499836179
 40
0.765610101
 40
0.7812365412
 40
0.796862929
 40
0.8124893459
 40
0.8281158489
 40
0.8437424164
 40
0.8593690326
 40
0.8749957595
 40
0.8906226333
 40
0.9062495855
 40
0.9218765298
 40
0.9375034491
 40
0.9687519525
 40
1.0
 40
1.0
 40
1.0
 40
1.0
 10
5.6181490941
 20
3.6006420153
 30
0.0
 10
5.6299497143
 20
3.6006550429
 30
0.0
 10
5.6535669051
 20
3.6015564257
 30
0.0
 10
5.6887914785
 20
3.605511737
 30
0.0
 10
5.7236323466
 20
3.6120620108
 30
0.0
 10
5.7578904474
 20
3.6211640876
 30
0.0
 10
5.791380129
 20
3.6327721775
 30
0.0
 10
5.8185028527
 20
3.6444792068
 30
0.0
 10
5.8396336861
 20
3.6550251183
 30
0.0
 10
5.8603592195
 20
3.6663453132
 30
0.0
 10
5.8804444317
 20
3.6788066585
 30
0.0
 10
5.8997907651
 20
3.6923491374
 30
0.0
 10
5.9139169753
 20
3.7030377681
 30
0.0
 10
5.9276386601
 20
3.7142406818
 30
0.0
 10
5.9409376132
 20
3.7259424844
 30
0.0
 10
5.9537956047
 20
3.7381278031
 30
0.0
 10
5.9703239642
 20
3.7549959359
 30
0.0
 10
5.9859065974
 20
3.7727703493
 30
0.0
 10
6.0004681751
 20
3.7913633714
 30
0.0
 10
6.0143321039
 20
3.8104828952
 30
0.0
 10
6.0303217843
 20
3.8353245886
 30
0.0
 10
6.0472551452
 20
3.8664649423
 30
0.0
 10
6.0618384276
 20
3.8987731245
 30
0.0
 10
6.0739987168
 20
3.9320683847
 30
0.0
 10
6.0836617036
 20
3.9661719435
 30
0.0
 10
6.0907826475
 20
4.0008955031
 30
0.0
 10
6.0953144873
 20
4.0360500206
 30
0.0
 10
6.0969189526
 20
4.0655482295
 30
0.0
 10
6.0968908538
 20
4.0891644593
 30
0.0
 10
6.0959890411
 20
4.1127631361
 30
0.0
 10
6.0937797695
 20
4.1362970363
 30
0.0
 10
6.090271505
 20
4.1596506583
 30
0.0
 10
6.0869930457
 20
4.1770590786
 30
0.0
 10
6.0830736648
 20
4.1943340895
 30
0.0
 10
6.0785188018
 20
4.2114525812
 30
0.0
 10
6.073333947
 20
4.2283908721
 30
0.0
 10
6.0675250677
 20
4.2451254552
 30
0.0
 10
6.0611015822
 20
4.2616339363
 30
0.0
 10
6.0540725469
 20
4.2778939017
 30
0.0
 10
6.0464471542
 20
4.2938829873
 30
0.0
 10
6.0382344046
 20
4.3095786009
 30
0.0
 10
6.0294466839
 20
4.3249598194
 30
0.0
 10
6.0200966458
 20
4.3400058671
 30
0.0
 10
6.0101967843
 20
4.3546962668
 30
0.0
 10
5.9962821638
 20
4.3737785486
 30
0.0
 10
5.9775791618
 20
4.3966454268
 30
0.0
 10
5.9613052615
 20
4.4137849798
 30
0.0
 10
5.952865193
 20
4.4220384887
 30
0.0
 11
5.6181490941
 21
3.6006420153
 31
0.0
 11
5.6535253158
 21
3.6019896828
 31
0.0
 11
5.6887290993
 21
3.6059445297
 31
0.0
 11
5.7235382176
 21
3.6124879755
 31
0.0
 11
5.7577623773
 21
3.621581737
 31
0.0
 11
5.7912221561
 21
3.6331785451
 31
0.0
 11
5.8237368333
 21
3.6472133515
 31
0.0
 11
5.8395830965
 21
3.6551219524
 31
0.0
 11
5.8551258583
 21
3.6636111412
 31
0.0
 11
5.8852181944
 21
3.6822815255
 31
0.0
 11
5.8997265869
 21
3.692437586
 31
0.0
 11
5.9138494893
 21
3.7031234308
 31
0.0
 11
5.9275681576
 21
3.7143237901
 31
0.0
 11
5.9408640883
 21
3.7260230418
 31
0.0
 11
5.953718778
 21
3.7382055642
 31
0.0
 11
5.9661140194
 21
3.7508554297
 31
0.0
 11
5.9894609397
 21
3.7774856274
 31
0.0
 11
6.0003809643
 21
3.7914291934
 31
0.0
 11
6.0107776959
 21
3.8057671532
 31
0.0
 11
6.0299462752
 21
3.8355466341
 31
0.0
 11
6.0468635637
 21
3.8666597784
 31
0.0
 11
6.0614346809
 21
3.8989378466
 31
0.0
 11
6.0735825485
 21
3.9322032492
 31
0.0
 11
6.083238043
 21
3.9662753278
 31
0.0
 11
6.0903511239
 21
4.0009672872
 31
0.0
 11
6.0948800512
 21
4.0360902495
 31
0.0
 11
6.0968025954
 21
4.0714520818
 31
0.0
 11
6.0967816314
 21
4.0891622032
 31
0.0
 11
6.0961054612
 21
4.1068595487
 31
0.0
 11
6.0927946471
 21
4.1421189941
 31
0.0
 11
6.0901636609
 21
4.1596326392
 31
0.0
 11
6.0868862235
 21
4.1770368533
 31
0.0
 11
6.0829677456
 21
4.1943080251
 31
0.0
 11
6.0784137967
 21
4.2114225707
 31
0.0
 11
6.0732299477
 21
4.2283569066
 31
0.0
 11
6.0674226485
 21
4.2450877304
 31
0.0
 11
6.0610006712
 21
4.2615924828
 31
0.0
 11
6.0539731675
 21
4.2778487255
 31
0.0
 11
6.0463492888
 21
4.2938340207
 31
0.0
 11
6.0381386129
 21
4.3095261344
 31
0.0
 11
6.0293529864
 21
4.3249039203
 31
0.0
 11
6.0200050084
 21
4.3399465925
 31
0.0
 11
6.0101072784
 21
4.3546333655
 31
0.0
 11
5.9996725227
 21
4.3689435446
 31
0.0
 11
5.97725104
 21
4.3963572315
 31
0.0
 11
5.952865193
 21
4.4220384887
 31
0.0
  0
SPLINE
  5
269
100
AcDbEntity
  8
0
100
AcDbSpline
 62
6
  6
CONTINUOUS
 70
0
 71
3
 72
53
 73
49
 74
47
 42
0.0000001
 43
0.0000001
 44
0.0000000001
 12
0.8063700764
 22
-0.7889636696
 32
0.0
 13
-1.1281381439
 23
-0.0008368001
 33
0.0
 40
0.0
 40
0.0
 40
0.0
 40
0.0
 40
0.0312476428
 40
0.0624953151
 40
0.093742936
 40
0.1249906311
 40
0.1406170926
 40
0.1562435885
 40
0.1874912979
 40
0.203117764
 40
0.2187442461
 40
0.2343707743
 40
0.2499972994
 40
0.2656237767
 40
0.2812502477
 40
0.2968767678
 40
0.3125033009
 40
0.3281297926
 40
0.3437562567
 40
0.3750039656
 40
0.3906304708
 40
0.4062569336
 40
0.4375046237
 40
0.4687522664
 40
0.4999999355
 40
0.5312476084
 40
0.5624952582
 40
0.5937429569
 40
0.6249905752
 40
0.6562382948
 40
0.6718647745
 40
0.6874912878
 40
0.718739026
 40
0.7343654536
 40
0.7499918443
 40
0.7812394911
 40
0.7968661143
 40
0.8124929073
 40
0.8437411166
 40
0.859367246
 40
0.8749925961
 40
0.8906176278
 40
0.9062433231
 40
0.9218706575
 40
0.9375006432
 40
0.9531327912
 40
0.9687635866
 40
1.0
 40
1.0
 40
1.0
 40
1.0
 10
5.9513936101
 20
4.4203667225
 30
0.0
 10
5.9597926648
 20
4.4121489709
 30
0.0
 10
5.9759876474
 20
4.3950839312
 30
0.0
 10
5.9983193721
 20
4.3677682162
 30
0.0
 10
6.0185679802
 20
4.3388731249
 30
0.0
 10
6.0336191124
 20
4.3136105698
 30
0.0
 10
6.0445118032
 20
4.2927786231
 30
0.0
 10
6.0546254458
 20
4.2715580883
 30
0.0
 10
6.0635559583
 20
4.2497900472
 30
0.0
 10
6.0712582193
 20
4.227580542
 30
0.0
 10
6.0764146725
 20
4.2107181957
 30
0.0
 10
6.0809442609
 20
4.1936771056
 30
0.0
 10
6.0848412577
 20
4.1764802308
 30
0.0
 10
6.0880998642
 20
4.1591510752
 30
0.0
 10
6.0907141286
 20
4.1417130776
 30
0.0
 10
6.0926818324
 20
4.1241903162
 30
0.0
 10
6.0940009425
 20
4.1066069167
 30
0.0
 10
6.0946694684
 20
4.0889864506
 30
0.0
 10
6.0946902284
 20
4.065479289
 30
0.0
 10
6.0934058394
 20
4.0419856384
 30
0.0
 10
6.0908247663
 20
4.0186203906
 30
0.0
 10
6.0873808996
 20
3.9953661454
 30
0.0
 10
6.0814652559
 20
3.9665608862
 30
0.0
 10
6.0718363695
 20
3.9326170381
 30
0.0
 10
6.0597216606
 20
3.8994780066
 30
0.0
 10
6.0451957859
 20
3.8673229902
 30
0.0
 10
6.0283302429
 20
3.8363310392
 30
0.0
 10
6.0092246061
 20
3.8066673568
 30
0.0
 10
5.9879777166
 20
3.7784987482
 30
0.0
 10
5.968585391
 20
3.7563927643
 30
0.0
 10
5.9521271854
 20
3.7396074183
 30
0.0
 10
5.9350594301
 20
3.7234429247
 30
0.0
 10
5.9171068782
 20
3.7082344289
 30
0.0
 10
5.8983561947
 20
3.6940565506
 30
0.0
 10
5.8790936759
 20
3.6805823413
 30
0.0
 10
5.8590965893
 20
3.6681844925
 30
0.0
 10
5.8384619837
 20
3.6569229372
 30
0.0
 10
5.8174245537
 20
3.6464326926
 30
0.0
 10
5.7958189543
 20
3.6371158872
 30
0.0
 10
5.7737517372
 20
3.6290161077
 30
0.0
 10
5.756986231
 20
3.6235566225
 30
0.0
 10
5.7400308045
 20
3.618720953
 30
0.0
 10
5.7229076153
 20
3.614514351
 30
0.0
 10
5.705638933
 20
3.6109425098
 30
0.0
 10
5.6882476636
 20
3.6080114203
 30
0.0
 10
5.6707580914
 20
3.6057258505
 30
0.0
 10
5.647353645
 20
3.6035414314
 30
0.0
 10
5.6297208072
 20
3.6028747414
 30
0.0
 10
5.6179744773
 20
3.6028660286
 30
0.0
 11
5.9513936101
 21
4.4203667225
 31
0.0
 11
5.97566085
 21
4.3947975785
 31
0.0
 11
5.9979721958
 21
4.3675049741
 31
0.0
 11
6.0182033226
 21
4.3386366554
 31
0.0
 11
6.0362458452
 21
4.3083521446
 31
0.0
 11
6.0444144079
 21
4.2927300576
 31
0.0
 11
6.0519990611
 21
4.2768162454
 31
0.0
 11
6.0653786663
 21
4.244202268
 31
0.0
 11
6.071154762
 21
4.2275465807
 31
0.0
 11
6.0763101893
 21
4.2106884253
 31
0.0
 11
6.0808388292
 21
4.19365114
 31
0.0
 11
6.0847348637
 21
4.1764581629
 31
0.0
 11
6.0879924744
 21
4.1591329323
 31
0.0
 11
6.0906063657
 21
4.141698972
 31
0.0
 11
6.0925737328
 21
4.124180216
 31
0.0
 11
6.0938925128
 21
4.1066007198
 31
0.0
 11
6.094560643
 21
4.0889845392
 31
0.0
 11
6.0945762562
 21
4.071355731
 31
0.0
 11
6.0926526564
 21
4.0361565113
 31
0.0
 11
6.0907169059
 21
4.0186342504
 31
0.0
 11
6.0881342208
 21
4.0011956494
 31
0.0
 11
6.0810435263
 21
3.9666644189
 31
0.0
 11
6.0714220686
 21
3.9327511826
 31
0.0
 11
6.0593198002
 21
3.8996420109
 31
0.0
 11
6.0448058382
 21
3.8675168282
 31
0.0
 11
6.0279569015
 21
3.8365524302
 31
0.0
 11
6.008867716
 21
3.8069165145
 31
0.0
 11
5.9876405539
 21
3.7787724973
 31
0.0
 11
5.9643932333
 21
3.7522725304
 31
0.0
 11
5.9520509949
 21
3.7396850408
 31
0.0
 11
5.9392515392
 21
3.7275627057
 31
0.0
 11
5.9123538293
 21
3.7047767265
 31
0.0
 11
5.8982921953
 21
3.6941445057
 31
0.0
 11
5.8838468954
 21
3.6840397785
 31
0.0
 11
5.8538862116
 21
3.6654645854
 31
0.0
 11
5.8384117063
 21
3.6570194013
 31
0.0
 11
5.8226351969
 21
3.6491523845
 31
0.0
 11
5.7902646375
 21
3.6351927281
 31
0.0
 11
5.7737157135
 21
3.6291186093
 31
0.0
 11
5.7569544375
 21
3.6236605473
 31
0.0
 11
5.740003206
 21
3.6188258913
 31
0.0
 11
5.722884271
 21
3.6146203467
 31
0.0
 11
5.7056198794
 21
3.6110495596
 31
0.0
 11
5.6882322979
 21
3.6081191639
 31
0.0
 11
5.6707458093
 21
3.605833566
 31
0.0
 11
5.6531884112
 21
3.6041949103
 31
0.0
 11
5.6179744773
 21
3.6028660286
 31
0.0
  0
SPLINE
  5
26A
100
AcDbEntity
  8
0
100
AcDbSpline
 62
6
  6
CONTINUOUS
 70
0
 71
3
 72
55
 73
51
 74
49
 42
0.0000001
 43
0.0000001
 44
0.0000000001
 12
-0.8281416247
 22
0.7862034651
 32
0.0
 13
1.1418991767
 23
0.0008421537
 33
0.0
 40
0.0
 40
0.0
 40
0.0
 40
0.0
 40
0.0312533187
 40
0.0468841166
 40
0.0625122853
 40
0.0937583415
 40
0.1093835496
 40
0.1250094381
 40
0.1406358738
 40
0.1562625103
 40
0.1718890149
 40
0.1875152235
 40
0.2031412482
 40
0.2187671792
 40
0.2343930999
 40
0.2500191456
 40
0.2656453522
 40
0.2812716432
 40
0.2968979362
 40
0.31252423
 40
0.3281505547
 40
0.3437768545
 40
0.3594030555
 40
0.3750291573
 40
0.3906552212
 40
0.4062812333
 40
0.4219071546
 40
0.4375330126
 40
0.4531588999
 40
0.4687848364
 40
0.4844108153
 40
0.5000368881
 40
0.5312840881
 40
0.5469105126
 40
0.5625369864
 40
0.593784806
 40
0.609411444
 40
0.6250380446
 40
0.6562858429
 40
0.6875332467
 40
0.7187802223
 40
0.7500267972
 40
0.7812732572
 40
0.812519978
 40
0.8437670409
 40
0.8750127889
 40
0.9062572322
 40
0.9375069372
 40
0.9687629598
 40
1.0
 40
1.0
 40
1.0
 40
1.0
 10
5.2878466312
 20
3.7328382553
 30
0.0
 10
5.2792192398
 20
3.7410287444
 30
0.0
 10
5.26672749
 20
3.7538035708
 30
0.0
 10
5.2510646863
 20
3.7717210265
 30
0.0
 10
5.2360826431
 20
3.7902086109
 30
0.0
 10
5.2221445456
 20
3.8095194822
 30
0.0
 10
5.2093186046
 20
3.8295590615
 30
0.0
 10
5.2002644804
 20
3.8449394926
 30
0.0
 10
5.1917886197
 20
3.8606462141
 30
0.0
 10
5.183902383
 20
3.8766574703
 30
0.0
 10
5.1766174457
 20
3.8929510111
 30
0.0
 10
5.1699453473
 20
3.9095047057
 30
0.0
 10
5.1638939711
 20
3.9262950018
 30
0.0
 10
5.1584711678
 20
3.9432986036
 30
0.0
 10
5.1536847501
 20
3.960492217
 30
0.0
 10
5.1495426651
 20
3.9778524308
 30
0.0
 10
5.1460493237
 20
3.9953548554
 30
0.0
 10
5.1432090478
 20
4.0129751401
 30
0.0
 10
5.1410261191
 20
4.0306889265
 30
0.0
 10
5.1395051197
 20
4.0484717984
 30
0.0
 10
5.1386469339
 20
4.0662989392
 30
0.0
 10
5.1384520364
 20
4.0841456206
 30
0.0
 10
5.1389209096
 20
4.1019871373
 30
0.0
 10
5.1400544361
 20
4.1197986973
 30
0.0
 10
5.1418500656
 20
4.1375556424
 30
0.0
 10
5.1443044588
 20
4.1552335002
 30
0.0
 10
5.1474143765
 20
4.1728078258
 30
0.0
 10
5.1511769759
 20
4.1902540192
 30
0.0
 10
5.155586287
 20
4.2075481024
 30
0.0
 10
5.1606352757
 20
4.2246663132
 30
0.0
 10
5.166317291
 20
4.2415854018
 30
0.0
 10
5.1747271444
 20
4.2638430194
 30
0.0
 10
5.1843748663
 20
4.2856169987
 30
0.0
 10
5.1952110862
 20
4.3068003195
 30
0.0
 10
5.2068287234
 20
4.3275656911
 30
0.0
 10
5.2195988843
 20
4.3476685498
 30
0.0
 10
5.2334564973
 20
4.3670111768
 30
0.0
 10
5.2480248081
 20
4.3858249374
 30
0.0
 10
5.2675338091
 20
4.4083056707
 30
0.0
 10
5.2928796207
 20
4.4334661637
 30
0.0
 10
5.32002794
 20
4.4566709247
 30
0.0
 10
5.3488232562
 20
4.4777962339
 30
0.0
 10
5.3791107138
 20
4.4967201898
 30
0.0
 10
5.4107193441
 20
4.5133440826
 30
0.0
 10
5.4434772301
 20
4.5275693745
 30
0.0
 10
5.4771992912
 20
4.5393251867
 30
0.0
 10
5.511703246
 20
4.5485402863
 30
0.0
 10
5.5468005911
 20
4.5551689081
 30
0.0
 10
5.5822890232
 20
4.5591664846
 30
0.0
 10
5.6060846272
 20
4.5600714
 30
0.0
 10
5.6179744773
 20
4.5600801688
 30
0.0
 11
5.2878466312
 21
3.7328382553
 31
0.0
 11
5.2628959503
 21
3.7583550629
 31
0.0
 11
5.251148927
 21
3.7717933332
 31
0.0
 11
5.2399130694
 21
3.7856579647
 31
0.0
 11
5.2190314178
 21
3.8145890675
 31
0.0
 11
5.2094131199
 21
3.829617048
 31
0.0
 11
5.200361005
 21
3.8449936142
 31
0.0
 11
5.1918869441
 21
3.8606968676
 31
0.0
 11
5.1840025727
 21
3.8767045765
 31
0.0
 11
5.1767195263
 21
3.8929945095
 31
0.0
 11
5.1700487628
 21
3.9095442386
 31
0.0
 11
5.1639987157
 21
3.9263306037
 31
0.0
 11
5.1585772311
 21
3.9433302746
 31
0.0
 11
5.153792155
 21
3.9605199208
 31
0.0
 11
5.1496508072
 21
3.9778760499
 31
0.0
 11
5.1461581766
 21
3.9953744517
 31
0.0
 11
5.1433186067
 21
4.0129907175
 31
0.0
 11
5.1411364409
 21
4.0307004383
 31
0.0
 11
5.1396155895
 21
4.0484791644
 31
0.0
 11
5.1387574816
 21
4.0663022113
 31
0.0
 11
5.1385626653
 21
4.0841448115
 31
0.0
 11
5.1390316875
 21
4.1019821972
 31
0.0
 11
5.1401647887
 21
4.1197896211
 31
0.0
 11
5.1419598634
 21
4.1375424922
 31
0.0
 11
5.1444137203
 21
4.1552162919
 31
0.0
 11
5.1475231628
 21
4.1727865019
 31
0.0
 11
5.1512847583
 21
4.1902286557
 31
0.0
 11
5.1556928929
 21
4.2075187648
 31
0.0
 11
5.1607407717
 21
4.2246330996
 31
0.0
 11
5.1664215879
 21
4.2415479328
 31
0.0
 11
5.1727283462
 21
4.2582396039
 31
0.0
 11
5.1871822418
 21
4.2908621452
 31
0.0
 11
5.195308749
 21
4.3067480288
 31
0.0
 11
5.2040210852
 21
4.3223203962
 31
0.0
 11
5.2231530196
 21
4.352439574
 31
0.0
 11
5.2335453513
 21
4.366945075
 31
0.0
 11
5.2444703435
 21
4.3810536944
 31
0.0
 11
5.2678565814
 21
4.4080032383
 31
0.0
 11
5.2931802156
 21
4.4331403714
 31
0.0
 11
5.3203026055
 21
4.4563244819
 31
0.0
 11
5.3490719951
 21
4.4774293766
 31
0.0
 11
5.3793307957
 21
4.496336782
 31
0.0
 11
5.4109108117
 21
4.5129442757
 31
0.0
 11
5.4436385282
 21
4.5271580257
 31
0.0
 11
5.4773299168
 21
4.5389018461
 31
0.0
 11
5.5117995513
 21
4.5481086348
 31
0.0
 11
5.5468638669
 21
4.5547300558
 31
0.0
 11
5.5823305929
 21
4.5587270154
 31
0.0
 11
5.6179744773
 21
4.5600801688
 31
0.0
  0
SPLINE
  5
26B
100
AcDbEntity
  8
0
100
AcDbSpline
 62
6
  6
CONTINUOUS
 70
0
 71
3
 72
55
 73
51
 74
49
 42
0.0000001
 43
0.0000001
 44
0.0000000001
 12
-0.8875222375
 22
0.7635115841
 32
0.0
 13
1.1707454559
 23
0.0008594463
 33
0.0
 40
0.0
 40
0.0
 40
0.0
 40
0.0
 40
0.0312472802
 40
0.0624950184
 40
0.0937430537
 40
0.1249910645
 40
0.1562388929
 40
0.1718653973
 40
0.1874918217
 40
0.2187388168
 40
0.2343650116
 40
0.2499912329
 40
0.265617498
 40
0.2812437693
 40
0.2968700512
 40
0.3124964138
 40
0.3281228284
 40
0.3437491972
 40
0.3593754528
 40
0.3750016443
 40
0.3906278131
 40
0.4062539284
 40
0.4218799775
 40
0.4375060404
 40
0.4531321647
 40
0.4687583153
 40
0.4843844676
 40
0.5000106906
 40
0.5156370407
 40
0.5312634855
 40
0.546889994
 40
0.5625166191
 40
0.5781433941
 40
0.5937702462
 40
0.6093970877
 40
0.6250239123
 40
0.656271967
 40
0.6718986771
 40
0.6875252489
 40
0.7187725356
 40
0.7343987942
 40
0.7500248835
 40
0.7812713598
 40
0.812518166
 40
0.8437654907
 40
0.8750113913
 40
0.9062561617
 40
0.9375067364
 40
0.9687636078
 40
1.0
 40
1.0
 40
1.0
 40
1.0
 10
5.3037918459
 20
3.7154297631
 30
0.0
 10
5.2945476273
 20
3.7233823166
 30
0.0
 10
5.2766553043
 20
3.7399963904
 30
0.0
 10
5.2517960957
 20
3.7668811782
 30
0.0
 10
5.2290447665
 20
3.7955752347
 30
0.0
 10
5.208542508
 20
3.8259152763
 30
0.0
 10
5.1934216794
 20
3.8524250515
 30
0.0
 10
5.1825625617
 20
3.8742710017
 30
0.0
 10
5.1725420282
 20
3.8965131269
 30
0.0
 10
5.1637947172
 20
3.9193110272
 30
0.0
 10
5.156368445
 20
3.9425479206
 30
0.0
 10
5.1514645491
 20
3.9601776251
 30
0.0
 10
5.1472332536
 20
3.9779803718
 30
0.0
 10
5.1436804323
 20
3.995930971
 30
0.0
 10
5.1408124931
 20
4.0140036709
 30
0.0
 10
5.1386339639
 20
4.0321724199
 30
0.0
 10
5.1371463709
 20
4.0504107611
 30
0.0
 10
5.1363517205
 20
4.0686923729
 30
0.0
 10
5.1362521826
 20
4.0869909072
 30
0.0
 10
5.136848759
 20
4.1052798987
 30
0.0
 10
5.1381388652
 20
4.1235330102
 30
0.0
 10
5.1401204017
 20
4.1417240004
 30
0.0
 10
5.1427913183
 20
4.1598265964
 30
0.0
 10
5.1461488883
 20
4.1778144933
 30
0.0
 10
5.1501865834
 20
4.195662056
 30
0.0
 10
5.1548982802
 20
4.2133436784
 30
0.0
 10
5.1602778282
 20
4.2308337453
 30
0.0
 10
5.1663188017
 20
4.2481065959
 30
0.0
 10
5.1730109105
 20
4.2651378578
 30
0.0
 10
5.180344123
 20
4.2819031869
 30
0.0
 10
5.1883083233
 20
4.2983782741
 30
0.0
 10
5.1968934947
 20
4.3145386059
 30
0.0
 10
5.2060859155
 20
4.3303615645
 30
0.0
 10
5.2158716766
 20
4.3458245801
 30
0.0
 10
5.2262372024
 20
4.3609055871
 30
0.0
 10
5.2408100456
 20
4.3804703246
 30
0.0
 10
5.2564881023
 20
4.3991917285
 30
0.0
 10
5.2731892322
 20
4.4169745058
 30
0.0
 10
5.2905537991
 20
4.4341096896
 30
0.0
 10
5.3088832131
 20
4.4502432381
 30
0.0
 10
5.3280815472
 20
4.4652945692
 30
0.0
 10
5.3478378016
 20
4.4796060577
 30
0.0
 10
5.3735316163
 20
4.4960729692
 30
0.0
 10
5.4057687195
 20
4.513437874
 30
0.0
 10
5.4392319906
 20
4.5283050131
 30
0.0
 10
5.4737237263
 20
4.5405959508
 30
0.0
 10
5.5090501841
 20
4.5502332662
 30
0.0
 10
5.5450101228
 20
4.5571670792
 30
0.0
 10
5.5813873491
 20
4.5613487748
 30
0.0
 10
5.6057845226
 20
4.5622953959
 30
0.0
 10
5.6179744773
 20
4.5623043445
 30
0.0
 11
5.3037918459
 21
3.7154297631
 31
0.0
 11
5.2769853332
 21
3.7403235182
 31
0.0
 11
5.2521475162
 21
3.7671825996
 31
0.0
 11
5.2294196104
 21
3.7958495693
 31
0.0
 11
5.208935442
 21
3.8261604518
 31
0.0
 11
5.1908107669
 21
3.8579382944
 31
0.0
 11
5.1826673632
 21
3.874320593
 31
0.0
 11
5.1751525758
 21
3.8910004992
 31
0.0
 11
5.162048737
 21
3.9251553402
 31
0.0
 11
5.1564794975
 21
3.9425813276
 31
0.0
 11
5.1515766547
 21
3.9602064441
 31
0.0
 11
5.147346334
 21
3.9780050077
 31
0.0
 11
5.1437945811
 21
3.9959513108
 31
0.0
 11
5.1409274004
 21
4.0140196387
 31
0.0
 11
5.1387491227
 21
4.0321839928
 31
0.0
 11
5.13726186
 21
4.0504179976
 31
0.0
 11
5.1364675712
 21
4.068695252
 31
0.0
 11
5.1363682021
 21
4.0869893547
 31
0.0
 11
5.1369643482
 21
4.1052739366
 31
0.0
 11
5.1382541063
 21
4.1235226867
 31
0.0
 11
5.1402353024
 21
4.1417093005
 31
0.0
 11
5.1429057594
 21
4.159807474
 31
0.0
 11
5.1462622363
 21
4.1777910744
 31
0.0
 11
5.1502989132
 21
4.1956343837
 31
0.0
 11
5.1550095867
 21
4.2133117456
 31
0.0
 11
5.1603880529
 21
4.230797504
 31
0.0
 11
5.1664273003
 21
4.2480662668
 31
0.0
 11
5.1731177399
 21
4.2650934843
 31
0.0
 11
5.1804492698
 21
4.2818547744
 31
0.0
 11
5.1884117881
 21
4.2983257551
 31
0.0
 11
5.1969946637
 21
4.3144823063
 31
0.0
 11
5.2061847829
 21
4.3303015362
 31
0.0
 11
5.2159683047
 21
4.3457609127
 31
0.0
 11
5.2263313883
 21
4.3608379041
 31
0.0
 11
5.2372599372
 21
4.3755101658
 31
0.0
 11
5.2607475973
 21
4.4035580593
 31
0.0
 11
5.2732722331
 21
4.4168936148
 31
0.0
 11
5.2862943198
 21
4.4297436294
 31
0.0
 11
5.3137540408
 21
4.4539149441
 31
0.0
 11
5.3281513776
 21
4.4652021443
 31
0.0
 11
5.3429667749
 21
4.4759343832
 31
0.0
 11
5.3737657359
 21
4.495673768
 31
0.0
 11
5.4059729347
 21
4.5130215032
 31
0.0
 11
5.439404042
 21
4.5278758979
 31
0.0
 11
5.4738630605
 21
4.5401537663
 31
0.0
 11
5.509152858
 21
4.5497820257
 31
0.0
 11
5.54507779
 21
4.5567080382
 31
0.0
 11
5.5814319974
 21
4.560889122
 31
0.0
 11
5.6179744773
 21
4.5623043445
 31
0.0
  0
SPLINE
  5
26C
100
AcDbEntity
  8
0
100
AcDbSpline
 62
6
  6
CONTINUOUS
 70
0
 71
3
 72
53
 73
49
 74
47
 42
0.0000001
 43
0.0000001
 44
0.0000000001
 12
-0.8246207897
 22
0.7823628719
 32
0.0
 13
1.1367015443
 23
0.0008422235
 33
0.0
 40
0.0
 40
0.0
 40
0.0
 40
0.0
 40
0.0156262267
 40
0.0312525304
 40
0.0468789392
 40
0.0625054064
 40
0.0781318993
 40
0.0937584674
 40
0.1093851201
 40
0.1250117718
 40
0.1406383307
 40
0.1562647924
 40
0.187512235
 40
0.2031385937
 40
0.2187649342
 40
0.2500124412
 40
0.2656389856
 40
0.2812655876
 40
0.3125137509
 40
0.3437620087
 40
0.3750102034
 40
0.406258029
 40
0.4375052958
 40
0.468752409
 40
0.4999997313
 40
0.5312475202
 40
0.5468742304
 40
0.5625010836
 40
0.5937496397
 40
0.6093766038
 40
0.6250035832
 40
0.6406305747
 40
0.6562574954
 40
0.6718842711
 40
0.6875109247
 40
0.7031375129
 40
0.7187640071
 40
0.7343903634
 40
0.7500166149
 40
0.7812638168
 40
0.7968902435
 40
0.8125168418
 40
0.8437647739
 40
0.8750108009
 40
0.9062556072
 40
0.9375064985
 40
0.9687634929
 40
1.0
 40
1.0
 40
1.0
 40
1.0
 10
5.2894589686
 20
3.7343733183
 30
0.0
 10
5.2851637315
 20
3.7384484448
 30
0.0
 10
5.2767242849
 20
3.7467596575
 30
0.0
 10
5.2645395262
 20
3.7596892955
 30
0.0
 10
5.2528440638
 20
3.7730635919
 30
0.0
 10
5.2416541441
 20
3.7868636481
 30
0.0
 10
5.2309856928
 20
3.8010708119
 30
0.0
 10
5.2208546442
 20
3.8156661271
 30
0.0
 10
5.2112737549
 20
3.8306284242
 30
0.0
 10
5.2022559657
 20
3.8459365853
 30
0.0
 10
5.1938138826
 20
3.8615699433
 30
0.0
 10
5.1833446672
 20
3.8828161836
 30
0.0
 10
5.1740692546
 20
3.9046338694
 30
0.0
 10
5.1660323561
 20
3.926914443
 30
0.0
 10
5.1588313663
 20
3.9494791187
 30
0.0
 10
5.1528963898
 20
3.972431637
 30
0.0
 10
5.1482543981
 20
3.995658199
 30
0.0
 10
5.1444806865
 20
4.0190422775
 30
0.0
 10
5.1414014824
 20
4.0485123498
 30
0.0
 10
5.1403439556
 20
4.0840486287
 30
0.0
 10
5.141936845
 20
4.1195657022
 30
0.0
 10
5.1461624631
 20
4.1548658575
 30
0.0
 10
5.1530058835
 20
4.1897527579
 30
0.0
 10
5.1624209378
 20
4.2240352016
 30
0.0
 10
5.1743625343
 20
4.2575206874
 30
0.0
 10
5.1863606087
 20
4.2846128352
 30
0.0
 10
5.197146265
 20
4.3057013721
 30
0.0
 10
5.2087095842
 20
4.3263734799
 30
0.0
 10
5.2214185079
 20
4.3463876295
 30
0.0
 10
5.2352115974
 20
4.3656436399
 30
0.0
 10
5.2460890662
 20
4.3796924142
 30
0.0
 10
5.2574809989
 20
4.3933268469
 30
0.0
 10
5.2693716553
 20
4.4065286185
 30
0.0
 10
5.2817448975
 20
4.4192790165
 30
0.0
 10
5.2945846468
 20
4.4315593314
 30
0.0
 10
5.3078720778
 20
4.4433536447
 30
0.0
 10
5.3215883338
 20
4.454646058
 30
0.0
 10
5.3357149824
 20
4.4654210483
 30
0.0
 10
5.3550693784
 20
4.479073964
 30
0.0
 10
5.3751737706
 20
4.4916378287
 30
0.0
 10
5.3959279248
 20
4.5030517482
 30
0.0
 10
5.4170933802
 20
4.5136853268
 30
0.0
 10
5.4442701118
 20
4.5254892297
 30
0.0
 10
5.4778381545
 20
4.5371926365
 30
0.0
 10
5.5121856158
 20
4.5463671497
 30
0.0
 10
5.5471240237
 20
4.552966241
 30
0.0
 10
5.5824515045
 20
4.5569460047
 30
0.0
 10
5.6061389487
 20
4.5578472259
 30
0.0
 10
5.6179744773
 20
4.5578559952
 30
0.0
 11
5.2894589686
 21
3.7343733183
 31
0.0
 11
5.27680338
 21
3.7468367666
 31
0.0
 11
5.2646211126
 21
3.7597633645
 31
0.0
 11
5.2529283429
 21
3.7731345258
 31
0.0
 11
5.2417410677
 21
3.7869314837
 31
0.0
 11
5.2310752834
 21
3.8011354712
 31
0.0
 11
5.2209463608
 21
3.8157272558
 31
0.0
 11
5.2113676046
 21
3.8306860692
 31
0.0
 11
5.2023518936
 21
3.845990826
 31
0.0
 11
5.1939121066
 21
3.8616204413
 31
0.0
 11
5.1860607797
 21
3.8775536651
 31
0.0
 11
5.1721637665
 21
3.9102411892
 31
0.0
 11
5.1661368522
 21
3.9269499624
 31
0.0
 11
5.1607366891
 21
3.9438716731
 31
0.0
 11
5.151843977
 21
3.9782595501
 31
0.0
 11
5.1483629517
 21
3.9956778382
 31
0.0
 11
5.1455330938
 21
4.0132137591
 31
0.0
 11
5.1418410514
 21
4.0485412021
 31
0.0
 11
5.140785693
 21
4.084045473
 31
0.0
 11
5.1423756508
 21
4.1195297509
 31
0.0
 11
5.1465988066
 21
4.1547972585
 31
0.0
 11
5.153434508
 21
4.1896521031
 31
0.0
 11
5.162841993
 21
4.2239022687
 31
0.0
 11
5.1747717181
 21
4.2573578087
 31
0.0
 11
5.1891551916
 21
4.2898346445
 31
0.0
 11
5.1972434386
 21
4.3056492342
 31
0.0
 11
5.2059149437
 21
4.3211518714
 31
0.0
 11
5.2249562534
 21
4.3511371954
 31
0.0
 11
5.2353002198
 21
4.3655778879
 31
0.0
 11
5.2461748092
 21
4.3796233558
 31
0.0
 11
5.2575641457
 21
4.3932547666
 31
0.0
 11
5.2694521384
 21
4.4064534452
 31
0.0
 11
5.2818226964
 21
4.4192007168
 31
0.0
 11
5.2946592917
 21
4.43147836
 31
0.0
 11
5.30794359
 21
4.44327003
 31
0.0
 11
5.3216567902
 21
4.4545598665
 31
0.0
 11
5.3357800913
 21
4.4653320094
 31
0.0
 11
5.3502945288
 21
4.4755708361
 31
0.0
 11
5.3804150363
 21
4.4943946721
 31
0.0
 11
5.3959792537
 21
4.5029541506
 31
0.0
 11
5.4118514735
 21
4.510928429
 31
0.0
 11
5.4444304577
 21
4.5250794189
 31
0.0
 11
5.4779683156
 21
4.5367712532
 31
0.0
 11
5.512281179
 21
4.5459372638
 31
0.0
 11
5.5471871096
 21
4.5525293582
 31
0.0
 11
5.5824934552
 21
4.5565086279
 31
0.0
 11
5.6179744773
 21
4.5578559952
 31
0.0
  0
SPLINE
  5
26D
100
AcDbEntity
  8
0
100
AcDbSpline
 62
6
  6
CONTINUOUS
 70
0
 71
3
 72
40
 73
36
 74
34
 42
0.0000001
 43
0.0000001
 44
0.0000000001
 12
-0.2569668378
 22
0.8589211484
 32
0.0
 13
-0.6932787847
 23
-0.5684558221
 33
0.0
 40
0.0
 40
0.0
 40
0.0
 40
0.0
 40
0.0312413825
 40
0.0625019345
 40
0.0781335951
 40
0.0937623925
 40
0.1250109464
 40
0.1562583872
 40
0.1875078699
 40
0.2187579614
 40
0.2500076536
 40
0.2812573563
 40
0.3125071102
 40
0.3437570227
 40
0.3750065421
 40
0.4062559337
 40
0.4375051074
 40
0.4687542794
 40
0.5000034559
 40
0.5312525997
 40
0.5625018081
 40
0.5937508106
 40
0.6249999018
 40
0.6562488444
 40
0.6874977127
 40
0.7187460374
 40
0.7499940522
 40
0.7812424608
 40
0.8124913466
 40
0.8437395586
 40
0.8749862941
 40
0.9062367075
 40
0.9374966672
 40
0.9687582016
 40
1.0
 40
1.0
 40
1.0
 40
1.0
 10
6.0309922297
 20
4.2238257597
 30
0.0
 10
6.0283162299
 20
4.2327703877
 30
0.0
 10
6.022385321
 20
4.2504977404
 30
0.0
 10
6.0135736085
 20
4.2721387865
 30
0.0
 10
6.0057069621
 20
4.2890892618
 30
0.0
 10
5.9973051697
 20
4.3057767823
 30
0.0
 10
5.985815443
 20
4.3261207672
 30
0.0
 10
5.9705094885
 20
4.3496072986
 30
0.0
 10
5.9537493928
 20
4.3720803277
 30
0.0
 10
5.9356069848
 20
4.3934536271
 30
0.0
 10
5.9161553062
 20
4.4136426285
 30
0.0
 10
5.8954779149
 20
4.4325740237
 30
0.0
 10
5.8736558762
 20
4.4501737185
 30
0.0
 10
5.8507804134
 20
4.4663803249
 30
0.0
 10
5.8269406281
 20
4.4811314656
 30
0.0
 10
5.8022326418
 20
4.4943763382
 30
0.0
 10
5.7767527506
 20
4.5060672675
 30
0.0
 10
5.7506001266
 20
4.5161633842
 30
0.0
 10
5.7238762866
 20
4.5246323975
 30
0.0
 10
5.6966826973
 20
4.5314434508
 30
0.0
 10
5.6691237294
 20
4.5365793691
 30
0.0
 10
5.641302412
 20
4.5400207545
 30
0.0
 10
5.6133234735
 20
4.5417634863
 30
0.0
 10
5.5852904306
 20
4.5418019119
 30
0.0
 10
5.5573068789
 20
4.5401425648
 30
0.0
 10
5.5294750541
 20
4.5367952951
 30
0.0
 10
5.5018960356
 20
4.5317755338
 30
0.0
 10
5.4746683824
 20
4.5251075681
 30
0.0
 10
5.4478903972
 20
4.5168163996
 30
0.0
 10
5.4216561133
 20
4.5069405282
 30
0.0
 10
5.396058299
 20
4.4955148558
 30
0.0
 10
5.3711828083
 20
4.4825845601
 30
0.0
 10
5.3471167023
 20
4.4681947654
 30
0.0
 10
5.3239485098
 20
4.4524065903
 30
0.0
 10
5.3091501024
 20
4.4409879112
 30
0.0
 10
5.3019303437
 20
4.4350680505
 30
0.0
 11
6.0309922297
 21
4.2238257597
 31
0.0
 11
6.0221078355
 21
4.250388396
 31
0.0
 11
6.0115391345
 21
4.2763455087
 31
0.0
 11
6.0056394948
 21
4.2890575632
 31
0.0
 11
5.999338646
 21
4.3015727316
 31
0.0
 11
5.9855621225
 21
4.3259668643
 31
0.0
 11
5.9702675269
 21
4.3494378197
 31
0.0
 11
5.9535191876
 21
4.3718968069
 31
0.0
 11
5.9353886996
 21
4.3932563238
 31
0.0
 11
5.9159510114
 21
4.4134330375
 31
0.0
 11
5.8952871604
 21
4.4323520566
 31
0.0
 11
5.8734803356
 21
4.4499415134
 31
0.0
 11
5.8506195798
 21
4.4661378218
 31
0.0
 11
5.826795863
 21
4.4808804586
 31
0.0
 11
5.8021039172
 21
4.4941173845
 31
0.0
 11
5.7766406183
 21
4.5058014701
 31
0.0
 11
5.7505049237
 21
4.5158922003
 31
0.0
 11
5.7237979874
 21
4.5243560731
 31
0.0
 11
5.6966218112
 21
4.5311642591
 31
0.0
 11
5.6690799411
 21
4.5362969568
 31
0.0
 11
5.6412761551
 21
4.5397376444
 31
0.0
 11
5.613314405
 21
4.5414794366
 31
0.0
 11
5.5852986188
 21
4.5415189475
 31
0.0
 11
5.5573319588
 21
4.5398612254
 31
0.0
 11
5.529517074
 21
4.5365165307
 31
0.0
 11
5.5019547387
 21
4.5315008646
 31
0.0
 11
5.4747434744
 21
4.5248370735
 31
0.0
 11
5.4479807456
 21
4.5165521874
 31
0.0
 11
5.4217618513
 21
4.5066820952
 31
0.0
 11
5.3961801962
 21
4.4952648321
 31
0.0
 11
5.3713208424
 21
4.4823430577
 31
0.0
 11
5.3472664129
 21
4.467961688
 31
0.0
 11
5.3241051571
 21
4.4521795859
 31
0.0
 11
5.3019303437
 21
4.4350680505
 31
0.0
  0
SPLINE
  5
26E
100
AcDbEntity
  8
0
100
AcDbSpline
 62
6
  6
CONTINUOUS
 70
0
 71
3
 72
69
 73
65
 74
63
 42
0.0000001
 43
0.0000001
 44
0.0000000001
 12
1.5653677513
 22
0.0011131966
 32
0.0
 13
-1.565367753
 23
-0.0011107144
 33
0.0
 40
0.0
 40
0.0
 40
0.0
 40
0.0
 40
0.0312342956
 40
0.0468647985
 40
0.0624928642
 40
0.0781181168
 40
0.0937422259
 40
0.1093667857
 40
0.1249922617
 40
0.1406180891
 40
0.1562437114
 40
0.1718690236
 40
0.1874941484
 40
0.2031191647
 40
0.2187442589
 40
0.2343694644
 40
0.2499947087
 40
0.2656200503
 40
0.2812454909
 40
0.2968708808
 40
0.3124961789
 40
0.3281214425
 40
0.3437465803
 40
0.3593715569
 40
0.374996511
 40
0.3906214687
 40
0.4062464639
 40
0.4218716405
 40
0.4374969721
 40
0.4531223945
 40
0.4687479892
 40
0.4843737151
 40
0.4999994352
 40
0.5156251601
 40
0.5312508887
 40
0.5468764737
 40
0.5625018749
 40
0.5781271888
 40
0.5937523764
 40
0.6093774426
 40
0.6250025078
 40
0.6406275344
 40
0.6562524816
 40
0.6718774682
 40
0.687502502
 40
0.7031275442
 40
0.7187526896
 40
0.7343779054
 40
0.7500030624
 40
0.7656281872
 40
0.7812533213
 40
0.7968783797
 40
0.8125034023
 40
0.8281285743
 40
0.8437539741
 40
0.8593797285
 40
0.8750056931
 40
0.8906313032
 40
0.9062560137
 40
0.9218803864
 40
0.9375060112
 40
0.9531345289
 40
0.9687653874
 40
1.0
 40
1.0
 40
1.0
 40
1.0
 10
5.6179744773
 20
4.577873572
 30
0.0
 10
5.634272197
 20
4.577885162
 30
0.0
 10
5.658748859
 20
4.5766959701
 30
0.0
 10
5.6911230766
 20
4.5727251188
 30
0.0
 10
5.7152392585
 20
4.568553946
 30
0.0
 10
5.7391168815
 20
4.5632035105
 30
0.0
 10
5.7627017442
 20
4.5566882912
 30
0.0
 10
5.7859377909
 20
4.5490212931
 30
0.0
 10
5.8087700623
 20
4.540222057
 30
0.0
 10
5.8311440313
 20
4.5303138863
 30
0.0
 10
5.8530041256
 20
4.5193183842
 30
0.0
 10
5.8742967416
 20
4.5072614519
 30
0.0
 10
5.8949721951
 20
4.4941750501
 30
0.0
 10
5.9149801738
 20
4.4800893803
 30
0.0
 10
5.9342713042
 20
4.46503685
 30
0.0
 10
5.9528011435
 20
4.4490563878
 30
0.0
 10
5.9705247551
 20
4.4321859171
 30
0.0
 10
5.9873971953
 20
4.414464015
 30
0.0
 10
6.0033800275
 20
4.3959357911
 30
0.0
 10
6.018435119
 20
4.3766461206
 30
0.0
 10
6.0325234142
 20
4.3566395378
 30
0.0
 10
6.0456127467
 20
4.3359657976
 30
0.0
 10
6.0576729174
 20
4.3146754359
 30
0.0
 10
6.0686721775
 20
4.2928182367
 30
0.0
 10
6.0785848527
 20
4.2704474363
 30
0.0
 10
6.0873892672
 20
4.2476177005
 30
0.0
 10
6.0950618437
 20
4.2243829436
 30
0.0
 10
6.1015838184
 20
4.2007991819
 30
0.0
 10
6.106942311
 20
4.176923952
 30
0.0
 10
6.11112262
 20
4.1528142363
 30
0.0
 10
6.1141129226
 20
4.1285280189
 30
0.0
 10
6.1159094033
 20
4.1041243209
 30
0.0
 10
6.1165070264
 20
4.0796617615
 30
0.0
 10
6.1159012792
 20
4.055199404
 30
0.0
 10
6.114096964
 20
4.0307962885
 30
0.0
 10
6.1110989385
 20
4.0065110381
 30
0.0
 10
6.1069110866
 20
3.9824026635
 30
0.0
 10
6.1015456709
 20
3.9585290124
 30
0.0
 10
6.0950171881
 20
3.9349470202
 30
0.0
 10
6.0873384429
 20
3.9117142064
 30
0.0
 10
6.0785287034
 20
3.8888863993
 30
0.0
 10
6.0686114642
 20
3.8665175458
 30
0.0
 10
6.0576083285
 20
3.8446623749
 30
0.0
 10
6.0455453286
 20
3.8233738824
 30
0.0
 10
6.0324541248
 20
3.8027017356
 30
0.0
 10
6.0183647016
 20
3.7826964336
 30
0.0
 10
6.0033095807
 20
3.7634072962
 30
0.0
 10
5.9873277104
 20
3.7448787168
 30
0.0
 10
5.9704568884
 20
3.7271556804
 30
0.0
 10
5.9527357457
 20
3.71028294
 30
0.0
 10
5.9342093072
 20
3.6942987548
 30
0.0
 10
5.9149221504
 20
3.6792412518
 30
0.0
 10
5.8949186789
 20
3.6651492167
 30
0.0
 10
5.8742484319
 20
3.652054514
 30
0.0
 10
5.8529613538
 20
3.6399875717
 30
0.0
 10
5.8311069643
 20
3.628980392
 30
0.0
 10
5.8087390286
 20
3.6190581816
 30
0.0
 10
5.7859127997
 20
3.6102427516
 30
0.0
 10
5.7626825041
 20
3.602557541
 30
0.0
 10
5.7391029928
 20
3.5960215913
 30
0.0
 10
5.7152300399
 20
3.5906479269
 30
0.0
 10
5.6911177125
 20
3.586451179
 30
0.0
 10
5.6587475688
 20
3.5824427761
 30
0.0
 10
5.6342723625
 20
3.5812213973
 30
0.0
 10
5.6179744773
 20
3.5812098331
 30
0.0
 11
5.6179744773
 21
4.577873572
 31
0.0
 11
5.6668102693
 21
4.5755055273
 31
0.0
 11
5.691095695
 21
4.5725262269
 31
0.0
 11
5.7152014846
 21
4.568357011
 31
0.0
 11
5.7390689646
 21
4.5630091679
 31
0.0
 11
5.7626433658
 21
4.5564964061
 31
0.0
 11
5.785869904
 21
4.5488327978
 31
0.0
 11
5.8086934229
 21
4.5400373378
 31
0.0
 11
5.8310584946
 21
4.5301326113
 31
0.0
 11
5.8529097425
 21
4.5191413741
 31
0.0
 11
5.8741940105
 21
4.5070897967
 31
0.0
 11
5.8948610125
 21
4.4940084639
 31
0.0
 11
5.914860661
 21
4.4799282657
 31
0.0
 11
5.9341443621
 21
4.4648822441
 31
0.0
 11
5.9526667413
 21
4.4489080811
 31
0.0
 11
5.9703828429
 21
4.4320440623
 31
0.0
 11
5.9872488838
 21
4.4143296755
 31
0.0
 11
6.0032254229
 21
4.3958088597
 31
0.0
 11
6.018274024
 21
4.3765265844
 31
0.0
 11
6.0323569426
 21
4.3565283116
 31
0.0
 11
6.0454412677
 21
4.3358629469
 31
0.0
 11
6.0574961515
 21
4.3145808652
 31
0.0
 11
6.0684910921
 21
4.2927326119
 31
0.0
 11
6.0784001414
 21
4.2703709504
 31
0.0
 11
6.0872006148
 21
4.2475502338
 31
0.0
 11
6.0948700401
 21
4.2243248979
 31
0.0
 11
6.1013898759
 21
4.2007507184
 31
0.0
 11
6.1067459307
 21
4.1768849532
 31
0.0
 11
6.1109242675
 21
4.1527849421
 31
0.0
 11
6.1139139427
 21
4.1285085327
 31
0.0
 11
6.115709593
 21
4.1041145189
 31
0.0
 11
6.1163064647
 21
4.0796617979
 31
0.0
 11
6.1157015171
 21
4.0552092679
 31
0.0
 11
6.1138980018
 21
4.0308158302
 31
0.0
 11
6.1109006148
 21
4.0065403869
 31
0.0
 11
6.1067148104
 21
3.9824417054
 31
0.0
 11
6.1013518032
 21
3.9585775301
 31
0.0
 11
6.0948254533
 21
3.9350051352
 31
0.0
 11
6.0871499391
 21
3.9117816938
 31
0.0
 11
6.0783441083
 21
3.8889628634
 31
0.0
 11
6.068430461
 21
3.8666031159
 31
0.0
 11
6.0574316947
 21
3.8447568399
 31
0.0
 11
6.0453739781
 21
3.8234766349
 31
0.0
 11
6.0322877651
 21
3.8028128915
 31
0.0
 11
6.0182037936
 21
3.7828158502
 31
0.0
 11
6.0031551519
 21
3.7635340922
 31
0.0
 11
5.9871795298
 21
3.7450129501
 31
0.0
 11
5.9703151515
 21
3.7272973794
 31
0.0
 11
5.9526015269
 21
3.7104310301
 31
0.0
 11
5.9340824834
 21
3.6944531712
 31
0.0
 11
5.9148027525
 21
3.6794021535
 31
0.0
 11
5.8948076395
 21
3.6653154981
 31
0.0
 11
5.8741457835
 21
3.6522259009
 31
0.0
 11
5.8528670258
 21
3.6401643186
 31
0.0
 11
5.8310214883
 21
3.6291612764
 31
0.0
 11
5.8086623907
 21
3.6192425415
 31
0.0
 11
5.785844883
 21
3.6104309164
 31
0.0
 11
5.7626241354
 21
3.6027490292
 31
0.0
 11
5.7390550425
 21
3.5962155385
 31
0.0
 11
5.7151921783
 21
3.590844483
 31
0.0
 11
5.6910901188
 21
3.5866496285
 31
0.0
 11
5.6668076083
 21
3.583642129
 31
0.0
 11
5.6179744773
 21
3.5812098331
 31
0.0
  0
SPLINE
  5
26F
100
AcDbEntity
  8
0
100
AcDbSpline
 62
6
  6
CONTINUOUS
 70
0
 71
3
 72
69
 73
65
 74
63
 42
0.0000001
 43
0.0000001
 44
0.0000000001
 12
1.5583811338
 22
0.0011132024
 32
0.0
 13
-1.5583811355
 23
-0.0011107099
 33
0.0
 40
0.0
 40
0.0
 40
0.0
 40
0.0
 40
0.0312342847
 40
0.0468646894
 40
0.0624925452
 40
0.0781175374
 40
0.0937414048
 40
0.1093657978
 40
0.124991151
 40
0.1406168766
 40
0.1562424119
 40
0.1718676648
 40
0.1874927556
 40
0.2031177674
 40
0.2187428885
 40
0.234368142
 40
0.2499934567
 40
0.2656188987
 40
0.2812444696
 40
0.296870028
 40
0.3124955451
 40
0.3281210482
 40
0.3437463995
 40
0.3593715236
 40
0.3749965577
 40
0.3906215507
 40
0.4062465584
 40
0.421871738
 40
0.4374970682
 40
0.4531224888
 40
0.4687480835
 40
0.4843738115
 40
0.4999995347
 40
0.5156252622
 40
0.5312509928
 40
0.5468765784
 40
0.5625019776
 40
0.5781272898
 40
0.5937524805
 40
0.6093775584
 40
0.6250026517
 40
0.6406277344
 40
0.6562527762
 40
0.6718778806
 40
0.6875030048
 40
0.7031280529
 40
0.7187530982
 40
0.7343781638
 40
0.7500031823
 40
0.7656282226
 40
0.7812533173
 40
0.7968783624
 40
0.8125033817
 40
0.8281285548
 40
0.8437539577
 40
0.8593797149
 40
0.8750056812
 40
0.8906312922
 40
0.9062560035
 40
0.9218803777
 40
0.9375060047
 40
0.953134525
 40
0.9687653855
 40
1.0
 40
1.0
 40
1.0
 40
1.0
 10
5.6179744773
 20
4.5756493955
 30
0.0
 10
5.6341994507
 20
4.5756609855
 30
0.0
 10
5.6585668142
 20
4.5744771695
 30
0.0
 10
5.6907963852
 20
4.5705241605
 30
0.0
 10
5.7148046544
 20
4.5663717428
 30
0.0
 10
5.7385753688
 20
4.561045376
 30
0.0
 10
5.7620546527
 20
4.5545594008
 30
0.0
 10
5.7851867414
 20
4.5469267495
 30
0.0
 10
5.807916982
 20
4.5381670336
 30
0.0
 10
5.8301910181
 20
4.5283033156
 30
0.0
 10
5.8519534354
 20
4.5173569565
 30
0.0
 10
5.8731510127
 20
4.5053540249
 30
0.0
 10
5.8937342505
 20
4.4923262227
 30
0.0
 10
5.9136529387
 20
4.4783034436
 30
0.0
 10
5.9328580712
 20
4.4633181732
 30
0.0
 10
5.9513053933
 20
4.4474091339
 30
0.0
 10
5.9689500207
 20
4.4306139194
 30
0.0
 10
5.9857473039
 20
4.4129710422
 30
0.0
 10
6.0016590527
 20
4.394525458
 30
0.0
 10
6.0166471741
 20
4.3753217128
 30
0.0
 10
6.030672752
 20
4.3554041399
 30
0.0
 10
6.0437038944
 20
4.3348224057
 30
0.0
 10
6.0557104359
 20
4.3136268208
 30
0.0
 10
6.0666607148
 20
4.2918669744
 30
0.0
 10
6.076529191
 20
4.26959589
 30
0.0
 10
6.0852943089
 20
4.2468679774
 30
0.0
 10
6.0929326321
 20
4.2237368922
 30
0.0
 10
6.0994254752
 20
4.2002583766
 30
0.0
 10
6.1047600246
 20
4.1764897017
 30
0.0
 10
6.1089216593
 20
4.1524875924
 30
0.0
 10
6.1118985899
 20
4.1283097667
 30
0.0
 10
6.1136870213
 20
4.1040149834
 30
0.0
 10
6.114281956
 20
4.0796616019
 30
0.0
 10
6.1136788894
 20
4.0553084221
 30
0.0
 10
6.1118825949
 20
4.0310142233
 30
0.0
 10
6.1088979251
 20
4.0068373668
 30
0.0
 10
6.1047287472
 20
3.9828365983
 30
0.0
 10
6.0993872486
 20
3.959069508
 30
0.0
 10
6.0928878767
 20
3.9355927686
 30
0.0
 10
6.0852433867
 20
3.9124636307
 30
0.0
 10
6.0764729273
 20
3.8897376713
 30
0.0
 10
6.0665998854
 20
3.8674685831
 30
0.0
 10
6.0556457726
 20
3.8457108442
 30
0.0
 10
6.0436364736
 20
3.8245172646
 30
0.0
 10
6.0306035913
 20
3.8039373204
 30
0.0
 10
6.0165770798
 20
3.784021291
 30
0.0
 10
6.0015892253
 20
3.7648183492
 30
0.0
 10
5.9856787785
 20
3.7463726542
 30
0.0
 10
5.9688833602
 20
3.7287288882
 30
0.0
 10
5.9512414082
 20
3.7119315514
 30
0.0
 10
5.9327977192
 20
3.6960187457
 30
0.0
 10
5.9135966825
 20
3.6810284483
 30
0.0
 10
5.8936825096
 20
3.6669992972
 30
0.0
 10
5.8731045306
 20
3.6539630201
 30
0.0
 10
5.851912471
 20
3.641949912
 30
0.0
 10
5.8301556322
 20
3.6309918333
 30
0.0
 10
5.8078875418
 20
3.6211138748
 30
0.0
 10
5.7851632046
 20
3.6123377524
 30
0.0
 10
5.7620366034
 20
3.6046868015
 30
0.0
 10
5.7385623438
 20
3.5981799763
 30
0.0
 10
5.7147959502
 20
3.5928302432
 30
0.0
 10
5.6907912483
 20
3.5886521692
 30
0.0
 10
5.6585655875
 20
3.5846615728
 30
0.0
 10
5.634199622
 20
3.5834455732
 30
0.0
 10
5.6179744773
 20
3.583434009
 30
0.0
 11
5.6179744773
 21
4.5756493955
 31
0.0
 11
5.6665922932
 21
4.5732920622
 31
0.0
 11
5.6907691844
 21
4.570326152
 31
0.0
 11
5.7147670771
 21
4.5661756879
 31
0.0
 11
5.7385276566
 21
4.5608519005
 31
0.0
 11
5.7619964968
 21
4.5543683806
 31
0.0
 11
5.7851191454
 21
4.5467391271
 31
0.0
 11
5.8078406769
 21
4.5379831428
 31
0.0
 11
5.8301058449
 21
4.5281228282
 31
0.0
 11
5.8518594733
 21
4.5171807661
 31
0.0
 11
5.8730487342
 21
4.5051831469
 31
0.0
 11
5.8936235361
 21
4.4921603646
 31
0.0
 11
5.9135339561
 21
4.4781430709
 31
0.0
 11
5.9327316959
 21
4.4631642719
 31
0.0
 11
5.9511715667
 21
4.447261478
 31
0.0
 11
5.9688087306
 21
4.4304727086
 31
0.0
 11
5.9855996555
 21
4.4128373227
 31
0.0
 11
6.0015051145
 21
4.3943990976
 31
0.0
 11
6.0164867665
 21
4.3752027196
 31
0.0
 11
6.0305070266
 21
4.3552934253
 31
0.0
 11
6.0435331853
 21
4.3347200002
 31
0.0
 11
6.055534467
 21
4.3135326374
 31
0.0
 11
6.0664804479
 21
4.2917816979
 31
0.0
 11
6.0763453102
 21
4.2695197231
 31
0.0
 11
6.0851065034
 21
4.2468008011
 31
0.0
 11
6.0927416847
 21
4.2236791006
 31
0.0
 11
6.0992323984
 21
4.2002101272
 31
0.0
 11
6.1045645227
 21
4.1764508773
 31
0.0
 11
6.1087241904
 21
4.1524584299
 31
0.0
 11
6.1117004969
 21
4.1282903688
 31
0.0
 11
6.1134881044
 21
4.104005226
 31
0.0
 11
6.1140822891
 21
4.079661638
 31
0.0
 11
6.1134800173
 21
4.055318242
 31
0.0
 11
6.1116845218
 21
4.0310336771
 31
0.0
 11
6.1087004877
 21
4.0068665832
 31
0.0
 11
6.104533345
 21
3.9828754667
 31
0.0
 11
6.0991942476
 21
3.9591178117
 31
0.0
 11
6.0926970014
 21
3.9356506279
 31
0.0
 11
6.0850557249
 21
3.9125308258
 31
0.0
 11
6.0762891601
 21
3.8898138085
 31
0.0
 11
6.0664196984
 21
3.8675537896
 31
0.0
 11
6.0554699254
 21
3.8458049025
 31
0.0
 11
6.0434658817
 21
3.8246195466
 31
0.0
 11
6.0304379616
 21
3.8040479358
 31
0.0
 11
6.0164168522
 21
3.7841401335
 31
0.0
 11
6.001435465
 21
3.7649445633
 31
0.0
 11
5.9855312665
 21
3.7465062905
 31
0.0
 11
5.9687422812
 21
3.7288699694
 31
0.0
 11
5.9511078079
 21
3.7120789939
 31
0.0
 11
5.9326714732
 21
3.6961724797
 31
0.0
 11
5.9134778214
 21
3.681188635
 31
0.0
 11
5.8935719677
 21
3.6671648374
 31
0.0
 11
5.8730023413
 21
3.6541336422
 31
0.0
 11
5.851818564
 21
3.6421258694
 31
0.0
 11
5.8300705374
 21
3.6311719088
 31
0.0
 11
5.8078112456
 21
3.6212974109
 31
0.0
 11
5.7850955908
 21
3.6125250768
 31
0.0
 11
5.7619784954
 21
3.6048774342
 31
0.0
 11
5.7385146076
 21
3.598373057
 31
0.0
 11
5.7147582575
 21
3.5930259213
 31
0.0
 11
5.6907637772
 21
3.588849732
 31
0.0
 11
5.6665896499
 21
3.5858555925
 31
0.0
 11
5.6179744773
 21
3.583434009
 31
0.0
  0
SPLINE
  5
270
100
AcDbEntity
  8
0
100
AcDbSpline
 62
6
  6
CONTINUOUS
 70
0
 71
3
 72
67
 73
63
 74
61
 42
0.0000001
 43
0.0000001
 44
0.0000000001
 12
1.5513653348
 22
0.0011131853
 32
0.0
 13
-1.5513653366
 23
-0.0011106827
 33
0.0
 40
0.0
 40
0.0
 40
0.0
 40
0.0
 40
0.0312349297
 40
0.0468656139
 40
0.0624936488
 40
0.078118742
 40
0.0937426946
 40
0.1093672073
 40
0.1249927038
 40
0.1406185885
 40
0.1562443025
 40
0.171869767
 40
0.1874950969
 40
0.2031203769
 40
0.2187457946
 40
0.234371367
 40
0.2499970273
 40
0.2656228491
 40
0.2812488263
 40
0.2968748166
 40
0.3125007966
 40
0.3281267887
 40
0.3437526492
 40
0.3593783005
 40
0.3750038569
 40
0.3906293252
 40
0.4062547166
 40
0.4218801873
 40
0.4375057617
 40
0.4531314229
 40
0.4687572791
 40
0.4999998825
 40
0.5312424828
 40
0.5468683384
 40
0.5624940061
 40
0.5781195877
 40
0.5937450521
 40
0.6093704096
 40
0.6249957984
 40
0.6406212093
 40
0.6562466279
 40
0.6718721491
 40
0.687497688
 40
0.7031231001
 40
0.718748432
 40
0.7343737344
 40
0.7499989684
 40
0.7656242233
 40
0.7812495426
 40
0.7968748286
 40
0.8125001074
 40
0.8281255532
 40
0.8437512341
 40
0.8593772657
 40
0.8750035044
 40
0.8906293894
 40
0.9062543768
 40
0.9218790226
 40
0.9375049156
 40
0.953133696
 40
0.9687648215
 40
1.0
 40
1.0
 40
1.0
 40
1.0
 10
5.6179744773
 20
4.5734252204
 30
0.0
 10
5.6341267397
 20
4.5734368105
 30
0.0
 10
5.6583848832
 20
4.572258345
 30
0.0
 10
5.690469935
 20
4.5683231592
 30
0.0
 10
5.7143704203
 20
4.564189475
 30
0.0
 10
5.7380343206
 20
4.5588871192
 30
0.0
 10
5.7614080676
 20
4.5524303496
 30
0.0
 10
5.7844362016
 20
4.5448320505
 30
0.0
 10
5.8070643661
 20
4.5361118286
 30
0.0
 10
5.8292384093
 20
4.5262925392
 30
0.0
 10
5.8509031108
 20
4.5153953407
 30
0.0
 10
5.872005608
 20
4.5034464096
 30
0.0
 10
5.892496585
 20
4.4904771985
 30
0.0
 10
5.9123259517
 20
4.4765173259
 30
0.0
 10
5.931445056
 20
4.4615993344
 30
0.0
 10
5.9498098203
 20
4.445761724
 30
0.0
 10
5.9673754285
 20
4.4290417729
 30
0.0
 10
5.9840975323
 20
4.4114779378
 30
0.0
 10
5.9999381631
 20
4.3931150087
 30
0.0
 10
6.0148592766
 20
4.3739972275
 30
0.0
 10
6.0288221161
 20
4.3541687327
 30
0.0
 10
6.041795052
 20
4.3336790542
 30
0.0
 10
6.0537479653
 20
4.3125782237
 30
0.0
 10
6.0646492796
 20
4.2909156037
 30
0.0
 10
6.0744736049
 20
4.2687440435
 30
0.0
 10
6.0831994884
 20
4.2461177714
 30
0.0
 10
6.09080363
 20
4.2230902716
 30
0.0
 10
6.0972673152
 20
4.199716949
 30
0.0
 10
6.1025778439
 20
4.1760549875
 30
0.0
 10
6.1067207916
 20
4.1521601082
 30
0.0
 10
6.1106714651
 20
4.1200745306
 30
0.0
 10
6.1126536427
 20
4.0796609577
 30
0.0
 10
6.1106579472
 20
4.0392480645
 30
0.0
 10
6.1066968864
 20
4.0071637692
 30
0.0
 10
6.1025463615
 20
3.9832702032
 30
0.0
 10
6.0972287774
 20
3.9596098303
 30
0.0
 10
6.0907585124
 20
3.9362383519
 30
0.0
 10
6.0831482919
 20
3.9132129352
 30
0.0
 10
6.0744171201
 20
3.8905888599
 30
0.0
 10
6.0645882818
 20
3.8684195697
 30
0.0
 10
6.0536831985
 20
3.8467592771
 30
0.0
 10
6.0417275965
 20
3.8256606002
 30
0.0
 10
6.0287530047
 20
3.8051728186
 30
0.0
 10
6.0147893405
 20
3.7853459881
 30
0.0
 10
5.999868648
 20
3.7662291577
 30
0.0
 10
5.9840295164
 20
3.7478662704
 30
0.0
 10
5.967309452
 20
3.7303017076
 30
0.0
 10
5.9497466717
 20
3.713579765
 30
0.0
 10
5.9313857243
 20
3.6977383973
 30
0.0
 10
5.9122708274
 20
3.6828153653
 30
0.0
 10
5.892445986
 20
3.6688491351
 30
0.0
 10
5.8719602886
 20
3.6558713317
 30
0.0
 10
5.8508632678
 20
3.6439120901
 30
0.0
 10
5.829204012
 20
3.6330031219
 30
0.0
 10
5.8070357877
 20
3.6231694519
 30
0.0
 10
5.7844133637
 20
3.6144326727
 30
0.0
 10
5.7613904867
 20
3.6068159958
 30
0.0
 10
5.7380215118
 20
3.6003383163
 30
0.0
 10
5.7143617207
 20
3.5950125363
 30
0.0
 10
5.6904646949
 20
3.5908531422
 30
0.0
 10
5.6583835642
 20
3.5868803597
 30
0.0
 10
5.6341268684
 20
3.5856697494
 30
0.0
 10
5.6179744773
 20
3.5856581853
 30
0.0
 11
5.6179744773
 21
4.5734252204
 31
0.0
 11
5.6663744224
 21
4.571078574
 31
0.0
 11
5.6904429089
 21
4.5681260344
 31
0.0
 11
5.7143330515
 21
4.5639942906
 31
0.0
 11
5.7379868304
 21
4.5586945074
 31
0.0
 11
5.7613501562
 21
4.5522401931
 31
0.0
 11
5.7843689039
 21
4.5446452903
 31
0.0
 11
5.8069883971
 21
4.5359287648
 31
0.0
 11
5.8291536007
 21
4.5261128476
 31
0.0
 11
5.8508095661
 21
4.5152199686
 31
0.0
 11
5.87190378
 21
4.5032763083
 31
0.0
 11
5.8923863417
 21
4.4903120722
 31
0.0
 11
5.9122075009
 21
4.4763576946
 31
0.0
 11
5.9313192454
 21
4.461446136
 31
0.0
 11
5.9496765681
 21
4.4456147212
 31
0.0
 11
5.9672347608
 21
4.4289012094
 31
0.0
 11
5.9839505468
 21
4.4113448359
 31
0.0
 11
5.999784897
 21
4.3929892155
 31
0.0
 11
6.0146995666
 21
4.373878772
 31
0.0
 11
6.0286571347
 21
4.3540585312
 31
0.0
 11
6.0416250974
 21
4.3335771126
 31
0.0
 11
6.0535727676
 21
4.3124844636
 31
0.0
 11
6.0644698171
 21
4.2908307055
 31
0.0
 11
6.0742905573
 21
4.2686681954
 31
0.0
 11
6.0830125476
 21
4.2460508558
 31
0.0
 11
6.0906135397
 21
4.2230326825
 31
0.0
 11
6.0970751038
 21
4.1996689171
 31
0.0
 11
6.1023832321
 21
4.1760162445
 31
0.0
 11
6.1065241874
 21
4.1521314343
 31
0.0
 11
6.1094870914
 21
4.128071768
 31
0.0
 11
6.1118581145
 21
4.079661092
 31
0.0
 11
6.1094710137
 21
4.0312512109
 31
0.0
 11
6.1065003186
 21
4.0071925063
 31
0.0
 11
6.1023518365
 21
3.9833089919
 31
0.0
 11
6.0970366427
 21
3.9596578946
 31
0.0
 11
6.0905684992
 21
3.93629596
 31
0.0
 11
6.0829614708
 21
3.9132798363
 31
0.0
 11
6.074234182
 21
3.8906646728
 31
0.0
 11
6.0644089144
 21
3.8685044164
 31
0.0
 11
6.0535081423
 21
3.8468529363
 31
0.0
 11
6.0415577689
 21
3.8257624237
 31
0.0
 11
6.0285881136
 21
3.8052829091
 31
0.0
 11
6.0146297991
 21
3.7854642717
 31
0.0
 11
5.9997155554
 21
3.7663547913
 31
0.0
 11
5.9838826661
 21
3.7479992933
 31
0.0
 11
5.9671690083
 21
3.7304421528
 31
0.0
 11
5.9496136718
 21
3.7137265529
 31
0.0
 11
5.9312600543
 21
3.6978914438
 31
0.0
 11
5.9121525093
 21
3.6829748362
 31
0.0
 11
5.8923359438
 21
3.6690139394
 31
0.0
 11
5.8718585614
 21
3.6560411875
 31
0.0
 11
5.8507697821
 21
3.6440872535
 31
0.0
 11
5.829119296
 21
3.633182393
 31
0.0
 11
5.8069598347
 21
3.6233521646
 31
0.0
 11
5.7843460552
 21
3.6146191535
 31
0.0
 11
5.7613326367
 21
3.6070057732
 31
0.0
 11
5.7379739868
 21
3.6005305295
 31
0.0
 11
5.7143241942
 21
3.595207333
 31
0.0
 11
5.690437349
 21
3.5910498188
 31
0.0
 11
5.6663716527
 21
3.5880690465
 31
0.0
 11
5.6179744773
 21
3.5856581853
 31
0.0
  0
SPLINE
  5
271
100
AcDbEntity
  8
0
100
AcDbSpline
 62
6
  6
CONTINUOUS
 70
0
 71
3
 72
69
 73
65
 74
63
 42
0.0000001
 43
0.0000001
 44
0.0000000001
 12
1.544407909
 22
0.0011132133
 32
0.0
 13
-1.5444079108
 23
-0.0011106973
 33
0.0
 40
0.0
 40
0.0
 40
0.0
 40
0.0
 40
0.0312344215
 40
0.0468649178
 40
0.0624927885
 40
0.0781176771
 40
0.0937413479
 40
0.1093654723
 40
0.1249905142
 40
0.140615937
 40
0.1562412372
 40
0.1718663534
 40
0.1874913792
 40
0.2031163786
 40
0.2187415255
 40
0.234366833
 40
0.2499922328
 40
0.2656177971
 40
0.2812435168
 40
0.2968692463
 40
0.3124949611
 40
0.3281206934
 40
0.3437463134
 40
0.3593717547
 40
0.3749971044
 40
0.3906223124
 40
0.4062473306
 40
0.4218723063
 40
0.4374973177
 40
0.4531224034
 40
0.4687477052
 40
0.484373179
 40
0.4999986814
 40
0.5156242205
 40
0.5312497889
 40
0.5468752409
 40
0.5625005463
 40
0.5781258005
 40
0.593750964
 40
0.6093760535
 40
0.6250012065
 40
0.6406264108
 40
0.6562516626
 40
0.6718770581
 40
0.6875025023
 40
0.7031278523
 40
0.7187531465
 40
0.7343783824
 40
0.7500034642
 40
0.765628449
 40
0.7812534254
 40
0.7968783589
 40
0.8125033295
 40
0.8281285069
 40
0.8437539348
 40
0.8593797087
 40
0.8750056774
 40
0.8906312841
 40
0.9062559921
 40
0.921880367
 40
0.9375059972
 40
0.9531345212
 40
0.9687653839
 40
1.0
 40
1.0
 40
1.0
 40
1.0
 10
5.6179744773
 20
4.5712010465
 30
0.0
 10
5.6340540398
 20
4.5712126367
 30
0.0
 10
5.6582030372
 20
4.5700395257
 30
0.0
 10
5.6901437664
 20
4.5661221195
 30
0.0
 10
5.7139367912
 20
4.5620070697
 30
0.0
 10
5.7374942401
 20
4.5567285698
 30
0.0
 10
5.760762734
 20
4.550300901
 30
0.0
 10
5.7836870668
 20
4.5427369301
 30
0.0
 10
5.8062131326
 20
4.5340560788
 30
0.0
 10
5.8282871055
 20
4.5242811038
 30
0.0
 10
5.8498540836
 20
4.5134330595
 30
0.0
 10
5.8708614832
 20
4.5015380209
 30
0.0
 10
5.8912601859
 20
4.4886272732
 30
0.0
 10
5.9110002786
 20
4.4747302813
 30
0.0
 10
5.9300333253
 20
4.4598794738
 30
0.0
 10
5.9483154372
 20
4.4441131798
 30
0.0
 10
5.965801983
 20
4.4274684969
 30
0.0
 10
5.9824488186
 20
4.4099837208
 30
0.0
 10
5.9982181523
 20
4.3917034505
 30
0.0
 10
6.013072105
 20
4.3726717284
 30
0.0
 10
6.0269720942
 20
4.3529324907
 30
0.0
 10
6.0398866315
 20
4.3325350304
 30
0.0
 10
6.0517857419
 20
4.3115291394
 30
0.0
 10
6.0626379839
 20
4.2899639563
 30
0.0
 10
6.0724180543
 20
4.267892123
 30
0.0
 10
6.0811046153
 20
4.2453677172
 30
0.0
 10
6.0886744985
 20
4.2224440413
 30
0.0
 10
6.0951089939
 20
4.1991762815
 30
0.0
 10
6.100395504
 20
4.1756211344
 30
0.0
 10
6.1045196504
 20
4.1518347058
 30
0.0
 10
6.1074698345
 20
4.127874123
 30
0.0
 10
6.1092422393
 20
4.1037975753
 30
0.0
 10
6.1098318037
 20
4.0796628988
 30
0.0
 10
6.1092341776
 20
4.055528377
 30
0.0
 10
6.1074541276
 20
4.0314522522
 30
0.0
 10
6.1044962852
 20
4.0074923693
 30
0.0
 10
6.1003644916
 20
3.983706954
 30
0.0
 10
6.0950710648
 20
3.960153028
 30
0.0
 10
6.0886300933
 20
3.9368867946
 30
0.0
 10
6.0810541088
 20
3.9139650334
 30
0.0
 10
6.0723624005
 20
3.8914427
 30
0.0
 10
6.062577932
 20
3.869373043
 30
0.0
 10
6.0517218499
 20
3.84781013
 30
0.0
 10
6.0398200743
 20
3.8268061884
 30
0.0
 10
6.0269038781
 20
3.8064103267
 30
0.0
 10
6.0130028981
 20
3.7866724912
 30
0.0
 10
5.9981491837
 20
3.7676414549
 30
0.0
 10
5.9823812222
 20
3.7493609772
 30
0.0
 10
5.9657363579
 20
3.7318753284
 30
0.0
 10
5.9482526586
 20
3.7152286173
 30
0.0
 10
5.9299744556
 20
3.6994585896
 30
0.0
 10
5.9109456919
 20
3.6846027988
 30
0.0
 10
5.8912101544
 20
3.6706994741
 30
0.0
 10
5.8708167223
 20
3.6577800518
 30
0.0
 10
5.8498146943
 20
3.6458745882
 30
0.0
 10
5.8282529489
 20
3.6350146931
 30
0.0
 10
5.806184546
 20
3.6252252395
 30
0.0
 10
5.7836639951
 20
3.616527742
 30
0.0
 10
5.7607447872
 20
3.608945318
 30
0.0
 10
5.7374810349
 20
3.6024967442
 30
0.0
 10
5.7139277626
 20
3.5971948736
 30
0.0
 10
5.6901383146
 20
3.5930541457
 30
0.0
 10
5.6582016221
 20
3.5890991624
 30
0.0
 10
5.6340541401
 20
3.5878939229
 30
0.0
 10
5.6179744773
 20
3.5878823589
 30
0.0
 11
5.6179744773
 21
4.5712010465
 31
0.0
 11
5.6661565848
 21
4.5688650875
 31
0.0
 11
5.69011685
 21
4.5659258809
 31
0.0
 11
5.7138996097
 21
4.5618127515
 31
0.0
 11
5.7374470028
 21
4.5565368186
 31
0.0
 11
5.760705139
 21
4.5501115931
 31
0.0
 11
5.7836201025
 21
4.5425509928
 31
0.0
 11
5.8061375085
 21
4.5338738364
 31
0.0
 11
5.8282026572
 21
4.5241022336
 31
0.0
 11
5.8497609342
 21
4.5132584998
 31
0.0
 11
5.870760096
 21
4.5013686991
 31
0.0
 11
5.891150427
 21
4.4884628935
 31
0.0
 11
5.9108823574
 21
4.474571372
 31
0.0
 11
5.9299080789
 21
4.4597269668
 31
0.0
 11
5.9481827811
 21
4.4439668376
 31
0.0
 11
5.9656619465
 21
4.4273285664
 31
0.0
 11
5.9823024953
 21
4.4098512184
 31
0.0
 11
5.9980655772
 21
4.3915782222
 31
0.0
 11
6.012913115
 21
4.372553804
 31
0.0
 11
6.0268078523
 21
4.3528227865
 31
0.0
 11
6.0397174351
 21
4.3324335553
 31
0.0
 11
6.0516113227
 21
4.311435814
 31
0.0
 11
6.0624593239
 21
4.2898794401
 31
0.0
 11
6.0722358443
 21
4.2678165932
 31
0.0
 11
6.0809185462
 21
4.24530105
 31
0.0
 11
6.0884852789
 21
4.2223866571
 31
0.0
 11
6.0949176574
 21
4.1991284071
 31
0.0
 11
6.1002017642
 21
4.1755826525
 31
0.0
 11
6.1043239681
 21
4.1518058295
 31
0.0
 11
6.1072735254
 21
4.1278549192
 31
0.0
 11
6.1090450972
 21
4.1037879223
 31
0.0
 11
6.1096339386
 21
4.0796629516
 31
0.0
 11
6.1090371072
 21
4.0555381206
 31
0.0
 11
6.1072578206
 21
4.0314715463
 31
0.0
 11
6.1043006118
 21
4.007521346
 31
0.0
 11
6.1001708762
 21
3.9837454854
 31
0.0
 11
6.0948797915
 21
3.9602009136
 31
0.0
 11
6.0884409112
 21
3.9369441618
 31
0.0
 11
6.0808681673
 21
3.9140316387
 31
0.0
 11
6.0721802892
 21
3.8915181834
 31
0.0
 11
6.0623993493
 21
3.8694575413
 31
0.0
 11
6.0515476122
 21
3.8479033753
 31
0.0
 11
6.039651021
 21
3.826907564
 31
0.0
 11
6.0267397155
 21
3.8065199504
 31
0.0
 11
6.0128440813
 21
3.7867902536
 31
0.0
 11
5.9979967754
 21
3.7677665072
 31
0.0
 11
5.9822350006
 21
3.7494933702
 31
0.0
 11
5.9655965012
 21
3.7320151001
 31
0.0
 11
5.9481202288
 21
3.7153747197
 31
0.0
 11
5.9298493442
 21
3.6996109476
 31
0.0
 11
5.9108279258
 21
3.6847615644
 31
0.0
 11
5.8911006293
 21
3.6708635401
 31
0.0
 11
5.8707154595
 21
3.6579491465
 31
0.0
 11
5.8497216249
 21
3.6460489658
 31
0.0
 11
5.8281686098
 21
3.6351931509
 31
0.0
 11
5.8061089305
 21
3.6254071279
 31
0.0
 11
5.7835969879
 21
3.6167133853
 31
0.0
 11
5.7606872023
 21
3.6091342394
 31
0.0
 11
5.7374337277
 21
3.6026880919
 31
0.0
 11
5.7138904075
 21
3.5973887955
 31
0.0
 11
5.6901110882
 21
3.5932499352
 31
0.0
 11
5.6661537304
 21
3.590282516
 31
0.0
 11
5.6179744773
 21
3.5878823589
 31
0.0
  0
SPLINE
  5
272
100
AcDbEntity
  8
0
100
AcDbSpline
 62
6
  6
CONTINUOUS
 70
0
 71
3
 72
69
 73
65
 74
63
 42
0.0000001
 43
0.0000001
 44
0.0000000001
 12
1.537421293
 22
0.0011132195
 32
0.0
 13
-1.5374212948
 23
-0.0011106929
 33
0.0
 40
0.0
 40
0.0
 40
0.0
 40
0.0
 40
0.0312344402
 40
0.046865015
 40
0.0624930379
 40
0.0781180924
 40
0.0937418759
 40
0.1093660031
 40
0.1249909682
 40
0.1406162858
 40
0.1562414956
 40
0.171866551
 40
0.1874915405
 40
0.2031165211
 40
0.2187416612
 40
0.234366969
 40
0.24999237
 40
0.2656179319
 40
0.2812436472
 40
0.2968693718
 40
0.3124950822
 40
0.3281208107
 40
0.3437464275
 40
0.3593718648
 40
0.3749972099
 40
0.3906224141
 40
0.4062474297
 40
0.4218723911
 40
0.4374973471
 40
0.4531223043
 40
0.4687473976
 40
0.4843726257
 40
0.4999978975
 40
0.515623259
 40
0.5312486921
 40
0.5468740394
 40
0.5624992695
 40
0.5781244717
 40
0.5937496046
 40
0.6093746932
 40
0.6249998723
 40
0.6406251238
 40
0.6562504494
 40
0.6718759478
 40
0.6875015273
 40
0.7031270588
 40
0.7187525806
 40
0.7343780462
 40
0.7500033144
 40
0.7656284134
 40
0.7812534463
 40
0.7968784008
 40
0.8125033762
 40
0.8281285503
 40
0.8437539717
 40
0.8593797396
 40
0.8750057045
 40
0.890631309
 40
0.9062560149
 40
0.9218803863
 40
0.9375060116
 40
0.9531345297
 40
0.9687653875
 40
1.0
 40
1.0
 40
1.0
 40
1.0
 10
5.6179744773
 20
4.56897687
 30
0.0
 10
5.6339813084
 20
4.5689884602
 30
0.0
 10
5.6580211145
 20
4.5678207302
 30
0.0
 10
5.6898174861
 20
4.563921103
 30
0.0
 10
5.7135030819
 20
4.5598246647
 30
0.0
 10
5.7369541781
 20
4.5545700011
 30
0.0
 10
5.7601175566
 20
4.5481714032
 30
0.0
 10
5.7829382251
 20
4.54064171
 30
0.0
 10
5.8053622968
 20
4.5320001467
 30
0.0
 10
5.8273362695
 20
4.5222694183
 30
0.0
 10
5.8488055719
 20
4.5114705217
 30
0.0
 10
5.8697178564
 20
4.4996293446
 30
0.0
 10
5.8900242302
 20
4.4867770369
 30
0.0
 10
5.9096750069
 20
4.4729429455
 30
0.0
 10
5.9286219421
 20
4.4581593284
 30
0.0
 10
5.9468213416
 20
4.4424643538
 30
0.0
 10
5.9642287848
 20
4.4258949725
 30
0.0
 10
5.9808003097
 20
4.4084892945
 30
0.0
 10
5.9964982895
 20
4.3902917145
 30
0.0
 10
6.0112850331
 20
4.3713460877
 30
0.0
 10
6.0251221324
 20
4.3516961483
 30
0.0
 10
6.0379782247
 20
4.331390955
 30
0.0
 10
6.0498234862
 20
4.3104800864
 30
0.0
 10
6.0606266265
 20
4.2890124628
 30
0.0
 10
6.0703624315
 20
4.2670404752
 30
0.0
 10
6.07900967
 20
4.2446179617
 30
0.0
 10
6.0865452844
 20
4.2217979912
 30
0.0
 10
6.0929506281
 20
4.1986355168
 30
0.0
 10
6.0982131785
 20
4.1751870233
 30
0.0
 10
6.1023186359
 20
4.1515083992
 30
0.0
 10
6.1052554716
 20
4.1276565108
 30
0.0
 10
6.1070198655
 20
4.1036892326
 30
0.0
 10
6.1076067134
 20
4.0796640707
 30
0.0
 10
6.10701183
 20
4.0556390088
 30
0.0
 10
6.1052399732
 20
4.0316720043
 30
0.0
 10
6.1022955867
 20
4.0078206632
 30
0.0
 10
6.0981825119
 20
3.9841429659
 30
0.0
 10
6.092913203
 20
3.9606956396
 30
0.0
 10
6.0865014822
 20
3.9375346686
 30
0.0
 10
6.0789597501
 20
3.9147166114
 30
0.0
 10
6.0703074898
 20
3.8922960781
 30
0.0
 10
6.0605673807
 20
3.870326132
 30
0.0
 10
6.0497603407
 20
3.8488606714
 30
0.0
 10
6.0379124311
 20
3.8279515527
 30
0.0
 10
6.0250546622
 20
3.8076477032
 30
0.0
 10
6.0112163999
 20
3.7879989333
 30
0.0
 10
5.9964296961
 20
3.7690537201
 30
0.0
 10
5.9807329019
 20
3.7508556457
 30
0.0
 10
5.9641631839
 20
3.7334488671
 30
0.0
 10
5.9467584558
 20
3.7168773245
 30
0.0
 10
5.9285628716
 20
3.7011785662
 30
0.0
 10
5.9096201611
 20
3.6863899496
 30
0.0
 10
5.8899739028
 20
3.6725495018
 30
0.0
 10
5.8696727379
 20
3.6596885119
 30
0.0
 10
5.8487657375
 20
3.6478368908
 30
0.0
 10
5.8273015543
 20
3.6370261007
 30
0.0
 10
5.8053330026
 20
3.6272809077
 30
0.0
 10
5.782914347
 20
3.6186227252
 30
0.0
 10
5.7600988387
 20
3.6110745634
 30
0.0
 10
5.7369403449
 20
3.6046551186
 30
0.0
 10
5.7134936416
 20
3.5993771843
 30
0.0
 10
5.6898118307
 20
3.5952551317
 30
0.0
 10
5.6580196317
 20
3.5913179566
 30
0.0
 10
5.6339813968
 20
3.5901180985
 30
0.0
 10
5.6179744773
 20
3.5901065345
 30
0.0
 11
5.6179744773
 21
4.56897687
 31
0.0
 11
5.6659386537
 21
4.5666516229
 31
0.0
 11
5.6897906537
 21
4.5637257522
 31
0.0
 11
5.7134660605
 21
4.5596312208
 31
0.0
 11
5.7369071817
 21
4.5543791134
 31
0.0
 11
5.7600602783
 21
4.5479829404
 31
0.0
 11
5.7828715978
 21
4.540456587
 31
0.0
 11
5.8052870272
 21
4.5318187218
 31
0.0
 11
5.8272522003
 21
4.522091369
 31
0.0
 11
5.8487128301
 21
4.5112967579
 31
0.0
 11
5.8696169173
 21
4.4994607956
 31
0.0
 11
5.889914962
 21
4.4866134082
 31
0.0
 11
5.9095576127
 21
4.4727847564
 31
0.0
 11
5.9284972585
 21
4.4580075127
 31
0.0
 11
5.9466892868
 21
4.4423186756
 31
0.0
 11
5.9640893823
 21
4.4257556727
 31
0.0
 11
5.9806546472
 21
4.4083573893
 31
0.0
 11
5.9963464054
 21
4.3901670533
 31
0.0
 11
6.0111267628
 21
4.3712286973
 31
0.0
 11
6.024958631
 21
4.3515869393
 31
0.0
 11
6.037809794
 21
4.3312899398
 31
0.0
 11
6.0496498582
 21
4.3103871839
 31
0.0
 11
6.0604487726
 21
4.2889283276
 31
0.0
 11
6.0701810449
 21
4.2669652875
 31
0.0
 11
6.0788244431
 21
4.244551597
 31
0.0
 11
6.0863569205
 21
4.2217408605
 31
0.0
 11
6.0927601645
 21
4.1985878395
 31
0.0
 11
6.0980203276
 21
4.1751486799
 31
0.0
 11
6.1021238523
 21
4.1514796138
 31
0.0
 11
6.1050600551
 21
4.1276373747
 31
0.0
 11
6.1068236056
 21
4.1036796305
 31
0.0
 11
6.1074097582
 21
4.0796641509
 31
0.0
 11
6.1068156695
 21
4.0556487282
 31
0.0
 11
6.1050445458
 21
4.0316912267
 31
0.0
 11
6.1021007937
 21
4.0078495249
 31
0.0
 11
6.0979897999
 21
3.9841813291
 31
0.0
 11
6.0927227894
 21
3.9607433193
 31
0.0
 11
6.0863131401
 21
3.9375917972
 31
0.0
 11
6.0787746813
 21
3.9147829185
 31
0.0
 11
6.0701262036
 21
3.892371229
 31
0.0
 11
6.060389587
 21
3.8704102718
 31
0.0
 11
6.0495869174
 21
3.8489534979
 31
0.0
 11
6.0377441512
 21
3.8280524818
 31
0.0
 11
6.0248912339
 21
3.8077568645
 31
0.0
 11
6.0110583175
 21
3.7881161809
 31
0.0
 11
5.9962779815
 21
3.7691782039
 31
0.0
 11
5.9805873222
 21
3.7509874267
 31
0.0
 11
5.9640239283
 21
3.7335879854
 31
0.0
 11
5.9466266016
 21
3.7170227476
 31
0.0
 11
5.9284383115
 21
3.7013302242
 31
0.0
 11
5.9095029218
 21
3.6865479908
 31
0.0
 11
5.8898648699
 21
3.6727128232
 31
0.0
 11
5.8695719322
 21
3.6598568397
 31
0.0
 11
5.8486730898
 21
3.6480104783
 31
0.0
 11
5.8272175977
 21
3.6372037514
 31
0.0
 11
5.80525773
 21
3.6274619728
 31
0.0
 11
5.7828476432
 21
3.6188075274
 31
0.0
 11
5.7600415135
 21
3.6112626293
 31
0.0
 11
5.7368932508
 21
3.6048455995
 31
0.0
 11
5.7134564549
 21
3.5995702274
 31
0.0
 11
5.6897847277
 21
3.5954500347
 31
0.0
 11
5.6659357638
 21
3.5924959771
 31
0.0
 11
5.6179744773
 21
3.5901065345
 31
0.0
  0
SPLINE
  5
273
100
AcDbEntity
  8
0
100
AcDbSpline
 62
6
  6
CONTINUOUS
 70
0
 71
3
 72
69
 73
65
 74
63
 42
0.0000001
 43
0.0000001
 44
0.0000000001
 12
1.5304346775
 22
0.0011132238
 32
0.0
 13
-1.5304346793
 23
-0.0011106866
 33
0.0
 40
0.0
 40
0.0
 40
0.0
 40
0.0
 40
0.031234442
 40
0.0468650585
 40
0.0624931742
 40
0.0781183481
 40
0.0937422488
 40
0.1093664674
 40
0.1249915008
 40
0.140616853
 40
0.1562420456
 40
0.1718670318
 40
0.1874919348
 40
0.2031168456
 40
0.2187419485
 40
0.2343672393
 40
0.2499926261
 40
0.2656181637
 40
0.2812438491
 40
0.2968695444
 40
0.3124952288
 40
0.3281209325
 40
0.3437465202
 40
0.3593719186
 40
0.3749972233
 40
0.3906224055
 40
0.4062474369
 40
0.4218724408
 40
0.4374974174
 40
0.4531223215
 40
0.468747267
 40
0.4843722923
 40
0.4999973525
 40
0.5156225279
 40
0.5312478
 40
0.5468730123
 40
0.5624981404
 40
0.5781232681
 40
0.5937483492
 40
0.6093734141
 40
0.6249985948
 40
0.6406238716
 40
0.6562492547
 40
0.6718748418
 40
0.6875005344
 40
0.7031262067
 40
0.7187519007
 40
0.7343775621
 40
0.7500030468
 40
0.7656283775
 40
0.7812536218
 40
0.7968787231
 40
0.812503745
 40
0.8281288902
 40
0.8437542523
 40
0.8593799701
 40
0.8750059067
 40
0.8906314958
 40
0.9062561873
 40
0.9218805325
 40
0.9375061211
 40
0.9531345947
 40
0.9687654159
 40
1.0
 40
1.0
 40
1.0
 40
1.0
 10
5.6179744773
 20
4.5667526946
 30
0.0
 10
5.6339085684
 20
4.5667642849
 30
0.0
 10
5.6578391551
 20
4.5656019359
 30
0.0
 10
5.6894911112
 20
4.5617201004
 30
0.0
 10
5.7130692069
 20
4.5576423028
 30
0.0
 10
5.7364139035
 20
4.5524115115
 30
0.0
 10
5.7594721894
 20
4.5460419802
 30
0.0
 10
5.7821892981
 20
4.5385464933
 30
0.0
 10
5.8045115472
 20
4.5299441312
 30
0.0
 10
5.8263856893
 20
4.5202575796
 30
0.0
 10
5.8477574282
 20
4.5095078183
 30
0.0
 10
5.8685745971
 20
4.4977204828
 30
0.0
 10
5.8887885717
 20
4.4849266079
 30
0.0
 10
5.9083499654
 20
4.4711554385
 30
0.0
 10
5.9272107384
 20
4.4564390286
 30
0.0
 10
5.9453273904
 20
4.4408153823
 30
0.0
 10
5.9626557133
 20
4.4243213249
 30
0.0
 10
5.9791519056
 20
4.4069947678
 30
0.0
 10
5.9947784985
 20
4.3888798978
 30
0.0
 10
6.009498003
 20
4.3700203891
 30
0.0
 10
6.0232721906
 20
4.3504597746
 30
0.0
 10
6.0360698164
 20
4.330246876
 30
0.0
 10
6.0478612096
 20
4.3094310669
 30
0.0
 10
6.0586152342
 20
4.2880610509
 30
0.0
 10
6.0683067685
 20
4.2661889562
 30
0.0
 10
6.0769146842
 20
4.2438683539
 30
0.0
 10
6.0844160268
 20
4.2211520573
 30
0.0
 10
6.0907922379
 20
4.1980947933
 30
0.0
 10
6.0960308572
 20
4.1747528502
 30
0.0
 10
6.1001176549
 20
4.1511819236
 30
0.0
 10
6.1030411343
 20
4.1274386334
 30
0.0
 10
6.1047974925
 20
4.1035805569
 30
0.0
 10
6.1053816242
 20
4.0796648797
 30
0.0
 10
6.104789481
 20
4.0557492826
 30
0.0
 10
6.1030257887
 20
4.0318914314
 30
0.0
 10
6.1000948376
 20
4.008148676
 30
0.0
 10
6.096000491
 20
3.9845787354
 30
0.0
 10
6.090755289
 20
3.9612380468
 30
0.0
 10
6.0843728105
 20
3.9381823758
 30
0.0
 10
6.0768653498
 20
3.9154680531
 30
0.0
 10
6.0682525468
 20
3.8931493543
 30
0.0
 10
6.058556798
 20
3.8712791544
 30
0.0
 10
6.0477988061
 20
3.8499111746
 30
0.0
 10
6.036004774
 20
3.8290969048
 30
0.0
 10
6.0232054533
 20
3.8088851032
 30
0.0
 10
6.0094299506
 20
3.7893254466
 30
0.0
 10
5.9947103247
 20
3.7704660922
 30
0.0
 10
5.9790847324
 20
3.7523504346
 30
0.0
 10
5.9625901063
 20
3.7350225006
 30
0.0
 10
5.9452642131
 20
3.7185260484
 30
0.0
 10
5.9271510877
 20
3.7028984359
 30
0.0
 10
5.9082943159
 20
3.6881768738
 30
0.0
 10
5.8887372878
 20
3.6743992461
 30
0.0
 10
5.868528385
 20
3.6615967301
 30
0.0
 10
5.8477164461
 20
3.6497990192
 30
0.0
 10
5.8263498763
 20
3.6390373708
 30
0.0
 10
5.8044812037
 20
3.6293364778
 30
0.0
 10
5.7821644613
 20
3.6207176355
 30
0.0
 10
5.759452677
 20
3.6132037404
 30
0.0
 10
5.7363994712
 20
3.606813444
 30
0.0
 10
5.7130593805
 20
3.60155947
 30
0.0
 10
5.689485258
 20
3.5974561019
 30
0.0
 10
5.6578376001
 20
3.5935367429
 30
0.0
 10
5.6339086409
 20
3.5923422748
 30
0.0
 10
5.6179744773
 20
3.5923307109
 30
0.0
 11
5.6179744773
 21
4.5667526946
 31
0.0
 11
5.6657206967
 21
4.564438161
 31
0.0
 11
5.689464375
 21
4.5615256383
 31
0.0
 11
5.7130323399
 21
4.5574497365
 31
0.0
 11
5.7363671217
 21
4.5522214902
 31
0.0
 11
5.7594151839
 21
4.5458543687
 31
0.0
 11
5.7821229805
 21
4.5383621955
 31
0.0
 11
5.8044366351
 21
4.5297635249
 31
0.0
 11
5.8263020322
 21
4.5200803405
 31
0.0
 11
5.8476651265
 21
4.5093348218
 31
0.0
 11
5.8684741219
 21
4.4975526925
 31
0.0
 11
5.8886797969
 21
4.4847637337
 31
0.0
 11
5.9082330903
 21
4.4709979767
 31
0.0
 11
5.9270866127
 21
4.4562879089
 31
0.0
 11
5.9451959385
 21
4.4406703714
 31
0.0
 11
5.9625169469
 21
4.4241826531
 31
0.0
 11
5.9790069039
 21
4.4068634575
 31
0.0
 11
5.9946273057
 21
4.3887558047
 31
0.0
 11
6.0093404526
 21
4.3699035349
 31
0.0
 11
6.0231094297
 21
4.3503510611
 31
0.0
 11
6.0359021535
 21
4.3301463191
 31
0.0
 11
6.0476883764
 21
4.309338584
 31
0.0
 11
6.0584381878
 21
4.2879772968
 31
0.0
 11
6.0681262012
 21
4.2661141183
 31
0.0
 11
6.0767302901
 21
4.2438023084
 31
0.0
 11
6.0842285143
 21
4.2210951994
 31
0.0
 11
6.0906026452
 21
4.1980473228
 31
0.0
 11
6.0958388953
 21
4.1747146451
 31
0.0
 11
6.0999237651
 21
4.1511532214
 31
0.0
 11
6.1028466088
 21
4.1274195561
 31
0.0
 11
6.1046021197
 21
4.1035709941
 31
0.0
 11
6.1051855785
 21
4.0796649728
 31
0.0
 11
6.1045942255
 21
4.0557589691
 31
0.0
 11
6.1028312418
 21
4.0319105796
 31
0.0
 11
6.0999009304
 21
4.0081774239
 31
0.0
 11
6.0958086796
 21
3.9846169329
 31
0.0
 11
6.0905657358
 21
3.9612855215
 31
0.0
 11
6.0841853127
 21
3.9382392634
 31
0.0
 11
6.0766811518
 21
3.9155340617
 31
0.0
 11
6.0680720849
 21
3.8932241744
 31
0.0
 11
6.0583797957
 21
3.871362938
 31
0.0
 11
6.0476261985
 21
3.8500035826
 31
0.0
 11
6.0358372658
 21
3.8291973836
 31
0.0
 11
6.0230427555
 21
3.8089937931
 31
0.0
 11
6.0092726017
 21
3.7894421703
 31
0.0
 11
5.9945593093
 21
3.7705900168
 31
0.0
 11
5.9789398119
 21
3.7524816323
 31
0.0
 11
5.9624514813
 21
3.7351610002
 31
0.0
 11
5.9451329509
 21
3.7186708035
 31
0.0
 11
5.92702707
 21
3.7030493814
 31
0.0
 11
5.9081775675
 21
3.6883341666
 31
0.0
 11
5.8886287131
 21
3.6745618115
 31
0.0
 11
5.8684280248
 21
3.6617642845
 31
0.0
 11
5.847624227
 21
3.6499718136
 31
0.0
 11
5.8262663102
 21
3.6392142207
 31
0.0
 11
5.8044062801
 21
3.6295167204
 31
0.0
 11
5.7820980625
 21
3.6209015933
 31
0.0
 11
5.7593956056
 21
3.6133909512
 31
0.0
 11
5.7363525859
 21
3.6070030573
 31
0.0
 11
5.7130223592
 21
3.6017516311
 31
0.0
 11
5.6894582817
 21
3.5976501186
 31
0.0
 11
5.6657177597
 21
3.5947094303
 31
0.0
 11
5.6179744773
 21
3.5923307109
 31
0.0
  0
SPLINE
  5
274
100
AcDbEntity
  8
0
100
AcDbSpline
 62
6
  6
CONTINUOUS
 70
0
 71
3
 72
65
 73
61
 74
59
 42
0.0000001
 43
0.0000001
 44
0.0000000001
 12
1.5233907918
 22
0.0011131886
 32
0.0
 13
-1.5233907937
 23
-0.001110638
 33
0.0
 40
0.0
 40
0.0
 40
0.0
 40
0.0
 40
0.0312356807
 40
0.0468669992
 40
0.0624958768
 40
0.0781218375
 40
0.0937465483
 40
0.1093716064
 40
0.1249975176
 40
0.1406237291
 40
0.1562496865
 40
0.1718753074
 40
0.1875007784
 40
0.2031262484
 40
0.2187519381
 40
0.2343778425
 40
0.2500038481
 40
0.2656299876
 40
0.2812562727
 40
0.2968825715
 40
0.3125088563
 40
0.3281351637
 40
0.3437613584
 40
0.3593873514
 40
0.3750132428
 40
0.3906390268
 40
0.4062646826
 40
0.4218903351
 40
0.437515984
 40
0.453141567
 40
0.4687671743
 40
0.5000090373
 40
0.5312509558
 40
0.5468766
 40
0.5625022093
 40
0.5781278718
 40
0.5937535295
 40
0.609379189
 40
0.6250049771
 40
0.6406308726
 40
0.6562568717
 40
0.6718830722
 40
0.6875093833
 40
0.7031356713
 40
0.7187619743
 40
0.7500050066
 40
0.7812475231
 40
0.796873217
 40
0.8124987007
 40
0.8281242006
 40
0.8437498667
 40
0.859375883
 40
0.8750021521
 40
0.8906281146
 40
0.9062532142
 40
0.9218779746
 40
0.937503994
 40
0.9531329289
 40
0.9687642675
 40
1.0
 40
1.0
 40
1.0
 40
1.0
 10
5.6179744773
 20
4.5645285209
 30
0.0
 10
5.6338358601
 20
4.5645401113
 30
0.0
 10
5.6576572951
 20
4.5633831143
 30
0.0
 10
5.6891649435
 20
4.5595190568
 30
0.0
 10
5.7126356585
 20
4.5554598972
 30
0.0
 10
5.7358740827
 20
4.5502529295
 30
0.0
 10
5.758827435
 20
4.5439123856
 30
0.0
 10
5.7814412057
 20
4.5364509873
 30
0.0
 10
5.8036618864
 20
4.5278876104
 30
0.0
 10
5.8254364634
 20
4.5182450209
 30
0.0
 10
5.8467109082
 20
4.5075443098
 30
0.0
 10
5.8674330733
 20
4.4958106152
 30
0.0
 10
5.8875546517
 20
4.4830749653
 30
0.0
 10
5.9070267116
 20
4.4693666593
 30
0.0
 10
5.9258012947
 20
4.4547173154
 30
0.0
 10
5.9438351164
 20
4.4391648054
 30
0.0
 10
5.9610843406
 20
4.4227460026
 30
0.0
 10
5.9775051871
 20
4.4054984614
 30
0.0
 10
5.9930602685
 20
4.3874661079
 30
0.0
 10
6.0077124836
 20
4.3686926
 30
0.0
 10
6.0214237829
 20
4.3492212464
 30
0.0
 10
6.034162783
 20
4.3291004609
 30
0.0
 10
6.0459001836
 20
4.3083795653
 30
0.0
 10
6.0566051311
 20
4.2871070987
 30
0.0
 10
6.0662522136
 20
4.2653347449
 30
0.0
 10
6.0748206134
 20
4.243115928
 30
0.0
 10
6.0822877154
 20
4.2205032838
 30
0.0
 10
6.0886346333
 20
4.1975510956
 30
0.0
 10
6.0938490871
 20
4.1743156513
 30
0.0
 10
6.0979172392
 20
4.150851767
 30
0.0
 10
6.1017964673
 20
4.1193452792
 30
0.0
 10
6.1037424634
 20
4.079661291
 30
0.0
 10
6.1017829938
 20
4.0399779617
 30
0.0
 10
6.097893422
 20
4.0084726913
 30
0.0
 10
6.0938177085
 20
3.985010085
 30
0.0
 10
6.0885962439
 20
3.9617761998
 30
0.0
 10
6.0822427564
 20
3.9388258226
 30
0.0
 10
6.0747695499
 20
3.9162151979
 30
0.0
 10
6.066195845
 20
3.893998435
 30
0.0
 10
6.056544162
 20
3.87222812
 30
0.0
 10
6.045835271
 20
3.8509576528
 30
0.0
 10
6.0340948543
 20
3.8302384413
 30
0.0
 10
6.0213538216
 20
3.8101190868
 30
0.0
 10
6.0076408975
 20
3.7906483657
 30
0.0
 10
5.988108552
 20
3.765622846
 30
0.0
 10
5.9614288852
 20
3.7361797633
 30
0.0
 10
5.9319889076
 20
3.7094971521
 30
0.0
 10
5.9069664942
 20
3.6899624301
 30
0.0
 10
5.8874985845
 20
3.6762474922
 30
0.0
 10
5.8673821841
 20
3.6635038496
 30
0.0
 10
5.8466655146
 20
3.6517603125
 30
0.0
 10
5.8253968863
 20
3.6410479499
 30
0.0
 10
5.8036283579
 20
3.6313915805
 30
0.0
 10
5.7814137748
 20
3.6228122777
 30
0.0
 10
5.7588059549
 20
3.6153327473
 30
0.0
 10
5.7358582432
 20
3.6089716737
 30
0.0
 10
5.7126249331
 20
3.6037417156
 30
0.0
 10
5.6891586154
 20
3.5996570586
 30
0.0
 10
5.6576555544
 20
3.5957555277
 30
0.0
 10
5.6338358865
 20
3.5945664485
 30
0.0
 10
5.6179744773
 20
3.5945548847
 30
0.0
 11
5.6179744773
 21
4.5645285209
 31
0.0
 11
5.6655028339
 21
4.5622246738
 31
0.0
 11
5.6891382997
 21
4.559325486
 31
0.0
 11
5.7125989455
 21
4.5552682012
 31
0.0
 11
5.7358275018
 21
4.5500637743
 31
0.0
 11
5.7587706746
 21
4.5437256306
 31
0.0
 11
5.7813751631
 21
4.5362675127
 31
0.0
 11
5.8035873237
 21
4.5277078269
 31
0.0
 11
5.8253532463
 21
4.5180686005
 31
0.0
 11
5.8466190678
 21
4.507372036
 31
0.0
 11
5.8673330766
 21
4.4956435629
 31
0.0
 11
5.8874463946
 21
4.4829128595
 31
0.0
 11
5.9069103466
 21
4.4692099084
 31
0.0
 11
5.9256777149
 21
4.4545668855
 31
0.0
 11
5.9437042837
 21
4.4390204832
 31
0.0
 11
5.9609462068
 21
4.4226079504
 31
0.0
 11
5.9773608264
 21
4.4053677323
 31
0.0
 11
5.9929097782
 21
4.3873425969
 31
0.0
 11
6.0075556674
 21
4.3685762882
 31
0.0
 11
6.0212617314
 21
4.3491130098
 31
0.0
 11
6.0339958914
 21
4.3290003721
 31
0.0
 11
6.045728173
 21
4.3082875154
 31
0.0
 11
6.0564288574
 21
4.2870237061
 31
0.0
 11
6.0660724649
 21
4.2652602576
 31
0.0
 11
6.0746370927
 21
4.2430502098
 31
0.0
 11
6.0821010221
 21
4.2204466806
 31
0.0
 11
6.0884458911
 21
4.1975038785
 31
0.0
 11
6.0936580441
 21
4.1742775414
 31
0.0
 11
6.0977241887
 21
4.1508235233
 31
0.0
 11
6.1006335032
 21
4.1271980679
 31
0.0
 11
6.1029614171
 21
4.0796614547
 31
0.0
 11
6.100617482
 21
4.0321255442
 31
0.0
 11
6.0977004034
 21
4.0085009894
 31
0.0
 11
6.0936267555
 21
3.9850482329
 31
0.0
 11
6.0884075737
 21
3.961823453
 31
0.0
 11
6.0820561402
 21
3.938882459
 31
0.0
 11
6.0745861625
 21
3.9162809218
 31
0.0
 11
6.0660162138
 21
3.8940729199
 31
0.0
 11
6.0563679982
 21
3.872311507
 31
0.0
 11
6.0456634149
 21
3.85104965
 31
0.0
 11
6.033928126
 21
3.8303384869
 31
0.0
 11
6.0211918378
 21
3.8102271899
 31
0.0
 11
6.007484472
 21
3.7907648225
 31
0.0
 11
5.9928382175
 21
3.7719987909
 31
0.0
 11
5.9608766266
 21
3.736731596
 31
0.0
 11
5.925613518
 21
3.7047666665
 31
0.0
 11
5.9068499859
 21
3.6901187179
 31
0.0
 11
5.8873905081
 21
3.6764093774
 31
0.0
 11
5.8672822507
 21
3.6636705999
 31
0.0
 11
5.8465737358
 21
3.6519322893
 31
0.0
 11
5.8253137077
 21
3.6412240156
 31
0.0
 11
5.803553799
 21
3.6315710044
 31
0.0
 11
5.7813477025
 21
3.6229953823
 31
0.0
 11
5.7587491473
 21
3.6155191039
 31
0.0
 11
5.7358115801
 21
3.6091604211
 31
0.0
 11
5.712588097
 21
3.6039329953
 31
0.0
 11
5.6891317902
 21
3.5998501915
 31
0.0
 11
5.6654997599
 21
3.5969228818
 31
0.0
 11
5.6179744773
 21
3.5945548847
 31
0.0
  0
SPLINE
  5
275
100
AcDbEntity
  8
0
100
AcDbSpline
 62
6
  6
CONTINUOUS
 70
0
 71
3
 72
67
 73
63
 74
61
 42
0.0000001
 43
0.0000001
 44
0.0000000001
 12
1.5164328959
 22
0.0011132161
 32
0.0
 13
-1.5164328978
 23
-0.0011106545
 33
0.0
 40
0.0
 40
0.0
 40
0.0
 40
0.0
 40
0.0312351213
 40
0.0468662107
 40
0.0624949063
 40
0.0781207101
 40
0.09374528
 40
0.1093702094
 40
0.1249960231
 40
0.1406221603
 40
0.1562480465
 40
0.1718735651
 40
0.1874988891
 40
0.2031241459
 40
0.2187495531
 40
0.2499914112
 40
0.2812338019
 40
0.2968598077
 40
0.3124857923
 40
0.328111797
 40
0.3437376924
 40
0.3593633806
 40
0.3749889612
 40
0.3906144414
 40
0.4062398005
 40
0.4218651692
 40
0.4374905703
 40
0.4531159535
 40
0.4687414017
 40
0.4843668985
 40
0.4999923035
 40
0.5156176173
 40
0.5312429195
 40
0.5468681617
 40
0.5624933845
 40
0.5781186904
 40
0.5937440208
 40
0.6093693687
 40
0.6249948563
 40
0.6406204602
 40
0.6562461611
 40
0.6718720555
 40
0.6874980642
 40
0.7031240511
 40
0.7187500486
 40
0.7343760355
 40
0.7500018775
 40
0.7656275771
 40
0.7812531778
 40
0.7968785743
 40
0.8125037554
 40
0.828128926
 40
0.8437542096
 40
0.8593797593
 40
0.8750055105
 40
0.8906309536
 40
0.906255567
 40
0.9218798624
 40
0.9375054345
 40
0.9531339422
 40
0.968764901
 40
1.0
 40
1.0
 40
1.0
 40
1.0
 10
5.6179744773
 20
4.5623043445
 30
0.0
 10
5.6337631325
 20
4.562315935
 30
0.0
 10
5.6574753711
 20
4.5611643076
 30
0.0
 10
5.688838635
 20
4.5573180387
 30
0.0
 10
5.7122018776
 20
4.5532775237
 30
0.0
 10
5.7353339326
 20
4.5480944165
 30
0.0
 10
5.7581822461
 20
4.541782911
 30
0.0
 10
5.7806925634
 20
4.5343556722
 30
0.0
 10
5.8028115874
 20
4.5258313951
 30
0.0
 10
5.8244865693
 20
4.5162328284
 30
0.0
 10
5.8456637512
 20
4.5055810995
 30
0.0
 10
5.8662910973
 20
4.4939009524
 30
0.0
 10
5.8863203963
 20
4.4812235302
 30
0.0
 10
5.9057035849
 20
4.4675777497
 30
0.0
 10
5.9306162607
 20
4.4481389927
 30
0.0
 10
5.9599255834
 20
4.4215834011
 30
0.0
 10
5.9864843781
 20
4.3922765857
 30
0.0
 10
6.005926508
 20
4.3673653558
 30
0.0
 10
6.0195752078
 20
4.347982982
 30
0.0
 10
6.0322555205
 20
4.3279544483
 30
0.0
 10
6.0439389457
 20
4.3073284814
 30
0.0
 10
6.0545947898
 20
4.2861535952
 30
0.0
 10
6.0641974505
 20
4.2644810264
 30
0.0
 10
6.0727263546
 20
4.2423640518
 30
0.0
 10
6.0801592014
 20
4.2198551015
 30
0.0
 10
6.0864768676
 20
4.1970081343
 30
0.0
 10
6.0916672107
 20
4.1738790133
 30
0.0
 10
6.095716658
 20
4.1505230216
 30
0.0
 10
6.098613098
 20
4.1269961718
 30
0.0
 10
6.1003528385
 20
4.1033556645
 30
0.0
 10
6.1009314984
 20
4.079658309
 30
0.0
 10
6.1003445989
 20
4.0559612514
 30
0.0
 10
6.0985964553
 20
4.0323216134
 30
0.0
 10
6.0956919594
 20
4.0087960505
 30
0.0
 10
6.0916349408
 20
3.9854416135
 30
0.0
 10
6.0864372047
 20
3.962314309
 30
0.0
 10
6.0801127071
 20
3.9394693198
 30
0.0
 10
6.0726737705
 20
3.9169624125
 30
0.0
 10
6.0641391901
 20
3.8948476236
 30
0.0
 10
6.0545315957
 20
3.873177237
 30
0.0
 10
6.0438718204
 20
3.8520043157
 30
0.0
 10
6.0321851169
 20
3.8313802432
 30
0.0
 10
6.0195022647
 20
3.8113532021
 30
0.0
 10
6.0058525149
 20
3.7919721152
 30
0.0
 10
5.9912670493
 20
3.7732850857
 30
0.0
 10
5.9757837404
 20
3.7553350912
 30
0.0
 10
5.959439564
 20
3.7381653963
 30
0.0
 10
5.9422716817
 20
3.7218195941
 30
0.0
 10
5.9243235732
 20
3.7063349739
 30
0.0
 10
5.9056388617
 20
3.6917480294
 30
0.0
 10
5.886260568
 20
3.6780962967
 30
0.0
 10
5.8662363002
 20
3.6654112015
 30
0.0
 10
5.8456147438
 20
3.6537217098
 30
0.0
 10
5.8244439025
 20
3.643058512
 30
0.0
 10
5.8027754583
 20
3.6334466354
 30
0.0
 10
5.7806630211
 20
3.6249068882
 30
0.0
 10
5.7581591697
 20
3.6174617448
 30
0.0
 10
5.7353169532
 20
3.6111299014
 30
0.0
 10
5.7121904243
 20
3.605923959
 30
0.0
 10
5.6888319222
 20
3.6018580048
 30
0.0
 10
5.6574734796
 20
3.5979743032
 30
0.0
 10
5.6337631212
 20
3.5967906237
 30
0.0
 10
5.6179744773
 20
3.5967790599
 30
0.0
 11
5.6179744773
 21
4.5623043445
 31
0.0
 11
5.6652849136
 21
4.5600112003
 31
0.0
 11
5.6888120902
 21
4.5571253573
 31
0.0
 11
5.7121653195
 21
4.5530867027
 31
0.0
 11
5.735287557
 21
4.5479061284
 31
0.0
 11
5.7581257399
 21
4.5415970126
 31
0.0
 11
5.7806268026
 21
4.5341730273
 31
0.0
 11
5.8027373539
 21
4.5256524381
 31
0.0
 11
5.8244037393
 21
4.5160572352
 31
0.0
 11
5.8455723363
 21
4.5054095767
 31
0.0
 11
5.866191553
 21
4.4937346626
 31
0.0
 11
5.8862127477
 21
4.4810621137
 31
0.0
 11
5.9055875152
 21
4.4674219051
 31
0.0
 11
5.924268762
 21
4.4528459412
 31
0.0
 11
5.9593752772
 21
4.4210334223
 31
0.0
 11
5.9911920294
 21
4.3859296535
 31
0.0
 11
6.0057706577
 21
4.3672493342
 31
0.0
 11
6.0194138093
 21
4.3478752893
 31
0.0
 11
6.0320894134
 21
4.3278548071
 31
0.0
 11
6.0437677484
 21
4.3072368709
 31
0.0
 11
6.0544192977
 21
4.2860705674
 31
0.0
 11
6.0640185211
 21
4.2644068862
 31
0.0
 11
6.0725437052
 21
4.2422986482
 31
0.0
 11
6.0799733388
 21
4.2197987637
 31
0.0
 11
6.0862889759
 21
4.1969611265
 31
0.0
 11
6.0914770619
 21
4.1738411992
 31
0.0
 11
6.0955244843
 21
4.1504945858
 31
0.0
 11
6.0984203118
 21
4.1269772551
 31
0.0
 11
6.1001593276
 21
4.1033461321
 31
0.0
 11
6.1007372387
 21
4.0796582962
 31
0.0
 11
6.1001510573
 21
4.0559708018
 31
0.0
 11
6.0984037262
 21
4.0323405881
 31
0.0
 11
6.0954998711
 21
4.008824562
 31
0.0
 11
6.091444831
 21
3.9854795174
 31
0.0
 11
6.0862494166
 21
3.9623613838
 31
0.0
 11
6.0799269745
 21
3.9395256899
 31
0.0
 11
6.072491195
 21
3.9170278537
 31
0.0
 11
6.0639603882
 21
3.8949217725
 31
0.0
 11
6.054356268
 21
3.8732602231
 31
0.0
 11
6.043700728
 21
3.8520959069
 31
0.0
 11
6.0320191339
 21
3.8314798189
 31
0.0
 11
6.0193411136
 21
3.8114608593
 31
0.0
 11
6.0056965644
 21
3.7920877943
 31
0.0
 11
5.9911173973
 21
3.7734079115
 31
0.0
 11
5.9756401963
 21
3.7554650685
 31
0.0
 11
5.9593022058
 21
3.7383026378
 31
0.0
 11
5.9421415791
 21
3.7219630658
 31
0.0
 11
5.9242006922
 21
3.7064844935
 31
0.0
 11
5.9055231484
 21
3.6919038113
 31
0.0
 11
5.8861528937
 21
3.6782573941
 31
0.0
 11
5.8661368281
 21
3.6655771803
 31
0.0
 11
5.8455233581
 21
3.6538928451
 31
0.0
 11
5.8243610724
 21
3.6432337826
 31
0.0
 11
5.8027012419
 21
3.6336252357
 31
0.0
 11
5.7805972751
 21
3.6250891394
 31
0.0
 11
5.7581026333
 21
3.617647247
 31
0.0
 11
5.7352705137
 21
3.6113177821
 31
0.0
 11
5.7121537686
 21
3.6061143548
 31
0.0
 11
5.6888052432
 21
3.6020502544
 31
0.0
 11
5.6652817283
 21
3.5991363248
 31
0.0
 11
5.6179744773
 21
3.5967790599
 31
0.0
  0
SPLINE
  5
276
100
AcDbEntity
  8
0
100
AcDbSpline
 62
6
  6
CONTINUOUS
 70
0
 71
3
 72
52
 73
48
 74
46
 42
0.0000001
 43
0.0000001
 44
0.0000000001
 12
0.8134481794
 22
-0.795113777
 32
0.0
 13
-1.1374986411
 23
-0.0008369697
 33
0.0
 40
0.0
 40
0.0
 40
0.0
 40
0.0
 40
0.0312480495
 40
0.0624965566
 40
0.0781234792
 40
0.0937504266
 40
0.1093773824
 40
0.12500426
 40
0.1406309908
 40
0.1562576105
 40
0.1718841815
 40
0.187510688
 40
0.2031371084
 40
0.2187634995
 40
0.2343899428
 40
0.2500164291
 40
0.2656429259
 40
0.2812694621
 40
0.3125174321
 40
0.328144053
 40
0.3437705641
 40
0.375018103
 40
0.4062653714
 40
0.4375125689
 40
0.4687598554
 40
0.5000074237
 40
0.5312554084
 40
0.562503783
 40
0.5937525246
 40
0.6093795408
 40
0.6250065784
 40
0.656255247
 40
0.671882063
 40
0.6875087745
 40
0.7031354203
 40
0.7187619573
 40
0.7343883383
 40
0.7500146044
 40
0.7812618518
 40
0.7968882373
 40
0.8125147792
 40
0.843762623
 40
0.8750087491
 40
0.9062542331
 40
0.9375060006
 40
0.9687633784
 40
1.0
 40
1.0
 40
1.0
 40
1.0
 10
5.9539345712
 20
4.4232846179
 30
0.0
 10
5.9624074609
 20
4.4150026996
 30
0.0
 10
5.9787447711
 20
4.3978037118
 30
0.0
 10
5.9975208922
 20
4.3748565409
 30
0.0
 10
6.0114900653
 20
4.3557067517
 30
0.0
 10
6.021428802
 20
4.3409641373
 30
0.0
 10
6.0308156182
 20
4.3258643874
 30
0.0
 10
6.0396379671
 20
4.3104280639
 30
0.0
 10
6.0478831452
 20
4.2946760307
 30
0.0
 10
6.0555387045
 20
4.2786292918
 30
0.0
 10
6.0625956007
 20
4.2623105314
 30
0.0
 10
6.0690446044
 20
4.2457422077
 30
0.0
 10
6.0748766222
 20
4.2289468277
 30
0.0
 10
6.0800821931
 20
4.2119468773
 30
0.0
 10
6.0846553157
 20
4.1947659591
 30
0.0
 10
6.088590479
 20
4.1774278541
 30
0.0
 10
6.0918822203
 20
4.1599557681
 30
0.0
 10
6.0954048249
 20
4.136516644
 30
0.0
 10
6.0976233502
 20
4.1128964567
 30
0.0
 10
6.0985292957
 20
4.0892111898
 30
0.0
 10
6.0985581053
 20
4.0655082744
 30
0.0
 10
6.0969480991
 20
4.035901759
 30
0.0
 10
6.0923993915
 20
4.0006182219
 30
0.0
 10
6.0852514385
 20
3.9657673724
 30
0.0
 10
6.0755514962
 20
3.9315390419
 30
0.0
 10
6.0633445038
 20
3.8981223106
 30
0.0
 10
6.0487050901
 20
3.8656966988
 30
0.0
 10
6.0317064829
 20
3.8344437089
 30
0.0
 10
6.0156551932
 20
3.8095126957
 30
0.0
 10
6.0017378582
 20
3.7903248165
 30
0.0
 10
5.9871202173
 20
3.7716655942
 30
0.0
 10
5.9714776392
 20
3.7538283328
 30
0.0
 10
5.9548857659
 20
3.7369010724
 30
0.0
 10
5.9419784107
 20
3.724673312
 30
0.0
 10
5.9286284569
 20
3.7129310401
 30
0.0
 10
5.9148542093
 20
3.7016896943
 30
0.0
 10
5.900673949
 20
3.6909647346
 30
0.0
 10
5.8812536904
 20
3.6773767089
 30
0.0
 10
5.8610918996
 20
3.6648742029
 30
0.0
 10
5.8402875429
 20
3.6535174861
 30
0.0
 10
5.8190764839
 20
3.6429382013
 30
0.0
 10
5.7918510925
 20
3.6311953916
 30
0.0
 10
5.7582351675
 20
3.6195542312
 30
0.0
 10
5.7238485367
 20
3.6104291111
 30
0.0
 10
5.6888776478
 20
3.603866026
 30
0.0
 10
5.6535224859
 20
3.5999081774
 30
0.0
 10
5.6298183489
 20
3.5990119512
 30
0.0
 10
5.6179744773
 20
3.5990032365
 30
0.0
 11
5.9539345712
 21
4.4232846179
 31
0.0
 11
5.9784154192
 21
4.3975143182
 31
0.0
 11
6.0009245562
 21
4.3700043926
 31
0.0
 11
6.0114002188
 21
4.3556435871
 31
0.0
 11
6.021336815
 21
4.3409046149
 31
0.0
 11
6.0307215623
 21
4.3258082545
 31
0.0
 11
6.0395418089
 21
4.3103753781
 31
0.0
 11
6.047784903
 21
4.2946268581
 31
0.0
 11
6.0554389408
 21
4.2785839252
 31
0.0
 11
6.0624942993
 21
4.2622689032
 31
0.0
 11
6.0689417887
 21
4.2457043237
 31
0.0
 11
6.0747722193
 21
4.2289127183
 31
0.0
 11
6.0799767785
 21
4.2119167391
 31
0.0
 11
6.0845489836
 21
4.1947397836
 31
0.0
 11
6.08848324
 21
4.1774055336
 31
0.0
 11
6.0917739552
 21
4.1599376712
 31
0.0
 11
6.0944156945
 21
4.142359906
 31
0.0
 11
6.0977403764
 21
4.1069712028
 31
0.0
 11
6.0984196455
 21
4.0892089215
 31
0.0
 11
6.0984411418
 21
4.0714337945
 31
0.0
 11
6.0965119598
 21
4.0359421445
 31
0.0
 11
6.0919661777
 21
4.0006902941
 31
0.0
 11
6.0848261202
 21
3.9658711766
 31
0.0
 11
6.0751337035
 21
3.9316744572
 31
0.0
 11
6.062939186
 21
3.898287707
 31
0.0
 11
6.0483119898
 21
3.8658923347
 31
0.0
 11
6.0313295269
 21
3.8346666642
 31
0.0
 11
6.0120870943
 21
3.8047801286
 31
0.0
 11
6.0016503153
 21
3.790390908
 31
0.0
 11
5.9906882475
 21
3.7763976966
 31
0.0
 11
5.9672515226
 21
3.7496733586
 31
0.0
 11
5.9548086517
 21
3.7369791515
 31
0.0
 11
5.9419046128
 21
3.7247541981
 31
0.0
 11
5.9285576938
 21
3.7130144877
 31
0.0
 11
5.9147864752
 21
3.7017757073
 31
0.0
 11
5.9006095377
 21
3.6910535442
 31
0.0
 11
5.8860457082
 21
3.6808633251
 31
0.0
 11
5.8558386517
 21
3.66213129
 31
0.0
 11
5.8402367784
 21
3.653614714
 31
0.0
 11
5.8243303543
 21
3.6456810819
 31
0.0
 11
5.791692607
 21
3.6316034016
 31
0.0
 11
5.7581067263
 21
3.6199735547
 31
0.0
 11
5.7237541816
 21
3.6108567854
 31
0.0
 11
5.6888151433
 21
3.6043005266
 31
0.0
 11
5.6534808285
 21
3.6003431418
 31
0.0
 11
5.6179744773
 21
3.5990032365
 31
0.0
  0
SPLINE
  5
277
100
AcDbEntity
  8
0
100
AcDbSpline
 62
6
  6
CONTINUOUS
 70
0
 71
3
 72
51
 73
47
 74
45
 42
0.0000001
 43
0.0000001
 44
0.0000000001
 12
-1.1483566129
 22
-0.0008258677
 32
0.0
 13
0.7910782968
 23
0.8324173957
 33
0.0
 40
0.0
 40
0.0
 40
0.0
 40
0.0
 40
0.031236929
 40
0.0624940557
 40
0.0781236257
 40
0.0937506623
 40
0.1093761749
 40
0.1250011345
 40
0.1562474723
 40
0.1874958192
 40
0.2031225637
 40
0.2187491221
 40
0.2499967717
 40
0.2656231092
 40
0.2812495129
 40
0.3124974952
 40
0.3281241917
 40
0.3437509927
 40
0.3749998166
 40
0.3906268781
 40
0.406253918
 40
0.4375028722
 40
0.4687515435
 40
0.4999998542
 40
0.5312477672
 40
0.5624953197
 40
0.5937429814
 40
0.624991089
 40
0.6562397227
 40
0.6718666568
 40
0.6874936327
 40
0.7187423803
 40
0.7343691527
 40
0.7499958006
 40
0.7812438646
 40
0.7968705048
 40
0.812497243
 40
0.8437454472
 40
0.8593715775
 40
0.8749970452
 40
0.8906222776
 40
0.9062481743
 40
0.9218756279
 40
0.9375055672
 40
0.9687630231
 40
1.0
 40
1.0
 40
1.0
 40
1.0
 10
5.6179744773
 20
3.5878823589
 30
0.0
 10
5.6060174327
 20
3.5878737597
 30
0.0
 10
5.5820865663
 20
3.5887317402
 30
0.0
 10
5.55233069
 20
3.5919748916
 30
0.0
 10
5.5287152536
 20
3.5958663675
 30
0.0
 10
5.5111225024
 20
3.5994291795
 30
0.0
 10
5.493672938
 20
3.6036301718
 30
0.0
 10
5.470629663
 20
3.6100741033
 30
0.0
 10
5.4422884834
 20
3.619700271
 30
0.0
 10
5.4147223715
 20
3.6313630416
 30
0.0
 10
5.3932265743
 20
3.6418773979
 30
0.0
 10
5.3721295776
 20
3.6531689019
 30
0.0
 10
5.3516627836
 20
3.6656062436
 30
0.0
 10
5.3319231931
 20
3.6791312102
 30
0.0
 10
5.3126901569
 20
3.6933675338
 30
0.0
 10
5.2942471276
 20
3.7086462395
 30
0.0
 10
5.276680869
 20
3.7248950171
 30
0.0
 10
5.2597189309
 20
3.7417741302
 30
0.0
 10
5.2436905635
 20
3.7595703962
 30
0.0
 10
5.2286702151
 20
3.7781985206
 30
0.0
 10
5.214338759
 20
3.7973623397
 30
0.0
 10
5.1977490657
 20
3.8222783441
 30
0.0
 10
5.1800703941
 20
3.8535417461
 30
0.0
 10
5.164718075
 20
3.8860113559
 30
0.0
 10
5.1517663034
 20
3.919510221
 30
0.0
 10
5.1412912552
 20
3.9538639491
 30
0.0
 10
5.1333406632
 20
3.9888884063
 30
0.0
 10
5.1279637557
 20
4.0243987091
 30
0.0
 10
5.1256461414
 20
4.0542421291
 30
0.0
 10
5.1250992094
 20
4.0781656254
 30
0.0
 10
5.1254249046
 20
4.1020927457
 30
0.0
 10
5.1270566836
 20
4.1259872562
 30
0.0
 10
5.1299876435
 20
4.1497363188
 30
0.0
 10
5.1337826002
 20
4.1733624601
 30
0.0
 10
5.1388656059
 20
4.196766529
 30
0.0
 10
5.1452123501
 20
4.2198384655
 30
0.0
 10
5.1523960847
 20
4.2426636964
 30
0.0
 10
5.1608225596
 20
4.265082065
 30
0.0
 10
5.1704497179
 20
4.2869879185
 30
0.0
 10
5.1782645411
 20
4.3031452614
 30
0.0
 10
5.1866626287
 20
4.3190067946
 30
0.0
 10
5.1956325115
 20
4.3345530362
 30
0.0
 10
5.2051630892
 20
4.3497643405
 30
0.0
 10
5.2186014379
 20
4.3695699562
 30
0.0
 10
5.2367358829
 20
4.3933834968
 30
0.0
 10
5.2525876492
 20
4.4113319518
 30
0.0
 10
5.260824614
 20
4.4199993528
 30
0.0
 11
5.6179744773
 21
3.5878823589
 31
0.0
 11
5.5821262826
 21
3.5891652672
 31
0.0
 11
5.5464434068
 21
3.5930557467
 31
0.0
 11
5.528733905
 21
3.5959739495
 31
0.0
 11
5.5111455096
 21
3.5995357305
 31
0.0
 11
5.4937002822
 21
3.6037356313
 31
0.0
 11
5.4764202721
 21
3.6085681862
 31
0.0
 11
5.4424443393
 21
3.6201072578
 31
0.0
 11
5.4093962985
 21
3.6340896312
 31
0.0
 11
5.3932763355
 21
3.6419745973
 31
0.0
 11
5.3774549433
 21
3.6504422875
 31
0.0
 11
5.346789689
 21
3.669077321
 31
0.0
 11
5.331986551
 21
3.6792201129
 31
0.0
 11
5.3175631621
 21
3.689896147
 31
0.0
 11
5.2899297994
 21
3.7127882196
 31
0.0
 11
5.2767564732
 21
3.7249737599
 31
0.0
 11
5.2640362694
 21
3.7376317472
 31
0.0
 11
5.2400204535
 21
3.764295574
 31
0.0
 11
5.2287563326
 21
3.7782654896
 31
0.0
 11
5.2180090069
 21
3.7926367478
 31
0.0
 11
5.1981203747
 21
3.8225059984
 31
0.0
 11
5.1804580256
 21
3.8537429624
 31
0.0
 11
5.165118078
 21
3.886183104
 31
0.0
 11
5.152179031
 21
3.9196528674
 31
0.0
 11
5.14171201
 21
3.9539756844
 31
0.0
 11
5.1337696542
 21
3.9889691448
 31
0.0
 11
5.1283964301
 21
4.0244485544
 31
0.0
 11
5.1256184029
 21
4.0602254459
 31
0.0
 11
5.125208297
 21
4.0781660569
 31
0.0
 11
5.125452363
 21
4.0961097429
 31
0.0
 11
5.1278975417
 21
4.1319110542
 31
0.0
 11
5.1300956631
 21
4.149721032
 31
0.0
 11
5.1329414602
 21
4.1674389143
 31
0.0
 11
5.1405572234
 21
4.202505374
 31
0.0
 11
5.1453169702
 21
4.2198075823
 31
0.0
 11
5.1507041907
 21
4.2369249271
 31
0.0
 11
5.1633289935
 21
4.2705148415
 31
0.0
 11
5.1705488503
 21
4.2869426915
 31
0.0
 11
5.1783617979
 21
4.3030960542
 31
0.0
 11
5.1867577417
 21
4.3189539136
 31
0.0
 11
5.1957254968
 21
4.3344964464
 31
0.0
 11
5.2052538368
 21
4.3497038742
 31
0.0
 11
5.2153315169
 21
4.3645564142
 31
0.0
 11
5.2370772035
 21
4.3931143503
 31
0.0
 11
5.260824614
 21
4.4199993528
 31
0.0
  0
SPLINE
  5
278
100
AcDbEntity
  8
0
100
AcDbSpline
 62
6
  6
CONTINUOUS
 70
0
 71
3
 72
52
 73
48
 74
46
 42
0.0000001
 43
0.0000001
 44
0.0000000001
 12
0.8093427768
 22
-0.791576637
 32
0.0
 13
-1.1320903684
 23
-0.0008368581
 33
0.0
 40
0.0
 40
0.0
 40
0.0
 40
0.0
 40
0.0312475384
 40
0.0624954928
 40
0.0781221791
 40
0.0937489342
 40
0.1093757306
 40
0.1250024758
 40
0.1406291014
 40
0.1562556476
 40
0.17188217
 40
0.1875086488
 40
0.2031350657
 40
0.2187614847
 40
0.2343879811
 40
0.2500145402
 40
0.2656411307
 40
0.2812677879
 40
0.3125160867
 40
0.3281429239
 40
0.3437697024
 40
0.3750178649
 40
0.4062655898
 40
0.4375128782
 40
0.4687600988
 40
0.5000076656
 40
0.5312556973
 40
0.5625041051
 40
0.5937528676
 40
0.6093798952
 40
0.6250069463
 40
0.6562556417
 40
0.6718824642
 40
0.6875091763
 40
0.7031358236
 40
0.7187623707
 40
0.7343887775
 40
0.7500150901
 40
0.7812624778
 40
0.7968889422
 40
0.8125155598
 40
0.8437635134
 40
0.8750095811
 40
0.9062547402
 40
0.9375061527
 40
0.9687633903
 40
1.0
 40
1.0
 40
1.0
 40
1.0
 10
5.9524822946
 20
4.4215939254
 30
0.0
 10
5.9609122844
 20
4.4133489849
 30
0.0
 10
5.977166608
 20
4.3962272952
 30
0.0
 10
5.9958467067
 20
4.3733843439
 30
0.0
 10
6.0097438777
 20
4.3543219897
 30
0.0
 10
6.0196312682
 20
4.3396469822
 30
0.0
 10
6.0289694019
 20
4.3246167225
 30
0.0
 10
6.0377457579
 20
4.3092516518
 30
0.0
 10
6.0459475882
 20
4.2935724755
 30
0.0
 10
6.0535626684
 20
4.2776001829
 30
0.0
 10
6.0605820355
 20
4.2613573548
 30
0.0
 10
6.0669964288
 20
4.2448663019
 30
0.0
 10
6.0727967152
 20
4.2281493876
 30
0.0
 10
6.0779735288
 20
4.2112290088
 30
0.0
 10
6.08252107
 20
4.1941286987
 30
0.0
 10
6.0864337377
 20
4.176872085
 30
0.0
 10
6.0897060463
 20
4.1594822477
 30
0.0
 10
6.0932068064
 20
4.1361535944
 30
0.0
 10
6.0954100124
 20
4.1126450196
 30
0.0
 10
6.0963069401
 20
4.0890718772
 30
0.0
 10
6.0963308469
 20
4.0654812354
 30
0.0
 10
6.0947228126
 20
4.0360152953
 30
0.0
 10
6.0901893187
 20
4.0008999033
 30
0.0
 10
6.0830692788
 20
3.9662158195
 30
0.0
 10
6.0734097846
 20
3.9321518351
 30
0.0
 10
6.0612556408
 20
3.8988958991
 30
0.0
 10
6.0466811182
 20
3.8666265606
 30
0.0
 10
6.0297590655
 20
3.8355244493
 30
0.0
 10
6.0137809102
 20
3.8107139997
 30
0.0
 10
5.9999274416
 20
3.7916190014
 30
0.0
 10
5.9853771381
 20
3.7730501657
 30
0.0
 10
5.9698069921
 20
3.7552994002
 30
0.0
 10
5.9532923
 20
3.7384542764
 30
0.0
 10
5.9404451404
 20
3.7262858882
 30
0.0
 10
5.9271575805
 20
3.7146006662
 30
0.0
 10
5.9134478345
 20
3.7034139585
 30
0.0
 10
5.899334093
 20
3.6927411336
 30
0.0
 10
5.8800050576
 20
3.6792191619
 30
0.0
 10
5.8599381575
 20
3.666777484
 30
0.0
 10
5.8392319054
 20
3.6554760188
 30
0.0
 10
5.8181209995
 20
3.6449482054
 30
0.0
 10
5.791024376
 20
3.6332626923
 30
0.0
 10
5.7575679195
 20
3.6216782674
 30
0.0
 10
5.7233447688
 20
3.6125976912
 30
0.0
 10
5.6885403149
 20
3.606066663
 30
0.0
 10
5.6533534046
 20
3.6021280561
 30
0.0
 10
5.6297620323
 20
3.6012361241
 30
0.0
 10
5.6179744773
 20
3.6012274106
 30
0.0
 11
5.9524822946
 21
4.4215939254
 31
0.0
 11
5.9768388085
 21
4.3959394097
 31
0.0
 11
5.9992327594
 21
4.3685544097
 31
0.0
 11
6.0096544597
 21
4.3542591838
 31
0.0
 11
6.0195397148
 21
4.3395877896
 31
0.0
 11
6.0288757862
 21
4.324560897
 31
0.0
 11
6.0376500329
 21
4.3091992474
 31
0.0
 11
6.0458498163
 21
4.2935235835
 31
0.0
 11
6.0534633905
 21
4.2775550771
 31
0.0
 11
6.0604812158
 21
4.2613159612
 31
0.0
 11
6.066894088
 21
4.2448286303
 31
0.0
 11
6.0726928026
 21
4.2281154787
 31
0.0
 11
6.0778686396
 21
4.211199057
 31
0.0
 11
6.0824152494
 21
4.1941026816
 31
0.0
 11
6.0863270067
 21
4.1768499026
 31
0.0
 11
6.0895982863
 21
4.1594642702
 31
0.0
 11
6.0922236756
 21
4.1419693713
 31
0.0
 11
6.0955253078
 21
4.1067478712
 31
0.0
 11
6.0961978036
 21
4.089069661
 31
0.0
 11
6.0962156491
 21
4.0713787397
 31
0.0
 11
6.0942888052
 21
4.0360555009
 31
0.0
 11
6.0897581917
 21
4.0009715669
 31
0.0
 11
6.0826460298
 21
3.9663191345
 31
0.0
 11
6.0729940655
 21
3.9322866783
 31
0.0
 11
6.0608523389
 21
3.8990605636
 31
0.0
 11
6.0462899596
 21
3.866821293
 31
0.0
 11
6.0293839734
 21
3.8357463641
 31
0.0
 11
6.0102292206
 21
3.8060043493
 31
0.0
 11
5.9998403332
 21
3.7916847819
 31
0.0
 11
5.988928763
 21
3.7777593531
 31
0.0
 11
5.9656005588
 21
3.7511645885
 31
0.0
 11
5.9532155679
 21
3.7385319808
 31
0.0
 11
5.9403717095
 21
3.7263663877
 31
0.0
 11
5.9270871726
 21
3.7146837151
 31
0.0
 11
5.9133804438
 21
3.70349956
 31
0.0
 11
5.8992700095
 21
3.692829519
 31
0.0
 11
5.8847745952
 21
3.6826888428
 31
0.0
 11
5.8547097019
 21
3.6640479183
 31
0.0
 11
5.8391813943
 21
3.6555727727
 31
0.0
 11
5.8233500613
 21
3.6476777447
 31
0.0
 11
5.7908666349
 21
3.6336686686
 31
0.0
 11
5.7574400228
 21
3.6220955208
 31
0.0
 11
5.7232508759
 21
3.6130232763
 31
0.0
 11
5.6884782055
 21
3.6064990408
 31
0.0
 11
5.6533120009
 21
3.6025608957
 31
0.0
 11
5.6179744773
 21
3.6012274106
 31
0.0
  0
SPLINE
  5
279
100
AcDbEntity
  8
0
100
AcDbSpline
 62
6
  6
CONTINUOUS
 70
0
 71
3
 72
52
 73
48
 74
46
 42
0.0000001
 43
0.0000001
 44
0.0000000001
 12
1.1266895385
 22
0.0008367534
 32
0.0
 13
-0.805261631
 23
0.7880252039
 33
0.0
 40
0.0
 40
0.0
 40
0.0
 40
0.0
 40
0.0312373014
 40
0.0624948072
 40
0.0937463251
 40
0.1249918284
 40
0.1562384368
 40
0.1874868633
 40
0.203113689
 40
0.2187403632
 40
0.2499881337
 40
0.2656146119
 40
0.2812411567
 40
0.2968677749
 40
0.3124943986
 40
0.3281209769
 40
0.3437475517
 40
0.3593741631
 40
0.3750007708
 40
0.3906273335
 40
0.4062538897
 40
0.4218804937
 40
0.43750711
 40
0.4531336863
 40
0.4687602392
 40
0.5000081194
 40
0.5156347023
 40
0.5312612512
 40
0.5625091187
 40
0.5937569145
 40
0.6250047692
 40
0.6562525808
 40
0.6875004189
 40
0.7187482449
 40
0.7499960631
 40
0.7812439018
 40
0.8124917005
 40
0.8437395516
 40
0.8593660995
 40
0.8749926873
 40
0.906240549
 40
0.9218670965
 40
0.9374936746
 40
0.9531202879
 40
0.968746882
 40
0.9843734317
 40
1.0
 40
1.0
 40
1.0
 40
1.0
 10
5.6179744773
 20
3.6034515854
 30
0.0
 10
5.6297060576
 20
3.6034602981
 30
0.0
 10
5.653185241
 20
3.6043479146
 30
0.0
 10
5.6882047121
 20
3.6082674944
 30
0.0
 10
5.7228434828
 20
3.6147668677
 30
0.0
 10
5.7569039668
 20
3.6238032915
 30
0.0
 10
5.7902016591
 20
3.6353315303
 30
0.0
 10
5.8171700118
 20
3.646960136
 30
0.0
 10
5.8381809243
 20
3.657437033
 30
0.0
 10
5.8587892541
 20
3.668683622
 30
0.0
 10
5.878761495
 20
3.6810647565
 30
0.0
 10
5.8979992915
 20
3.6945212759
 30
0.0
 10
5.9120465393
 20
3.7051423117
 30
0.0
 10
5.9256918148
 20
3.7162745835
 30
0.0
 10
5.9389169896
 20
3.7279029763
 30
0.0
 10
5.9517034898
 20
3.7400120385
 30
0.0
 10
5.9640329115
 20
3.7525861923
 30
0.0
 10
5.9758894454
 20
3.7656071878
 30
0.0
 10
5.987257222
 20
3.7790569906
 30
0.0
 10
5.99812046
 20
3.792917493
 30
0.0
 10
6.008463071
 20
3.8071706932
 30
0.0
 10
6.0182718605
 20
3.8217964215
 30
0.0
 10
6.0275339617
 20
3.8367742282
 30
0.0
 10
6.0362367482
 20
3.852084177
 30
0.0
 10
6.0470752581
 20
3.8729096765
 30
0.0
 10
6.0567512998
 20
3.8943236863
 30
0.0
 10
6.0652192065
 20
3.9162206969
 30
0.0
 10
6.072871302
 20
3.9384164854
 30
0.0
 10
6.0808887152
 20
3.9666697772
 30
0.0
 10
6.0879799798
 20
4.0011869188
 30
0.0
 10
6.0924981034
 20
4.0361349647
 30
0.0
 10
6.094425258
 20
4.0713209204
 30
0.0
 10
6.0937428915
 20
4.1065530451
 30
0.0
 10
6.0904628256
 20
4.1416387978
 30
0.0
 10
6.084594576
 20
4.1763854379
 30
0.0
 10
6.0761781006
 20
4.2106044915
 30
0.0
 10
6.06525213
 20
4.244105878
 30
0.0
 10
6.0541093316
 20
4.2712787868
 30
0.0
 10
6.0440095691
 20
4.2924731853
 30
0.0
 10
6.033132504
 20
4.3132788035
 30
0.0
 10
6.021108626
 20
4.3334682473
 30
0.0
 10
6.0079948048
 20
4.3529413654
 30
0.0
 10
5.997623651
 20
4.3671741594
 30
0.0
 10
5.9867337444
 20
4.3810136227
 30
0.0
 10
5.9753397585
 20
4.3944413285
 30
0.0
 10
5.9634568896
 20
4.40743802
 30
0.0
 10
5.9552188729
 20
4.4158033701
 30
0.0
 10
5.951024381
 20
4.41990808
 30
0.0
 11
5.6179744773
 21
3.6034515854
 31
0.0
 11
5.6531441983
 21
3.6047786793
 31
0.0
 11
5.6881429698
 21
3.6086977769
 31
0.0
 11
5.7227499745
 21
3.6151903423
 31
0.0
 11
5.7567766283
 21
3.624218512
 31
0.0
 11
5.7900447465
 21
3.6357354986
 31
0.0
 11
5.8223743175
 21
3.6496765083
 31
0.0
 11
5.8381306749
 21
3.6575332934
 31
0.0
 11
5.8535855545
 21
3.665967305
 31
0.0
 11
5.8835085298
 21
3.6845176802
 31
0.0
 11
5.8979355473
 21
3.6946092235
 31
0.0
 11
5.911979515
 21
3.7052274951
 31
0.0
 11
5.9256217947
 21
3.7163572678
 31
0.0
 11
5.9388438917
 21
3.7279831012
 31
0.0
 11
5.9516273116
 21
3.7400895552
 31
0.0
 11
5.9639540862
 21
3.7526606546
 31
0.0
 11
5.9758079872
 21
3.7656786573
 31
0.0
 11
5.9871731451
 21
3.7791254563
 31
0.0
 11
5.9980336905
 21
3.7929829447
 31
0.0
 11
6.0083740886
 21
3.8072327638
 31
0.0
 11
6.0181807425
 21
3.8218550963
 31
0.0
 11
6.0274407519
 21
3.8368296009
 31
0.0
 11
6.0361412171
 21
3.8521359354
 31
0.0
 11
6.04426942
 21
3.8677536613
 31
0.0
 11
6.0587670427
 21
3.8998368112
 31
0.0
 11
6.0651172261
 21
3.9162580598
 31
0.0
 11
6.0708555865
 21
3.9329029421
 31
0.0
 11
6.0804671701
 21
3.9667721909
 31
0.0
 11
6.08755112
 21
4.0012587178
 31
0.0
 11
6.0920662764
 21
4.0361746298
 31
0.0
 11
6.0939903378
 21
4.0713286071
 31
0.0
 11
6.0933099413
 21
4.1065286539
 31
0.0
 11
6.0900314613
 21
4.1415822819
 31
0.0
 11
6.0841698728
 21
4.176297501
 31
0.0
 11
6.0757598479
 21
4.2104848928
 31
0.0
 11
6.0648446471
 21
4.2439566943
 31
0.0
 11
6.0514862537
 21
4.2765306193
 31
0.0
 11
6.043912405
 21
4.2924245699
 31
0.0
 11
6.0357554917
 21
4.3080273643
 31
0.0
 11
6.0177401494
 21
4.3382755964
 31
0.0
 11
6.0079056534
 21
4.352879141
 31
0.0
 11
5.9975372019
 21
4.3671085914
 31
0.0
 11
5.9866497254
 21
4.3809450033
 31
0.0
 11
5.9752582651
 21
4.3943695075
 31
0.0
 11
5.9633778669
 21
4.4073632388
 31
0.0
 11
5.951024381
 21
4.41990808
 31
0.0
  0
LINE
  5
27A
100
AcDbEntity
  8
0
100
AcDbLine
 62
6
  6
CONTINUOUS
 10
5.1185307252
 20
4.0798774521
 11
5.1185305543
 21
4.0800530241
  0
SPLINE
  5
27B
100
AcDbEntity
  8
0
100
AcDbSpline
 62
6
  6
CONTINUOUS
 70
0
 71
3
 72
69
 73
65
 74
63
 42
0.0000001
 43
0.0000001
 44
0.0000000001
 12
-1.5618744432
 22
-0.0011131997
 32
0.0
 13
1.561874445
 23
0.0011107124
 33
0.0
 40
0.0
 40
0.0
 40
0.0
 40
0.0
 40
0.0312342688
 40
0.0468647046
 40
0.0624926543
 40
0.0781177774
 40
0.0937417722
 40
0.1093662552
 40
0.1249916735
 40
0.1406174517
 40
0.1562430321
 40
0.1718683172
 40
0.187493428
 40
0.2031184452
 40
0.218743556
 40
0.2343687882
 40
0.2499940699
 40
0.2656194634
 40
0.2812449713
 40
0.2968704491
 40
0.3124958628
 40
0.3281212517
 40
0.343746496
 40
0.3593715358
 40
0.3749965113
 40
0.3906214685
 40
0.4062464604
 40
0.4218716393
 40
0.4374969762
 40
0.4531224041
 40
0.4687480027
 40
0.484373732
 40
0.4999994555
 40
0.5156251845
 40
0.5312509172
 40
0.5468765053
 40
0.5625019078
 40
0.578127223
 40
0.5937524155
 40
0.6093774932
 40
0.6250025785
 40
0.640627635
 40
0.6562526229
 40
0.6718776536
 40
0.6875027157
 40
0.7031277491
 40
0.7187528415
 40
0.7343779848
 40
0.7500030769
 40
0.765628163
 40
0.7812532801
 40
0.7968783341
 40
0.8125033575
 40
0.8281285328
 40
0.8437539373
 40
0.8593796962
 40
0.8750056645
 40
0.8906312775
 40
0.9062559906
 40
0.9218803668
 40
0.9375059965
 40
0.9531345201
 40
0.9687653834
 40
1.0
 40
1.0
 40
1.0
 40
1.0
 10
5.6179744773
 20
3.583434009
 30
0.0
 10
5.6017131419
 20
3.583422419
 30
0.0
 10
5.5772911494
 20
3.5846089138
 30
0.0
 10
5.5449892811
 20
3.5885708413
 30
0.0
 10
5.5209270713
 20
3.5927326384
 30
0.0
 10
5.4971029038
 20
3.5980710336
 30
0.0
 10
5.4735708221
 20
3.6045716263
 30
0.0
 10
5.4503867459
 20
3.6122214521
 30
0.0
 10
5.4276054826
 20
3.6210009259
 30
0.0
 10
5.4052814751
 20
3.6308868677
 30
0.0
 10
5.3834702171
 20
3.6418578007
 30
0.0
 10
5.3622251164
 20
3.6538877327
 30
0.0
 10
5.3415957647
 20
3.6669448335
 30
0.0
 10
5.3216324265
 20
3.6809990596
 30
0.0
 10
5.3023842912
 20
3.6960179628
 30
0.0
 10
5.2838957057
 20
3.7119627145
 30
0.0
 10
5.266211582
 20
3.728795558
 30
0.0
 10
5.2493767179
 20
3.7464779499
 30
0.0
 10
5.2334294233
 20
3.7649648559
 30
0.0
 10
5.2184078122
 20
3.7842115684
 30
0.0
 10
5.204350873
 20
3.8041736547
 30
0.0
 10
5.1912906338
 20
3.8248013982
 30
0.0
 10
5.1792572781
 20
3.8460443689
 30
0.0
 10
5.1682825107
 20
3.8678528758
 30
0.0
 10
5.1583919411
 20
3.8901737942
 30
0.0
 10
5.149607183
 20
3.9129525959
 30
0.0
 10
5.1419517421
 20
3.9361355052
 30
0.0
 10
5.1354443297
 20
3.9596666413
 30
0.0
 10
5.1300978
 20
3.9834885989
 30
0.0
 10
5.1259268239
 20
4.0075445193
 30
0.0
 10
5.122943203
 20
4.0317765468
 30
0.0
 10
5.1211507426
 20
4.0561257915
 30
0.0
 10
5.1205544634
 20
4.0805337656
 30
0.0
 10
5.12115887
 20
4.1049415384
 30
0.0
 10
5.1229591719
 20
4.1292902003
 30
0.0
 10
5.1259505175
 20
4.1535212583
 30
0.0
 10
5.1301290321
 20
4.1775758337
 30
0.0
 10
5.1354824876
 20
4.2013962089
 30
0.0
 10
5.1419964153
 20
4.2249255807
 30
0.0
 10
5.1496580373
 20
4.2481065634
 30
0.0
 10
5.1584481404
 20
4.2708834528
 30
0.0
 10
5.1683432803
 20
4.2932024248
 30
0.0
 10
5.1793218968
 20
4.3150088725
 30
0.0
 10
5.1913580327
 20
4.3362498935
 30
0.0
 10
5.2044200617
 20
4.3568759213
 30
0.0
 10
5.2184780227
 20
4.3768365714
 30
0.0
 10
5.2334995043
 20
4.3960826073
 30
0.0
 10
5.2494456584
 20
4.4145697508
 30
0.0
 10
5.2662787797
 20
4.4322531582
 30
0.0
 10
5.2839603292
 20
4.4490882024
 30
0.0
 10
5.3024453927
 20
4.4650367047
 30
0.0
 10
5.3216894912
 20
4.4800606091
 30
0.0
 10
5.3416483163
 20
4.4941212048
 30
0.0
 10
5.3622724307
 20
4.5071867006
 30
0.0
 10
5.3835120022
 20
4.5192267308
 30
0.0
 10
5.4053176207
 20
4.5302093618
 30
0.0
 10
5.4276356365
 20
4.5401094509
 30
0.0
 10
5.4504109221
 20
4.5489052313
 30
0.0
 10
5.4735893741
 20
4.5565733135
 30
0.0
 10
5.4971162636
 20
4.5630947036
 30
0.0
 10
5.5209359423
 20
4.568456405
 30
0.0
 10
5.5449944632
 20
4.5726438168
 30
0.0
 10
5.5772923713
 20
4.5766433174
 30
0.0
 10
5.6017129608
 20
4.5778620078
 30
0.0
 10
5.6179744773
 20
4.577873572
 30
0.0
 11
5.6179744773
 21
3.583434009
 31
0.0
 11
5.5692477063
 21
3.5857966895
 31
0.0
 11
5.5450165759
 21
3.5887692915
 31
0.0
 11
5.5209647526
 21
3.5929291304
 31
0.0
 11
5.4971507212
 21
3.5982649418
 31
0.0
 11
5.4736290896
 21
3.6047630798
 31
0.0
 11
5.4504544857
 21
3.612409511
 31
0.0
 11
5.427681954
 21
3.6211852314
 31
0.0
 11
5.4053668304
 21
3.6310677498
 31
0.0
 11
5.3835643899
 21
3.6420344002
 31
0.0
 11
5.3623276212
 21
3.6540589988
 31
0.0
 11
5.3417067135
 21
3.6671110561
 31
0.0
 11
5.3217516743
 21
3.6811598034
 31
0.0
 11
5.3025109495
 21
3.6961722163
 31
0.0
 11
5.2840298199
 21
3.7121106961
 31
0.0
 11
5.2663531833
 21
3.7289370912
 31
0.0
 11
5.2495246978
 21
3.7466119791
 31
0.0
 11
5.2335836954
 21
3.7650915013
 31
0.0
 11
5.2185685648
 21
3.7843308325
 31
0.0
 11
5.2045169714
 21
3.8042846253
 31
0.0
 11
5.191461726
 21
3.8249040287
 31
0.0
 11
5.1794336422
 21
3.8461387505
 31
0.0
 11
5.168463185
 21
3.8679383303
 31
0.0
 11
5.1585762376
 21
3.8902501207
 31
0.0
 11
5.1497954141
 21
3.9130199134
 31
0.0
 11
5.1421431177
 21
3.9361934182
 31
0.0
 11
5.1356378395
 21
3.959714995
 31
0.0
 11
5.1302937419
 21
3.9835275105
 31
0.0
 11
5.1261247343
 21
4.0075737489
 31
0.0
 11
5.1231417393
 21
4.0317959898
 31
0.0
 11
5.1213501068
 21
4.0561355714
 31
0.0
 11
5.1207545777
 21
4.0805337289
 31
0.0
 11
5.1213581867
 21
4.1049316963
 31
0.0
 11
5.1231576897
 21
4.1292707027
 31
0.0
 11
5.1261483984
 21
4.153491976
 31
0.0
 11
5.130324871
 21
4.1775368786
 31
0.0
 11
5.1356759221
 21
4.2013477977
 31
0.0
 11
5.1421877206
 21
4.2248675923
 31
0.0
 11
5.1498461199
 21
4.248039222
 31
0.0
 11
5.158632322
 21
4.2708071542
 31
0.0
 11
5.1685238769
 21
4.2931170408
 31
0.0
 11
5.1794981391
 21
4.3149146148
 31
0.0
 11
5.1915290046
 21
4.3361473771
 31
0.0
 11
5.2045860557
 21
4.3567650331
 31
0.0
 11
5.2186385869
 21
4.3767174388
 31
0.0
 11
5.2336535965
 21
4.3959561007
 31
0.0
 11
5.2495935046
 21
4.4144358149
 31
0.0
 11
5.2664201881
 21
4.4321117683
 31
0.0
 11
5.2840942389
 21
4.4489404368
 31
0.0
 11
5.3025719282
 21
4.4648826292
 31
0.0
 11
5.3218086207
 21
4.4799000645
 31
0.0
 11
5.3417591065
 21
4.4939552944
 31
0.0
 11
5.3623748496
 21
4.5070156959
 31
0.0
 11
5.3836061199
 21
4.5190503781
 31
0.0
 11
5.405402906
 21
4.5300288824
 31
0.0
 11
5.4277121038
 21
4.5399255029
 31
0.0
 11
5.4504786876
 21
4.5487174862
 31
0.0
 11
5.4736476121
 21
4.5563822531
 31
0.0
 11
5.4971641065
 21
4.5629011894
 31
0.0
 11
5.5209737191
 21
4.5682602875
 31
0.0
 11
5.545021996
 21
4.5724458107
 31
0.0
 11
5.5692503207
 21
4.5754466311
 31
0.0
 11
5.6179744773
 21
4.577873572
 31
0.0
  0
SPLINE
  5
27C
100
AcDbEntity
  8
0
100
AcDbSpline
 62
6
  6
CONTINUOUS
 70
0
 71
3
 72
49
 73
45
 74
43
 42
0.0000001
 43
0.0000001
 44
0.0000000001
 12
-1.1533565164
 22
-0.0008257327
 32
0.0
 13
0.7942105901
 23
0.836338134
 33
0.0
 40
0.0
 40
0.0
 40
0.0
 40
0.0
 40
0.0312368108
 40
0.0624942867
 40
0.0781241919
 40
0.093751544
 40
0.1093773433
 40
0.1250025536
 40
0.1406281424
 40
0.1562545605
 40
0.1875035507
 40
0.2031306252
 40
0.2187574558
 40
0.2500055292
 40
0.2656320386
 40
0.2812585885
 40
0.3125068613
 40
0.328133694
 40
0.3437605949
 40
0.3750095852
 40
0.4062586737
 40
0.4375077384
 40
0.4687564776
 40
0.5000046556
 40
0.5312526321
 40
0.5468791885
 40
0.5625058489
 40
0.593754298
 40
0.6093812141
 40
0.6250082662
 40
0.6562575272
 40
0.6718847552
 40
0.6875119768
 40
0.7187612644
 40
0.734388353
 40
0.7500152888
 40
0.7812637616
 40
0.8125118777
 40
0.8437598973
 40
0.8750079287
 40
0.9062560713
 40
0.9375042385
 40
0.9687521404
 40
1.0
 40
1.0
 40
1.0
 40
1.0
 10
5.6179744773
 20
3.5856581853
 30
0.0
 10
5.6059654176
 20
3.5856495875
 30
0.0
 10
5.5819302762
 20
3.5865112922
 30
0.0
 10
5.5520445887
 20
3.5897681757
 30
0.0
 10
5.5283258612
 20
3.5936760164
 30
0.0
 10
5.5106560233
 20
3.5972539502
 30
0.0
 10
5.4931301746
 20
3.601472676
 30
0.0
 10
5.4757702697
 20
3.6063266671
 30
0.0
 10
5.4585984097
 20
3.6118107634
 30
0.0
 10
5.4359867351
 20
3.6199520101
 30
0.0
 10
5.4138327307
 20
3.6293233784
 30
0.0
 10
5.3922425464
 20
3.6398819151
 30
0.0
 10
5.3710524017
 20
3.6512212543
 30
0.0
 10
5.3504954484
 20
3.6637115533
 30
0.0
 10
5.3306684014
 20
3.6772937112
 30
0.0
 10
5.3113500053
 20
3.6915902171
 30
0.0
 10
5.2928251976
 20
3.7069340621
 30
0.0
 10
5.2751805636
 20
3.7232516927
 30
0.0
 10
5.2581421841
 20
3.7402024279
 30
0.0
 10
5.2380196762
 20
3.7625393037
 30
0.0
 10
5.2158882236
 20
3.7910248504
 30
0.0
 10
5.1958922341
 20
3.8210488209
 30
0.0
 10
5.1781310252
 20
3.8524461493
 30
0.0
 10
5.1627064982
 20
3.8850536324
 30
0.0
 10
5.1518607081
 20
3.9130923042
 30
0.0
 10
5.1444282168
 20
3.9359475751
 30
0.0
 10
5.1378335836
 20
3.959058229
 30
0.0
 10
5.1325044651
 20
3.9825147559
 30
0.0
 10
5.1284678747
 20
4.0062068727
 30
0.0
 10
5.1252977886
 20
4.030030722
 30
0.0
 10
5.1234304821
 20
4.0540129371
 30
0.0
 10
5.1228750414
 20
4.0780405424
 30
0.0
 10
5.1231961871
 20
4.1020724296
 30
0.0
 10
5.1248301456
 20
4.1260717334
 30
0.0
 10
5.1277677402
 20
4.1499252983
 30
0.0
 10
5.1315726248
 20
4.1736561247
 30
0.0
 10
5.1379463802
 20
4.2030362366
 30
0.0
 10
5.1481351512
 20
4.2376388644
 30
0.0
 10
5.1608179703
 20
4.2714079098
 30
0.0
 10
5.1759196098
 20
4.3041665675
 30
0.0
 10
5.1933678214
 20
4.3357378866
 30
0.0
 10
5.213062885
 20
4.3659591137
 30
0.0
 10
5.2349051589
 20
4.3946643254
 30
0.0
 10
5.2508219991
 20
4.4126959063
 30
0.0
 10
5.2590944594
 20
4.4214071652
 30
0.0
 11
5.6179744773
 21
3.5856581853
 31
0.0
 11
5.5819703351
 21
3.5869466167
 31
0.0
 11
5.5461316399
 21
3.5908535546
 31
0.0
 11
5.5283445756
 21
3.5937840735
 31
0.0
 11
5.5106791444
 21
3.5973609408
 31
0.0
 11
5.4931575028
 21
3.6015786368
 31
0.0
 11
5.4758017875
 21
3.6064316299
 31
0.0
 11
5.4586341409
 21
3.6119143343
 31
0.0
 11
5.4416768743
 21
3.6180195548
 31
0.0
 11
5.4084835065
 21
3.6320613143
 31
0.0
 11
5.392292433
 21
3.6399795866
 31
0.0
 11
5.3764012576
 21
3.6484831332
 31
0.0
 11
5.3456006955
 21
3.6671972942
 31
0.0
 11
5.3307320082
 21
3.6773829971
 31
0.0
 11
5.3162446408
 21
3.6881042039
 31
0.0
 11
5.2884885568
 21
3.7110935673
 31
0.0
 11
5.2752563954
 21
3.7233307952
 31
0.0
 11
5.2624791196
 21
3.7360423611
 31
0.0
 11
5.2383555049
 21
3.7628196256
 31
0.0
 11
5.2162441202
 21
3.7912812754
 31
0.0
 11
5.1962646025
 21
3.8212778709
 31
0.0
 11
5.1785203405
 21
3.8526480951
 31
0.0
 11
5.1631081159
 21
3.8852267151
 31
0.0
 11
5.1501067795
 21
3.9188399811
 31
0.0
 11
5.1445329757
 21
3.9359794405
 31
0.0
 11
5.1395873406
 21
3.9533107237
 31
0.0
 11
5.1316033153
 21
3.988455866
 31
0.0
 11
5.1285762103
 21
4.0062232504
 31
0.0
 11
5.1261987132
 21
4.0240893208
 31
0.0
 11
5.1234010003
 21
4.0600221191
 31
0.0
 11
5.1229846237
 21
4.0780410788
 31
0.0
 11
5.1232253429
 21
4.0960632338
 31
0.0
 11
5.1256730307
 21
4.1320216016
 31
0.0
 11
5.1278761741
 21
4.1499100517
 31
0.0
 11
5.1307295423
 21
4.1677061867
 31
0.0
 11
5.138369842
 21
4.2029276784
 31
0.0
 11
5.1485508458
 21
4.2374999963
 31
0.0
 11
5.1612211042
 21
4.2712395063
 31
0.0
 11
5.1763106815
 21
4.3039686311
 31
0.0
 11
5.1937422969
 21
4.3355128698
 31
0.0
 11
5.2134208227
 21
4.3657065425
 31
0.0
 11
5.2352440114
 21
4.3943880459
 31
0.0
 11
5.2590944594
 21
4.4214071652
 31
0.0
  0
SPLINE
  5
27D
100
AcDbEntity
  8
0
100
AcDbSpline
 62
6
  6
CONTINUOUS
 70
0
 71
3
 72
52
 73
48
 74
46
 42
0.0000001
 43
0.0000001
 44
0.0000000001
 12
-1.1432528401
 22
-0.0008259303
 32
0.0
 13
0.7876623873
 23
0.8286227743
 33
0.0
 40
0.0
 40
0.0
 40
0.0
 40
0.0
 40
0.0312364134
 40
0.0468669437
 40
0.0624988458
 40
0.0781286822
 40
0.0937559281
 40
0.1093815546
 40
0.1250064957
 40
0.1406316902
 40
0.1562576093
 40
0.1718840374
 40
0.1875106714
 40
0.2031372415
 40
0.2187636536
 40
0.2500110877
 40
0.2656373425
 40
0.2812636623
 40
0.312511519
 40
0.3281381647
 40
0.3437648943
 40
0.375013575
 40
0.4062623773
 40
0.4375111903
 40
0.4687597739
 40
0.500007919
 40
0.5312556904
 40
0.5468819515
 40
0.5625081694
 40
0.5937554584
 40
0.6093817421
 40
0.6250081663
 40
0.6562562105
 40
0.6718828733
 40
0.6875095753
 40
0.7187579299
 40
0.7343846007
 40
0.7500111595
 40
0.781258991
 40
0.812506589
 40
0.8437542544
 40
0.8750020985
 40
0.8906287207
 40
0.9062554606
 40
0.9375038184
 40
0.9687520084
 40
1.0
 40
1.0
 40
1.0
 40
1.0
 10
5.6179744773
 20
3.5901065345
 30
0.0
 10
5.6060707712
 20
3.5900979348
 30
0.0
 10
5.5882010657
 20
3.5907387179
 30
0.0
 10
5.5644775108
 20
3.5928890567
 30
0.0
 10
5.5467467631
 20
3.5951492922
 30
0.0
 10
5.5291120626
 20
3.5980553329
 30
0.0
 10
5.5115974111
 20
3.601602579
 30
0.0
 10
5.4942254806
 20
3.6057851425
 30
0.0
 10
5.4770181692
 20
3.6105975056
 30
0.0
 10
5.4599977284
 20
3.6160343516
 30
0.0
 10
5.4431864063
 20
3.622088588
 30
0.0
 10
5.4266060762
 20
3.628750947
 30
0.0
 10
5.4102790616
 20
3.6360124113
 30
0.0
 10
5.394227254
 20
3.6438642976
 30
0.0
 10
5.3732247242
 20
3.6551060397
 30
0.0
 10
5.3528495048
 20
3.667488966
 30
0.0
 10
5.3331981986
 20
3.6809543416
 30
0.0
 10
5.3140512058
 20
3.6951279726
 30
0.0
 10
5.2956910808
 20
3.7103398139
 30
0.0
 10
5.2782037601
 20
3.7265170336
 30
0.0
 10
5.2613176337
 20
3.7433219256
 30
0.0
 10
5.241375471
 20
3.7654664096
 30
0.0
 10
5.2194435409
 20
3.7937064124
 30
0.0
 10
5.1996290865
 20
3.823471302
 30
0.0
 10
5.1820305521
 20
3.8545974137
 30
0.0
 10
5.1667491231
 20
3.8869228699
 30
0.0
 10
5.1560056019
 20
3.9147185138
 30
0.0
 10
5.1486443801
 20
3.9373751935
 30
0.0
 10
5.1421140621
 20
3.9602845095
 30
0.0
 10
5.1368385657
 20
3.9835362646
 30
0.0
 10
5.1328445905
 20
4.0070211332
 30
0.0
 10
5.1297096164
 20
4.0306363034
 30
0.0
 10
5.1278661869
 20
4.0544081026
 30
0.0
 10
5.127323508
 20
4.0782245274
 30
0.0
 10
5.1276498785
 20
4.1020450115
 30
0.0
 10
5.1292775367
 20
4.1258328214
 30
0.0
 10
5.1321977319
 20
4.1494757363
 30
0.0
 10
5.1359779496
 20
4.1729967352
 30
0.0
 10
5.1423063899
 20
4.2021165504
 30
0.0
 10
5.1524193887
 20
4.2364116929
 30
0.0
 10
5.1650040942
 20
4.2698788488
 30
0.0
 10
5.1774913012
 20
4.2969359968
 30
0.0
 10
5.1886418723
 20
4.3179881102
 30
0.0
 10
5.2005510203
 20
4.3386206681
 30
0.0
 10
5.216832842
 20
4.363580143
 30
0.0
 10
5.2384970929
 20
4.3920231
 30
0.0
 10
5.2542833434
 20
4.4098893549
 30
0.0
 10
5.2624876326
 20
4.4185202873
 30
0.0
 11
5.6179744773
 21
3.5901065345
 31
0.0
 11
5.5822861965
 21
3.5913837377
 31
0.0
 11
5.5644894979
 21
3.5929968128
 31
0.0
 11
5.5467617863
 21
3.5952570749
 31
0.0
 11
5.5291307076
 21
3.5981624502
 31
0.0
 11
5.5116202914
 21
3.6017086639
 31
0.0
 11
5.4942525377
 21
3.6058902056
 31
0.0
 11
5.4770494242
 21
3.6107015515
 31
0.0
 11
5.4600329323
 21
3.6161371305
 31
0.0
 11
5.443225172
 21
3.6221898408
 31
0.0
 11
5.4266484061
 21
3.6288507518
 31
0.0
 11
5.4103249066
 21
3.6361108261
 31
0.0
 11
5.3942769443
 21
3.6439610238
 31
0.0
 11
5.3785262626
 21
3.6523914612
 31
0.0
 11
5.3479982152
 21
3.6709447089
 31
0.0
 11
5.3332612793
 21
3.6810428544
 31
0.0
 11
5.3189024537
 21
3.6916718998
 31
0.0
 11
5.2913931553
 21
3.7144635145
 31
0.0
 11
5.2782789669
 21
3.7265954497
 31
0.0
 11
5.2656158592
 21
3.7391976289
 31
0.0
 11
5.2417084939
 21
3.7657442746
 31
0.0
 11
5.219796453
 21
3.7939605623
 31
0.0
 11
5.1999983398
 21
3.823698283
 31
0.0
 11
5.1824166293
 21
3.8547975117
 31
0.0
 11
5.1671473133
 21
3.8870944271
 31
0.0
 11
5.1542685615
 21
3.9204163415
 31
0.0
 11
5.1487482398
 21
3.9374068133
 31
0.0
 11
5.1438508258
 21
3.9545871407
 31
0.0
 11
5.1359471428
 21
3.9894254045
 31
0.0
 11
5.1329519877
 21
4.0070373337
 31
0.0
 11
5.1306008302
 21
4.0247469017
 31
0.0
 11
5.1278389696
 21
4.0603644064
 31
0.0
 11
5.1274321483
 21
4.0782250051
 31
0.0
 11
5.1276767667
 21
4.0960886064
 31
0.0
 11
5.130115144
 21
4.1317300736
 31
0.0
 11
5.1323052531
 21
4.1494605625
 31
0.0
 11
5.1351400589
 21
4.1670993299
 31
0.0
 11
5.1427262684
 21
4.2020087351
 31
0.0
 11
5.1528313305
 21
4.2362736703
 31
0.0
 11
5.1654039671
 21
4.2697121568
 31
0.0
 11
5.1803749226
 21
4.302148073
 31
0.0
 11
5.1887366688
 21
4.3179356007
 31
0.0
 11
5.1976675571
 21
4.3334084438
 31
0.0
 11
5.2171873424
 21
4.3633289737
 31
0.0
 11
5.2388330053
 21
4.3917492429
 31
0.0
 11
5.2624876326
 21
4.4185202873
 31
0.0
  0
ENDSEC
  0
SECTION
  2
OBJECTS
  0
DICTIONARY
  5
C
100
AcDbDictionary
280
0
281
1
  3
ACAD_GROUP
350
D
  3
ACAD_MLINESTYLE
350
17
  3
ACAD_LAYOUT
350
1A
  3
ACAD_PLOTSETTINGS
350
19
  3
ACAD_PLOTSTYLENAME
350
E
  0
DICTIONARY
  5
D
102
{ACAD_REACTORS
330
C
102
}
100
AcDbDictionary
280
0
281
1
  0
ACDBDICTIONARYWDFLT
  5
E
102
{ACAD_REACTORS
330
C
102
}
100
AcDbDictionary
281
1
  3
Normal
350
F
100
AcDbDictionaryWithDefault
340
F
  0
DICTIONARY
  5
17
102
{ACAD_REACTORS
330
C
102
}
100
AcDbDictionary
280
0
281
1
  3
Standard
350
18
  0
DICTIONARY
  5
19
102
{ACAD_REACTORS
330
C
102
}
100
AcDbDictionary
281
1
  0
DICTIONARY
  5
1A
102
{ACAD_REACTORS
330
C
102
}
100
AcDbDictionary
281
1
  3
Model
350
27E
  3
Layout1
350
27F
  0
ACDBPLACEHOLDER
  5
F
102
{ACAD_REACTORS
330
E
102
}
  0
MLINESTYLE
  5
18
102
{ACAD_REACTORS
330
17
102
}
100
AcDbMlineStyle
  2
STANDARD
 70
0
  3

 62
256
 51
90.0
 52
90.0
 71
2
 49
0.5
 62
256
  6
BYLAYER
 49
-0.5
 62
256
  6
BYLAYER
  0
LAYOUT
  5
27E
102
{ACAD_REACTORS
330
1A
102
}
100
AcDbPlotSettings
  1

  2
none_device
  4
ISO_A4_(297.00_x_210.00_MM)
  6

 40
0.0
 41
0.0
 42
0.0
 43
0.0
 44
297.0
 45
210.0
 46
0.0
 47
0.0
 48
0.0
 49
0.0
140
0.0
141
0.0
142
1.0
143
1.0
 70
1024
 72
0
 73
0
 74
0
  7

 75
0
147
1.0
148
0.0
149
0.0
100
AcDbLayout
  1
Model
 70
0
 71
0
 10
0.0
 20
0.0
 11
11.6929133858
 21
8.2677165354
 12
0.0
 22
0.0
 32
0.0
 14
0.0
 24
0.0
 34
0.0
 15
0.0
 25
0.0
 35
0.0
146
0.0
 13
0.0
 23
0.0
 33
0.0
 16
1.0
 26
0.0
 36
0.0
 17
0.0
 27
1.0
 37
0.0
 76
0
330
203
345
0
346
0
  0
LAYOUT
  5
27F
102
{ACAD_REACTORS
330
1A
102
}
100
AcDbPlotSettings
  1

  2
none_device
  4
ISO_A4_(297.00_x_210.00_MM)
  6

 40
0.0
 41
0.0
 42
0.0
 43
0.0
 44
297.0
 45
210.0
 46
0.0
 47
0.0
 48
0.0
 49
0.0
140
0.0
141
0.0
142
1.0
143
1.0
 70
0
 72
0
 73
0
 74
0
  7

 75
0
147
1.0
148
0.0
149
0.0
100
AcDbLayout
  1
Layout1
 70
0
 71
1
 10
0.0
 20
0.0
 11
11.6929133858
 21
8.2677165354
 12
0.0
 22
0.0
 32
0.0
 14
0.0
 24
0.0
 34
0.0
 15
0.0
 25
0.0
 35
0.0
146
0.0
 13
0.0
 23
0.0
 33
0.0
 16
1.0
 26
0.0
 36
0.0
 17
0.0
 27
1.0
 37
0.0
 76
0
330
204
345
0
346
0
  0
ENDSEC
  0
EOF
