  0
SECTION
  2
HEADER
  9
$ACADVER
  1
AC1015
  9
$DWGCODEPAGE
  3
ANSI_1252
  9
$EXTMAX
 10
46.811023622
 20
33.1102362205
 30
0.0
  9
$EXTMIN
 10
0.0
 20
0.0
 30
0.0
  9
$LIMMIN
 10
0.0
 20
0.0
  9
$LIMMAX
 10
46.811023622
 20
33.1102362205
  9
$VIEWCTR
 10
23.405511811
 20
16.5551181102
  9
$VIEWSIZE
 40
33.1102362205
  9
$CLAYER
  8
0
  9
$LTSCALE
 40
2.5746062992
  9
$CELTYPE
  6
BYLAYER
  9
$DIMSCALE
 40
1.0
  9
$DIMASZ
 40
0.1
  9
$DIMEXO
 40
0.2925688976
  9
$DIMDLI
 40
1.7788188976
  9
$DIMEXE
 40
0.8425984252
  9
$DIMCEN
 40
0.4212992126
  9
$DIMLFAC
 40
1.0
  9
$DIMBLK
  1
_FILLED
  9
$DIMTXT
 40
0.08
  9
$DIMTOL
 70
1
  9
$DIMLIM
 70
0
  9
$DIMTFAC
 40
1.0
  9
$DIMTP
 40
0.01
  9
$DIMTM
 40
0.01
  9
$PDMODE
 70
3
  9
$PDSIZE
 40
0.06
  9
$HANDSEED
  5
3A1
  9
$TILEMODE
 70
1
  9
$MEASUREMENT
 70
0
  9
$INSUNITS
 70
1
  0
ENDSEC
  0
SECTION
  2
CLASSES
  0
CLASS
  1
ACDBDICTIONARYWDFLT
  2
AcDbDictionaryWithDefault
  3
AutoCAD 2000
 90
0
280
0
281
0
  0
CLASS
  1
ACDBPLACEHOLDER
  2
AcDbPlaceHolder
  3
AutoCAD 2000
 90
0
280
0
281
0
  0
CLASS
  1
LAYOUT
  2
AcDbLayout
  3
AutoCAD 2000
 90
0
280
0
281
0
  0
ENDSEC
  0
SECTION
  2
TABLES
  0
TABLE
  2
VPORT
  5
8
100
AcDbSymbolTable
 70
2
  0
VPORT
  5
1F4
100
AcDbSymbolTableRecord
100
AcDbViewportTableRecord
  2
*ACTIVE
 70
0
 10
0.0
 20
0.0
 11
1.0
 21
1.0
 12
23.405511811
 22
16.5551181102
 13
0.0
 23
0.0
 14
1.0
 24
1.0
 15
0.0
 25
0.0
 16
0.0
 26
0.0
 36
1.0
 17
0.0
 27
0.0
 37
0.0
 40
33.1102362205
 41
1.4137931034
 42
50.0
 43
0.0
 44
0.0
 50
0.0
 51
0.0
 71
0
 72
100
 73
1
 74
1
 75
0
 76
0
 77
0
 78
0
  0
ENDTAB
  0
TABLE
  2
LTYPE
  5
5
100
AcDbSymbolTable
 70
6
  0
LTYPE
  5
14
100
AcDbSymbolTableRecord
100
AcDbLinetypeTableRecord
  2
BYBLOCK
 70
0
  3

 72
65
 73
0
 40
0.0
  0
LTYPE
  5
15
100
AcDbSymbolTableRecord
100
AcDbLinetypeTableRecord
  2
BYLAYER
 70
0
  3

 72
65
 73
0
 40
0.0
  0
LTYPE
  5
16
100
AcDbSymbolTableRecord
100
AcDbLinetypeTableRecord
  2
CONTINUOUS
 70
64
  3
Solid line
 72
65
 73
0
 40
0.0
  0
LTYPE
  5
1F5
100
AcDbSymbolTableRecord
100
AcDbLinetypeTableRecord
  2
CENTER
 70
64
  3
____ _ ____ _ ____ _ ____ _ ____ _ ____ _ ____
 72
65
 73
4
 40
0.6
 49
0.375
 74
0
 49
-0.075
 74
0
 49
0.075
 74
0
 49
-0.075
 74
0
  0
LTYPE
  5
1F6
100
AcDbSymbolTableRecord
100
AcDbLinetypeTableRecord
  2
HIDDEN
 70
64
  3
- - - - - - - - - - - - - - - - - - - -
 72
65
 73
2
 40
0.2
 49
0.1
 74
0
 49
-0.1
 74
0
  0
LTYPE
  5
1F7
100
AcDbSymbolTableRecord
100
AcDbLinetypeTableRecord
  2
PHANTOM
 70
64
  3
_____ _ _ _____ _ _ _____ _ _ _____
 72
65
 73
6
 40
0.8
 49
0.45
 74
0
 49
-0.05
 74
0
 49
0.1
 74
0
 49
-0.05
 74
0
 49
0.1
 74
0
 49
-0.05
 74
0
  0
LTYPE
  5
1F8
100
AcDbSymbolTableRecord
100
AcDbLinetypeTableRecord
  2
DOT
 70
64
  3
. . . . . . . . . . . . . . . . . . . .
 72
65
 73
2
 40
0.2
 49
0.1
 74
0
 49
-0.1
 74
0
  0
LTYPE
  5
1F9
100
AcDbSymbolTableRecord
100
AcDbLinetypeTableRecord
  2
DASHED
 70
64
  3
- - - - - - - - - - - - - - - - - - - -
 72
65
 73
2
 40
0.2
 49
0.1
 74
0
 49
-0.1
 74
0
  0
ENDTAB
  0
TABLE
  2
LAYER
  5
2
100
AcDbSymbolTable
 70
36
  0
LAYER
  5
10
100
AcDbSymbolTableRecord
100
AcDbLayerTableRecord
  2
0
 70
0
 62
7
  6
CONTINUOUS
370
-3
390
F
  0
LAYER
  5
1FA
100
AcDbSymbolTableRecord
100
AcDbLayerTableRecord
  2
DEFAULT_1
 70
0
 62
7
  6
CENTER
370
-3
390
F
  0
LAYER
  5
1FB
100
AcDbSymbolTableRecord
100
AcDbLayerTableRecord
  2
DEFAULT_2
 70
0
 62
8
  6
HIDDEN
370
-3
390
F
  0
LAYER
  5
1FC
100
AcDbSymbolTableRecord
100
AcDbLayerTableRecord
  2
DEFAULT_3
 70
0
 62
7
  6
PHANTOM
370
-3
390
F
  0
LAYER
  5
1FD
100
AcDbSymbolTableRecord
100
AcDbLayerTableRecord
  2
10325
 70
0
 62
7
  6
CONTINUOUS
370
-3
390
F
  0
LAYER
  5
1FE
100
AcDbSymbolTableRecord
100
AcDbLayerTableRecord
  2
2-221
 70
0
 62
7
  6
CONTINUOUS
370
-3
390
F
  0
LAYER
  5
1FF
100
AcDbSymbolTableRecord
100
AcDbLayerTableRecord
  2
50420-30
 70
0
 62
7
  6
CONTINUOUS
370
-3
390
F
  0
LAYER
  5
200
100
AcDbSymbolTableRecord
100
AcDbLayerTableRecord
  2
91073
 70
0
 62
7
  6
CONTINUOUS
370
-3
390
F
  0
LAYER
  5
201
100
AcDbSymbolTableRecord
100
AcDbLayerTableRecord
  2
ALL_ASSEMBLY_MEMBERS
 70
0
 62
7
  6
CONTINUOUS
370
-3
390
F
  0
LAYER
  5
202
100
AcDbSymbolTableRecord
100
AcDbLayerTableRecord
  2
ALL_ASSEMBLY_MEMBERS_1
 70
0
 62
7
  6
CONTINUOUS
370
-3
390
F
  0
LAYER
  5
203
100
AcDbSymbolTableRecord
100
AcDbLayerTableRecord
  2
DEFAULT_COORDINATE_SYSTEM
 70
0
 62
7
  6
CONTINUOUS
370
-3
390
F
  0
LAYER
  5
204
100
AcDbSymbolTableRecord
100
AcDbLayerTableRecord
  2
DEFAULT_DATUM_AXES
 70
0
 62
7
  6
CONTINUOUS
370
-3
390
F
  0
LAYER
  5
205
100
AcDbSymbolTableRecord
100
AcDbLayerTableRecord
  2
DEFAULT_DATUM_CURVES
 70
0
 62
7
  6
CONTINUOUS
370
-3
390
F
  0
LAYER
  5
206
100
AcDbSymbolTableRecord
100
AcDbLayerTableRecord
  2
DEFAULT_DATUM_PLANES
 70
0
 62
7
  6
CONTINUOUS
370
-3
390
F
  0
LAYER
  5
207
100
AcDbSymbolTableRecord
100
AcDbLayerTableRecord
  2
INTF_10325
 70
0
 62
7
  6
CONTINUOUS
370
-3
390
F
  0
LAYER
  5
208
100
AcDbSymbolTableRecord
100
AcDbLayerTableRecord
  2
INTF_91073
 70
0
 62
7
  6
CONTINUOUS
370
-3
390
F
  0
ENDTAB
  0
TABLE
  2
STYLE
  5
3
100
AcDbSymbolTable
 70
1
  0
STYLE
  5
11
100
AcDbSymbolTableRecord
100
AcDbTextStyleTableRecord
  2
STANDARD
 70
0
 40
0.0
 41
0.8
 50
0.0
 71
0
 42
0.2
  3
txt
  4

  0
STYLE
  5
209
100
AcDbSymbolTableRecord
100
AcDbTextStyleTableRecord
  2
TEXTSTYLE_1
 70
0
 40
0.0
 41
0.8
 50
0.0
 71
0
 42
0.2
  3
gdt
  4

  0
ENDTAB
  0
TABLE
  2
VIEW
  5
6
100
AcDbSymbolTable
 70
0
  0
ENDTAB
  0
TABLE
  2
UCS
  5
7
100
AcDbSymbolTable
 70
0
  0
ENDTAB
  0
TABLE
  2
APPID
  5
9
100
AcDbSymbolTable
 70
1
  0
APPID
  5
20A
100
AcDbSymbolTableRecord
100
AcDbRegAppTableRecord
  2
ACAD
 70
0
  0
ENDTAB
  0
TABLE
  2
BLOCK_RECORD
  5
1
100
AcDbSymbolTable
 70
0
  0
BLOCK_RECORD
  5
20B
100
AcDbSymbolTableRecord
100
AcDbBlockTableRecord
  2
*Model_Space
  0
BLOCK_RECORD
  5
20C
100
AcDbSymbolTableRecord
100
AcDbBlockTableRecord
  2
*Paper_Space
  0
ENDTAB
  0
TABLE
  2
DIMSTYLE
  5
A
100
AcDbSymbolTable
 70
1
100
AcDbDimStyleTable
 71
0
  0
DIMSTYLE
105
20D
100
AcDbSymbolTableRecord
100
AcDbDimStyleTableRecord
  2
STANDARD
 70
0
  3

  4

 40
1.0
 41
0.1
 42
0.0625
 43
0.38
 44
0.18
 45
0.0
 46
0.0
 47
0.01
 48
0.01
140
0.08
141
0.09
142
0.0
143
25.4
144
1.0
145
0.0
146
1.0
147
0.09
 71
1.0
 72
0.0
 73
1
 74
1
 75
0
 76
0
 77
0
 78
4
170
0
171
2
172
0
173
0
174
0
175
0
176
0
177
0
178
0
270
2
271
2
272
2
273
2
274
2
275
0
280
0
281
0
282
0
283
1
284
4
285
0
286
0
287
3
288
0
340
11
  0
ENDTAB
  0
ENDSEC
  0
SECTION
  2
BLOCKS
  0
BLOCK
  5
20
100
AcDbEntity
  8
0
100
AcDbBlockBegin
  2
*Model_Space
 70
0
 10
0.0
 20
0.0
 30
0.0
  3
*Model_Space
  1

  0
ENDBLK
  5
21
100
AcDbEntity
  8
0
100
AcDbBlockEnd
  0
BLOCK
  5
1C
100
AcDbEntity
  8
0
100
AcDbBlockBegin
  2
*Paper_Space
 70
0
 10
0.0
 20
0.0
 30
0.0
  3
*Paper_Space
  1

  0
ENDBLK
  5
1D
100
AcDbEntity
  8
0
100
AcDbBlockEnd
  0
ENDSEC
  0
SECTION
  2
ENTITIES
  0
LINE
  5
20E
100
AcDbEntity
  8
0
100
AcDbLine
 62
9
  6
CONTINUOUS
 10
23.2340059055
 20
15.7232349081
 11
23.2340059055
 21
15.7457349081
  0
LINE
  5
20F
100
AcDbEntity
  8
0
100
AcDbLine
 62
9
  6
CONTINUOUS
 10
23.2340059055
 20
16.7496547637
 11
23.2340059055
 21
16.7682349081
  0
LINE
  5
210
100
AcDbEntity
  8
0
100
AcDbLine
 62
9
  6
CONTINUOUS
 10
22.7485194018
 20
16.2216938533
 11
22.7522839696
 21
16.2218802728
  0
LINE
  5
211
100
AcDbEntity
  8
0
100
AcDbLine
 62
9
  6
CONTINUOUS
 10
22.8816303688
 20
16.5810927601
 11
22.8768560422
 21
16.5856365145
  0
CIRCLE
  5
212
100
AcDbEntity
  8
0
100
AcDbCircle
 62
7
  6
CONTINUOUS
 10
23.2340059055
 20
16.2457349081
 40
1.18
  0
CIRCLE
  5
213
100
AcDbEntity
  8
0
100
AcDbCircle
 62
7
  6
CONTINUOUS
 10
23.2340059055
 20
16.2457349081
 40
1.0
  0
CIRCLE
  5
214
100
AcDbEntity
  8
0
100
AcDbCircle
 62
9
  6
CONTINUOUS
 10
23.2340059055
 20
16.2457349081
 40
0.8120018309
  0
CIRCLE
  5
215
100
AcDbEntity
  8
0
100
AcDbCircle
 62
7
  6
CONTINUOUS
 10
23.2340059055
 20
16.2457349081
 40
0.741
  0
CIRCLE
  5
216
100
AcDbEntity
  8
0
100
AcDbCircle
 62
7
  6
CONTINUOUS
 10
23.2340059055
 20
16.2457349081
 40
0.5225
  0
ARC
  5
217
100
AcDbEntity
  8
0
100
AcDbCircle
 62
7
  6
CONTINUOUS
 10
23.2395012574
 20
16.2389892801
 40
0.5038159982
100
AcDbArc
 50
122.840111945
 51
128.0380896208
  0
ARC
  5
218
100
AcDbEntity
  8
0
100
AcDbCircle
 62
7
  6
CONTINUOUS
 10
23.2331527362
 20
16.2489333944
 40
0.5021056298
100
AcDbArc
 50
275.160484074
 51
282.8198982028
  0
ARC
  5
219
100
AcDbEntity
  8
0
100
AcDbCircle
 62
7
  6
CONTINUOUS
 10
23.2356779366
 20
16.2443506252
 40
0.5018753811
100
AcDbArc
 50
128.0974558667
 51
135.9711617086
  0
ARC
  5
21A
100
AcDbEntity
  8
0
100
AcDbCircle
 62
7
  6
CONTINUOUS
 10
23.2381496068
 20
16.2406510057
 40
0.5016743556
100
AcDbArc
 50
128.0334491872
 51
135.9072882235
  0
ARC
  5
21B
100
AcDbEntity
  8
0
100
AcDbCircle
 62
7
  6
CONTINUOUS
 10
23.2346010265
 20
16.2441533556
 40
0.5015840515
100
AcDbArc
 50
90.6944322442
 51
106.3873593036
  0
ARC
  5
21C
100
AcDbEntity
  8
0
100
AcDbCircle
 62
7
  6
CONTINUOUS
 10
23.2358868326
 20
16.2466555915
 40
0.5013957133
100
AcDbArc
 50
191.3427119836
 51
201.0894791442
  0
ARC
  5
21D
100
AcDbEntity
  8
0
100
AcDbCircle
 62
7
  6
CONTINUOUS
 10
23.2358072116
 20
16.2460786606
 40
0.5012360133
100
AcDbArc
 50
174.8126986521
 51
182.8074254993
  0
ARC
  5
21E
100
AcDbEntity
  8
0
100
AcDbCircle
 62
7
  6
CONTINUOUS
 10
23.2354490379
 20
16.247073296
 40
0.5011691501
100
AcDbArc
 50
207.1500124041
 51
217.5673927647
  0
ARC
  5
21F
100
AcDbEntity
  8
0
100
AcDbCircle
 62
7
  6
CONTINUOUS
 10
23.2348909937
 20
16.2473071321
 40
0.5008960902
100
AcDbArc
 50
226.6131623306
 51
234.2061424282
  0
ARC
  5
220
100
AcDbEntity
  8
0
100
AcDbCircle
 62
7
  6
CONTINUOUS
 10
23.2339227335
 20
16.2476693525
 40
0.5008223646
100
AcDbArc
 50
253.8817621356
 51
270.0095151584
  0
ARC
  5
221
100
AcDbEntity
  8
0
100
AcDbCircle
 62
7
  6
CONTINUOUS
 10
23.2320073161
 20
16.2459693702
 40
0.5004062572
100
AcDbArc
 50
338.3104900985
 51
347.2694463891
  0
ARC
  5
222
100
AcDbEntity
  8
0
100
AcDbCircle
 62
7
  6
CONTINUOUS
 10
23.2348335863
 20
16.2456679642
 40
0.5003705422
100
AcDbArc
 50
143.6206580027
 51
154.802665999
  0
ARC
  5
223
100
AcDbEntity
  8
0
100
AcDbCircle
 62
7
  6
CONTINUOUS
 10
23.2347696293
 20
16.2459107812
 40
0.5002188663
100
AcDbArc
 50
156.4465626213
 51
171.8342928779
  0
ARC
  5
224
100
AcDbEntity
  8
0
100
AcDbCircle
 62
7
  6
CONTINUOUS
 10
23.2324463421
 20
16.2463308984
 40
0.500160276
100
AcDbArc
 50
321.8472324534
 51
329.7774498494
  0
ARC
  5
225
100
AcDbEntity
  8
0
100
AcDbCircle
 62
7
  6
CONTINUOUS
 10
23.2345956707
 20
16.2460417972
 40
0.5000241215
100
AcDbArc
 50
182.8100061134
 51
184.7869672767
  0
ARC
  5
226
100
AcDbEntity
  8
0
100
AcDbCircle
 62
7
  6
CONTINUOUS
 10
23.2341289859
 20
16.2467580592
 40
0.5000198825
100
AcDbArc
 50
238.3160027993
 51
248.0049281948
  0
ARC
  5
227
100
AcDbEntity
  8
0
100
AcDbCircle
 62
7
  6
CONTINUOUS
 10
23.232381776
 20
16.2449167738
 40
0.5000096187
100
AcDbArc
 50
9.8543987278
 51
18.8580459721
  0
ARC
  5
228
100
AcDbEntity
  8
0
100
AcDbCircle
 62
7
  6
CONTINUOUS
 10
23.2331517518
 20
16.2489349456
 40
0.4998830285
100
AcDbArc
 50
275.1480392115
 51
282.8416829071
  0
ARC
  5
229
100
AcDbEntity
  8
0
100
AcDbCircle
 62
7
  6
CONTINUOUS
 10
23.2329128167
 20
16.2464502078
 40
0.4998794529
100
AcDbArc
 50
303.3120130881
 51
313.7226561762
  0
ARC
  5
22A
100
AcDbEntity
  8
0
100
AcDbCircle
 62
7
  6
CONTINUOUS
 10
23.2343984754
 20
16.245986894
 40
0.4997982703
100
AcDbArc
 50
109.6776402483
 51
128.0977644091
  0
ARC
  5
22B
100
AcDbEntity
  8
0
100
AcDbCircle
 62
7
  6
CONTINUOUS
 10
23.2328159678
 20
16.2445954728
 40
0.4997384685
100
AcDbArc
 50
25.4900813739
 51
35.234107883
  0
ARC
  5
22C
100
AcDbEntity
  8
0
100
AcDbCircle
 62
7
  6
CONTINUOUS
 10
23.2356691852
 20
16.2443613062
 40
0.4996375122
100
AcDbArc
 50
128.0847545629
 51
135.9935944087
  0
ARC
  5
22D
100
AcDbEntity
  8
0
100
AcDbCircle
 62
7
  6
CONTINUOUS
 10
23.233346981
 20
16.2462902578
 40
0.4995147558
100
AcDbArc
 50
294.5864180842
 51
296.6551370177
  0
ARC
  5
22E
100
AcDbEntity
  8
0
100
AcDbCircle
 62
7
  6
CONTINUOUS
 10
23.2333011537
 20
16.2443679072
 40
0.4995104741
100
AcDbArc
 50
43.1844167809
 51
56.8511421298
  0
ARC
  5
22F
100
AcDbEntity
  8
0
100
AcDbCircle
 62
7
  6
CONTINUOUS
 10
23.2338965523
 20
16.2462884817
 40
0.4994731554
100
AcDbArc
 50
222.7191130466
 51
226.6140814366
  0
ARC
  5
230
100
AcDbEntity
  8
0
100
AcDbCircle
 62
7
  6
CONTINUOUS
 10
23.2343040052
 20
16.2416814529
 40
0.4994068894
100
AcDbArc
 50
90.0341722756
 51
106.2750379807
  0
ARC
  5
231
100
AcDbEntity
  8
0
100
AcDbCircle
 62
7
  6
CONTINUOUS
 10
23.2340748525
 20
16.2441931366
 40
0.4993199657
100
AcDbArc
 50
81.4258960726
 51
89.4064918822
  0
ARC
  5
232
100
AcDbEntity
  8
0
100
AcDbCircle
 62
7
  6
CONTINUOUS
 10
23.2345829063
 20
16.2442763251
 40
0.4992367924
100
AcDbArc
 50
90.6593792347
 51
106.3892850391
  0
ARC
  5
233
100
AcDbEntity
  8
0
100
AcDbCircle
 62
7
  6
CONTINUOUS
 10
23.2359071016
 20
16.2466627409
 40
0.4991925881
100
AcDbArc
 50
191.1832643849
 51
201.4110258806
  0
ARC
  5
234
100
AcDbEntity
  8
0
100
AcDbCircle
 62
7
  6
CONTINUOUS
 10
23.2332651937
 20
16.2453460181
 40
0.4990632549
100
AcDbArc
 50
355.1315060017
 51
5.7411103179
  0
ARC
  5
235
100
AcDbEntity
  8
0
100
AcDbCircle
 62
7
  6
CONTINUOUS
 10
23.2357997997
 20
16.2460785647
 40
0.4990044554
100
AcDbArc
 50
174.7895221996
 51
182.8198234586
  0
ARC
  5
236
100
AcDbEntity
  8
0
100
AcDbCircle
 62
7
  6
CONTINUOUS
 10
23.2336701276
 20
16.2456026991
 40
0.4987362852
100
AcDbArc
 50
329.7789680529
 51
333.2399353713
  0
ARC
  5
237
100
AcDbEntity
  8
0
100
AcDbCircle
 62
7
  6
CONTINUOUS
 10
23.2422745161
 20
16.2462639258
 40
0.4986180504
100
AcDbArc
 50
174.8090747042
 51
182.629448082
  0
ARC
  5
238
100
AcDbEntity
  8
0
100
AcDbCircle
 62
7
  6
CONTINUOUS
 10
23.2338151221
 20
16.2455120621
 40
0.4985421192
100
AcDbArc
 50
347.274926834
 51
348.6216023843
  0
ARC
  5
239
100
AcDbEntity
  8
0
100
AcDbCircle
 62
7
  6
CONTINUOUS
 10
23.2339141108
 20
16.2475981462
 40
0.4985269839
100
AcDbArc
 50
253.6820342236
 51
270.0105499813
  0
ARC
  5
23A
100
AcDbEntity
  8
0
100
AcDbCircle
 62
7
  6
CONTINUOUS
 10
23.2338270202
 20
16.2453881717
 40
0.4984895849
100
AcDbArc
 50
18.8604647557
 51
22.1383198343
  0
ARC
  5
23B
100
AcDbEntity
  8
0
100
AcDbCircle
 62
7
  6
CONTINUOUS
 10
23.2338240254
 20
16.2453595453
 40
0.4984689455
100
AcDbArc
 50
296.6541243802
 51
302.022839111
  0
ARC
  5
23C
100
AcDbEntity
  8
0
100
AcDbCircle
 62
7
  6
CONTINUOUS
 10
23.2349627122
 20
16.2458299901
 40
0.4982039411
100
AcDbArc
 50
156.4150314328
 51
171.8355293715
  0
ARC
  5
23D
100
AcDbEntity
  8
0
100
AcDbCircle
 62
7
  6
CONTINUOUS
 10
23.2348265998
 20
16.2456726307
 40
0.4981379809
100
AcDbArc
 50
143.6042108626
 51
154.8358292889
  0
ARC
  5
23E
100
AcDbEntity
  8
0
100
AcDbCircle
 62
7
  6
CONTINUOUS
 10
23.233208847
 20
16.2449944397
 40
0.4980363659
100
AcDbArc
 50
234.2075008268
 51
237.2921902408
  0
ARC
  5
23F
100
AcDbEntity
  8
0
100
AcDbCircle
 62
7
  6
CONTINUOUS
 10
23.2342513655
 20
16.2451519707
 40
0.4980189991
100
AcDbArc
 50
337.8636654779
 51
338.3024574475
  0
ARC
  5
240
100
AcDbEntity
  8
0
100
AcDbCircle
 62
7
  6
CONTINUOUS
 10
23.2342519171
 20
16.2451493858
 40
0.4980155384
100
AcDbArc
 50
313.7197785352
 51
318.9690536628
  0
ARC
  5
241
100
AcDbEntity
  8
0
100
AcDbCircle
 62
7
  6
CONTINUOUS
 10
23.2333349175
 20
16.2448863392
 40
0.497986995
100
AcDbArc
 50
248.00898544
 51
252.4294341076
  0
ARC
  5
242
100
AcDbEntity
  8
0
100
AcDbCircle
 62
7
  6
CONTINUOUS
 10
23.2329071082
 20
16.2470967321
 40
0.4979745852
100
AcDbArc
 50
135.9767582823
 51
143.6228125189
  0
ARC
  5
243
100
AcDbEntity
  8
0
100
AcDbCircle
 62
7
  6
CONTINUOUS
 10
23.2322104976
 20
16.2458860434
 40
0.4979645501
100
AcDbArc
 50
341.2188164474
 51
348.6510633112
  0
ARC
  5
244
100
AcDbEntity
  8
0
100
AcDbCircle
 62
7
  6
CONTINUOUS
 10
23.2343227435
 20
16.2456248265
 40
0.4979138792
100
AcDbArc
 50
35.2373884782
 51
38.7938959524
  0
ARC
  5
245
100
AcDbEntity
  8
0
100
AcDbCircle
 62
7
  6
CONTINUOUS
 10
23.2325258738
 20
16.246275892
 40
0.4978396944
100
AcDbArc
 50
321.8320641487
 51
329.3819424286
  0
ARC
  5
246
100
AcDbEntity
  8
0
100
AcDbCircle
 62
7
  6
CONTINUOUS
 10
23.2368665098
 20
16.2392854156
 40
0.4978206095
100
AcDbArc
 50
106.3147852568
 51
122.0232296025
  0
ARC
  5
247
100
AcDbEntity
  8
0
100
AcDbCircle
 62
7
  6
CONTINUOUS
 10
23.2340938522
 20
16.2447173114
 40
0.4977858225
100
AcDbArc
 50
282.8219514287
 51
294.5876096173
  0
ARC
  5
248
100
AcDbEntity
  8
0
100
AcDbCircle
 62
7
  6
CONTINUOUS
 10
23.2344355669
 20
16.2464336811
 40
0.4977494341
100
AcDbArc
 50
204.5849592955
 51
220.9224881406
  0
ARC
  5
249
100
AcDbEntity
  8
0
100
AcDbCircle
 62
7
  6
CONTINUOUS
 10
23.2323193874
 20
16.2463462799
 40
0.4977382801
100
AcDbArc
 50
171.8509070259
 51
174.8070791694
  0
ARC
  5
24A
100
AcDbEntity
  8
0
100
AcDbCircle
 62
7
  6
CONTINUOUS
 10
23.2323128336
 20
16.2458683696
 40
0.4977366968
100
AcDbArc
 50
184.7858657817
 51
191.3347781575
  0
ARC
  5
24B
100
AcDbEntity
  8
0
100
AcDbCircle
 62
7
  6
CONTINUOUS
 10
23.2324022589
 20
16.2453596134
 40
0.4977018252
100
AcDbArc
 50
357.2212045738
 51
6.8646929314
  0
ARC
  5
24C
100
AcDbEntity
  8
0
100
AcDbCircle
 62
7
  6
CONTINUOUS
 10
23.2329162604
 20
16.2464419184
 40
0.4976466806
100
AcDbArc
 50
303.4149819103
 51
313.7429762926
  0
ARC
  5
24D
100
AcDbEntity
  8
0
100
AcDbCircle
 62
7
  6
CONTINUOUS
 10
23.2325562263
 20
16.244973611
 40
0.4976017166
100
AcDbArc
 50
8.6053140862
 51
18.8906416783
  0
ARC
  5
24E
100
AcDbEntity
  8
0
100
AcDbCircle
 62
7
  6
CONTINUOUS
 10
23.2412530093
 20
16.2461974751
 40
0.497594571
100
AcDbArc
 50
182.627200703
 51
188.1037284226
  0
ARC
  5
24F
100
AcDbEntity
  8
0
100
AcDbCircle
 62
7
  6
CONTINUOUS
 10
23.2343855792
 20
16.2460029618
 40
0.4975536042
100
AcDbArc
 50
109.6559185046
 51
128.0850184293
  0
ARC
  5
250
100
AcDbEntity
  8
0
100
AcDbCircle
 62
7
  6
CONTINUOUS
 10
23.2335482328
 20
16.2481516977
 40
0.4974511265
100
AcDbArc
 50
106.4009534024
 51
109.6762967546
  0
ARC
  5
251
100
AcDbEntity
  8
0
100
AcDbCircle
 62
7
  6
CONTINUOUS
 10
23.2328999157
 20
16.2446481077
 40
0.497415102
100
AcDbArc
 50
25.0649301895
 51
35.2688155599
  0
ARC
  5
252
100
AcDbEntity
  8
0
100
AcDbCircle
 62
7
  6
CONTINUOUS
 10
23.2399357147
 20
16.2422810035
 40
0.4974029868
100
AcDbArc
 50
139.2366705433
 51
154.8201948985
  0
ARC
  5
253
100
AcDbEntity
  8
0
100
AcDbCircle
 62
7
  6
CONTINUOUS
 10
23.2321348909
 20
16.2452717724
 40
0.4973981068
100
AcDbArc
 50
201.0962912379
 51
207.1395640072
  0
ARC
  5
254
100
AcDbEntity
  8
0
100
AcDbCircle
 62
7
  6
CONTINUOUS
 10
23.2347311941
 20
16.2446111733
 40
0.4973011707
100
AcDbArc
 50
320.4935823891
 51
321.8404167875
  0
ARC
  5
255
100
AcDbEntity
  8
0
100
AcDbCircle
 62
7
  6
CONTINUOUS
 10
23.2333114943
 20
16.2443733829
 40
0.4972753882
100
AcDbArc
 50
43.1700986812
 51
57.0876287355
  0
ARC
  5
256
100
AcDbEntity
  8
0
100
AcDbCircle
 62
7
  6
CONTINUOUS
 10
23.2335938573
 20
16.2438469007
 40
0.4970000767
100
AcDbArc
 50
270.0475022635
 51
275.1625793771
  0
ARC
  5
257
100
AcDbEntity
  8
0
100
AcDbCircle
 62
7
  6
CONTINUOUS
 10
23.2340918171
 20
16.2442928981
 40
0.4969958736
100
AcDbArc
 50
73.4244538814
 51
89.4464386679
  0
ARC
  5
258
100
AcDbEntity
  8
0
100
AcDbCircle
 62
7
  6
CONTINUOUS
 10
23.233212718
 20
16.2455561813
 40
0.4969094923
100
AcDbArc
 50
338.2908200495
 51
341.2176206221
  0
ARC
  5
259
100
AcDbEntity
  8
0
100
AcDbCircle
 62
7
  6
CONTINUOUS
 10
23.2347162287
 20
16.2465347006
 40
0.4969090313
100
AcDbArc
 50
56.8698961865
 51
81.4587702671
  0
ARC
  5
25A
100
AcDbEntity
  8
0
100
AcDbCircle
 62
7
  6
CONTINUOUS
 10
23.2315915269
 20
16.2472338606
 40
0.4967768339
100
AcDbArc
 50
154.8194952029
 51
156.4399732598
  0
ARC
  5
25B
100
AcDbEntity
  8
0
100
AcDbCircle
 62
7
  6
CONTINUOUS
 10
23.2324846475
 20
16.2438996279
 40
0.496723826
100
AcDbArc
 50
237.2942412614
 51
238.3042278356
  0
ARC
  5
25C
100
AcDbEntity
  8
0
100
AcDbCircle
 62
7
  6
CONTINUOUS
 10
23.2390895965
 20
16.2499201724
 40
0.4967029735
100
AcDbArc
 50
204.7273681072
 51
220.8744526432
  0
ARC
  5
25D
100
AcDbEntity
  8
0
100
AcDbCircle
 62
7
  6
CONTINUOUS
 10
23.2335051224
 20
16.2456907592
 40
0.4966989556
100
AcDbArc
 50
329.3824973767
 51
333.2790964983
  0
ARC
  5
25E
100
AcDbEntity
  8
0
100
AcDbCircle
 62
7
  6
CONTINUOUS
 10
23.2356376031
 20
16.2451543888
 40
0.4966848934
100
AcDbArc
 50
348.6205745956
 51
355.1326253618
  0
ARC
  5
25F
100
AcDbEntity
  8
0
100
AcDbCircle
 62
7
  6
CONTINUOUS
 10
23.2356532727
 20
16.2456264648
 40
0.4966665558
100
AcDbArc
 50
5.7453980774
 51
6.8295938818
  0
ARC
  5
260
100
AcDbEntity
  8
0
100
AcDbCircle
 62
7
  6
CONTINUOUS
 10
23.2318296492
 20
16.2443570965
 40
0.4966443652
100
AcDbArc
 50
217.5760593591
 51
222.7171784537
  0
ARC
  5
261
100
AcDbEntity
  8
0
100
AcDbCircle
 62
7
  6
CONTINUOUS
 10
23.233440853
 20
16.2459649754
 40
0.4966427769
100
AcDbArc
 50
182.8201231137
 51
188.2057540981
  0
ARC
  5
262
100
AcDbEntity
  8
0
100
AcDbCircle
 62
7
  6
CONTINUOUS
 10
23.233409548
 20
16.2457949601
 40
0.4965558278
100
AcDbArc
 50
220.9443498762
 51
248.0218877681
  0
ARC
  5
263
100
AcDbEntity
  8
0
100
AcDbCircle
 62
7
  6
CONTINUOUS
 10
23.2356767662
 20
16.2461284679
 40
0.4964972322
100
AcDbArc
 50
22.1396291861
 51
23.4334711983
  0
ARC
  5
264
100
AcDbEntity
  8
0
100
AcDbCircle
 62
7
  6
CONTINUOUS
 10
23.2355402857
 20
16.246509556
 40
0.4964121662
100
AcDbArc
 50
41.1830977892
 51
43.1810411977
  0
ARC
  5
265
100
AcDbEntity
  8
0
100
AcDbCircle
 62
7
  6
CONTINUOUS
 10
23.2359539793
 20
16.2456284236
 40
0.496368333
100
AcDbArc
 50
8.6012337129
 51
9.8440348132
  0
ARC
  5
266
100
AcDbEntity
  8
0
100
AcDbCircle
 62
7
  6
CONTINUOUS
 10
23.2358028151
 20
16.2445169755
 40
0.4963431561
100
AcDbArc
 50
333.2409960651
 51
337.8646250794
  0
ARC
  5
267
100
AcDbEntity
  8
0
100
AcDbCircle
 62
7
  6
CONTINUOUS
 10
23.2368758679
 20
16.2441876425
 40
0.496205053
100
AcDbArc
 50
143.3061282836
 51
144.2784146355
  0
ARC
  5
268
100
AcDbEntity
  8
0
100
AcDbCircle
 62
7
  6
CONTINUOUS
 10
23.2350192602
 20
16.2433825576
 40
0.4961590018
100
AcDbArc
 50
302.0268748653
 51
303.3033338094
  0
ARC
  5
269
100
AcDbEntity
  8
0
100
AcDbCircle
 62
7
  6
CONTINUOUS
 10
23.2341406088
 20
16.2455001436
 40
0.4959322003
100
AcDbArc
 50
18.8923505778
 51
23.4819098165
  0
ARC
  5
26A
100
AcDbEntity
  8
0
100
AcDbCircle
 62
7
  6
CONTINUOUS
 10
23.2358534621
 20
16.2436847581
 40
0.4958459285
100
AcDbArc
 50
318.9752343611
 51
320.4936784698
  0
ARC
  5
26B
100
AcDbEntity
  8
0
100
AcDbCircle
 62
7
  6
CONTINUOUS
 10
23.2342316171
 20
16.2451699323
 40
0.4958200511
100
AcDbArc
 50
313.7407159854
 51
319.0529721855
  0
ARC
  5
26C
100
AcDbEntity
  8
0
100
AcDbCircle
 62
7
  6
CONTINUOUS
 10
23.2329062272
 20
16.2470985414
 40
0.49574856
100
AcDbArc
 50
135.9992870844
 51
143.606353322
  0
ARC
  5
26D
100
AcDbEntity
  8
0
100
AcDbCircle
 62
7
  6
CONTINUOUS
 10
23.2344481257
 20
16.2452658391
 40
0.4956538178
100
AcDbArc
 50
351.732226903
 51
357.2205664991
  0
ARC
  5
26E
100
AcDbEntity
  8
0
100
AcDbCircle
 62
7
  6
CONTINUOUS
 10
23.2340941133
 20
16.2447204104
 40
0.4955644607
100
AcDbArc
 50
282.8437550587
 51
302.0567394243
  0
ARC
  5
26F
100
AcDbEntity
  8
0
100
AcDbCircle
 62
7
  6
CONTINUOUS
 10
23.2324799158
 20
16.2453985995
 40
0.4955404507
100
AcDbArc
 50
201.4196070814
 51
204.5702042662
  0
ARC
  5
270
100
AcDbEntity
  8
0
100
AcDbCircle
 62
7
  6
CONTINUOUS
 10
23.2323147764
 20
16.2463466333
 40
0.4955094908
100
AcDbArc
 50
171.8511810236
 51
174.783794997
  0
ARC
  5
271
100
AcDbEntity
  8
0
100
AcDbCircle
 62
7
  6
CONTINUOUS
 10
23.2325503512
 20
16.2424885364
 40
0.4954642151
100
AcDbArc
 50
252.432222659
 51
253.8679008229
  0
ARC
  5
272
100
AcDbEntity
  8
0
100
AcDbCircle
 62
7
  6
CONTINUOUS
 10
23.2322363439
 20
16.2458555677
 40
0.4954349882
100
AcDbArc
 50
188.2131127434
 51
191.1740228792
  0
ARC
  5
273
100
AcDbEntity
  8
0
100
AcDbCircle
 62
7
  6
CONTINUOUS
 10
23.2366892099
 20
16.2465637665
 40
0.4953951811
100
AcDbArc
 50
23.4338455034
 51
25.4768587145
  0
ARC
  5
274
100
AcDbEntity
  8
0
100
AcDbCircle
 62
7
  6
CONTINUOUS
 10
23.2331998601
 20
16.2445310286
 40
0.4953827683
100
AcDbArc
 50
248.0194743367
 51
253.6616454996
  0
ARC
  5
275
100
AcDbEntity
  8
0
100
AcDbCircle
 62
7
  6
CONTINUOUS
 10
23.2370196756
 20
16.2457913184
 40
0.4952902605
100
AcDbArc
 50
6.8295938373
 51
8.6010392798
  0
ARC
  5
276
100
AcDbEntity
  8
0
100
AcDbCircle
 62
7
  6
CONTINUOUS
 10
23.2335695967
 20
16.2480991345
 40
0.4952834102
100
AcDbArc
 50
106.4016071286
 51
109.6545930153
  0
ARC
  5
277
100
AcDbEntity
  8
0
100
AcDbCircle
 62
7
  6
CONTINUOUS
 10
23.2347802043
 20
16.2459615867
 40
0.4951215165
100
AcDbArc
 50
35.2703559407
 51
40.7363406304
  0
ARC
  5
278
100
AcDbEntity
  8
0
100
AcDbCircle
 62
7
  6
CONTINUOUS
 10
23.2363327653
 20
16.2460106996
 40
0.495085727
100
AcDbArc
 50
174.5640919332
 51
182.4619368559
  0
ARC
  5
279
100
AcDbEntity
  8
0
100
AcDbCircle
 62
7
  6
CONTINUOUS
 10
23.2351558366
 20
16.2507642
 40
0.4950475208
100
AcDbArc
 50
240.4197694524
 51
253.6460371821
  0
ARC
  5
27A
100
AcDbEntity
  8
0
100
AcDbCircle
 62
7
  6
CONTINUOUS
 10
23.234603086
 20
16.2462572447
 40
0.4949836404
100
AcDbArc
 50
57.1056966851
 51
72.8958217268
  0
ARC
  5
27B
100
AcDbEntity
  8
0
100
AcDbCircle
 62
7
  6
CONTINUOUS
 10
23.2358456322
 20
16.2448756856
 40
0.4949669319
100
AcDbArc
 50
144.2734483286
 51
153.1292293
  0
ARC
  5
27C
100
AcDbEntity
  8
0
100
AcDbCircle
 62
7
  6
CONTINUOUS
 10
23.2367271603
 20
16.2475561612
 40
0.4948297581
100
AcDbArc
 50
38.795388951
 51
41.1823837889
  0
ARC
  5
27D
100
AcDbEntity
  8
0
100
AcDbCircle
 62
7
  6
CONTINUOUS
 10
23.233593624
 20
16.2438363737
 40
0.4947653747
100
AcDbArc
 50
270.0477438251
 51
275.1500544255
  0
ARC
  5
27E
100
AcDbEntity
  8
0
100
AcDbCircle
 62
7
  6
CONTINUOUS
 10
23.2357686261
 20
16.2465955459
 40
0.494593384
100
AcDbArc
 50
191.0002082342
 51
201.2987213442
  0
ARC
  5
27F
100
AcDbEntity
  8
0
100
AcDbCircle
 62
7
  6
CONTINUOUS
 10
23.2355873508
 20
16.2451668838
 40
0.4945122075
100
AcDbArc
 50
348.6557660126
 51
351.7245922889
  0
ARC
  5
280
100
AcDbEntity
  8
0
100
AcDbCircle
 62
7
  6
CONTINUOUS
 10
23.2377273708
 20
16.2441485071
 40
0.4945109987
100
AcDbArc
 50
138.1719048471
 51
139.2334917659
  0
ARC
  5
281
100
AcDbEntity
  8
0
100
AcDbCircle
 62
7
  6
CONTINUOUS
 10
23.2387691851
 20
16.2533259176
 40
0.4945034192
100
AcDbArc
 50
232.1780599968
 51
239.2652974512
  0
ARC
  5
282
100
AcDbEntity
  8
0
100
AcDbCircle
 62
7
  6
CONTINUOUS
 10
23.2314787411
 20
16.2472843459
 40
0.4944291107
100
AcDbArc
 50
154.8526407991
 51
156.4078913468
  0
ARC
  5
283
100
AcDbEntity
  8
0
100
AcDbCircle
 62
7
  6
CONTINUOUS
 10
23.2353310379
 20
16.2441316222
 40
0.4943091774
100
AcDbArc
 50
319.0603597088
 51
321.8265384504
  0
ARC
  5
284
100
AcDbEntity
  8
0
100
AcDbCircle
 62
7
  6
CONTINUOUS
 10
23.2357702504
 20
16.2445365973
 40
0.4941567636
100
AcDbArc
 50
333.2805345438
 51
338.2909374914
  0
ARC
  5
285
100
AcDbEntity
  8
0
100
AcDbCircle
 62
7
  6
CONTINUOUS
 10
23.2323891586
 20
16.2471230984
 40
0.4940569065
100
AcDbArc
 50
303.3496417345
 51
313.7563088634
  0
ARC
  5
286
100
AcDbEntity
  8
0
100
AcDbCircle
 62
7
  6
CONTINUOUS
 10
23.235016068
 20
16.2433912659
 40
0.4939439423
100
AcDbArc
 50
302.0644740905
 51
303.4065752574
  0
ARC
  5
287
100
AcDbEntity
  8
0
100
AcDbCircle
 62
7
  6
CONTINUOUS
 10
23.2343569073
 20
16.2517947781
 40
0.4939402547
100
AcDbArc
 50
90.0407152885
 51
90.6768599619
  0
ARC
  5
288
100
AcDbEntity
  8
0
100
AcDbCircle
 62
7
  6
CONTINUOUS
 10
23.2359040551
 20
16.2468485309
 40
0.4936911542
100
AcDbArc
 50
40.7434601672
 51
43.1664492202
  0
ARC
  5
289
100
AcDbEntity
  8
0
100
AcDbCircle
 62
7
  6
CONTINUOUS
 10
23.2348403558
 20
16.2457351384
 40
0.4936482097
100
AcDbArc
 50
137.5220644006
 51
143.3089771035
  0
ARC
  5
28A
100
AcDbEntity
  8
0
100
AcDbCircle
 62
7
  6
CONTINUOUS
 10
23.2373031555
 20
16.2466497369
 40
0.4936321768
100
AcDbArc
 50
171.9681113952
 51
174.8014658254
  0
ARC
  5
28B
100
AcDbEntity
  8
0
100
AcDbCircle
 62
7
  6
CONTINUOUS
 10
23.2334501654
 20
16.247101403
 40
0.4935821953
100
AcDbArc
 50
253.3524891691
 51
286.3365668887
  0
ARC
  5
28C
100
AcDbEntity
  8
0
100
AcDbCircle
 62
7
  6
CONTINUOUS
 10
23.2325236994
 20
16.246280479
 40
0.4933957476
100
AcDbArc
 50
321.7747711362
 51
329.3936616606
  0
ARC
  5
28D
100
AcDbEntity
  8
0
100
AcDbCircle
 62
7
  6
CONTINUOUS
 10
23.2408899429
 20
16.2486436617
 40
0.4932526666
100
AcDbArc
 50
197.4564485617
 51
204.5343379751
  0
ARC
  5
28E
100
AcDbEntity
  8
0
100
AcDbCircle
 62
7
  6
CONTINUOUS
 10
23.2368362905
 20
16.2457751334
 40
0.4932499293
100
AcDbArc
 50
6.8783343376
 51
8.587647829
  0
ARC
  5
28F
100
AcDbEntity
  8
0
100
AcDbCircle
 62
7
  6
CONTINUOUS
 10
23.2325167194
 20
16.2449678762
 40
0.4931929605
100
AcDbArc
 50
8.5165911992
 51
18.8943120635
  0
ARC
  5
290
100
AcDbEntity
  8
0
100
AcDbCircle
 62
7
  6
CONTINUOUS
 10
23.2335079834
 20
16.2535736561
 40
0.4931879884
100
AcDbArc
 50
265.8648522701
 51
270.0578230379
  0
ARC
  5
291
100
AcDbEntity
  8
0
100
AcDbCircle
 62
7
  6
CONTINUOUS
 10
23.2324731137
 20
16.2453630556
 40
0.4931827769
100
AcDbArc
 50
357.1842785721
 51
6.9099340566
  0
ARC
  5
292
100
AcDbEntity
  8
0
100
AcDbCircle
 62
7
  6
CONTINUOUS
 10
23.2366869954
 20
16.2465732122
 40
0.4931691169
100
AcDbArc
 50
23.4854449671
 51
25.0487306344
  0
ARC
  5
293
100
AcDbEntity
  8
0
100
AcDbCircle
 62
7
  6
CONTINUOUS
 10
23.2340790168
 20
16.2437914625
 40
0.4930467506
100
AcDbArc
 50
73.3600416841
 51
90.0085135486
  0
ARC
  5
294
100
AcDbEntity
  8
0
100
AcDbCircle
 62
7
  6
CONTINUOUS
 10
23.2328594173
 20
16.2446287391
 40
0.4930113297
100
AcDbArc
 50
24.9760691998
 51
35.2714929868
  0
ARC
  5
295
100
AcDbEntity
  8
0
100
AcDbCircle
 62
7
  6
CONTINUOUS
 10
23.2367064436
 20
16.2455808805
 40
0.4930064873
100
AcDbArc
 50
188.107269803
 51
190.9710832664
  0
ARC
  5
296
100
AcDbEntity
  8
0
100
AcDbCircle
 62
7
  6
CONTINUOUS
 10
23.2262504322
 20
16.2430988774
 40
0.4928715587
100
AcDbArc
 50
8.5437376837
 51
18.9213809126
  0
ARC
  5
297
100
AcDbEntity
  8
0
100
AcDbCircle
 62
7
  6
CONTINUOUS
 10
23.233313121
 20
16.2443840414
 40
0.492818165
100
AcDbArc
 50
43.1094243424
 51
56.7302971764
  0
ARC
  5
298
100
AcDbEntity
  8
0
100
AcDbCircle
 62
7
  6
CONTINUOUS
 10
23.2361137681
 20
16.2470713484
 40
0.4925885771
100
AcDbArc
 50
220.8504064891
 51
229.1551747711
  0
ARC
  5
299
100
AcDbEntity
  8
0
100
AcDbCircle
 62
7
  6
CONTINUOUS
 10
23.2331797374
 20
16.2455713114
 40
0.4924972314
100
AcDbArc
 50
338.2335057961
 51
348.6849909043
  0
ARC
  5
29A
100
AcDbEntity
  8
0
100
AcDbCircle
 62
7
  6
CONTINUOUS
 10
23.2337510147
 20
16.2462463066
 40
0.4924932675
100
AcDbArc
 50
156.1332053083
 51
174.5629253475
  0
ARC
  5
29B
100
AcDbEntity
  8
0
100
AcDbCircle
 62
7
  6
CONTINUOUS
 10
23.2267452965
 20
16.247837607
 40
0.4924565812
100
AcDbArc
 50
335.502482815
 51
348.6687566917
  0
ARC
  5
29C
100
AcDbEntity
  8
0
100
AcDbCircle
 62
7
  6
CONTINUOUS
 10
23.2361736439
 20
16.2455466552
 40
0.4924208184
100
AcDbArc
 50
136.2023545989
 51
138.1725624311
  0
ARC
  5
29D
100
AcDbEntity
  8
0
100
AcDbCircle
 62
7
  6
CONTINUOUS
 10
23.2337012936
 20
16.2459224758
 40
0.4924107873
100
AcDbArc
 50
203.2588046951
 51
253.3213778671
  0
ARC
  5
29E
100
AcDbEntity
  8
0
100
AcDbCircle
 62
7
  6
CONTINUOUS
 10
23.2374797049
 20
16.2516324752
 40
0.4923750136
100
AcDbArc
 50
229.4504300609
 51
232.175750289
  0
ARC
  5
29F
100
AcDbEntity
  8
0
100
AcDbCircle
 62
7
  6
CONTINUOUS
 10
23.2335799889
 20
16.2456489009
 40
0.4921650548
100
AcDbArc
 50
329.3943362446
 51
333.321355568
  0
ARC
  5
2A0
100
AcDbEntity
  8
0
100
AcDbCircle
 62
7
  6
CONTINUOUS
 10
23.2350737832
 20
16.2445387645
 40
0.4920667707
100
AcDbArc
 50
154.8420901464
 51
155.373434965
  0
ARC
  5
2A1
100
AcDbEntity
  8
0
100
AcDbCircle
 62
7
  6
CONTINUOUS
 10
23.2355901381
 20
16.249299119
 40
0.4917860039
100
AcDbArc
 50
72.9015014509
 51
73.4090528976
  0
ARC
  5
2A2
100
AcDbEntity
  8
0
100
AcDbCircle
 62
7
  6
CONTINUOUS
 10
23.239445503
 20
16.2482635808
 40
0.4917632512
100
AcDbArc
 50
192.8658210741
 51
197.4578655992
  0
ARC
  5
2A3
100
AcDbEntity
  8
0
100
AcDbCircle
 62
7
  6
CONTINUOUS
 10
23.233445719
 20
16.2494444358
 40
0.4917481576
100
AcDbArc
 50
109.6716332915
 51
122.9079244623
  0
ARC
  5
2A4
100
AcDbEntity
  8
0
100
AcDbCircle
 62
7
  6
CONTINUOUS
 10
23.2338040421
 20
16.2452610494
 40
0.4917166382
100
AcDbArc
 50
286.3573152413
 51
302.1201914869
  0
ARC
  5
2A5
100
AcDbEntity
  8
0
100
AcDbCircle
 62
7
  6
CONTINUOUS
 10
23.2298205725
 20
16.2398689523
 40
0.4916718792
100
AcDbArc
 50
43.146533063
 51
57.065197637
  0
ARC
  5
2A6
100
AcDbEntity
  8
0
100
AcDbCircle
 62
7
  6
CONTINUOUS
 10
23.2343366311
 20
16.2520356754
 40
0.4914751691
100
AcDbArc
 50
89.4275376643
 51
90.6413038006
  0
ARC
  5
2A7
100
AcDbEntity
  8
0
100
AcDbCircle
 62
7
  6
CONTINUOUS
 10
23.2326743671
 20
16.2458841726
 40
0.4914252715
100
AcDbArc
 50
182.4655207318
 51
190.9951333614
  0
ARC
  5
2A8
100
AcDbEntity
  8
0
100
AcDbCircle
 62
7
  6
CONTINUOUS
 10
23.234263657
 20
16.2451377824
 40
0.4913265482
100
AcDbArc
 50
313.7585364885
 51
318.9638313968
  0
ARC
  5
2A9
100
AcDbEntity
  8
0
100
AcDbCircle
 62
7
  6
CONTINUOUS
 10
23.2277134549
 20
16.2436027577
 40
0.4913241978
100
AcDbArc
 50
18.9211199497
 51
23.5505762212
  0
ARC
  5
2AA
100
AcDbEntity
  8
0
100
AcDbCircle
 62
7
  6
CONTINUOUS
 10
23.2342966974
 20
16.245557771
 40
0.4913178706
100
AcDbArc
 50
18.8964448447
 51
23.5285685426
  0
ARC
  5
2AB
100
AcDbEntity
  8
0
100
AcDbCircle
 62
7
  6
CONTINUOUS
 10
23.2322361126
 20
16.2458785512
 40
0.4912654454
100
AcDbArc
 50
341.1858693355
 51
348.7189674087
  0
ARC
  5
2AC
100
AcDbEntity
  8
0
100
AcDbCircle
 62
7
  6
CONTINUOUS
 10
23.2343890671
 20
16.2452718541
 40
0.4912646565
100
AcDbArc
 50
351.5888337352
 51
357.1839254746
  0
ARC
  5
2AD
100
AcDbEntity
  8
0
100
AcDbCircle
 62
7
  6
CONTINUOUS
 10
23.2334683064
 20
16.2469728244
 40
0.4912294224
100
AcDbArc
 50
270.0627042366
 51
286.3675867756
  0
ARC
  5
2AE
100
AcDbEntity
  8
0
100
AcDbCircle
 62
7
  6
CONTINUOUS
 10
23.2325442165
 20
16.24626478
 40
0.4911458321
100
AcDbArc
 50
321.7581173783
 51
329.4105449029
  0
ARC
  5
2AF
100
AcDbEntity
  8
0
100
AcDbCircle
 62
7
  6
CONTINUOUS
 10
23.234109483
 20
16.2449798283
 40
0.4910063881
100
AcDbArc
 50
155.3733322636
 51
156.1865872489
  0
ARC
  5
2B0
100
AcDbEntity
  8
0
100
AcDbCircle
 62
7
  6
CONTINUOUS
 10
23.2324313546
 20
16.2453592978
 40
0.4910002816
100
AcDbArc
 50
357.1836425111
 51
6.9571832892
  0
ARC
  5
2B1
100
AcDbEntity
  8
0
100
AcDbCircle
 62
7
  6
CONTINUOUS
 10
23.238806403
 20
16.247680755
 40
0.4909574082
100
AcDbArc
 50
204.5330773243
 51
208.2146065274
  0
ARC
  5
2B2
100
AcDbEntity
  8
0
100
AcDbCircle
 62
7
  6
CONTINUOUS
 10
23.2325749828
 20
16.2449804728
 40
0.4909093421
100
AcDbArc
 50
8.5003696974
 51
18.9247474358
  0
ARC
  5
2B3
100
AcDbEntity
  8
0
100
AcDbCircle
 62
7
  6
CONTINUOUS
 10
23.2340767986
 20
16.2437597501
 40
0.4908542862
100
AcDbArc
 50
73.4130288039
 51
90.0082925691
  0
ARC
  5
2B4
100
AcDbEntity
  8
0
100
AcDbCircle
 62
7
  6
CONTINUOUS
 10
23.2329119099
 20
16.2446573043
 40
0.4907275579
100
AcDbArc
 50
24.9614407381
 51
35.3032840994
  0
ARC
  5
2B5
100
AcDbEntity
  8
0
100
AcDbCircle
 62
7
  6
CONTINUOUS
 10
23.2346027794
 20
16.2460640008
 40
0.4907060983
100
AcDbArc
 50
56.7485922236
 51
71.3767220243
  0
ARC
  5
2B6
100
AcDbEntity
  8
0
100
AcDbCircle
 62
7
  6
CONTINUOUS
 10
23.235631843
 20
16.2444098335
 40
0.4906796794
100
AcDbArc
 50
128.0331374686
 51
136.500531091
  0
ARC
  5
2B7
100
AcDbEntity
  8
0
100
AcDbCircle
 62
7
  6
CONTINUOUS
 10
23.2348477291
 20
16.2460112627
 40
0.4905896823
100
AcDbArc
 50
35.2737618339
 51
40.5043882549
  0
ARC
  5
2B8
100
AcDbEntity
  8
0
100
AcDbCircle
 62
7
  6
CONTINUOUS
 10
23.2333298236
 20
16.2443958946
 40
0.4905740477
100
AcDbArc
 50
43.0911190537
 51
57.0610100161
  0
ARC
  5
2B9
100
AcDbEntity
  8
0
100
AcDbCircle
 62
7
  6
CONTINUOUS
 10
23.2318309639
 20
16.2451787434
 40
0.4904100533
100
AcDbArc
 50
201.3116015133
 51
203.2447713236
  0
ARC
  5
2BA
100
AcDbEntity
  8
0
100
AcDbCircle
 62
7
  6
CONTINUOUS
 10
23.2317156761
 20
16.2471580438
 40
0.4902513443
100
AcDbArc
 50
153.1490121092
 51
156.1291870145
  0
ARC
  5
2BB
100
AcDbEntity
  8
0
100
AcDbCircle
 62
7
  6
CONTINUOUS
 10
23.2356548198
 20
16.2451506206
 40
0.4899947892
100
AcDbArc
 50
348.6901509266
 51
351.5812075229
  0
ARC
  5
2BC
100
AcDbEntity
  8
0
100
AcDbCircle
 62
7
  6
CONTINUOUS
 10
23.2335439416
 20
16.2456679232
 40
0.4899815028
100
AcDbArc
 50
329.4111357183
 51
333.360054641
  0
ARC
  5
2BD
100
AcDbEntity
  8
0
100
AcDbCircle
 62
7
  6
CONTINUOUS
 10
23.2352997739
 20
16.2441543849
 40
0.4898993788
100
AcDbArc
 50
318.9710269688
 51
321.769217959
  0
ARC
  5
2BE
100
AcDbEntity
  8
0
100
AcDbCircle
 62
7
  6
CONTINUOUS
 10
23.2353190434
 20
16.2457060384
 40
0.4896831831
100
AcDbArc
 50
156.2881850575
 51
167.4356125092
  0
ARC
  5
2BF
100
AcDbEntity
  8
0
100
AcDbCircle
 62
7
  6
CONTINUOUS
 10
23.2358172791
 20
16.2445092735
 40
0.4896542727
100
AcDbArc
 50
333.322969099
 51
338.2336552282
  0
ARC
  5
2C0
100
AcDbEntity
  8
0
100
AcDbCircle
 62
7
  6
CONTINUOUS
 10
23.2349592813
 20
16.2434714702
 40
0.4895936902
100
AcDbArc
 50
302.1282495178
 51
303.3333242454
  0
ARC
  5
2C1
100
AcDbEntity
  8
0
100
AcDbCircle
 62
7
  6
CONTINUOUS
 10
23.2350960064
 20
16.2454753877
 40
0.4895753038
100
AcDbArc
 50
143.5375781493
 51
154.9766268848
  0
ARC
  5
2C2
100
AcDbEntity
  8
0
100
AcDbCircle
 62
7
  6
CONTINUOUS
 10
23.2293864078
 20
16.2465985432
 40
0.489544064
100
AcDbArc
 50
333.5393541037
 51
335.4986165001
  0
ARC
  5
2C3
100
AcDbEntity
  8
0
100
AcDbCircle
 62
7
  6
CONTINUOUS
 10
23.2352309329
 20
16.2460771041
 40
0.4895396512
100
AcDbArc
 50
174.6936052
 51
182.6574528137
  0
ARC
  5
2C4
100
AcDbEntity
  8
0
100
AcDbCircle
 62
7
  6
CONTINUOUS
 10
23.235806408
 20
16.2467537323
 40
0.4893785096
100
AcDbArc
 50
40.511193635
 51
43.1063691122
  0
ARC
  5
2C5
100
AcDbEntity
  8
0
100
AcDbCircle
 62
7
  6
CONTINUOUS
 10
23.2340755083
 20
16.2452447029
 40
0.4893199136
100
AcDbArc
 50
335.3868846008
 51
341.186662998
  0
ARC
  5
2C6
100
AcDbEntity
  8
0
100
AcDbCircle
 62
7
  6
CONTINUOUS
 10
23.2354641495
 20
16.2492829931
 40
0.4892794501
100
AcDbArc
 50
226.4641745828
 51
229.4509096669
  0
ARC
  5
2C7
100
AcDbEntity
  8
0
100
AcDbCircle
 62
7
  6
CONTINUOUS
 10
23.2341997256
 20
16.2455210424
 40
0.4891971037
100
AcDbArc
 50
18.9265741913
 51
23.5783125379
  0
ARC
  5
2C8
100
AcDbEntity
  8
0
100
AcDbCircle
 62
7
  6
CONTINUOUS
 10
23.2343499342
 20
16.2521286001
 40
0.4891580776
100
AcDbArc
 50
89.4678036553
 51
90.040314329
  0
ARC
  5
2C9
100
AcDbEntity
  8
0
100
AcDbCircle
 62
7
  6
CONTINUOUS
 10
23.2342418968
 20
16.2451588252
 40
0.489132494
100
AcDbArc
 50
286.3868769588
 51
319.0449021744
  0
ARC
  5
2CA
100
AcDbEntity
  8
0
100
AcDbCircle
 62
7
  6
CONTINUOUS
 10
23.2344513239
 20
16.2452662951
 40
0.4889781825
100
AcDbArc
 50
351.7175827805
 51
357.1828972126
  0
ARC
  5
2CB
100
AcDbEntity
  8
0
100
AcDbCircle
 62
7
  6
CONTINUOUS
 10
23.2359993547
 20
16.2485407761
 40
0.4889748296
100
AcDbArc
 50
239.2577134223
 51
247.8876431826
  0
ARC
  5
2CC
100
AcDbEntity
  8
0
100
AcDbCircle
 62
7
  6
CONTINUOUS
 10
23.2368898634
 20
16.2457738108
 40
0.4887487063
100
AcDbArc
 50
6.9244239656
 51
8.4990767093
  0
ARC
  5
2CD
100
AcDbEntity
  8
0
100
AcDbCircle
 62
7
  6
CONTINUOUS
 10
23.2367091889
 20
16.2465721776
 40
0.4887009946
100
AcDbArc
 50
23.5324388773
 51
24.9601044987
  0
ARC
  5
2CE
100
AcDbEntity
  8
0
100
AcDbCircle
 62
7
  6
CONTINUOUS
 10
23.2343736876
 20
16.2460180917
 40
0.4886377564
100
AcDbArc
 50
90.0403770248
 51
128.0331238147
  0
ARC
  5
2CF
100
AcDbEntity
  8
0
100
AcDbCircle
 62
7
  6
CONTINUOUS
 10
23.2347937379
 20
16.2459711687
 40
0.4884325019
100
AcDbArc
 50
35.3050748866
 51
40.7114769069
  0
ARC
  5
2D0
100
AcDbEntity
  8
0
100
AcDbCircle
 62
7
  6
CONTINUOUS
 10
23.2346020501
 20
16.2462544327
 40
0.4883140892
100
AcDbArc
 50
57.0789364152
 51
72.8681371154
  0
ARC
  5
2D1
100
AcDbEntity
  8
0
100
AcDbCircle
 62
7
  6
CONTINUOUS
 10
23.2320300662
 20
16.2477099493
 40
0.4881135607
100
AcDbArc
 50
122.0662761352
 51
122.6590451319
  0
ARC
  5
2D2
100
AcDbEntity
  8
0
100
AcDbCircle
 62
7
  6
CONTINUOUS
 10
23.2306716654
 20
16.244857737
 40
0.4881109468
100
AcDbArc
 50
23.5542771384
 51
24.7653927259
  0
ARC
  5
2D3
100
AcDbEntity
  8
0
100
AcDbCircle
 62
7
  6
CONTINUOUS
 10
23.235390381
 20
16.2486376542
 40
0.4880280022
100
AcDbArc
 50
71.3797383188
 51
73.3446277835
  0
ARC
  5
2D4
100
AcDbEntity
  8
0
100
AcDbCircle
 62
7
  6
CONTINUOUS
 10
23.2356723541
 20
16.2473749557
 40
0.487886962
100
AcDbArc
 50
190.7204377624
 51
192.8627496806
  0
ARC
  5
2D5
100
AcDbEntity
  8
0
100
AcDbCircle
 62
7
  6
CONTINUOUS
 10
23.2356073823
 20
16.2451624374
 40
0.4878192251
100
AcDbArc
 50
348.7239926521
 51
351.7100941341
  0
ARC
  5
2D6
100
AcDbEntity
  8
0
100
AcDbCircle
 62
7
  6
CONTINUOUS
 10
23.2353378063
 20
16.2441262872
 40
0.4876280463
100
AcDbArc
 50
319.0521241271
 51
321.7522892444
  0
ARC
  5
2D7
100
AcDbEntity
  8
0
100
AcDbCircle
 62
7
  6
CONTINUOUS
 10
23.2369088404
 20
16.2541518141
 40
0.4876230319
100
AcDbArc
 50
240.2535491023
 51
255.0949435672
  0
ARC
  5
2D8
100
AcDbEntity
  8
0
100
AcDbCircle
 62
7
  6
CONTINUOUS
 10
23.2319764351
 20
16.2433667309
 40
0.4875641294
100
AcDbArc
 50
57.0543517703
 51
62.2643278581
  0
ARC
  5
2D9
100
AcDbEntity
  8
0
100
AcDbCircle
 62
7
  6
CONTINUOUS
 10
23.2357874408
 20
16.2445274604
 40
0.4874648062
100
AcDbArc
 50
333.361635286
 51
335.3797234009
  0
ARC
  5
2DA
100
AcDbEntity
  8
0
100
AcDbCircle
 62
7
  6
CONTINUOUS
 10
23.2300637029
 20
16.2499745638
 40
0.487262349
100
AcDbArc
 50
136.4590247573
 51
137.5104269727
  0
ARC
  5
2DB
100
AcDbEntity
  8
0
100
AcDbCircle
 62
7
  6
CONTINUOUS
 10
23.2359064238
 20
16.2468507783
 40
0.4870153598
100
AcDbArc
 50
40.7184183486
 51
43.0872965081
  0
ARC
  5
2DC
100
AcDbEntity
  8
0
100
AcDbCircle
 62
7
  6
CONTINUOUS
 10
23.2321558429
 20
16.2441499193
 40
0.4868755615
100
AcDbArc
 50
7.1624916419
 51
8.5246681741
  0
ARC
  5
2DD
100
AcDbEntity
  8
0
100
AcDbCircle
 62
7
  6
CONTINUOUS
 10
23.232396741
 20
16.2466334037
 40
0.4866786988
100
AcDbArc
 50
348.6770365122
 51
351.627629271
  0
ARC
  5
2DE
100
AcDbEntity
  8
0
100
AcDbCircle
 62
7
  6
CONTINUOUS
 10
23.2327181671
 20
16.2472677589
 40
0.4865989129
100
AcDbArc
 50
136.508474511
 51
143.5392348941
  0
ARC
  5
2DF
100
AcDbEntity
  8
0
100
AcDbCircle
 62
7
  6
CONTINUOUS
 10
23.2322937154
 20
16.2463480319
 40
0.486591744
100
AcDbArc
 50
167.4340057426
 51
174.6884833681
  0
ARC
  5
2E0
100
AcDbEntity
  8
0
100
AcDbCircle
 62
7
  6
CONTINUOUS
 10
23.2368541769
 20
16.2457768539
 40
0.4865594624
100
AcDbArc
 50
6.971460644
 51
8.4821055461
  0
ARC
  5
2E1
100
AcDbEntity
  8
0
100
AcDbCircle
 62
7
  6
CONTINUOUS
 10
23.2367091265
 20
16.2465818776
 40
0.4864728668
100
AcDbArc
 50
23.5820219788
 51
24.9446755027
  0
ARC
  5
2E2
100
AcDbEntity
  8
0
100
AcDbCircle
 62
7
  6
CONTINUOUS
 10
23.2329123702
 20
16.2465231865
 40
0.4861129312
100
AcDbArc
 50
255.6025402294
 51
265.8749483911
  0
ARC
  5
2E3
100
AcDbEntity
  8
0
100
AcDbCircle
 62
7
  6
CONTINUOUS
 10
23.2359330892
 20
16.2455588623
 40
0.4858635575
100
AcDbArc
 50
159.8080499301
 51
170.033746469
  0
ARC
  5
2E4
100
AcDbEntity
  8
0
100
AcDbCircle
 62
7
  6
CONTINUOUS
 10
23.2356770782
 20
16.245115314
 40
0.4858082916
100
AcDbArc
 50
143.5096583497
 51
154.0705488204
  0
ARC
  5
2E5
100
AcDbEntity
  8
0
100
AcDbCircle
 62
7
  6
CONTINUOUS
 10
23.2341448117
 20
16.2510189012
 40
0.4857975483
100
AcDbArc
 50
90.0163859713
 51
106.3872855099
  0
ARC
  5
2E6
100
AcDbEntity
  8
0
100
AcDbCircle
 62
7
  6
CONTINUOUS
 10
23.2358542889
 20
16.2466540171
 40
0.4857946225
100
AcDbArc
 50
191.5074593399
 51
201.8434144221
  0
ARC
  5
2E7
100
AcDbEntity
  8
0
100
AcDbCircle
 62
7
  6
CONTINUOUS
 10
23.2353007833
 20
16.2447929935
 40
0.4857255545
100
AcDbArc
 50
126.4717689263
 51
138.118246134
  0
ARC
  5
2E8
100
AcDbEntity
  8
0
100
AcDbCircle
 62
7
  6
CONTINUOUS
 10
23.2345510404
 20
16.2444427398
 40
0.4857232487
100
AcDbArc
 50
90.0643039729
 51
106.2252466126
  0
ARC
  5
2E9
100
AcDbEntity
  8
0
100
AcDbCircle
 62
7
  6
CONTINUOUS
 10
23.2357670403
 20
16.2460856457
 40
0.4856272778
100
AcDbArc
 50
176.0695475486
 51
182.6795786611
  0
ARC
  5
2EA
100
AcDbEntity
  8
0
100
AcDbCircle
 62
7
  6
CONTINUOUS
 10
23.2353916639
 20
16.247040033
 40
0.485534117
100
AcDbArc
 50
207.3581474663
 51
217.6743832491
  0
ARC
  5
2EB
100
AcDbEntity
  8
0
100
AcDbCircle
 62
7
  6
CONTINUOUS
 10
23.2314582232
 20
16.2472944623
 40
0.4855095456
100
AcDbArc
 50
154.9895596945
 51
156.2764942945
  0
ARC
  5
2EC
100
AcDbEntity
  8
0
100
AcDbCircle
 62
7
  6
CONTINUOUS
 10
23.2339146286
 20
16.2476308273
 40
0.4852146142
100
AcDbArc
 50
254.2477404208
 51
270.0107782891
  0
ARC
  5
2ED
100
AcDbEntity
  8
0
100
AcDbCircle
 62
7
  6
CONTINUOUS
 10
23.2355854327
 20
16.2492802636
 40
0.485132842
100
AcDbArc
 50
72.873856243
 51
73.3976650666
  0
ARC
  5
2EE
100
AcDbEntity
  8
0
100
AcDbCircle
 62
7
  6
CONTINUOUS
 10
23.2325952614
 20
16.2462568586
 40
0.4851095596
100
AcDbArc
 50
223.9476318013
 51
226.4636262084
  0
ARC
  5
2EF
100
AcDbEntity
  8
0
100
AcDbCircle
 62
7
  6
CONTINUOUS
 10
23.2345529622
 20
16.2444293656
 40
0.4851003885
100
AcDbArc
 50
40.8850799485
 51
43.1357864969
  0
ARC
  5
2F0
100
AcDbEntity
  8
0
100
AcDbCircle
 62
7
  6
CONTINUOUS
 10
23.2302951398
 20
16.2419398119
 40
0.4849738305
100
AcDbArc
 50
237.3869349407
 51
240.4045400483
  0
ARC
  5
2F1
100
AcDbEntity
  8
0
100
AcDbCircle
 62
7
  6
CONTINUOUS
 10
23.2346084989
 20
16.2469986685
 40
0.4849091711
100
AcDbArc
 50
223.0505442164
 51
233.8124557197
  0
ARC
  5
2F2
100
AcDbEntity
  8
0
100
AcDbCircle
 62
7
  6
CONTINUOUS
 10
23.234718643
 20
16.2458894449
 40
0.4847629573
100
AcDbArc
 50
313.7056683752
 51
318.9631460746
  0
ARC
  5
2F3
100
AcDbEntity
  8
0
100
AcDbCircle
 62
7
  6
CONTINUOUS
 10
23.236112485
 20
16.2511300399
 40
0.4845028691
100
AcDbArc
 50
255.10054217
 51
256.1811420961
  0
ARC
  5
2F4
100
AcDbEntity
  8
0
100
AcDbCircle
 62
7
  6
CONTINUOUS
 10
23.2343828395
 20
16.2457850758
 40
0.4843909041
100
AcDbArc
 50
108.3223131206
 51
122.1843187128
  0
ARC
  5
2F5
100
AcDbEntity
  8
0
100
AcDbCircle
 62
7
  6
CONTINUOUS
 10
23.232595503
 20
16.2449875588
 40
0.4842151887
100
AcDbArc
 50
8.3941706872
 51
18.9613679208
  0
ARC
  5
2F6
100
AcDbEntity
  8
0
100
AcDbCircle
 62
7
  6
CONTINUOUS
 10
23.234210328
 20
16.2460216308
 40
0.4840692749
100
AcDbArc
 50
182.6806240506
 51
186.1726355784
  0
ARC
  5
2F7
100
AcDbEntity
  8
0
100
AcDbCircle
 62
7
  6
CONTINUOUS
 10
23.2277450637
 20
16.2443207133
 40
0.4840564988
100
AcDbArc
 50
201.574951438
 51
204.687051866
  0
ARC
  5
2F8
100
AcDbEntity
  8
0
100
AcDbCircle
 62
7
  6
CONTINUOUS
 10
23.2329286737
 20
16.2446691317
 40
0.4840345838
100
AcDbArc
 50
24.856917736
 51
35.340508658
  0
ARC
  5
2F9
100
AcDbEntity
  8
0
100
AcDbCircle
 62
7
  6
CONTINUOUS
 10
23.2333052559
 20
16.2443780718
 40
0.4839316192
100
AcDbArc
 50
43.0109791939
 51
55.9984062756
  0
ARC
  5
2FA
100
AcDbEntity
  8
0
100
AcDbCircle
 62
7
  6
CONTINUOUS
 10
23.2340420882
 20
16.2461766947
 40
0.4839001425
100
AcDbArc
 50
174.6386494676
 51
176.0663029306
  0
ARC
  5
2FB
100
AcDbEntity
  8
0
100
AcDbCircle
 62
7
  6
CONTINUOUS
 10
23.2297013217
 20
16.251272329
 40
0.4838577258
100
AcDbArc
 50
122.6545259095
 51
126.4326600457
  0
ARC
  5
2FC
100
AcDbEntity
  8
0
100
AcDbCircle
 62
7
  6
CONTINUOUS
 10
23.233803421
 20
16.2461208369
 40
0.4837376123
100
AcDbArc
 50
238.6623072025
 51
250.8394207532
  0
ARC
  5
2FD
100
AcDbEntity
  8
0
100
AcDbCircle
 62
7
  6
CONTINUOUS
 10
23.2298841599
 20
16.2517810209
 40
0.4835662737
100
AcDbArc
 50
128.0478501703
 51
136.2197551594
  0
ARC
  5
2FE
100
AcDbEntity
  8
0
100
AcDbCircle
 62
7
  6
CONTINUOUS
 10
23.2336142364
 20
16.2461141212
 40
0.4834918981
100
AcDbArc
 50
191.0293177504
 51
191.497722698
  0
ARC
  5
2FF
100
AcDbEntity
  8
0
100
AcDbCircle
 62
7
  6
CONTINUOUS
 10
23.2350772696
 20
16.247528739
 40
0.4833925875
100
AcDbArc
 50
228.4707689558
 51
229.285197705
  0
ARC
  5
300
100
AcDbEntity
  8
0
100
AcDbCircle
 62
7
  6
CONTINUOUS
 10
23.2338720645
 20
16.246741375
 40
0.4833094954
100
AcDbArc
 50
122.1934563265
 51
126.4728673837
  0
ARC
  5
301
100
AcDbEntity
  8
0
100
AcDbCircle
 62
7
  6
CONTINUOUS
 10
23.2353311403
 20
16.2464997886
 40
0.4830276424
100
AcDbArc
 50
193.9812243475
 51
201.5785828903
  0
ARC
  5
302
100
AcDbEntity
  8
0
100
AcDbCircle
 62
7
  6
CONTINUOUS
 10
23.2333209352
 20
16.2468044095
 40
0.4829095721
100
AcDbArc
 50
139.138155905
 51
143.5045318605
  0
ARC
  5
303
100
AcDbEntity
  8
0
100
AcDbCircle
 62
7
  6
CONTINUOUS
 10
23.2331262848
 20
16.2465480843
 40
0.4828878106
100
AcDbArc
 50
154.0910955476
 51
159.8032577449
  0
ARC
  5
304
100
AcDbEntity
  8
0
100
AcDbCircle
 62
7
  6
CONTINUOUS
 10
23.2333309388
 20
16.2451822412
 40
0.4826911318
100
AcDbArc
 50
233.8129528073
 51
237.2919504867
  0
ARC
  5
305
100
AcDbEntity
  8
0
100
AcDbCircle
 62
7
  6
CONTINUOUS
 10
23.2340824264
 20
16.2452428284
 40
0.4826403159
100
AcDbArc
 50
335.3825030478
 51
7.0732006022
  0
ARC
  5
306
100
AcDbEntity
  8
0
100
AcDbCircle
 62
7
  6
CONTINUOUS
 10
23.2315246644
 20
16.2436491952
 40
0.4826348544
100
AcDbArc
 50
208.2015580481
 51
216.399127331
  0
ARC
  5
307
100
AcDbEntity
  8
0
100
AcDbCircle
 62
7
  6
CONTINUOUS
 10
23.2265164388
 20
16.2434686415
 40
0.4826007527
100
AcDbArc
 50
190.9551342208
 51
201.534516083
  0
ARC
  5
308
100
AcDbEntity
  8
0
100
AcDbCircle
 62
7
  6
CONTINUOUS
 10
23.230069299
 20
16.2580199314
 40
0.4825366384
100
AcDbArc
 50
106.3360487477
 51
109.636890143
  0
ARC
  5
309
100
AcDbEntity
  8
0
100
AcDbCircle
 62
7
  6
CONTINUOUS
 10
23.2342516021
 20
16.2451488465
 40
0.4824461027
100
AcDbArc
 50
270.0364265358
 51
333.4477741111
  0
ARC
  5
30A
100
AcDbEntity
  8
0
100
AcDbCircle
 62
7
  6
CONTINUOUS
 10
23.2346079645
 20
16.2456700412
 40
0.4820901684
100
AcDbArc
 50
18.9623734627
 51
24.8328758861
  0
ARC
  5
30B
100
AcDbEntity
  8
0
100
AcDbCircle
 62
7
  6
CONTINUOUS
 10
23.2341418986
 20
16.2465050067
 40
0.4820060511
100
AcDbArc
 50
221.5290384709
 51
228.4733244686
  0
ARC
  5
30C
100
AcDbEntity
  8
0
100
AcDbCircle
 62
7
  6
CONTINUOUS
 10
23.2298813773
 20
16.2463316693
 40
0.4820029918
100
AcDbArc
 50
185.4705554435
 51
190.7266360518
  0
ARC
  5
30D
100
AcDbEntity
  8
0
100
AcDbCircle
 62
7
  6
CONTINUOUS
 10
23.2322836025
 20
16.2453413228
 40
0.4819930508
100
AcDbArc
 50
201.8536652821
 51
207.3485902874
  0
ARC
  5
30E
100
AcDbEntity
  8
0
100
AcDbCircle
 62
7
  6
CONTINUOUS
 10
23.2341416395
 20
16.2460570782
 40
0.4817897273
100
AcDbArc
 50
143.4736485788
 51
171.8502609871
  0
ARC
  5
30F
100
AcDbEntity
  8
0
100
AcDbCircle
 62
7
  6
CONTINUOUS
 10
23.2346253644
 20
16.246110473
 40
0.4817581549
100
AcDbArc
 50
57.0998279615
 51
139.135117294
  0
ARC
  5
310
100
AcDbEntity
  8
0
100
AcDbCircle
 62
7
  6
CONTINUOUS
 10
23.2348019518
 20
16.2459766613
 40
0.4817501769
100
AcDbArc
 50
35.3425280226
 51
40.7014326755
  0
ARC
  5
311
100
AcDbEntity
  8
0
100
AcDbCircle
 62
7
  6
CONTINUOUS
 10
23.2340471798
 20
16.2462343559
 40
0.4817451547
100
AcDbArc
 50
205.4847875162
 51
220.0263303008
  0
ARC
  5
312
100
AcDbEntity
  8
0
100
AcDbCircle
 62
7
  6
CONTINUOUS
 10
23.2318064552
 20
16.2457712379
 40
0.4816524155
100
AcDbArc
 50
186.1737697177
 51
191.0304451198
  0
ARC
  5
313
100
AcDbEntity
  8
0
100
AcDbCircle
 62
7
  6
CONTINUOUS
 10
23.231784952
 20
16.2464016624
 40
0.4816321676
100
AcDbArc
 50
170.0470906221
 51
174.6395030076
  0
ARC
  5
314
100
AcDbEntity
  8
0
100
AcDbCircle
 62
7
  6
CONTINUOUS
 10
23.2338914559
 20
16.2461570163
 40
0.4815477939
100
AcDbArc
 50
189.085909396
 51
193.9830347592
  0
ARC
  5
315
100
AcDbEntity
  8
0
100
AcDbCircle
 62
7
  6
CONTINUOUS
 10
23.2325961859
 20
16.2440798648
 40
0.4813665244
100
AcDbArc
 50
237.2946367232
 51
238.6586945839
  0
ARC
  5
316
100
AcDbEntity
  8
0
100
AcDbCircle
 62
7
  6
CONTINUOUS
 10
23.2320345454
 20
16.2445369877
 40
0.481347802
100
AcDbArc
 50
217.683264125
 51
223.0455704003
  0
ARC
  5
317
100
AcDbEntity
  8
0
100
AcDbCircle
 62
7
  6
CONTINUOUS
 10
23.2336152386
 20
16.2459793798
 40
0.4812486476
100
AcDbArc
 50
174.6141505533
 51
187.6667614169
  0
ARC
  5
318
100
AcDbEntity
  8
0
100
AcDbCircle
 62
7
  6
CONTINUOUS
 10
23.2333565242
 20
16.2487613746
 40
0.4812428612
100
AcDbArc
 50
106.2323601564
 51
108.3177117115
  0
ARC
  5
319
100
AcDbEntity
  8
0
100
AcDbCircle
 62
7
  6
CONTINUOUS
 10
23.2320062493
 20
16.2478977328
 40
0.4811999974
100
AcDbArc
 50
138.1315981744
 51
139.1341971362
  0
ARC
  5
31A
100
AcDbEntity
  8
0
100
AcDbCircle
 62
7
  6
CONTINUOUS
 10
23.2358018242
 20
16.244519895
 40
0.4807760556
100
AcDbArc
 50
333.4459104761
 51
335.3754712801
  0
ARC
  5
31B
100
AcDbEntity
  8
0
100
AcDbCircle
 62
7
  6
CONTINUOUS
 10
23.2245410145
 20
16.2488577603
 40
0.4806868813
100
AcDbArc
 50
156.1489720925
 51
172.0161691123
  0
ARC
  5
31C
100
AcDbEntity
  8
0
100
AcDbCircle
 62
7
  6
CONTINUOUS
 10
23.2333158848
 20
16.2468078586
 40
0.4806793188
100
AcDbArc
 50
139.1391486557
 51
143.4869786175
  0
ARC
  5
31D
100
AcDbEntity
  8
0
100
AcDbCircle
 62
7
  6
CONTINUOUS
 10
23.2353596882
 20
16.2473123508
 40
0.48035017
100
AcDbArc
 50
56.0058342515
 51
57.0955004249
  0
ARC
  5
31E
100
AcDbEntity
  8
0
100
AcDbCircle
 62
7
  6
CONTINUOUS
 10
23.2328259568
 20
16.2455417375
 40
0.4803457214
100
AcDbArc
 50
201.5825180935
 51
203.6830350535
  0
ARC
  5
31F
100
AcDbEntity
  8
0
100
AcDbCircle
 62
7
  6
CONTINUOUS
 10
23.2359122451
 20
16.2468568294
 40
0.480334474
100
AcDbArc
 50
40.7082044079
 51
43.0069000794
  0
ARC
  5
320
100
AcDbEntity
  8
0
100
AcDbCircle
 62
7
  6
CONTINUOUS
 10
23.2325988038
 20
16.242629906
 40
0.4800442955
100
AcDbArc
 50
250.841932882
 51
254.2368511896
  0
ARC
  5
321
100
AcDbEntity
  8
0
100
AcDbCircle
 62
7
  6
CONTINUOUS
 10
23.2324216425
 20
16.2449194469
 40
0.4799534569
100
AcDbArc
 50
10.442045996
 51
18.9878349958
  0
ARC
  5
322
100
AcDbEntity
  8
0
100
AcDbCircle
 62
7
  6
CONTINUOUS
 10
23.2322793552
 20
16.2463491437
 40
0.4799048475
100
AcDbArc
 50
171.8532597364
 51
174.6146057155
  0
ARC
  5
323
100
AcDbEntity
  8
0
100
AcDbCircle
 62
7
  6
CONTINUOUS
 10
23.2368668791
 20
16.2457781839
 40
0.4798741799
100
AcDbArc
 50
7.0684246804
 51
8.3752330921
  0
ARC
  5
324
100
AcDbEntity
  8
0
100
AcDbCircle
 62
7
  6
CONTINUOUS
 10
23.2276105194
 20
16.2374959576
 40
0.4797837488
100
AcDbArc
 50
229.1754931083
 51
237.3709640136
  0
ARC
  5
325
100
AcDbEntity
  8
0
100
AcDbCircle
 62
7
  6
CONTINUOUS
 10
23.2328097199
 20
16.2445661478
 40
0.47974287
100
AcDbArc
 50
27.7878916159
 51
35.3682822206
  0
ARC
  5
326
100
AcDbEntity
  8
0
100
AcDbCircle
 62
7
  6
CONTINUOUS
 10
23.2332152055
 20
16.2442607827
 40
0.4796303023
100
AcDbArc
 50
44.8289977549
 51
56.3838988943
  0
ARC
  5
327
100
AcDbEntity
  8
0
100
AcDbCircle
 62
7
  6
CONTINUOUS
 10
23.2383683269
 20
16.2485661371
 40
0.479568701
100
AcDbArc
 50
24.7482863781
 51
35.3291851631
  0
ARC
  5
328
100
AcDbEntity
  8
0
100
AcDbCircle
 62
7
  6
CONTINUOUS
 10
23.2346688041
 20
16.2440919258
 40
0.4794083577
100
AcDbArc
 50
92.6715836048
 51
97.6536597281
  0
ARC
  5
329
100
AcDbEntity
  8
0
100
AcDbCircle
 62
7
  6
CONTINUOUS
 10
23.239638433
 20
16.2456217165
 40
0.4793668792
100
AcDbArc
 50
351.6212313689
 51
357.0869184508
  0
ARC
  5
32A
100
AcDbEntity
  8
0
100
AcDbCircle
 62
7
  6
CONTINUOUS
 10
23.2341107912
 20
16.2441637017
 40
0.4793294663
100
AcDbArc
 50
75.9275366295
 51
90.0125547898
  0
ARC
  5
32B
100
AcDbEntity
  8
0
100
AcDbCircle
 62
7
  6
CONTINUOUS
 10
23.2339575279
 20
16.2480204478
 40
0.4789317031
100
AcDbArc
 50
257.3316437315
 51
270.005787534
  0
ARC
  5
32C
100
AcDbEntity
  8
0
100
AcDbCircle
 62
7
  6
CONTINUOUS
 10
23.2314045879
 20
16.2449270467
 40
0.4787971923
100
AcDbArc
 50
203.6836823696
 51
205.4796328274
  0
ARC
  5
32D
100
AcDbEntity
  8
0
100
AcDbCircle
 62
7
  6
CONTINUOUS
 10
23.2309876069
 20
16.2456598692
 40
0.4786018798
100
AcDbArc
 50
187.6708199044
 51
189.0819084059
  0
ARC
  5
32E
100
AcDbEntity
  8
0
100
AcDbCircle
 62
7
  6
CONTINUOUS
 10
23.2347924644
 20
16.2471909246
 40
0.4785024965
100
AcDbArc
 50
229.2862007702
 51
234.6726662091
  0
ARC
  5
32F
100
AcDbEntity
  8
0
100
AcDbCircle
 62
7
  6
CONTINUOUS
 10
23.232359698
 20
16.2470269336
 40
0.4784343017
100
AcDbArc
 50
306.7756491171
 51
313.999580455
  0
ARC
  5
330
100
AcDbEntity
  8
0
100
AcDbCircle
 62
7
  6
CONTINUOUS
 10
23.2339521557
 20
16.2453798182
 40
0.4783674658
100
AcDbArc
 50
335.3736378212
 51
7.1390209518
  0
ARC
  5
331
100
AcDbEntity
  8
0
100
AcDbCircle
 62
7
  6
CONTINUOUS
 10
23.2407562987
 20
16.2450977562
 40
0.4782240574
100
AcDbArc
 50
357.1428062603
 51
7.1782940742
  0
ARC
  5
332
100
AcDbEntity
  8
0
100
AcDbCircle
 62
7
  6
CONTINUOUS
 10
23.2313585717
 20
16.2439409328
 40
0.4782224233
100
AcDbArc
 50
220.0351155102
 51
221.5201519307
  0
ARC
  5
333
100
AcDbEntity
  8
0
100
AcDbCircle
 62
7
  6
CONTINUOUS
 10
23.2398450037
 20
16.248926586
 40
0.4781558542
100
AcDbArc
 50
35.3962704476
 51
40.8927329755
  0
ARC
  5
334
100
AcDbEntity
  8
0
100
AcDbCircle
 62
7
  6
CONTINUOUS
 10
23.2322100761
 20
16.2463730698
 40
0.4781401888
100
AcDbArc
 50
325.1439943282
 51
333.7458202215
  0
ARC
  5
335
100
AcDbEntity
  8
0
100
AcDbCircle
 62
7
  6
CONTINUOUS
 10
23.2358435621
 20
16.2435586594
 40
0.4781340594
100
AcDbArc
 50
119.6114322157
 51
129.5685325154
  0
ARC
  5
336
100
AcDbEntity
  8
0
100
AcDbCircle
 62
7
  6
CONTINUOUS
 10
23.2342551523
 20
16.2451431463
 40
0.4779913382
100
AcDbArc
 50
270.0371268615
 51
333.5051090621
  0
ARC
  5
337
100
AcDbEntity
  8
0
100
AcDbCircle
 62
7
  6
CONTINUOUS
 10
23.2321832671
 20
16.2452261273
 40
0.4779068789
100
AcDbArc
 50
0.1907711063
 51
11.3151884681
  0
ARC
  5
338
100
AcDbEntity
  8
0
100
AcDbCircle
 62
7
  6
CONTINUOUS
 10
23.2344458067
 20
16.2454957781
 40
0.4778868793
100
AcDbArc
 50
42.9519561096
 51
44.8280013762
  0
ARC
  5
339
100
AcDbEntity
  8
0
100
AcDbCircle
 62
7
  6
CONTINUOUS
 10
23.2261747696
 20
16.2561157449
 40
0.4778665907
100
AcDbArc
 50
126.4373468511
 51
128.0179285187
  0
ARC
  5
33A
100
AcDbEntity
  8
0
100
AcDbCircle
 62
7
  6
CONTINUOUS
 10
23.2320309694
 20
16.2455341515
 40
0.4777207066
100
AcDbArc
 50
233.6663813203
 51
240.2486735646
  0
ARC
  5
33B
100
AcDbEntity
  8
0
100
AcDbCircle
 62
7
  6
CONTINUOUS
 10
23.2332084494
 20
16.2439337341
 40
0.4776707387
100
AcDbArc
 50
51.7349351608
 51
61.914748677
  0
ARC
  5
33C
100
AcDbEntity
  8
0
100
AcDbCircle
 62
7
  6
CONTINUOUS
 10
23.2347724498
 20
16.2456470163
 40
0.4775025842
100
AcDbArc
 50
18.9892887291
 51
27.782948227
  0
ARC
  5
33D
100
AcDbEntity
  8
0
100
AcDbCircle
 62
7
  6
CONTINUOUS
 10
23.2326435809
 20
16.2456777625
 40
0.4774744909
100
AcDbArc
 50
342.7924885879
 51
354.473709141
  0
ARC
  5
33E
100
AcDbEntity
  8
0
100
AcDbCircle
 62
7
  6
CONTINUOUS
 10
23.2354706948
 20
16.2473051028
 40
0.4774314209
100
AcDbArc
 50
209.9073098924
 51
224.3185953764
  0
ARC
  5
33F
100
AcDbEntity
  8
0
100
AcDbCircle
 62
7
  6
CONTINUOUS
 10
23.2342374802
 20
16.2460350389
 40
0.4774284912
100
AcDbArc
 50
97.6334154272
 51
139.1393553326
  0
ARC
  5
340
100
AcDbEntity
  8
0
100
AcDbCircle
 62
7
  6
CONTINUOUS
 10
23.2328524128
 20
16.244903669
 40
0.4773250045
100
AcDbArc
 50
17.3695055193
 51
28.1642618208
  0
ARC
  5
341
100
AcDbEntity
  8
0
100
AcDbCircle
 62
7
  6
CONTINUOUS
 10
23.2348054448
 20
16.2459790118
 40
0.4772976516
100
AcDbArc
 50
35.3686504451
 51
40.7015806546
  0
ARC
  5
342
100
AcDbEntity
  8
0
100
AcDbCircle
 62
7
  6
CONTINUOUS
 10
23.2338865569
 20
16.2441556385
 40
0.4771751237
100
AcDbArc
 50
69.0668378003
 51
78.907014089
  0
ARC
  5
343
100
AcDbEntity
  8
0
100
AcDbCircle
 62
7
  6
CONTINUOUS
 10
23.2352403362
 20
16.2455130019
 40
0.4770738734
100
AcDbArc
 50
9.6657032058
 51
10.4332953487
  0
ARC
  5
344
100
AcDbEntity
  8
0
100
AcDbCircle
 62
7
  6
CONTINUOUS
 10
23.233274025
 20
16.2446950028
 40
0.4770624979
100
AcDbArc
 50
34.4592190124
 51
42.9705671421
  0
ARC
  5
345
100
AcDbEntity
  8
0
100
AcDbCircle
 62
7
  6
CONTINUOUS
 10
23.2337809475
 20
16.2460741551
 40
0.4770137518
100
AcDbArc
 50
239.2353499403
 51
250.9941184708
  0
ARC
  5
346
100
AcDbEntity
  8
0
100
AcDbCircle
 62
7
  6
CONTINUOUS
 10
23.2343180122
 20
16.2444532896
 40
0.4768016428
100
AcDbArc
 50
85.6871425688
 51
95.8611379642
  0
ARC
  5
347
100
AcDbEntity
  8
0
100
AcDbCircle
 62
7
  6
CONTINUOUS
 10
23.2335905591
 20
16.2457826073
 40
0.4766841809
100
AcDbArc
 50
313.9970516985
 51
320.7986719079
  0
ARC
  5
348
100
AcDbEntity
  8
0
100
AcDbCircle
 62
7
  6
CONTINUOUS
 10
23.233660402
 20
16.2456375698
 40
0.4765489478
100
AcDbArc
 50
270.0415401135
 51
303.9671238456
  0
ARC
  5
349
100
AcDbEntity
  8
0
100
AcDbCircle
 62
7
  6
CONTINUOUS
 10
23.2408200241
 20
16.2403516104
 40
0.4765249591
100
AcDbArc
 50
318.9837416286
 51
333.5992178929
  0
ARC
  5
34A
100
AcDbEntity
  8
0
100
AcDbCircle
 62
7
  6
CONTINUOUS
 10
23.2333997937
 20
16.2455983013
 40
0.4764462067
100
AcDbArc
 50
254.5764298857
 51
257.3332024915
  0
ARC
  5
34B
100
AcDbEntity
  8
0
100
AcDbCircle
 62
7
  6
CONTINUOUS
 10
23.2358129389
 20
16.2445146397
 40
0.4763154121
100
AcDbArc
 50
333.5035674443
 51
335.3749729286
  0
ARC
  5
34C
100
AcDbEntity
  8
0
100
AcDbCircle
 62
7
  6
CONTINUOUS
 10
23.2261804638
 20
16.2401906672
 40
0.4762811364
100
AcDbArc
 50
216.4457435035
 51
223.9577814628
  0
ARC
  5
34D
100
AcDbEntity
  8
0
100
AcDbCircle
 62
7
  6
CONTINUOUS
 10
23.2342827527
 20
16.2430736355
 40
0.4762426372
100
AcDbArc
 50
256.1633936686
 51
267.1133757742
  0
ARC
  5
34E
100
AcDbEntity
  8
0
100
AcDbCircle
 62
7
  6
CONTINUOUS
 10
23.1973854918
 20
16.2585442727
 40
0.4761537704
100
AcDbArc
 50
334.7130286245
 51
341.576506814
  0
ARC
  5
34F
100
AcDbEntity
  8
0
100
AcDbCircle
 62
7
  6
CONTINUOUS
 10
23.235920554
 20
16.2468651745
 40
0.4758743885
100
AcDbArc
 50
40.708247251
 51
42.9522660993
  0
ARC
  5
350
100
AcDbEntity
  8
0
100
AcDbCircle
 62
7
  6
CONTINUOUS
 10
23.2343307557
 20
16.245409503
 40
0.475816989
100
AcDbArc
 50
48.3592397433
 51
51.730990249
  0
ARC
  5
351
100
AcDbEntity
  8
0
100
AcDbCircle
 62
7
  6
CONTINUOUS
 10
23.2343852112
 20
16.2454471922
 40
0.4757206892
100
AcDbArc
 50
31.0299136841
 51
34.4602462152
  0
ARC
  5
352
100
AcDbEntity
  8
0
100
AcDbCircle
 62
7
  6
CONTINUOUS
 10
23.2354690305
 20
16.2474776143
 40
0.4757036698
100
AcDbArc
 50
56.395460084
 51
75.9262631019
  0
ARC
  5
353
100
AcDbEntity
  8
0
100
AcDbCircle
 62
7
  6
CONTINUOUS
 10
23.2343938708
 20
16.2455399785
 40
0.4757009012
100
AcDbArc
 50
65.2897229562
 51
69.0643367545
  0
ARC
  5
354
100
AcDbEntity
  8
0
100
AcDbCircle
 62
7
  6
CONTINUOUS
 10
23.2344191011
 20
16.2453840677
 40
0.4756863436
100
AcDbArc
 50
13.6185312786
 51
17.370615538
  0
ARC
  5
355
100
AcDbEntity
  8
0
100
AcDbCircle
 62
7
  6
CONTINUOUS
 10
23.2344850769
 20
16.2456543282
 40
0.4755948981
100
AcDbArc
 50
82.2655455035
 51
85.6869044487
  0
ARC
  5
356
100
AcDbEntity
  8
0
100
AcDbCircle
 62
7
  6
CONTINUOUS
 10
23.2345940321
 20
16.2452749323
 40
0.4754959666
100
AcDbArc
 50
356.0265770914
 51
0.1858574959
  0
ARC
  5
357
100
AcDbEntity
  8
0
100
AcDbCircle
 62
7
  6
CONTINUOUS
 10
23.2346269985
 20
16.2451473159
 40
0.4754303786
100
AcDbArc
 50
333.7494561324
 51
337.6461621691
  0
ARC
  5
358
100
AcDbEntity
  8
0
100
AcDbCircle
 62
7
  6
CONTINUOUS
 10
23.2368702835
 20
16.2457787974
 40
0.4754223779
100
AcDbArc
 50
7.1350163254
 51
9.665922225
  0
ARC
  5
359
100
AcDbEntity
  8
0
100
AcDbCircle
 62
7
  6
CONTINUOUS
 10
23.2307578422
 20
16.2359230223
 40
0.4753121239
100
AcDbArc
 50
247.9004641518
 51
254.8274781684
  0
ARC
  5
35A
100
AcDbEntity
  8
0
100
AcDbCircle
 62
7
  6
CONTINUOUS
 10
23.2340059055
 20
16.2457349081
 40
0.4752765601
100
AcDbArc
 50
131.679939605
 51
226.4570504841
  0
ARC
  5
35B
100
AcDbEntity
  8
0
100
AcDbCircle
 62
7
  6
CONTINUOUS
 10
23.2347662929
 20
16.2450033341
 40
0.4752472743
100
AcDbArc
 50
338.2455833536
 51
342.7944503162
  0
ARC
  5
35C
100
AcDbEntity
  8
0
100
AcDbCircle
 62
7
  6
CONTINUOUS
 10
23.2327481591
 20
16.2443204707
 40
0.4749785691
100
AcDbArc
 50
234.6751677096
 51
239.2341940616
  0
ARC
  5
35D
100
AcDbEntity
  8
0
100
AcDbCircle
 62
7
  6
CONTINUOUS
 10
23.2345128713
 20
16.2442174419
 40
0.4748948717
100
AcDbArc
 50
303.9775536455
 51
306.7705015029
  0
ARC
  5
35E
100
AcDbEntity
  8
0
100
AcDbCircle
 62
7
  6
CONTINUOUS
 10
23.2349111091
 20
16.2462372007
 40
0.4748161817
100
AcDbArc
 50
42.9757005526
 51
44.9950319624
  0
ARC
  5
35F
100
AcDbEntity
  8
0
100
AcDbCircle
 62
7
  6
CONTINUOUS
 10
23.2225379347
 20
16.2455558135
 40
0.4746190361
100
AcDbArc
 50
183.4713902535
 51
185.4618345617
  0
ARC
  5
360
100
AcDbEntity
  8
0
100
AcDbCircle
 62
7
  6
CONTINUOUS
 10
23.2351371949
 20
16.2443801101
 40
0.4745992147
100
AcDbArc
 50
320.8118658952
 51
325.1394683169
  0
ARC
  5
361
100
AcDbEntity
  8
0
100
AcDbCircle
 62
7
  6
CONTINUOUS
 10
23.2341182355
 20
16.2466834892
 40
0.4745648354
100
AcDbArc
 50
97.5680520983
 51
119.6167485455
  0
ARC
  5
362
100
AcDbEntity
  8
0
100
AcDbCircle
 62
7
  6
CONTINUOUS
 10
23.230324866
 20
16.2348696259
 40
0.4741821467
100
AcDbArc
 50
254.8446581187
 51
255.5552493968
  0
ARC
  5
363
100
AcDbEntity
  8
0
100
AcDbCircle
 62
7
  6
CONTINUOUS
 10
23.23439584
 20
16.249388057
 40
0.4741052604
100
AcDbArc
 50
90.0471237231
 51
92.6684645573
  0
ARC
  5
364
100
AcDbEntity
  8
0
100
AcDbCircle
 62
7
  6
CONTINUOUS
 10
23.2326613254
 20
16.2428680376
 40
0.4736178731
100
AcDbArc
 50
250.996994668
 51
254.5747062645
  0
ARC
  5
365
100
AcDbEntity
  8
0
100
AcDbCircle
 62
7
  6
CONTINUOUS
 10
23.2340203028
 20
16.247737069
 40
0.4735046302
100
AcDbArc
 50
95.8658788185
 51
97.5634058272
  0
ARC
  5
366
100
AcDbEntity
  8
0
100
AcDbCircle
 62
7
  6
CONTINUOUS
 10
23.2367517869
 20
16.2442487905
 40
0.4731235307
100
AcDbArc
 50
337.6489345071
 51
338.2413356174
  0
ARC
  5
367
100
AcDbEntity
  8
0
100
AcDbCircle
 62
7
  6
CONTINUOUS
 10
23.2348264077
 20
16.2482975571
 40
0.4729297794
100
AcDbArc
 50
78.9222037256
 51
82.2634246666
  0
ARC
  5
368
100
AcDbEntity
  8
0
100
AcDbCircle
 62
7
  6
CONTINUOUS
 10
23.2371581646
 20
16.2451223892
 40
0.4729274278
100
AcDbArc
 50
354.488075578
 51
356.0234874976
  0
ARC
  5
369
100
AcDbEntity
  8
0
100
AcDbCircle
 62
7
  6
CONTINUOUS
 10
23.2355592853
 20
16.2480951854
 40
0.4728925323
100
AcDbArc
 50
61.9298059776
 51
65.2880530549
  0
ARC
  5
36A
100
AcDbEntity
  8
0
100
AcDbCircle
 62
7
  6
CONTINUOUS
 10
23.236879359
 20
16.2469501273
 40
0.4728086545
100
AcDbArc
 50
28.1767160132
 51
31.0284583638
  0
ARC
  5
36B
100
AcDbEntity
  8
0
100
AcDbCircle
 62
7
  6
CONTINUOUS
 10
23.2363488963
 20
16.247677765
 40
0.4727808428
100
AcDbArc
 50
44.9957118964
 51
48.3580511813
  0
ARC
  5
36C
100
AcDbEntity
  8
0
100
AcDbCircle
 62
7
  6
CONTINUOUS
 10
23.237274602
 20
16.2460861854
 40
0.4727457576
100
AcDbArc
 50
11.3347027941
 51
13.6163895035
  0
ARC
  5
36D
100
AcDbEntity
  8
0
100
AcDbCircle
 62
7
  6
CONTINUOUS
 10
23.2196839947
 20
16.2453708367
 40
0.4717591324
100
AcDbArc
 50
182.8768100463
 51
183.4699533733
  0
ARC
  5
36E
100
AcDbEntity
  8
0
100
AcDbCircle
 62
7
  6
CONTINUOUS
 10
23.2306536947
 20
16.2427077953
 40
0.4707731296
100
AcDbArc
 50
224.3278654429
 51
226.498978718
  0
ARC
  5
36F
100
AcDbEntity
  8
0
100
AcDbCircle
 62
7
  6
CONTINUOUS
 10
23.2164136426
 20
16.2367056579
 40
0.4707113709
100
AcDbArc
 50
127.4771019151
 51
129.3491393977
  0
ARC
  5
370
100
AcDbEntity
  8
0
100
AcDbCircle
 62
7
  6
CONTINUOUS
 10
23.2311436211
 20
16.2494557722
 40
0.4705943452
100
AcDbArc
 50
129.5847807451
 51
131.7212798672
  0
ARC
  5
371
100
AcDbEntity
  8
0
100
AcDbCircle
 62
7
  6
CONTINUOUS
 10
23.2257285792
 20
16.2368127392
 40
0.4669608354
100
AcDbArc
 50
229.8682433455
 51
233.6553101652
  0
ARC
  5
372
100
AcDbEntity
  8
0
100
AcDbCircle
 62
7
  6
CONTINUOUS
 10
23.2277598812
 20
16.2721639314
 40
0.4624848726
100
AcDbArc
 50
286.9392239421
 51
295.094258991
  0
ARC
  5
373
100
AcDbEntity
  8
0
100
AcDbCircle
 62
7
  6
CONTINUOUS
 10
23.2138578831
 20
16.247397345
 40
0.4621138168
100
AcDbArc
 50
259.0726650495
 51
272.6118403512
  0
ARC
  5
374
100
AcDbEntity
  8
0
100
AcDbCircle
 62
7
  6
CONTINUOUS
 10
23.2330269024
 20
16.2289486951
 40
0.4620726941
100
AcDbArc
 50
267.1806973935
 51
270.1213890634
  0
ARC
  5
375
100
AcDbEntity
  8
0
100
AcDbCircle
 62
7
  6
CONTINUOUS
 10
23.222459913
 20
16.2328584496
 40
0.4618307189
100
AcDbArc
 50
229.2948857838
 51
229.8620871265
  0
ARC
  5
376
100
AcDbEntity
  8
0
100
AcDbCircle
 62
7
  6
CONTINUOUS
 10
23.2141741574
 20
16.2427589731
 40
0.4574911084
100
AcDbArc
 50
272.620037755
 51
274.7732279902
  0
ARC
  5
377
100
AcDbEntity
  8
0
100
AcDbCircle
 62
7
  6
CONTINUOUS
 10
23.2140625637
 20
16.2488853767
 40
0.4556935337
100
AcDbArc
 50
334.7706795915
 51
344.6003373504
  0
ARC
  5
378
100
AcDbEntity
  8
0
100
AcDbCircle
 62
7
  6
CONTINUOUS
 10
23.2149729798
 20
16.2387743252
 40
0.4534540459
100
AcDbArc
 50
274.7145389482
 51
305.6959005021
  0
ARC
  5
379
100
AcDbEntity
  8
0
100
AcDbCircle
 62
7
  6
CONTINUOUS
 10
23.2171189757
 20
16.2552901804
 40
0.451657035
100
AcDbArc
 50
49.0026609332
 51
65.1924024251
  0
ARC
  5
37A
100
AcDbEntity
  8
0
100
AcDbCircle
 62
7
  6
CONTINUOUS
 10
23.2198595145
 20
16.2606252581
 40
0.4461723926
100
AcDbArc
 50
18.7606714222
 51
22.0686338844
  0
ARC
  5
37B
100
AcDbEntity
  8
0
100
AcDbCircle
 62
7
  6
CONTINUOUS
 10
23.2197178919
 20
16.2315645966
 40
0.4448304073
100
AcDbArc
 50
305.7414057826
 51
321.3328270107
  0
ARC
  5
37C
100
AcDbEntity
  8
0
100
AcDbCircle
 62
7
  6
CONTINUOUS
 10
23.2242621517
 20
16.2442316092
 40
0.4444832832
100
AcDbArc
 50
334.0962630527
 51
334.7716883567
  0
ARC
  5
37D
100
AcDbEntity
  8
0
100
AcDbCircle
 62
7
  6
CONTINUOUS
 10
23.2220425592
 20
16.2610023482
 40
0.4441158455
100
AcDbArc
 50
32.6829921859
 51
48.9986237398
  0
ARC
  5
37E
100
AcDbEntity
  8
0
100
AcDbCircle
 62
7
  6
CONTINUOUS
 10
23.2221355126
 20
16.2614041539
 40
0.4437668125
100
AcDbArc
 50
16.7724953048
 51
18.7599592032
  0
ARC
  5
37F
100
AcDbEntity
  8
0
100
AcDbCircle
 62
7
  6
CONTINUOUS
 10
23.2358967091
 20
16.2547375403
 40
0.4432524371
100
AcDbArc
 50
295.097087317
 51
303.5735819697
  0
ARC
  5
380
100
AcDbEntity
  8
0
100
AcDbCircle
 62
7
  6
CONTINUOUS
 10
23.2228849876
 20
16.2620985841
 40
0.4428150879
100
AcDbArc
 50
22.0390475556
 51
32.6224679062
  0
ARC
  5
381
100
AcDbEntity
  8
0
100
AcDbCircle
 62
7
  6
CONTINUOUS
 10
23.2219789209
 20
16.2296933738
 40
0.441887255
100
AcDbArc
 50
321.3560868044
 51
330.6960019202
  0
ARC
  5
382
100
AcDbEntity
  8
0
100
AcDbCircle
 62
7
  6
CONTINUOUS
 10
23.2266821783
 20
16.2430369616
 40
0.4417845044
100
AcDbArc
 50
331.4015768599
 51
334.0985205416
  0
ARC
  5
383
100
AcDbEntity
  8
0
100
AcDbCircle
 62
7
  6
CONTINUOUS
 10
23.2300632293
 20
16.2446412407
 40
0.4414208718
100
AcDbArc
 50
6.0473742028
 51
12.3830536974
  0
ARC
  5
384
100
AcDbEntity
  8
0
100
AcDbCircle
 62
7
  6
CONTINUOUS
 10
23.2314737907
 20
16.2474771183
 40
0.4403150584
100
AcDbArc
 50
341.5409468383
 51
349.2755950594
  0
ARC
  5
385
100
AcDbEntity
  8
0
100
AcDbCircle
 62
7
  6
CONTINUOUS
 10
23.2233672052
 20
16.2289150522
 40
0.440295678
100
AcDbArc
 50
330.6959026712
 51
332.3233581806
  0
ARC
  5
386
100
AcDbEntity
  8
0
100
AcDbCircle
 62
7
  6
CONTINUOUS
 10
23.2317425248
 20
16.2449962622
 40
0.439704511
100
AcDbArc
 50
12.384794147
 51
14.1610838521
  0
ARC
  5
387
100
AcDbEntity
  8
0
100
AcDbCircle
 62
7
  6
CONTINUOUS
 10
23.2331287192
 20
16.2449673287
 40
0.4383380873
100
AcDbArc
 50
359.4544815921
 51
6.0472014255
  0
ARC
  5
388
100
AcDbEntity
  8
0
100
AcDbCircle
 62
7
  6
CONTINUOUS
 10
23.2259608267
 20
16.227565565
 40
0.4373719996
100
AcDbArc
 50
332.3220999156
 51
334.9003775145
  0
ARC
  5
389
100
AcDbEntity
  8
0
100
AcDbCircle
 62
7
  6
CONTINUOUS
 10
23.2358839083
 20
16.246088572
 40
0.435421747
100
AcDbArc
 50
14.1550398606
 51
19.2248958332
  0
ARC
  5
38A
100
AcDbEntity
  8
0
100
AcDbCircle
 62
7
  6
CONTINUOUS
 10
23.2286765335
 20
16.2262769056
 40
0.4343660921
100
AcDbArc
 50
334.902354573
 51
335.6947386789
  0
ARC
  5
38B
100
AcDbEntity
  8
0
100
AcDbCircle
 62
7
  6
CONTINUOUS
 10
23.2304431379
 20
16.2254811383
 40
0.4324285336
100
AcDbArc
 50
335.6944874478
 51
336.8035594679
  0
ARC
  5
38C
100
AcDbEntity
  8
0
100
AcDbCircle
 62
7
  6
CONTINUOUS
 10
23.2413434389
 20
16.244810279
 40
0.430122252
100
AcDbArc
 50
349.379985587
 51
359.4649824856
  0
ARC
  5
38D
100
AcDbEntity
  8
0
100
AcDbCircle
 62
7
  6
CONTINUOUS
 10
23.2392219676
 20
16.2359023769
 40
0.4273596027
100
AcDbArc
 50
323.2242625647
 51
331.4366689274
  0
ARC
  5
38E
100
AcDbEntity
  8
0
100
AcDbCircle
 62
7
  6
CONTINUOUS
 10
23.2504687711
 20
16.2329258031
 40
0.4170209631
100
AcDbArc
 50
303.562721894
 51
312.7835254161
  0
ARC
  5
38F
100
AcDbEntity
  8
0
100
AcDbCircle
 62
7
  6
CONTINUOUS
 10
23.2617709265
 20
16.2427303656
 40
0.411825707
100
AcDbArc
 50
359.7308280629
 51
6.7820227111
  0
ARC
  5
390
100
AcDbEntity
  8
0
100
AcDbCircle
 62
7
  6
CONTINUOUS
 10
23.2623043331
 20
16.2454404829
 40
0.411460862
100
AcDbArc
 50
348.7525202109
 51
350.9204889178
  0
ARC
  5
391
100
AcDbEntity
  8
0
100
AcDbCircle
 62
7
  6
CONTINUOUS
 10
23.2682281314
 20
16.2573884089
 40
0.4011604763
100
AcDbArc
 50
14.7988933381
 51
19.2221141949
  0
ARC
  5
392
100
AcDbEntity
  8
0
100
AcDbCircle
 62
7
  6
CONTINUOUS
 10
23.2617665447
 20
16.2191702484
 40
0.3992844813
100
AcDbArc
 50
316.5010226308
 51
323.2106441032
  0
ARC
  5
393
100
AcDbEntity
  8
0
100
AcDbCircle
 62
7
  6
CONTINUOUS
 10
23.2625003624
 20
16.2192637897
 40
0.3988220989
100
AcDbArc
 50
312.848082399
 51
313.8150850796
  0
ARC
  5
394
100
AcDbEntity
  8
0
100
AcDbCircle
 62
7
  6
CONTINUOUS
 10
23.2771261722
 20
16.2432132206
 40
0.3964732876
100
AcDbArc
 50
350.9003141798
 51
359.6506248075
  0
ARC
  5
395
100
AcDbEntity
  8
0
100
AcDbCircle
 62
7
  6
CONTINUOUS
 10
23.2656084481
 20
16.2160366216
 40
0.3943416148
100
AcDbArc
 50
313.8138572516
 51
315.4588578028
  0
ARC
  5
396
100
AcDbEntity
  8
0
100
AcDbCircle
 62
7
  6
CONTINUOUS
 10
23.2688077233
 20
16.2128758626
 40
0.3898443177
100
AcDbArc
 50
315.4601484716
 51
316.4597424752
  0
CIRCLE
  5
397
100
AcDbEntity
  8
0
100
AcDbCircle
 62
7
  6
CONTINUOUS
 10
23.2340059055
 20
16.2457349081
 40
0.375
  0
SPLINE
  5
398
100
AcDbEntity
  8
0
100
AcDbSpline
 62
7
  6
CONTINUOUS
 70
0
 71
3
 72
9
 73
5
 74
3
 42
0.0000001
 43
0.0000001
 44
0.0000000001
 12
-0.2422540672
 22
0.0467708357
 32
0.0
 13
-0.1860029103
 23
0.1621032433
 33
0.0
 40
0.0
 40
0.0
 40
0.0
 40
0.0
 40
0.500014353
 40
1.0
 40
1.0
 40
1.0
 40
1.0
 10
23.1262577862
 20
15.7936623974
 30
0.0
 10
23.0858809493
 20
15.8014577604
 30
0.0
 10
23.0068596968
 20
15.827954625
 30
0.0
 10
22.9375883651
 20
15.8742103772
 30
0.0
 10
22.9065887699
 20
15.9012268088
 30
0.0
 11
23.1262577862
 21
15.7936623974
 31
0.0
 11
23.0092950486
 21
15.8328953911
 31
0.0
 11
22.9065887699
 21
15.9012268088
 31
0.0
  0
SPLINE
  5
399
100
AcDbEntity
  8
0
100
AcDbSpline
 62
7
  6
CONTINUOUS
 70
0
 71
3
 72
9
 73
5
 74
3
 42
0.0000001
 43
0.0000001
 44
0.0000000001
 12
0.0357119359
 22
0.1292993969
 32
0.0
 13
-0.003126886
 23
0.1341040603
 33
0.0
 40
0.0
 40
0.0
 40
0.0
 40
0.0
 40
0.2503657132
 40
1.0
 40
1.0
 40
1.0
 40
1.0
 10
23.6533953178
 20
16.1278757579
 30
0.0
 10
23.6563756659
 20
16.1386664698
 30
0.0
 10
23.6667187821
 20
16.182180395
 30
0.0
 10
23.6707429637
 20
16.2272109287
 30
0.0
 10
23.6699616234
 20
16.2607205959
 30
0.0
 11
23.6533953178
 21
16.1278757579
 31
0.0
 11
23.6611586995
 21
16.1605503252
 31
0.0
 11
23.6699616234
 21
16.2607205959
 31
0.0
  0
SPLINE
  5
39A
100
AcDbEntity
  8
0
100
AcDbSpline
 62
7
  6
CONTINUOUS
 70
0
 71
3
 72
9
 73
5
 74
3
 42
0.0000001
 43
0.0000001
 44
0.0000000001
 12
-0.0023364127
 22
0.1002027045
 32
0.0
 13
-0.0256187675
 23
0.0969005653
 33
0.0
 40
0.0
 40
0.0
 40
0.0
 40
0.0
 40
0.2504776878
 40
1.0
 40
1.0
 40
1.0
 40
1.0
 10
23.6699616234
 20
16.2607205959
 30
0.0
 10
23.6697665503
 20
16.2690867764
 30
0.0
 10
23.6680496158
 20
16.302457133
 30
0.0
 10
23.6624820543
 20
16.3356459476
 30
0.0
 10
23.6560814416
 20
16.3598556595
 30
0.0
 11
23.6699616234
 21
16.2607205959
 31
0.0
 11
23.668664858
 21
16.2857924462
 31
0.0
 11
23.6560814416
 21
16.3598556595
 31
0.0
  0
SPLINE
  5
39B
100
AcDbEntity
  8
0
100
AcDbSpline
 62
7
  6
CONTINUOUS
 70
0
 71
3
 72
11
 73
7
 74
5
 42
0.0000001
 43
0.0000001
 44
0.0000000001
 12
0.3988830023
 22
0.305830096
 32
0.0
 13
0.456268655
 23
-0.2108521084
 33
0.0
 40
0.0
 40
0.0
 40
0.0
 40
0.0
 40
0.2500697381
 40
0.5000494291
 40
0.7500334589
 40
1.0
 40
1.0
 40
1.0
 40
1.0
 10
22.930011983
 20
16.6102605857
 30
0.0
 10
22.9632615057
 20
16.6357535363
 30
0.0
 10
23.0368992013
 20
16.6781233778
 30
0.0
 10
23.1600282695
 20
16.709868009
 30
0.0
 10
23.2871664275
 20
16.7075138524
 30
0.0
 10
23.3685474481
 20
16.6828693028
 30
0.0
 10
23.4065647472
 20
16.6653006454
 30
0.0
 11
22.930011983
 21
16.6102605857
 31
0.0
 11
23.0390264235
 21
16.6728276966
 31
0.0
 11
23.1606985645
 21
16.7041854046
 31
0.0
 11
23.28632502
 21
16.7017446136
 31
0.0
 11
23.4065647472
 21
16.6653006454
 31
0.0
  0
SPLINE
  5
39C
100
AcDbEntity
  8
0
100
AcDbSpline
 62
7
  6
CONTINUOUS
 70
0
 71
3
 72
12
 73
8
 74
6
 42
0.0000001
 43
0.0000001
 44
0.0000000001
 12
0.3703544032
 22
0.0003682569
 32
0.0
 13
0.2676994408
 23
0.2559287577
 33
0.0
 40
0.0
 40
0.0
 40
0.0
 40
0.0
 40
0.2500471473
 40
0.3751106245
 40
0.5001353155
 40
0.7500303039
 40
1.0
 40
1.0
 40
1.0
 40
1.0
 10
23.2340057098
 20
15.7603859189
 30
0.0
 10
23.2648743972
 20
15.7604166128
 30
0.0
 10
23.3113356613
 20
15.7648247078
 30
0.0
 10
23.3714132973
 20
15.7793668219
 30
0.0
 10
23.4297855723
 20
15.7997151196
 30
0.0
 10
23.4986083649
 20
15.8356227117
 30
0.0
 10
23.5473619319
 20
15.8741300773
 30
0.0
 10
23.5696675145
 20
15.8954548886
 30
0.0
 11
23.2340057098
 21
15.7603859189
 31
0.0
 11
23.3261932078
 21
15.7691811692
 31
0.0
 11
23.3712069241
 21
15.7800947817
 31
0.0
 11
23.4149314649
 21
15.7953320928
 31
0.0
 11
23.4970257299
 21
15.8380636833
 31
0.0
 11
23.5696675145
 21
15.8954548886
 31
0.0
  0
SPLINE
  5
39D
100
AcDbEntity
  8
0
100
AcDbSpline
 62
7
  6
CONTINUOUS
 70
0
 71
3
 72
10
 73
6
 74
4
 42
0.0000001
 43
0.0000001
 44
0.0000000001
 12
-0.206646119
 22
0.1086206208
 32
0.0
 13
-0.2334546114
 23
0.0000466857
 33
0.0
 40
0.0
 40
0.0
 40
0.0
 40
0.0
 40
0.2501539608
 40
0.5002850086
 40
1.0
 40
1.0
 40
1.0
 40
1.0
 10
23.4588854647
 20
16.6749117141
 30
0.0
 10
23.4416543497
 20
16.683969007
 30
0.0
 10
23.406047375
 20
16.7000201894
 30
0.0
 10
23.3315642968
 20
16.722995732
 30
0.0
 10
23.2728926333
 20
16.7299733112
 30
0.0
 10
23.2340057102
 20
16.7299810877
 30
0.0
 11
23.4588854647
 21
16.6749117141
 31
0.0
 11
23.4056317581
 21
16.6988816045
 31
0.0
 11
23.349840195
 21
16.7161207939
 31
0.0
 11
23.2340057102
 21
16.7299810877
 31
0.0
  0
SPLINE
  5
39E
100
AcDbEntity
  8
0
100
AcDbSpline
 62
7
  6
CONTINUOUS
 70
0
 71
3
 72
9
 73
5
 74
3
 42
0.0000001
 43
0.0000001
 44
0.0000000001
 12
0.134353569
 22
-0.0394998622
 32
0.0
 13
0.140039619
 23
0.000160453
 33
0.0
 40
0.0
 40
0.0
 40
0.0
 40
0.0
 40
0.500209848
 40
1.0
 40
1.0
 40
1.0
 40
1.0
 10
23.0957650306
 20
15.7757460413
 30
0.0
 10
23.1181666901
 20
15.7691599679
 30
0.0
 10
23.1639333908
 20
15.7591252752
 30
0.0
 10
23.2106757601
 20
15.7557183895
 30
0.0
 10
23.2340059009
 20
15.7557451205
 30
0.0
 11
23.0957650306
 21
15.7757460413
 31
0.0
 11
23.1641967208
 21
15.7607794066
 31
0.0
 11
23.2340059009
 21
15.7557451205
 31
0.0
  0
ENDSEC
  0
SECTION
  2
OBJECTS
  0
DICTIONARY
  5
C
100
AcDbDictionary
280
0
281
1
  3
ACAD_GROUP
350
D
  3
ACAD_MLINESTYLE
350
17
  3
ACAD_LAYOUT
350
1A
  3
ACAD_PLOTSETTINGS
350
19
  3
ACAD_PLOTSTYLENAME
350
E
  0
DICTIONARY
  5
D
102
{ACAD_REACTORS
330
C
102
}
100
AcDbDictionary
280
0
281
1
  0
ACDBDICTIONARYWDFLT
  5
E
102
{ACAD_REACTORS
330
C
102
}
100
AcDbDictionary
281
1
  3
Normal
350
F
100
AcDbDictionaryWithDefault
340
F
  0
DICTIONARY
  5
17
102
{ACAD_REACTORS
330
C
102
}
100
AcDbDictionary
280
0
281
1
  3
Standard
350
18
  0
DICTIONARY
  5
19
102
{ACAD_REACTORS
330
C
102
}
100
AcDbDictionary
281
1
  0
DICTIONARY
  5
1A
102
{ACAD_REACTORS
330
C
102
}
100
AcDbDictionary
281
1
  3
Model
350
39F
  3
Layout1
350
3A0
  0
ACDBPLACEHOLDER
  5
F
102
{ACAD_REACTORS
330
E
102
}
  0
MLINESTYLE
  5
18
102
{ACAD_REACTORS
330
17
102
}
100
AcDbMlineStyle
  2
STANDARD
 70
0
  3

 62
256
 51
90.0
 52
90.0
 71
2
 49
0.5
 62
256
  6
BYLAYER
 49
-0.5
 62
256
  6
BYLAYER
  0
LAYOUT
  5
39F
102
{ACAD_REACTORS
330
1A
102
}
100
AcDbPlotSettings
  1

  2
none_device
  4
ISO_A0_(1189.00_x_841.00_MM)
  6

 40
0.0
 41
0.0
 42
0.0
 43
0.0
 44
1189.0
 45
841.0
 46
0.0
 47
0.0
 48
0.0
 49
0.0
140
0.0
141
0.0
142
1.0
143
1.0
 70
1024
 72
0
 73
0
 74
0
  7

 75
0
147
1.0
148
0.0
149
0.0
100
AcDbLayout
  1
Model
 70
0
 71
0
 10
0.0
 20
0.0
 11
46.811023622
 21
33.1102362205
 12
0.0
 22
0.0
 32
0.0
 14
0.0
 24
0.0
 34
0.0
 15
0.0
 25
0.0
 35
0.0
146
0.0
 13
0.0
 23
0.0
 33
0.0
 16
1.0
 26
0.0
 36
0.0
 17
0.0
 27
1.0
 37
0.0
 76
0
330
20B
345
0
346
0
  0
LAYOUT
  5
3A0
102
{ACAD_REACTORS
330
1A
102
}
100
AcDbPlotSettings
  1

  2
none_device
  4
ISO_A0_(1189.00_x_841.00_MM)
  6

 40
0.0
 41
0.0
 42
0.0
 43
0.0
 44
1189.0
 45
841.0
 46
0.0
 47
0.0
 48
0.0
 49
0.0
140
0.0
141
0.0
142
1.0
143
1.0
 70
0
 72
0
 73
0
 74
0
  7

 75
0
147
1.0
148
0.0
149
0.0
100
AcDbLayout
  1
Layout1
 70
0
 71
1
 10
0.0
 20
0.0
 11
46.811023622
 21
33.1102362205
 12
0.0
 22
0.0
 32
0.0
 14
0.0
 24
0.0
 34
0.0
 15
0.0
 25
0.0
 35
0.0
146
0.0
 13
0.0
 23
0.0
 33
0.0
 16
1.0
 26
0.0
 36
0.0
 17
0.0
 27
1.0
 37
0.0
 76
0
330
20C
345
0
346
0
  0
ENDSEC
  0
EOF
