  0
SECTION
  2
HEADER
  9
$ACADVER
  1
AC1015
  9
$DWGCODEPAGE
  3
ANSI_1252
  9
$EXTMAX
 10
46.811023622
 20
33.1102362205
 30
0.0
  9
$EXTMIN
 10
0.0
 20
0.0
 30
0.0
  9
$LIMMIN
 10
0.0
 20
0.0
  9
$LIMMAX
 10
46.811023622
 20
33.1102362205
  9
$VIEWCTR
 10
23.405511811
 20
16.5551181102
  9
$VIEWSIZE
 40
33.1102362205
  9
$CLAYER
  8
0
  9
$LTSCALE
 40
2.5746062992
  9
$CELTYPE
  6
BYLAYER
  9
$DIMSCALE
 40
1.0
  9
$DIMASZ
 40
0.1
  9
$DIMEXO
 40
0.2925688976
  9
$DIMDLI
 40
1.7788188976
  9
$DIMEXE
 40
0.8425984252
  9
$DIMCEN
 40
0.4212992126
  9
$DIMLFAC
 40
1.0
  9
$DIMBLK
  1
_FILLED
  9
$DIMTXT
 40
0.08
  9
$DIMTOL
 70
1
  9
$DIMLIM
 70
0
  9
$DIMTFAC
 40
1.0
  9
$DIMTP
 40
0.01
  9
$DIMTM
 40
0.01
  9
$PDMODE
 70
3
  9
$PDSIZE
 40
0.06
  9
$HANDSEED
  5
3AC
  9
$TILEMODE
 70
1
  9
$MEASUREMENT
 70
0
  9
$INSUNITS
 70
1
  0
ENDSEC
  0
SECTION
  2
CLASSES
  0
CLASS
  1
ACDBDICTIONARYWDFLT
  2
AcDbDictionaryWithDefault
  3
AutoCAD 2000
 90
0
280
0
281
0
  0
CLASS
  1
ACDBPLACEHOLDER
  2
AcDbPlaceHolder
  3
AutoCAD 2000
 90
0
280
0
281
0
  0
CLASS
  1
LAYOUT
  2
AcDbLayout
  3
AutoCAD 2000
 90
0
280
0
281
0
  0
ENDSEC
  0
SECTION
  2
TABLES
  0
TABLE
  2
VPORT
  5
8
100
AcDbSymbolTable
 70
2
  0
VPORT
  5
1F4
100
AcDbSymbolTableRecord
100
AcDbViewportTableRecord
  2
*ACTIVE
 70
0
 10
0.0
 20
0.0
 11
1.0
 21
1.0
 12
23.405511811
 22
16.5551181102
 13
0.0
 23
0.0
 14
1.0
 24
1.0
 15
0.0
 25
0.0
 16
0.0
 26
0.0
 36
1.0
 17
0.0
 27
0.0
 37
0.0
 40
33.1102362205
 41
1.4137931034
 42
50.0
 43
0.0
 44
0.0
 50
0.0
 51
0.0
 71
0
 72
100
 73
1
 74
1
 75
0
 76
0
 77
0
 78
0
  0
ENDTAB
  0
TABLE
  2
LTYPE
  5
5
100
AcDbSymbolTable
 70
6
  0
LTYPE
  5
14
100
AcDbSymbolTableRecord
100
AcDbLinetypeTableRecord
  2
BYBLOCK
 70
0
  3

 72
65
 73
0
 40
0.0
  0
LTYPE
  5
15
100
AcDbSymbolTableRecord
100
AcDbLinetypeTableRecord
  2
BYLAYER
 70
0
  3

 72
65
 73
0
 40
0.0
  0
LTYPE
  5
16
100
AcDbSymbolTableRecord
100
AcDbLinetypeTableRecord
  2
CONTINUOUS
 70
64
  3
Solid line
 72
65
 73
0
 40
0.0
  0
LTYPE
  5
1F5
100
AcDbSymbolTableRecord
100
AcDbLinetypeTableRecord
  2
CENTER
 70
64
  3
____ _ ____ _ ____ _ ____ _ ____ _ ____ _ ____
 72
65
 73
4
 40
0.6
 49
0.375
 74
0
 49
-0.075
 74
0
 49
0.075
 74
0
 49
-0.075
 74
0
  0
LTYPE
  5
1F6
100
AcDbSymbolTableRecord
100
AcDbLinetypeTableRecord
  2
HIDDEN
 70
64
  3
- - - - - - - - - - - - - - - - - - - -
 72
65
 73
2
 40
0.2
 49
0.1
 74
0
 49
-0.1
 74
0
  0
LTYPE
  5
1F7
100
AcDbSymbolTableRecord
100
AcDbLinetypeTableRecord
  2
PHANTOM
 70
64
  3
_____ _ _ _____ _ _ _____ _ _ _____
 72
65
 73
6
 40
0.8
 49
0.45
 74
0
 49
-0.05
 74
0
 49
0.1
 74
0
 49
-0.05
 74
0
 49
0.1
 74
0
 49
-0.05
 74
0
  0
LTYPE
  5
1F8
100
AcDbSymbolTableRecord
100
AcDbLinetypeTableRecord
  2
DOT
 70
64
  3
. . . . . . . . . . . . . . . . . . . .
 72
65
 73
2
 40
0.2
 49
0.1
 74
0
 49
-0.1
 74
0
  0
LTYPE
  5
1F9
100
AcDbSymbolTableRecord
100
AcDbLinetypeTableRecord
  2
DASHED
 70
64
  3
- - - - - - - - - - - - - - - - - - - -
 72
65
 73
2
 40
0.2
 49
0.1
 74
0
 49
-0.1
 74
0
  0
ENDTAB
  0
TABLE
  2
LAYER
  5
2
100
AcDbSymbolTable
 70
36
  0
LAYER
  5
10
100
AcDbSymbolTableRecord
100
AcDbLayerTableRecord
  2
0
 70
0
 62
7
  6
CONTINUOUS
370
-3
390
F
  0
LAYER
  5
1FA
100
AcDbSymbolTableRecord
100
AcDbLayerTableRecord
  2
DEFAULT_1
 70
0
 62
7
  6
CENTER
370
-3
390
F
  0
LAYER
  5
1FB
100
AcDbSymbolTableRecord
100
AcDbLayerTableRecord
  2
DEFAULT_2
 70
0
 62
8
  6
HIDDEN
370
-3
390
F
  0
LAYER
  5
1FC
100
AcDbSymbolTableRecord
100
AcDbLayerTableRecord
  2
DEFAULT_3
 70
0
 62
7
  6
PHANTOM
370
-3
390
F
  0
LAYER
  5
1FD
100
AcDbSymbolTableRecord
100
AcDbLayerTableRecord
  2
10325
 70
0
 62
7
  6
CONTINUOUS
370
-3
390
F
  0
LAYER
  5
1FE
100
AcDbSymbolTableRecord
100
AcDbLayerTableRecord
  2
2-221
 70
0
 62
7
  6
CONTINUOUS
370
-3
390
F
  0
LAYER
  5
1FF
100
AcDbSymbolTableRecord
100
AcDbLayerTableRecord
  2
50420-36
 70
0
 62
7
  6
CONTINUOUS
370
-3
390
F
  0
LAYER
  5
200
100
AcDbSymbolTableRecord
100
AcDbLayerTableRecord
  2
91073
 70
0
 62
7
  6
CONTINUOUS
370
-3
390
F
  0
LAYER
  5
201
100
AcDbSymbolTableRecord
100
AcDbLayerTableRecord
  2
ALL_ASSEMBLY_MEMBERS
 70
0
 62
7
  6
CONTINUOUS
370
-3
390
F
  0
LAYER
  5
202
100
AcDbSymbolTableRecord
100
AcDbLayerTableRecord
  2
ALL_ASSEMBLY_MEMBERS_1
 70
0
 62
7
  6
CONTINUOUS
370
-3
390
F
  0
LAYER
  5
203
100
AcDbSymbolTableRecord
100
AcDbLayerTableRecord
  2
DEFAULT_COORDINATE_SYSTEM
 70
0
 62
7
  6
CONTINUOUS
370
-3
390
F
  0
LAYER
  5
204
100
AcDbSymbolTableRecord
100
AcDbLayerTableRecord
  2
DEFAULT_DATUM_AXES
 70
0
 62
7
  6
CONTINUOUS
370
-3
390
F
  0
LAYER
  5
205
100
AcDbSymbolTableRecord
100
AcDbLayerTableRecord
  2
DEFAULT_DATUM_CURVES
 70
0
 62
7
  6
CONTINUOUS
370
-3
390
F
  0
LAYER
  5
206
100
AcDbSymbolTableRecord
100
AcDbLayerTableRecord
  2
DEFAULT_DATUM_PLANES
 70
0
 62
7
  6
CONTINUOUS
370
-3
390
F
  0
LAYER
  5
207
100
AcDbSymbolTableRecord
100
AcDbLayerTableRecord
  2
INTF_10325
 70
0
 62
7
  6
CONTINUOUS
370
-3
390
F
  0
LAYER
  5
208
100
AcDbSymbolTableRecord
100
AcDbLayerTableRecord
  2
INTF_91073
 70
0
 62
7
  6
CONTINUOUS
370
-3
390
F
  0
ENDTAB
  0
TABLE
  2
STYLE
  5
3
100
AcDbSymbolTable
 70
1
  0
STYLE
  5
11
100
AcDbSymbolTableRecord
100
AcDbTextStyleTableRecord
  2
STANDARD
 70
0
 40
0.0
 41
0.8
 50
0.0
 71
0
 42
0.2
  3
txt
  4

  0
STYLE
  5
209
100
AcDbSymbolTableRecord
100
AcDbTextStyleTableRecord
  2
TEXTSTYLE_1
 70
0
 40
0.0
 41
0.8
 50
0.0
 71
0
 42
0.2
  3
gdt
  4

  0
ENDTAB
  0
TABLE
  2
VIEW
  5
6
100
AcDbSymbolTable
 70
0
  0
ENDTAB
  0
TABLE
  2
UCS
  5
7
100
AcDbSymbolTable
 70
0
  0
ENDTAB
  0
TABLE
  2
APPID
  5
9
100
AcDbSymbolTable
 70
1
  0
APPID
  5
20A
100
AcDbSymbolTableRecord
100
AcDbRegAppTableRecord
  2
ACAD
 70
0
  0
ENDTAB
  0
TABLE
  2
BLOCK_RECORD
  5
1
100
AcDbSymbolTable
 70
0
  0
BLOCK_RECORD
  5
20B
100
AcDbSymbolTableRecord
100
AcDbBlockTableRecord
  2
*Model_Space
  0
BLOCK_RECORD
  5
20C
100
AcDbSymbolTableRecord
100
AcDbBlockTableRecord
  2
*Paper_Space
  0
ENDTAB
  0
TABLE
  2
DIMSTYLE
  5
A
100
AcDbSymbolTable
 70
1
100
AcDbDimStyleTable
 71
0
  0
DIMSTYLE
105
20D
100
AcDbSymbolTableRecord
100
AcDbDimStyleTableRecord
  2
STANDARD
 70
0
  3

  4

 40
1.0
 41
0.1
 42
0.0625
 43
0.38
 44
0.18
 45
0.0
 46
0.0
 47
0.01
 48
0.01
140
0.08
141
0.09
142
0.0
143
25.4
144
1.0
145
0.0
146
1.0
147
0.09
 71
1.0
 72
0.0
 73
1
 74
1
 75
0
 76
0
 77
0
 78
4
170
0
171
2
172
0
173
0
174
0
175
0
176
0
177
0
178
0
270
2
271
2
272
2
273
2
274
2
275
0
280
0
281
0
282
0
283
1
284
4
285
0
286
0
287
3
288
0
340
11
  0
ENDTAB
  0
ENDSEC
  0
SECTION
  2
BLOCKS
  0
BLOCK
  5
20
100
AcDbEntity
  8
0
100
AcDbBlockBegin
  2
*Model_Space
 70
0
 10
0.0
 20
0.0
 30
0.0
  3
*Model_Space
  1

  0
ENDBLK
  5
21
100
AcDbEntity
  8
0
100
AcDbBlockEnd
  0
BLOCK
  5
1C
100
AcDbEntity
  8
0
100
AcDbBlockBegin
  2
*Paper_Space
 70
0
 10
0.0
 20
0.0
 30
0.0
  3
*Paper_Space
  1

  0
ENDBLK
  5
1D
100
AcDbEntity
  8
0
100
AcDbBlockEnd
  0
ENDSEC
  0
SECTION
  2
ENTITIES
  0
LINE
  5
20E
100
AcDbEntity
  8
0
100
AcDbLine
 62
9
  6
CONTINUOUS
 10
22.7477226788
 20
17.0209381
 11
22.7477226788
 21
17.0434381
  0
LINE
  5
20F
100
AcDbEntity
  8
0
100
AcDbLine
 62
9
  6
CONTINUOUS
 10
22.7477226788
 20
18.0474540886
 11
22.7477226788
 21
18.0659381
  0
LINE
  5
210
100
AcDbEntity
  8
0
100
AcDbLine
 62
9
  6
CONTINUOUS
 10
22.262236175
 20
17.5193970452
 11
22.2692702869
 21
17.519745371
  0
CIRCLE
  5
211
100
AcDbEntity
  8
0
100
AcDbCircle
 62
7
  6
CONTINUOUS
 10
22.7477226788
 20
17.5434381
 40
1.18
  0
CIRCLE
  5
212
100
AcDbEntity
  8
0
100
AcDbCircle
 62
7
  6
CONTINUOUS
 10
22.7477226788
 20
17.5434381
 40
1.0
  0
CIRCLE
  5
213
100
AcDbEntity
  8
0
100
AcDbCircle
 62
9
  6
CONTINUOUS
 10
22.7477226788
 20
17.5434381
 40
0.8120018309
  0
CIRCLE
  5
214
100
AcDbEntity
  8
0
100
AcDbCircle
 62
7
  6
CONTINUOUS
 10
22.7477226788
 20
17.5434381
 40
0.741
  0
CIRCLE
  5
215
100
AcDbEntity
  8
0
100
AcDbCircle
 62
7
  6
CONTINUOUS
 10
22.7477226788
 20
17.5434381
 40
0.5225
  0
ARC
  5
216
100
AcDbEntity
  8
0
100
AcDbCircle
 62
7
  6
CONTINUOUS
 10
22.7482837674
 20
17.5354681242
 40
0.5033223414
100
AcDbArc
 50
90.0692131405
 51
96.4972805721
  0
ARC
  5
217
100
AcDbEntity
  8
0
100
AcDbCircle
 62
7
  6
CONTINUOUS
 10
22.7521690918
 20
17.5379613437
 40
0.5021696205
100
AcDbArc
 50
121.686010595
 51
133.1181995234
  0
ARC
  5
218
100
AcDbEntity
  8
0
100
AcDbCircle
 62
7
  6
CONTINUOUS
 10
22.7494299134
 20
17.5456580456
 40
0.5019233865
100
AcDbArc
 50
220.34538408
 51
229.129815986
  0
ARC
  5
219
100
AcDbEntity
  8
0
100
AcDbCircle
 62
7
  6
CONTINUOUS
 10
22.746863293
 20
17.5461517929
 40
0.5016190892
100
AcDbArc
 50
274.6972669573
 51
278.4855677719
  0
ARC
  5
21A
100
AcDbEntity
  8
0
100
AcDbCircle
 62
7
  6
CONTINUOUS
 10
22.7498487232
 20
17.5434452921
 40
0.5015845803
100
AcDbArc
 50
165.2699887109
 51
173.1470229293
  0
ARC
  5
21B
100
AcDbEntity
  8
0
100
AcDbCircle
 62
7
  6
CONTINUOUS
 10
22.749230039
 20
17.5424581345
 40
0.5014621744
100
AcDbArc
 50
129.5322296446
 51
136.3404839388
  0
ARC
  5
21C
100
AcDbEntity
  8
0
100
AcDbCircle
 62
7
  6
CONTINUOUS
 10
22.7477503985
 20
17.545942364
 40
0.501392178
100
AcDbArc
 50
252.8967776025
 51
269.9968323691
  0
ARC
  5
21D
100
AcDbEntity
  8
0
100
AcDbCircle
 62
7
  6
CONTINUOUS
 10
22.7494351034
 20
17.5429599837
 40
0.5013423173
100
AcDbArc
 50
147.3884461291
 51
154.5234473348
  0
ARC
  5
21E
100
AcDbEntity
  8
0
100
AcDbCircle
 62
7
  6
CONTINUOUS
 10
22.7493997978
 20
17.544671844
 40
0.5013197463
100
AcDbArc
 50
201.6763156539
 51
209.6658363317
  0
ARC
  5
21F
100
AcDbEntity
  8
0
100
AcDbCircle
 62
7
  6
CONTINUOUS
 10
22.7455829487
 20
17.5450796063
 40
0.5012645696
100
AcDbArc
 50
311.3902606281
 51
320.1343780923
  0
ARC
  5
220
100
AcDbEntity
  8
0
100
AcDbCircle
 62
7
  6
CONTINUOUS
 10
22.7490752408
 20
17.5440259742
 40
0.5008030572
100
AcDbArc
 50
183.0417466385
 51
197.2565278645
  0
ARC
  5
221
100
AcDbEntity
  8
0
100
AcDbCircle
 62
7
  6
CONTINUOUS
 10
22.7457076029
 20
17.5433850252
 40
0.5003556075
100
AcDbArc
 50
348.6571138646
 51
357.4131228073
  0
ARC
  5
222
100
AcDbEntity
  8
0
100
AcDbCircle
 62
7
  6
CONTINUOUS
 10
22.7513251807
 20
17.5396656714
 40
0.5002909726
100
AcDbArc
 50
119.230535213
 51
121.6850763511
  0
ARC
  5
223
100
AcDbEntity
  8
0
100
AcDbCircle
 62
7
  6
CONTINUOUS
 10
22.7476728502
 20
17.540942132
 40
0.5002755333
100
AcDbArc
 50
72.0062402831
 51
89.3418869032
  0
ARC
  5
224
100
AcDbEntity
  8
0
100
AcDbCircle
 62
7
  6
CONTINUOUS
 10
22.7480719163
 20
17.5435290671
 40
0.4999103551
100
AcDbArc
 50
93.0058578757
 51
125.373504878
  0
ARC
  5
225
100
AcDbEntity
  8
0
100
AcDbCircle
 62
7
  6
CONTINUOUS
 10
22.750533884
 20
17.539734535
 40
0.4997576145
100
AcDbArc
 50
133.1203060718
 51
134.1563127983
  0
ARC
  5
226
100
AcDbEntity
  8
0
100
AcDbCircle
 62
7
  6
CONTINUOUS
 10
22.74797393
 20
17.5440359684
 40
0.4997440639
100
AcDbArc
 50
229.1343566037
 51
231.4673783093
  0
ARC
  5
227
100
AcDbEntity
  8
0
100
AcDbCircle
 62
7
  6
CONTINUOUS
 10
22.7479400755
 20
17.5436445511
 40
0.4996982034
100
AcDbArc
 50
154.5205724678
 51
162.0246825615
  0
ARC
  5
228
100
AcDbEntity
  8
0
100
AcDbCircle
 62
7
  6
CONTINUOUS
 10
22.7494223515
 20
17.5456503378
 40
0.4996884786
100
AcDbArc
 50
220.3245689142
 51
229.1481082041
  0
ARC
  5
229
100
AcDbEntity
  8
0
100
AcDbCircle
 62
7
  6
CONTINUOUS
 10
22.7467089854
 20
17.5435607473
 40
0.4994465557
100
AcDbArc
 50
323.9885747559
 51
338.4565976338
  0
ARC
  5
22A
100
AcDbEntity
  8
0
100
AcDbCircle
 62
7
  6
CONTINUOUS
 10
22.7475891515
 20
17.5439352625
 40
0.4994370527
100
AcDbArc
 50
236.1248734963
 51
249.6533735669
  0
ARC
  5
22B
100
AcDbEntity
  8
0
100
AcDbCircle
 62
7
  6
CONTINUOUS
 10
22.7470505947
 20
17.5422099291
 40
0.4993790205
100
AcDbArc
 50
37.6355699528
 51
50.0156636456
  0
ARC
  5
22C
100
AcDbEntity
  8
0
100
AcDbCircle
 62
7
  6
CONTINUOUS
 10
22.7498395578
 20
17.5434466543
 40
0.4993511841
100
AcDbArc
 50
165.2444362459
 51
173.1565139323
  0
ARC
  5
22D
100
AcDbEntity
  8
0
100
AcDbCircle
 62
7
  6
CONTINUOUS
 10
22.7467115542
 20
17.5429198097
 40
0.4993429109
100
AcDbArc
 50
359.9343115692
 51
17.8665540726
  0
ARC
  5
22E
100
AcDbEntity
  8
0
100
AcDbCircle
 62
7
  6
CONTINUOUS
 10
22.7475438576
 20
17.5437047534
 40
0.4992652225
100
AcDbArc
 50
173.1450245295
 51
180.0203803818
  0
ARC
  5
22F
100
AcDbEntity
  8
0
100
AcDbCircle
 62
7
  6
CONTINUOUS
 10
22.746955557
 20
17.5435578745
 40
0.4992153841
100
AcDbArc
 50
307.9587293708
 51
311.3875499778
  0
ARC
  5
230
100
AcDbEntity
  8
0
100
AcDbCircle
 62
7
  6
CONTINUOUS
 10
22.7475644412
 20
17.5436364277
 40
0.4992124863
100
AcDbArc
 50
209.6668338925
 51
214.3219110631
  0
ARC
  5
231
100
AcDbEntity
  8
0
100
AcDbCircle
 62
7
  6
CONTINUOUS
 10
22.7492123795
 20
17.5424769927
 40
0.4992123036
100
AcDbArc
 50
129.5077052018
 51
144.0242526671
  0
ARC
  5
232
100
AcDbEntity
  8
0
100
AcDbCircle
 62
7
  6
CONTINUOUS
 10
22.7493923071
 20
17.544667947
 40
0.4990871667
100
AcDbArc
 50
201.6525673371
 51
209.6776663141
  0
ARC
  5
233
100
AcDbEntity
  8
0
100
AcDbCircle
 62
7
  6
CONTINUOUS
 10
22.7473019939
 20
17.5437646086
 40
0.4990757855
100
AcDbArc
 50
218.9553142291
 51
220.337865327
  0
ARC
  5
234
100
AcDbEntity
  8
0
100
AcDbCircle
 62
7
  6
CONTINUOUS
 10
22.7564470555
 20
17.5439864966
 40
0.4990741974
100
AcDbArc
 50
180.0525114286
 51
183.3429366414
  0
ARC
  5
235
100
AcDbEntity
  8
0
100
AcDbCircle
 62
7
  6
CONTINUOUS
 10
22.7470877043
 20
17.5426862175
 40
0.4990605347
100
AcDbArc
 50
20.1518434758
 51
32.9968809578
  0
ARC
  5
236
100
AcDbEntity
  8
0
100
AcDbCircle
 62
7
  6
CONTINUOUS
 10
22.7455938455
 20
17.5450692578
 40
0.499025463
100
AcDbArc
 50
311.3730767332
 51
320.155964345
  0
ARC
  5
237
100
AcDbEntity
  8
0
100
AcDbCircle
 62
7
  6
CONTINUOUS
 10
22.7476127377
 20
17.5444084545
 40
0.4989285257
100
AcDbArc
 50
126.886344311
 51
129.5315442754
  0
ARC
  5
238
100
AcDbEntity
  8
0
100
AcDbCircle
 62
7
  6
CONTINUOUS
 10
22.7471274818
 20
17.5437055888
 40
0.4988512212
100
AcDbArc
 50
200.9398208123
 51
201.6695830459
  0
ARC
  5
239
100
AcDbEntity
  8
0
100
AcDbCircle
 62
7
  6
CONTINUOUS
 10
22.7491461908
 20
17.5431225347
 40
0.498787169
100
AcDbArc
 50
147.3613755359
 51
154.5306192029
  0
ARC
  5
23A
100
AcDbEntity
  8
0
100
AcDbCircle
 62
7
  6
CONTINUOUS
 10
22.7470316085
 20
17.5454024561
 40
0.498634396
100
AcDbArc
 50
274.6655799669
 51
287.9915480114
  0
ARC
  5
23B
100
AcDbEntity
  8
0
100
AcDbCircle
 62
7
  6
CONTINUOUS
 10
22.7543562433
 20
17.5487818099
 40
0.4986332623
100
AcDbArc
 50
216.0319950235
 51
220.1687167265
  0
ARC
  5
23C
100
AcDbEntity
  8
0
100
AcDbCircle
 62
7
  6
CONTINUOUS
 10
22.746976981
 20
17.5441343222
 40
0.498632027
100
AcDbArc
 50
164.2304357195
 51
165.2626580108
  0
ARC
  5
23D
100
AcDbEntity
  8
0
100
AcDbCircle
 62
7
  6
CONTINUOUS
 10
22.7508746883
 20
17.5362590739
 40
0.4986048253
100
AcDbArc
 50
107.2395299011
 51
111.3169342268
  0
ARC
  5
23E
100
AcDbEntity
  8
0
100
AcDbCircle
 62
7
  6
CONTINUOUS
 10
22.7489856445
 20
17.5440180179
 40
0.4984889974
100
AcDbArc
 50
183.0148865385
 51
198.0059892558
  0
ARC
  5
23F
100
AcDbEntity
  8
0
100
AcDbCircle
 62
7
  6
CONTINUOUS
 10
22.7477564628
 20
17.5429593903
 40
0.4982630527
100
AcDbArc
 50
341.9530584332
 51
348.6587641393
  0
ARC
  5
240
100
AcDbEntity
  8
0
100
AcDbCircle
 62
7
  6
CONTINUOUS
 10
22.7467741494
 20
17.5446004832
 40
0.4982167502
100
AcDbArc
 50
145.7780916438
 51
147.3824393817
  0
ARC
  5
241
100
AcDbEntity
  8
0
100
AcDbCircle
 62
7
  6
CONTINUOUS
 10
22.7476614575
 20
17.5427947975
 40
0.498181152
100
AcDbArc
 50
278.4517470542
 51
306.0007929234
  0
ARC
  5
242
100
AcDbEntity
  8
0
100
AcDbCircle
 62
7
  6
CONTINUOUS
 10
22.7463459463
 20
17.5415487033
 40
0.4981209165
100
AcDbArc
 50
44.5679830952
 51
50.0335568377
  0
ARC
  5
243
100
AcDbEntity
  8
0
100
AcDbCircle
 62
7
  6
CONTINUOUS
 10
22.7457284875
 20
17.5433824789
 40
0.4981104906
100
AcDbArc
 50
348.6445778231
 51
357.4391479202
  0
ARC
  5
244
100
AcDbEntity
  8
0
100
AcDbCircle
 62
7
  6
CONTINUOUS
 10
22.7480018966
 20
17.5432111533
 40
0.4980188679
100
AcDbArc
 50
54.8794617803
 51
71.0661196154
  0
ARC
  5
245
100
AcDbEntity
  8
0
100
AcDbCircle
 62
7
  6
CONTINUOUS
 10
22.747687093
 20
17.5410427733
 40
0.4979505286
100
AcDbArc
 50
71.8014166582
 51
89.3797024019
  0
ARC
  5
246
100
AcDbEntity
  8
0
100
AcDbCircle
 62
7
  6
CONTINUOUS
 10
22.7481419751
 20
17.5430135654
 40
0.497914905
100
AcDbArc
 50
338.4590704334
 51
339.0784147673
  0
ARC
  5
247
100
AcDbEntity
  8
0
100
AcDbCircle
 62
7
  6
CONTINUOUS
 10
22.7479448319
 20
17.5434196707
 40
0.4978839469
100
AcDbArc
 50
50.0183168983
 51
52.0625867391
  0
ARC
  5
248
100
AcDbEntity
  8
0
100
AcDbCircle
 62
7
  6
CONTINUOUS
 10
22.7480758954
 20
17.5434391992
 40
0.4977273574
100
AcDbArc
 50
136.3422380086
 51
144.0257046343
  0
ARC
  5
249
100
AcDbEntity
  8
0
100
AcDbCircle
 62
7
  6
CONTINUOUS
 10
22.7480819223
 20
17.5435096352
 40
0.4977077538
100
AcDbArc
 50
92.9778897184
 51
125.4098768284
  0
ARC
  5
24A
100
AcDbEntity
  8
0
100
AcDbCircle
 62
7
  6
CONTINUOUS
 10
22.749096374
 20
17.5412057879
 40
0.4977006802
100
AcDbArc
 50
134.1555727521
 51
136.2417655094
  0
ARC
  5
24B
100
AcDbEntity
  8
0
100
AcDbCircle
 62
7
  6
CONTINUOUS
 10
22.7479363521
 20
17.543646414
 40
0.4974699116
100
AcDbArc
 50
154.5272696216
 51
162.0250042958
  0
ARC
  5
24C
100
AcDbEntity
  8
0
100
AcDbCircle
 62
7
  6
CONTINUOUS
 10
22.7534991775
 20
17.5398909014
 40
0.4973289796
100
AcDbArc
 50
140.9919669389
 51
154.4309689829
  0
ARC
  5
24D
100
AcDbEntity
  8
0
100
AcDbCircle
 62
7
  6
CONTINUOUS
 10
22.7546738294
 20
17.5440115571
 40
0.4973009957
100
AcDbArc
 50
173.3172785535
 51
180.0555859812
  0
ARC
  5
24E
100
AcDbEntity
  8
0
100
AcDbCircle
 62
7
  6
CONTINUOUS
 10
22.7467057515
 20
17.543563483
 40
0.4972265597
100
AcDbArc
 50
323.9706082451
 51
338.4792233725
  0
ARC
  5
24F
100
AcDbEntity
  8
0
100
AcDbCircle
 62
7
  6
CONTINUOUS
 10
22.7454236552
 20
17.5438083353
 40
0.497145068
100
AcDbArc
 50
180.0324050692
 51
183.0390306397
  0
ARC
  5
250
100
AcDbEntity
  8
0
100
AcDbCircle
 62
7
  6
CONTINUOUS
 10
22.7472306096
 20
17.5416786481
 40
0.4971308885
100
AcDbArc
 50
271.5734332234
 51
274.6972931566
  0
ARC
  5
251
100
AcDbEntity
  8
0
100
AcDbCircle
 62
7
  6
CONTINUOUS
 10
22.7467148527
 20
17.5429209617
 40
0.4971153504
100
AcDbArc
 50
359.9041577759
 51
17.8312864623
  0
ARC
  5
252
100
AcDbEntity
  8
0
100
AcDbCircle
 62
7
  6
CONTINUOUS
 10
22.7454819368
 20
17.543087614
 40
0.497093498
100
AcDbArc
 50
198.0283644902
 51
200.9410812229
  0
ARC
  5
253
100
AcDbEntity
  8
0
100
AcDbCircle
 62
7
  6
CONTINUOUS
 10
22.7475408535
 20
17.5437052615
 40
0.4970380425
100
AcDbArc
 50
173.1545377513
 51
180.0212461363
  0
ARC
  5
254
100
AcDbEntity
  8
0
100
AcDbCircle
 62
7
  6
CONTINUOUS
 10
22.7469636703
 20
17.5435497857
 40
0.4969798202
100
AcDbArc
 50
307.9262361022
 51
311.3703516636
  0
ARC
  5
255
100
AcDbEntity
  8
0
100
AcDbCircle
 62
7
  6
CONTINUOUS
 10
22.7453313755
 20
17.544605089
 40
0.4969204181
100
AcDbArc
 50
162.0372031597
 51
164.2311071989
  0
ARC
  5
256
100
AcDbEntity
  8
0
100
AcDbCircle
 62
7
  6
CONTINUOUS
 10
22.7470844084
 20
17.5426863108
 40
0.4968393662
100
AcDbArc
 50
20.1168958101
 51
33.0224110767
  0
ARC
  5
257
100
AcDbEntity
  8
0
100
AcDbCircle
 62
7
  6
CONTINUOUS
 10
22.74739797
 20
17.5436114449
 40
0.4968371884
100
AcDbArc
 50
235.3995112678
 51
270.0374457471
  0
ARC
  5
258
100
AcDbEntity
  8
0
100
AcDbCircle
 62
7
  6
CONTINUOUS
 10
22.7474839716
 20
17.5434513288
 40
0.4967572366
100
AcDbArc
 50
229.1513159669
 51
233.2655082013
  0
ARC
  5
259
100
AcDbEntity
  8
0
100
AcDbCircle
 62
7
  6
CONTINUOUS
 10
22.7490522545
 20
17.5421089405
 40
0.4966975427
100
AcDbArc
 50
320.1408778706
 51
323.9651175439
  0
ARC
  5
25A
100
AcDbEntity
  8
0
100
AcDbCircle
 62
7
  6
CONTINUOUS
 10
22.7471905786
 20
17.5437298951
 40
0.4966946794
100
AcDbArc
 50
201.1217449761
 51
201.6457068593
  0
ARC
  5
25B
100
AcDbEntity
  8
0
100
AcDbCircle
 62
7
  6
CONTINUOUS
 10
22.7462553721
 20
17.5462008212
 40
0.4966802178
100
AcDbArc
 50
125.3810593545
 51
126.885099962
  0
ARC
  5
25C
100
AcDbEntity
  8
0
100
AcDbCircle
 62
7
  6
CONTINUOUS
 10
22.7475855449
 20
17.5444404635
 40
0.4966624464
100
AcDbArc
 50
126.850087717
 51
129.5070082261
  0
ARC
  5
25D
100
AcDbEntity
  8
0
100
AcDbCircle
 62
7
  6
CONTINUOUS
 10
22.7474486855
 20
17.542584741
 40
0.4966082615
100
AcDbArc
 50
35.8488027744
 51
44.5721089497
  0
ARC
  5
25E
100
AcDbEntity
  8
0
100
AcDbCircle
 62
7
  6
CONTINUOUS
 10
22.7473766674
 20
17.543333971
 40
0.4965605721
100
AcDbArc
 50
288.0274005938
 51
305.9843960737
  0
ARC
  5
25F
100
AcDbEntity
  8
0
100
AcDbCircle
 62
7
  6
CONTINUOUS
 10
22.7486469538
 20
17.5414075048
 40
0.496479549
100
AcDbArc
 50
306.0028898712
 51
307.9574703455
  0
ARC
  5
260
100
AcDbEntity
  8
0
100
AcDbCircle
 62
7
  6
CONTINUOUS
 10
22.7469548103
 20
17.5441398719
 40
0.4963850166
100
AcDbArc
 50
164.2002193466
 51
165.237005451
  0
ARC
  5
261
100
AcDbEntity
  8
0
100
AcDbCircle
 62
7
  6
CONTINUOUS
 10
22.7452327157
 20
17.5456499824
 40
0.4963519538
100
AcDbArc
 50
144.0381021845
 51
145.7781947363
  0
ARC
  5
262
100
AcDbEntity
  8
0
100
AcDbCircle
 62
7
  6
CONTINUOUS
 10
22.7506928939
 20
17.5418170483
 40
0.496329524
100
AcDbArc
 50
143.1502241713
 51
146.4039017228
  0
ARC
  5
263
100
AcDbEntity
  8
0
100
AcDbCircle
 62
7
  6
CONTINUOUS
 10
22.7469926893
 20
17.543292477
 40
0.4963212971
100
AcDbArc
 50
209.6768647759
 51
216.0198972569
  0
ARC
  5
264
100
AcDbEntity
  8
0
100
AcDbCircle
 62
7
  6
CONTINUOUS
 10
22.7494317766
 20
17.5442518722
 40
0.4962492
100
AcDbArc
 50
33.0042984143
 51
34.4687184676
  0
ARC
  5
265
100
AcDbEntity
  8
0
100
AcDbCircle
 62
7
  6
CONTINUOUS
 10
22.749717669
 20
17.5436897614
 40
0.49624584
100
AcDbArc
 50
19.0317771567
 51
20.147679746
  0
ARC
  5
266
100
AcDbEntity
  8
0
100
AcDbCircle
 62
7
  6
CONTINUOUS
 10
22.7458151669
 20
17.5412614691
 40
0.4962282948
100
AcDbArc
 50
233.1992094733
 51
236.1211955484
  0
ARC
  5
267
100
AcDbEntity
  8
0
100
AcDbCircle
 62
7
  6
CONTINUOUS
 10
22.7497441581
 20
17.5424127396
 40
0.4962038052
100
AcDbArc
 50
339.0771550147
 51
341.9419708245
  0
ARC
  5
268
100
AcDbEntity
  8
0
100
AcDbCircle
 62
7
  6
CONTINUOUS
 10
22.7477493039
 20
17.5429618963
 40
0.4960464221
100
AcDbArc
 50
341.9288841079
 51
348.6462482299
  0
ARC
  5
269
100
AcDbEntity
  8
0
100
AcDbCircle
 62
7
  6
CONTINUOUS
 10
22.7467566185
 20
17.5446115399
 40
0.4959718597
100
AcDbArc
 50
145.7459013527
 51
147.3573422343
  0
ARC
  5
26A
100
AcDbEntity
  8
0
100
AcDbCircle
 62
7
  6
CONTINUOUS
 10
22.7481301929
 20
17.5474819819
 40
0.4959567051
100
AcDbArc
 50
90.7420031834
 51
93.0041886678
  0
ARC
  5
26B
100
AcDbEntity
  8
0
100
AcDbCircle
 62
7
  6
CONTINUOUS
 10
22.7497822367
 20
17.5386961682
 40
0.495938326
100
AcDbArc
 50
111.3063773885
 51
123.9750548648
  0
ARC
  5
26C
100
AcDbEntity
  8
0
100
AcDbCircle
 62
7
  6
CONTINUOUS
 10
22.7448041448
 20
17.5417864738
 40
0.4958897244
100
AcDbArc
 50
214.3252069734
 51
218.9565333202
  0
ARC
  5
26D
100
AcDbEntity
  8
0
100
AcDbCircle
 62
7
  6
CONTINUOUS
 10
22.7442598867
 20
17.5426722443
 40
0.4958028947
100
AcDbArc
 50
197.272207647
 51
198.026426883
  0
ARC
  5
26E
100
AcDbEntity
  8
0
100
AcDbCircle
 62
7
  6
CONTINUOUS
 10
22.7464657557
 20
17.5430727657
 40
0.4957664094
100
AcDbArc
 50
216.7428651895
 51
220.3185760413
  0
ARC
  5
26F
100
AcDbEntity
  8
0
100
AcDbCircle
 62
7
  6
CONTINUOUS
 10
22.7503015171
 20
17.5430925166
 40
0.4957531799
100
AcDbArc
 50
357.4229312612
 51
359.9138756162
  0
ARC
  5
270
100
AcDbEntity
  8
0
100
AcDbCircle
 62
7
  6
CONTINUOUS
 10
22.7480260283
 20
17.5432621204
 40
0.4957380318
100
AcDbArc
 50
53.8133904118
 51
71.2520727581
  0
ARC
  5
271
100
AcDbEntity
  8
0
100
AcDbCircle
 62
7
  6
CONTINUOUS
 10
22.748176922
 20
17.5429991201
 40
0.4956529874
100
AcDbArc
 50
338.481739956
 51
339.1035895133
  0
ARC
  5
272
100
AcDbEntity
  8
0
100
AcDbCircle
 62
7
  6
CONTINUOUS
 10
22.747281137
 20
17.5431908278
 40
0.4955358005
100
AcDbArc
 50
96.483137443
 51
107.9551263177
  0
ARC
  5
273
100
AcDbEntity
  8
0
100
AcDbCircle
 62
7
  6
CONTINUOUS
 10
22.7481203346
 20
17.5436331669
 40
0.4953835822
100
AcDbArc
 50
50.0359852407
 51
52.5350858204
  0
ARC
  5
274
100
AcDbEntity
  8
0
100
AcDbCircle
 62
7
  6
CONTINUOUS
 10
22.7460848265
 20
17.5400820028
 40
0.4953011652
100
AcDbArc
 50
249.6615509999
 51
252.8815562598
  0
ARC
  5
275
100
AcDbEntity
  8
0
100
AcDbCircle
 62
7
  6
CONTINUOUS
 10
22.7495873812
 20
17.5455434785
 40
0.4951990327
100
AcDbArc
 50
52.0627471882
 51
54.8742613897
  0
ARC
  5
276
100
AcDbEntity
  8
0
100
AcDbCircle
 62
7
  6
CONTINUOUS
 10
22.7455895063
 20
17.5431246857
 40
0.4949830846
100
AcDbArc
 50
198.0291655054
 51
201.1231801118
  0
ARC
  5
277
100
AcDbEntity
  8
0
100
AcDbCircle
 62
7
  6
CONTINUOUS
 10
22.7509440711
 20
17.5441126345
 40
0.4949485798
100
AcDbArc
 50
17.8854510951
 51
19.0317959762
  0
ARC
  5
278
100
AcDbEntity
  8
0
100
AcDbCircle
 62
7
  6
CONTINUOUS
 10
22.7454171556
 20
17.5438078368
 40
0.4949143935
100
AcDbArc
 50
180.0332123459
 51
183.0123160029
  0
ARC
  5
279
100
AcDbEntity
  8
0
100
AcDbCircle
 62
7
  6
CONTINUOUS
 10
22.7472333256
 20
17.5416484764
 40
0.4948764588
100
AcDbArc
 50
271.5398634771
 51
274.6776555148
  0
ARC
  5
27A
100
AcDbEntity
  8
0
100
AcDbCircle
 62
7
  6
CONTINUOUS
 10
22.7453245816
 20
17.544606994
 40
0.4946891931
100
AcDbArc
 50
162.0374780702
 51
164.200868032
  0
ARC
  5
27B
100
AcDbEntity
  8
0
100
AcDbCircle
 62
7
  6
CONTINUOUS
 10
22.7493527198
 20
17.5428321142
 40
0.4946483481
100
AcDbArc
 50
140.1307252168
 51
143.1512132168
  0
ARC
  5
27C
100
AcDbEntity
  8
0
100
AcDbCircle
 62
7
  6
CONTINUOUS
 10
22.7508131527
 20
17.5451999311
 40
0.494573785
100
AcDbArc
 50
34.4687399153
 51
37.6275778454
  0
ARC
  5
27D
100
AcDbEntity
  8
0
100
AcDbCircle
 62
7
  6
CONTINUOUS
 10
22.7456022836
 20
17.5450608781
 40
0.4945652125
100
AcDbArc
 50
311.3407686409
 51
320.2025381998
  0
ARC
  5
27E
100
AcDbEntity
  8
0
100
AcDbCircle
 62
7
  6
CONTINUOUS
 10
22.7490627801
 20
17.5420994262
 40
0.4944592774
100
AcDbArc
 50
320.1626462664
 51
323.9471550848
  0
ARC
  5
27F
100
AcDbEntity
  8
0
100
AcDbCircle
 62
7
  6
CONTINUOUS
 10
22.7462417524
 20
17.5462166618
 40
0.4944352219
100
AcDbArc
 50
125.4178401939
 51
126.8488115063
  0
ARC
  5
280
100
AcDbEntity
  8
0
100
AcDbCircle
 62
7
  6
CONTINUOUS
 10
22.7486452995
 20
17.5414099011
 40
0.4942582661
100
AcDbArc
 50
305.9964483338
 51
307.9249376298
  0
ARC
  5
281
100
AcDbEntity
  8
0
100
AcDbCircle
 62
7
  6
CONTINUOUS
 10
22.7492812177
 20
17.5441502346
 40
0.4942067516
100
AcDbArc
 50
33.0301807293
 51
34.021649711
  0
ARC
  5
282
100
AcDbEntity
  8
0
100
AcDbCircle
 62
7
  6
CONTINUOUS
 10
22.7452307589
 20
17.5456514229
 40
0.4941253485
100
AcDbArc
 50
144.0395046895
 51
145.7459782575
  0
ARC
  5
283
100
AcDbEntity
  8
0
100
AcDbCircle
 62
7
  6
CONTINUOUS
 10
22.7497586912
 20
17.5424064867
 40
0.4939638761
100
AcDbArc
 50
339.1023680492
 51
341.9178307978
  0
ARC
  5
284
100
AcDbEntity
  8
0
100
AcDbCircle
 62
7
  6
CONTINUOUS
 10
22.7486711696
 20
17.5430931088
 40
0.4939395043
100
AcDbArc
 50
146.3980971429
 51
153.1359182037
  0
ARC
  5
285
100
AcDbEntity
  8
0
100
AcDbCircle
 62
7
  6
CONTINUOUS
 10
22.7552345306
 20
17.5466050995
 40
0.4939315225
100
AcDbArc
 50
199.4190452707
 51
201.6679265941
  0
ARC
  5
286
100
AcDbEntity
  8
0
100
AcDbCircle
 62
7
  6
CONTINUOUS
 10
22.7471032826
 20
17.5450706707
 40
0.4938483467
100
AcDbArc
 50
270.0718617212
 51
287.995776147
  0
ARC
  5
287
100
AcDbEntity
  8
0
100
AcDbCircle
 62
7
  6
CONTINUOUS
 10
22.7456838202
 20
17.5410844353
 40
0.4937836928
100
AcDbArc
 50
233.2687355752
 51
235.3957609141
  0
ARC
  5
288
100
AcDbEntity
  8
0
100
AcDbCircle
 62
7
  6
CONTINUOUS
 10
22.7483160645
 20
17.5446489072
 40
0.4937587815
100
AcDbArc
 50
220.6405299503
 51
233.6977784164
  0
ARC
  5
289
100
AcDbEntity
  8
0
100
AcDbCircle
 62
7
  6
CONTINUOUS
 10
22.748671749
 20
17.543704507
 40
0.4937087921
100
AcDbArc
 50
173.7758514969
 51
182.8186117928
  0
ARC
  5
28A
100
AcDbEntity
  8
0
100
AcDbCircle
 62
7
  6
CONTINUOUS
 10
22.7457477681
 20
17.5433790106
 40
0.4936426485
100
AcDbArc
 50
348.6243174915
 51
357.4979776638
  0
ARC
  5
28B
100
AcDbEntity
  8
0
100
AcDbCircle
 62
7
  6
CONTINUOUS
 10
22.7481101606
 20
17.547687558
 40
0.4935269073
100
AcDbArc
 50
90.7031464276
 51
92.9761815708
  0
ARC
  5
28C
100
AcDbEntity
  8
0
100
AcDbCircle
 62
7
  6
CONTINUOUS
 10
22.7394547727
 20
17.5458653263
 40
0.4935147047
100
AcDbArc
 50
339.2922154396
 51
341.9105548419
  0
ARC
  5
28D
100
AcDbEntity
  8
0
100
AcDbCircle
 62
7
  6
CONTINUOUS
 10
22.7503231634
 20
17.543090371
 40
0.4935073593
100
AcDbArc
 50
357.4491933011
 51
359.8837887714
  0
ARC
  5
28E
100
AcDbEntity
  8
0
100
AcDbCircle
 62
7
  6
CONTINUOUS
 10
22.7502895053
 20
17.543892665
 40
0.4934148947
100
AcDbArc
 50
17.8509791677
 51
20.1133648266
  0
ARC
  5
28F
100
AcDbEntity
  8
0
100
AcDbCircle
 62
7
  6
CONTINUOUS
 10
22.7477184248
 20
17.5411665537
 40
0.4933748458
100
AcDbArc
 50
71.8106856827
 51
89.9995234357
  0
ARC
  5
290
100
AcDbEntity
  8
0
100
AcDbCircle
 62
7
  6
CONTINUOUS
 10
22.7503775455
 20
17.5453155016
 40
0.4933570443
100
AcDbArc
 50
220.1591527839
 51
228.7717334951
  0
ARC
  5
291
100
AcDbEntity
  8
0
100
AcDbCircle
 62
7
  6
CONTINUOUS
 10
22.7494174487
 20
17.5453135621
 40
0.4932608062
100
AcDbArc
 50
52.5359465319
 51
53.8031461507
  0
ARC
  5
292
100
AcDbEntity
  8
0
100
AcDbCircle
 62
7
  6
CONTINUOUS
 10
22.7497023407
 20
17.5477229497
 40
0.4931994548
100
AcDbArc
 50
71.0829024719
 51
71.987135045
  0
ARC
  5
293
100
AcDbEntity
  8
0
100
AcDbCircle
 62
7
  6
CONTINUOUS
 10
22.7426403715
 20
17.5364346005
 40
0.4931162707
100
AcDbArc
 50
50.2032363848
 51
53.3566216786
  0
ARC
  5
294
100
AcDbEntity
  8
0
100
AcDbCircle
 62
7
  6
CONTINUOUS
 10
22.744321306
 20
17.5414433469
 40
0.493073243
100
AcDbArc
 50
216.0286530317
 51
216.7402115692
  0
ARC
  5
295
100
AcDbEntity
  8
0
100
AcDbCircle
 62
7
  6
CONTINUOUS
 10
22.7515126863
 20
17.5497180096
 40
0.4928709835
100
AcDbArc
 50
229.1660481441
 51
241.7489911273
  0
ARC
  5
296
100
AcDbEntity
  8
0
100
AcDbCircle
 62
7
  6
CONTINUOUS
 10
22.7400345321
 20
17.5408068371
 40
0.492806319
100
AcDbArc
 50
17.8305826294
 51
19.8900889449
  0
ARC
  5
297
100
AcDbEntity
  8
0
100
AcDbCircle
 62
7
  6
CONTINUOUS
 10
22.7467150612
 20
17.5435587252
 40
0.4927678867
100
AcDbArc
 50
323.9716060404
 51
338.5292752973
  0
ARC
  5
298
100
AcDbEntity
  8
0
100
AcDbCircle
 62
7
  6
CONTINUOUS
 10
22.7476521757
 20
17.5438747237
 40
0.4927354893
100
AcDbArc
 50
203.253999607
 51
218.9296812538
  0
ARC
  5
299
100
AcDbEntity
  8
0
100
AcDbCircle
 62
7
  6
CONTINUOUS
 10
22.7480732035
 20
17.5507677659
 40
0.4926704588
100
AcDbArc
 50
90.0407647492
 51
90.7403246053
  0
ARC
  5
29A
100
AcDbEntity
  8
0
100
AcDbCircle
 62
7
  6
CONTINUOUS
 10
22.7540575272
 20
17.5461188844
 40
0.4926581636
100
AcDbArc
 50
201.6659171859
 51
207.2129565702
  0
ARC
  5
29B
100
AcDbEntity
  8
0
100
AcDbCircle
 62
7
  6
CONTINUOUS
 10
22.7467243634
 20
17.5429224153
 40
0.4926574986
100
AcDbArc
 50
359.905671779
 51
17.8330026784
  0
ARC
  5
29C
100
AcDbEntity
  8
0
100
AcDbCircle
 62
7
  6
CONTINUOUS
 10
22.7505903324
 20
17.5450385502
 40
0.492624705
100
AcDbArc
 50
34.0212075683
 51
35.8314645929
  0
ARC
  5
29D
100
AcDbEntity
  8
0
100
AcDbCircle
 62
7
  6
CONTINUOUS
 10
22.7473791642
 20
17.5369805891
 40
0.4924305222
100
AcDbArc
 50
270.0399689557
 51
271.5711644923
  0
ARC
  5
29E
100
AcDbEntity
  8
0
100
AcDbCircle
 62
7
  6
CONTINUOUS
 10
22.7478685955
 20
17.5460387311
 40
0.4924243256
100
AcDbArc
 50
235.4129252449
 51
252.4316097999
  0
ARC
  5
29F
100
AcDbEntity
  8
0
100
AcDbCircle
 62
7
  6
CONTINUOUS
 10
22.7471103163
 20
17.5426985167
 40
0.4923624748
100
AcDbArc
 50
20.0566530366
 51
33.0781075966
  0
ARC
  5
2A0
100
AcDbEntity
  8
0
100
AcDbCircle
 62
7
  6
CONTINUOUS
 10
22.7473420658
 20
17.5425434263
 40
0.4922705383
100
AcDbArc
 50
35.847716275
 51
50.0952486205
  0
ARC
  5
2A1
100
AcDbEntity
  8
0
100
AcDbCircle
 62
7
  6
CONTINUOUS
 10
22.7406692354
 20
17.5454899907
 40
0.4922437275
100
AcDbArc
 50
341.9081910002
 51
348.468031891
  0
ARC
  5
2A2
100
AcDbEntity
  8
0
100
AcDbCircle
 62
7
  6
CONTINUOUS
 10
22.7470884952
 20
17.5440060423
 40
0.4921099434
100
AcDbArc
 50
155.1747598024
 51
173.7753146747
  0
ARC
  5
2A3
100
AcDbEntity
  8
0
100
AcDbCircle
 62
7
  6
CONTINUOUS
 10
22.7474658658
 20
17.5429547265
 40
0.4917529626
100
AcDbArc
 50
288.0272091964
 51
311.3398391073
  0
ARC
  5
2A4
100
AcDbEntity
  8
0
100
AcDbCircle
 62
7
  6
CONTINUOUS
 10
22.7411051533
 20
17.5452227626
 40
0.4917437337
100
AcDbArc
 50
334.1019473889
 51
339.294251407
  0
ARC
  5
2A5
100
AcDbEntity
  8
0
100
AcDbCircle
 62
7
  6
CONTINUOUS
 10
22.7471017944
 20
17.5446984318
 40
0.4917243619
100
AcDbArc
 50
138.6192189651
 51
140.1295001931
  0
ARC
  5
2A6
100
AcDbEntity
  8
0
100
AcDbCircle
 62
7
  6
CONTINUOUS
 10
22.6968626055
 20
17.5624344527
 40
0.49167201
100
AcDbArc
 50
334.7699376974
 51
336.2766314694
  0
ARC
  5
2A7
100
AcDbEntity
  8
0
100
AcDbCircle
 62
7
  6
CONTINUOUS
 10
22.7477565468
 20
17.5429607453
 40
0.4915908333
100
AcDbArc
 50
341.9301001756
 51
348.6259299187
  0
ARC
  5
2A8
100
AcDbEntity
  8
0
100
AcDbCircle
 62
7
  6
CONTINUOUS
 10
22.7529059401
 20
17.5458453859
 40
0.4914828552
100
AcDbArc
 50
189.8779020675
 51
199.4254863273
  0
ARC
  5
2A9
100
AcDbEntity
  8
0
100
AcDbCircle
 62
7
  6
CONTINUOUS
 10
22.7474825933
 20
17.5426480063
 40
0.4914253524
100
AcDbArc
 50
237.4178123481
 51
270.0279918096
  0
ARC
  5
2AA
100
AcDbEntity
  8
0
100
AcDbCircle
 62
7
  6
CONTINUOUS
 10
22.7457580956
 20
17.5433771399
 40
0.4914080375
100
AcDbArc
 50
348.6139934289
 51
357.5277214042
  0
ARC
  5
2AB
100
AcDbEntity
  8
0
100
AcDbCircle
 62
7
  6
CONTINUOUS
 10
22.7482094872
 20
17.5449454108
 40
0.4914060069
100
AcDbArc
 50
201.6614198375
 51
216.091843155
  0
ARC
  5
2AC
100
AcDbEntity
  8
0
100
AcDbCircle
 62
7
  6
CONTINUOUS
 10
22.7468301713
 20
17.5425754121
 40
0.4912103082
100
AcDbArc
 50
233.6989643499
 51
236.6283773
  0
ARC
  5
2AD
100
AcDbEntity
  8
0
100
AcDbCircle
 62
7
  6
CONTINUOUS
 10
22.7477100542
 20
17.5411143715
 40
0.4912028517
100
AcDbArc
 50
71.8107070576
 51
89.9985448654
  0
ARC
  5
2AE
100
AcDbEntity
  8
0
100
AcDbCircle
 62
7
  6
CONTINUOUS
 10
22.748213165
 20
17.5429837844
 40
0.4911653442
100
AcDbArc
 50
338.5318584731
 51
339.1592851091
  0
ARC
  5
2AF
100
AcDbEntity
  8
0
100
AcDbCircle
 62
7
  6
CONTINUOUS
 10
22.7496587592
 20
17.5419875315
 40
0.4909782538
100
AcDbArc
 50
134.3178341218
 51
137.9209781813
  0
ARC
  5
2B0
100
AcDbEntity
  8
0
100
AcDbCircle
 62
7
  6
CONTINUOUS
 10
22.7497161238
 20
17.5477665012
 40
0.4909294638
100
AcDbArc
 50
71.2698930877
 51
71.7813008609
  0
ARC
  5
2B1
100
AcDbEntity
  8
0
100
AcDbCircle
 62
7
  6
CONTINUOUS
 10
22.745940736
 20
17.5430439969
 40
0.4908351109
100
AcDbArc
 50
182.8171448925
 51
203.2437796139
  0
ARC
  5
2B2
100
AcDbEntity
  8
0
100
AcDbCircle
 62
7
  6
CONTINUOUS
 10
22.7468233198
 20
17.5480160867
 40
0.4908055352
100
AcDbArc
 50
108.0779317563
 51
119.2479423154
  0
ARC
  5
2B3
100
AcDbEntity
  8
0
100
AcDbCircle
 62
7
  6
CONTINUOUS
 10
22.7484532001
 20
17.5443800245
 40
0.4905961505
100
AcDbArc
 50
129.6772626647
 51
141.0062512311
  0
ARC
  5
2B4
100
AcDbEntity
  8
0
100
AcDbCircle
 62
7
  6
CONTINUOUS
 10
22.7467139485
 20
17.5435595538
 40
0.4905450982
100
AcDbArc
 50
323.971560252
 51
338.5545529573
  0
ARC
  5
2B5
100
AcDbEntity
  8
0
100
AcDbCircle
 62
7
  6
CONTINUOUS
 10
22.7467294417
 20
17.5429232079
 40
0.490428246
100
AcDbArc
 50
359.9053944105
 51
17.8324124535
  0
ARC
  5
2B6
100
AcDbEntity
  8
0
100
AcDbCircle
 62
7
  6
CONTINUOUS
 10
22.7485192452
 20
17.5441235373
 40
0.4903032526
100
AcDbArc
 50
50.0823202022
 51
70.9415821073
  0
ARC
  5
2B7
100
AcDbEntity
  8
0
100
AcDbCircle
 62
7
  6
CONTINUOUS
 10
22.7480553754
 20
17.5509459914
 40
0.4902680471
100
AcDbArc
 50
89.372852723
 51
90.7014175262
  0
ARC
  5
2B8
100
AcDbEntity
  8
0
100
AcDbCircle
 62
7
  6
CONTINUOUS
 10
22.7473788276
 20
17.5369820835
 40
0.4902078415
100
AcDbArc
 50
270.0401895288
 51
271.5375197806
  0
ARC
  5
2B9
100
AcDbEntity
  8
0
100
AcDbCircle
 62
7
  6
CONTINUOUS
 10
22.7471218494
 20
17.5427039849
 40
0.4901255725
100
AcDbArc
 50
20.0259638801
 51
33.1062686846
  0
ARC
  5
2BA
100
AcDbEntity
  8
0
100
AcDbCircle
 62
7
  6
CONTINUOUS
 10
22.7473432338
 20
17.5425448382
 40
0.4900445889
100
AcDbArc
 50
35.8474728402
 51
50.1190783142
  0
ARC
  5
2BB
100
AcDbEntity
  8
0
100
AcDbCircle
 62
7
  6
CONTINUOUS
 10
22.7426492525
 20
17.5417848111
 40
0.4900148522
100
AcDbArc
 50
19.8865737864
 51
25.3637899559
  0
ARC
  5
2BC
100
AcDbEntity
  8
0
100
AcDbCircle
 62
7
  6
CONTINUOUS
 10
22.7490752227
 20
17.5420898421
 40
0.4899952279
100
AcDbArc
 50
320.2095234904
 51
323.9481857736
  0
ARC
  5
2BD
100
AcDbEntity
  8
0
100
AcDbCircle
 62
7
  6
CONTINUOUS
 10
22.7460811868
 20
17.5414669977
 40
0.4898726572
100
AcDbArc
 50
236.6302240864
 51
237.4208413691
  0
ARC
  5
2BE
100
AcDbEntity
  8
0
100
AcDbCircle
 62
7
  6
CONTINUOUS
 10
22.7473952636
 20
17.5432803503
 40
0.4898269773
100
AcDbArc
 50
270.0382977203
 51
320.2519397217
  0
ARC
  5
2BF
100
AcDbEntity
  8
0
100
AcDbCircle
 62
7
  6
CONTINUOUS
 10
22.7450117788
 20
17.5450658414
 40
0.4897836133
100
AcDbArc
 50
153.1483472954
 51
155.1705872203
  0
ARC
  5
2C0
100
AcDbEntity
  8
0
100
AcDbCircle
 62
7
  6
CONTINUOUS
 10
22.7493191458
 20
17.5441745123
 40
0.4897133872
100
AcDbArc
 50
33.086082772
 51
34.0865418762
  0
ARC
  5
2C1
100
AcDbEntity
  8
0
100
AcDbCircle
 62
7
  6
CONTINUOUS
 10
22.7471178724
 20
17.547613743
 40
0.4895250055
100
AcDbArc
 50
256.4474469336
 51
270.0707658402
  0
ARC
  5
2C2
100
AcDbEntity
  8
0
100
AcDbCircle
 62
7
  6
CONTINUOUS
 10
22.7497676192
 20
17.5424028176
 40
0.4895059019
100
AcDbArc
 50
339.1581059671
 51
341.9191703965
  0
ARC
  5
2C3
100
AcDbEntity
  8
0
100
AcDbCircle
 62
7
  6
CONTINUOUS
 10
22.7477619329
 20
17.5429598178
 40
0.4893612503
100
AcDbArc
 50
341.9302956045
 51
348.6155758628
  0
ARC
  5
2C4
100
AcDbEntity
  8
0
100
AcDbCircle
 62
7
  6
CONTINUOUS
 10
22.7449114832
 20
17.5415778813
 40
0.4891751681
100
AcDbArc
 50
218.9424011002
 51
220.6273079432
  0
ARC
  5
2C5
100
AcDbEntity
  8
0
100
AcDbCircle
 62
7
  6
CONTINUOUS
 10
22.7451088919
 20
17.546455023
 40
0.4890678091
100
AcDbArc
 50
137.1175496253
 51
138.6192891927
  0
ARC
  5
2C6
100
AcDbEntity
  8
0
100
AcDbCircle
 62
7
  6
CONTINUOUS
 10
22.7481306529
 20
17.543265764
 40
0.4890505636
100
AcDbArc
 50
90.0477969955
 51
121.56169707
  0
ARC
  5
2C7
100
AcDbEntity
  8
0
100
AcDbCircle
 62
7
  6
CONTINUOUS
 10
22.7503352105
 20
17.5430898156
 40
0.4890469627
100
AcDbArc
 50
357.5083644388
 51
359.8853630542
  0
ARC
  5
2C8
100
AcDbEntity
  8
0
100
AcDbCircle
 62
7
  6
CONTINUOUS
 10
22.748368182
 20
17.5435843235
 40
0.488986288
100
AcDbArc
 50
147.2550729772
 51
160.1444649913
  0
ARC
  5
2C9
100
AcDbEntity
  8
0
100
AcDbCircle
 62
7
  6
CONTINUOUS
 10
22.7503017993
 20
17.5438972521
 40
0.4889534384
100
AcDbArc
 50
17.8526383941
 51
20.0529594431
  0
ARC
  5
2CA
100
AcDbEntity
  8
0
100
AcDbCircle
 62
7
  6
CONTINUOUS
 10
22.7482323944
 20
17.542976044
 40
0.4889204472
100
AcDbArc
 50
338.5571729898
 51
339.187420855
  0
ARC
  5
2CB
100
AcDbEntity
  8
0
100
AcDbCircle
 62
7
  6
CONTINUOUS
 10
22.7479795418
 20
17.5434902134
 40
0.4887248734
100
AcDbArc
 50
137.9198042748
 51
142.4106664815
  0
ARC
  5
2CC
100
AcDbEntity
  8
0
100
AcDbCircle
 62
7
  6
CONTINUOUS
 10
22.7479217904
 20
17.53899047
 40
0.4886938502
100
AcDbArc
 50
71.9110314051
 51
90.023367285
  0
ARC
  5
2CD
100
AcDbEntity
  8
0
100
AcDbCircle
 62
7
  6
CONTINUOUS
 10
22.7479691415
 20
17.5438707323
 40
0.4885378309
100
AcDbArc
 50
165.1319254076
 51
178.0121317398
  0
ARC
  5
2CE
100
AcDbEntity
  8
0
100
AcDbCircle
 62
7
  6
CONTINUOUS
 10
22.7483701703
 20
17.5439383541
 40
0.4883167802
100
AcDbArc
 50
50.1067037572
 51
70.9828680372
  0
ARC
  5
2CF
100
AcDbEntity
  8
0
100
AcDbCircle
 62
7
  6
CONTINUOUS
 10
22.7505980641
 20
17.5450440693
 40
0.488166859
100
AcDbArc
 50
34.086143119
 51
35.8336152625
  0
ARC
  5
2D0
100
AcDbEntity
  8
0
100
AcDbCircle
 62
7
  6
CONTINUOUS
 10
22.7508057369
 20
17.5523157573
 40
0.4881175576
100
AcDbArc
 50
242.9858236393
 51
254.0419384572
  0
ARC
  5
2D1
100
AcDbEntity
  8
0
100
AcDbCircle
 62
7
  6
CONTINUOUS
 10
22.7483446855
 20
17.5460572728
 40
0.488029784
100
AcDbArc
 50
224.9010029998
 51
229.1664345512
  0
ARC
  5
2D2
100
AcDbEntity
  8
0
100
AcDbCircle
 62
7
  6
CONTINUOUS
 10
22.7480654774
 20
17.5510962413
 40
0.4878936278
100
AcDbArc
 50
89.4113538431
 51
90.0402743545
  0
ARC
  5
2D3
100
AcDbEntity
  8
0
100
AcDbCircle
 62
7
  6
CONTINUOUS
 10
22.7490770016
 20
17.5420870848
 40
0.4877679917
100
AcDbArc
 50
320.2333958595
 51
323.9481736546
  0
ARC
  5
2D4
100
AcDbEntity
  8
0
100
AcDbCircle
 62
7
  6
CONTINUOUS
 10
22.7473581722
 20
17.5446128896
 40
0.4874926336
100
AcDbArc
 50
121.5602803991
 51
134.3399490746
  0
ARC
  5
2D5
100
AcDbEntity
  8
0
100
AcDbCircle
 62
7
  6
CONTINUOUS
 10
22.7493398875
 20
17.5441878967
 40
0.4874645338
100
AcDbArc
 50
33.1143534571
 51
34.1192692473
  0
ARC
  5
2D6
100
AcDbEntity
  8
0
100
AcDbCircle
 62
7
  6
CONTINUOUS
 10
22.7497739867
 20
17.5424005992
 40
0.4872749849
100
AcDbArc
 50
339.1862625588
 51
341.9194251408
  0
ARC
  5
2D7
100
AcDbEntity
  8
0
100
AcDbCircle
 62
7
  6
CONTINUOUS
 10
22.7466981645
 20
17.5442076756
 40
0.4872229494
100
AcDbArc
 50
163.7116712192
 51
165.1318709336
  0
ARC
  5
2D8
100
AcDbEntity
  8
0
100
AcDbCircle
 62
7
  6
CONTINUOUS
 10
22.7468226617
 20
17.5445669568
 40
0.4871548648
100
AcDbArc
 50
145.9618316063
 51
147.2539566101
  0
ARC
  5
2D9
100
AcDbEntity
  8
0
100
AcDbCircle
 62
7
  6
CONTINUOUS
 10
22.7445765808
 20
17.5452555916
 40
0.487127584
100
AcDbArc
 50
165.2139522872
 51
173.3244007811
  0
ARC
  5
2DA
100
AcDbEntity
  8
0
100
AcDbCircle
 62
7
  6
CONTINUOUS
 10
22.7499710882
 20
17.5416934354
 40
0.4869548034
100
AcDbArc
 50
129.6069448711
 51
141.1761958304
  0
ARC
  5
2DB
100
AcDbEntity
  8
0
100
AcDbCircle
 62
7
  6
CONTINUOUS
 10
22.7463394846
 20
17.5438420836
 40
0.4869406308
100
AcDbArc
 50
181.3652615595
 51
183.3698658003
  0
ARC
  5
2DC
100
AcDbEntity
  8
0
100
AcDbCircle
 62
7
  6
CONTINUOUS
 10
22.7440960123
 20
17.5443553121
 40
0.4869198737
100
AcDbArc
 50
154.4272980813
 51
161.9643804813
  0
ARC
  5
2DD
100
AcDbEntity
  8
0
100
AcDbCircle
 62
7
  6
CONTINUOUS
 10
22.7434701537
 20
17.5479697141
 40
0.4868362796
100
AcDbArc
 50
136.45877321
 51
137.1169301568
  0
ARC
  5
2DE
100
AcDbEntity
  8
0
100
AcDbCircle
 62
7
  6
CONTINUOUS
 10
22.7503408088
 20
17.5430894606
 40
0.4868171887
100
AcDbArc
 50
357.538282326
 51
359.8851255734
  0
ARC
  5
2DF
100
AcDbEntity
  8
0
100
AcDbCircle
 62
7
  6
CONTINUOUS
 10
22.7496309903
 20
17.54752614
 40
0.4867360532
100
AcDbArc
 50
70.9573486809
 51
71.7908862645
  0
ARC
  5
2E0
100
AcDbEntity
  8
0
100
AcDbCircle
 62
7
  6
CONTINUOUS
 10
22.7503073226
 20
17.543899172
 40
0.4867234149
100
AcDbArc
 50
17.8520233648
 51
20.0221886006
  0
ARC
  5
2E1
100
AcDbEntity
  8
0
100
AcDbCircle
 62
7
  6
CONTINUOUS
 10
22.7479392471
 20
17.5479514155
 40
0.4865682543
100
AcDbArc
 50
90.0255051147
 51
107.317443713
  0
ARC
  5
2E2
100
AcDbEntity
  8
0
100
AcDbCircle
 62
7
  6
CONTINUOUS
 10
22.7493558787
 20
17.545580703
 40
0.4862477938
100
AcDbArc
 50
220.1949122929
 51
228.9350111929
  0
ARC
  5
2E3
100
AcDbEntity
  8
0
100
AcDbCircle
 62
7
  6
CONTINUOUS
 10
22.7499125621
 20
17.5441333775
 40
0.4860762734
100
AcDbArc
 50
183.3279548368
 51
192.8455157314
  0
ARC
  5
2E4
100
AcDbEntity
  8
0
100
AcDbCircle
 62
7
  6
CONTINUOUS
 10
22.7020209733
 20
17.5601588488
 40
0.486034008
100
AcDbArc
 50
336.2775735261
 51
337.2581751173
  0
ARC
  5
2E5
100
AcDbEntity
  8
0
100
AcDbCircle
 62
7
  6
CONTINUOUS
 10
22.7483224068
 20
17.5419182099
 40
0.4859510347
100
AcDbArc
 50
90.0707106094
 51
107.1595653149
  0
ARC
  5
2E6
100
AcDbEntity
  8
0
100
AcDbCircle
 62
7
  6
CONTINUOUS
 10
22.7506036791
 20
17.5450480258
 40
0.4859358151
100
AcDbArc
 50
34.1188926698
 51
35.8333688903
  0
ARC
  5
2E7
100
AcDbEntity
  8
0
100
AcDbCircle
 62
7
  6
CONTINUOUS
 10
22.7494983791
 20
17.5447263174
 40
0.4858621663
100
AcDbArc
 50
201.5076066042
 51
211.2594693296
  0
ARC
  5
2E8
100
AcDbEntity
  8
0
100
AcDbCircle
 62
7
  6
CONTINUOUS
 10
22.7450888902
 20
17.5446793341
 40
0.4855459808
100
AcDbArc
 50
160.1488943515
 51
163.7118331376
  0
ARC
  5
2E9
100
AcDbEntity
  8
0
100
AcDbCircle
 62
7
  6
CONTINUOUS
 10
22.7476992912
 20
17.5455711617
 40
0.4854517487
100
AcDbArc
 50
252.1039176969
 51
270.0027603374
  0
ARC
  5
2EA
100
AcDbEntity
  8
0
100
AcDbCircle
 62
7
  6
CONTINUOUS
 10
22.7452971695
 20
17.5455906669
 40
0.4853180821
100
AcDbArc
 50
142.4139916166
 51
145.9622195141
  0
ARC
  5
2EB
100
AcDbEntity
  8
0
100
AcDbCircle
 62
7
  6
CONTINUOUS
 10
22.7487996874
 20
17.5432598025
 40
0.4850708227
100
AcDbArc
 50
147.2079272082
 51
158.5309809837
  0
ARC
  5
2EC
100
AcDbEntity
  8
0
100
AcDbCircle
 62
7
  6
CONTINUOUS
 10
22.7444667441
 20
17.5437939311
 40
0.4850672746
100
AcDbArc
 50
178.0152855414
 51
181.3648459225
  0
ARC
  5
2ED
100
AcDbEntity
  8
0
100
AcDbCircle
 62
7
  6
CONTINUOUS
 10
22.7486527292
 20
17.5435994909
 40
0.4848098697
100
AcDbArc
 50
165.0857684729
 51
176.6109711807
  0
ARC
  5
2EE
100
AcDbEntity
  8
0
100
AcDbCircle
 62
7
  6
CONTINUOUS
 10
22.7482688083
 20
17.5443912372
 40
0.4846368674
100
AcDbArc
 50
228.9395315489
 51
230.3117711134
  0
ARC
  5
2EF
100
AcDbEntity
  8
0
100
AcDbCircle
 62
7
  6
CONTINUOUS
 10
22.7482190993
 20
17.543277011
 40
0.4846331929
100
AcDbArc
 50
111.300039571
 51
124.1253311518
  0
ARC
  5
2F0
100
AcDbEntity
  8
0
100
AcDbCircle
 62
7
  6
CONTINUOUS
 10
22.7496575089
 20
17.5475921415
 40
0.4844408914
100
AcDbArc
 50
70.9989196192
 51
71.790371065
  0
ARC
  5
2F1
100
AcDbEntity
  8
0
100
AcDbCircle
 62
7
  6
CONTINUOUS
 10
22.7477271694
 20
17.5412205891
 40
0.4844241085
100
AcDbArc
 50
71.8097609111
 51
90.0005485841
  0
ARC
  5
2F2
100
AcDbEntity
  8
0
100
AcDbCircle
 62
7
  6
CONTINUOUS
 10
22.7476709165
 20
17.542069743
 40
0.4843289658
100
AcDbArc
 50
241.7401069299
 51
252.4450091638
  0
ARC
  5
2F3
100
AcDbEntity
  8
0
100
AcDbCircle
 62
7
  6
CONTINUOUS
 10
22.7487445459
 20
17.5428796546
 40
0.4842576618
100
AcDbArc
 50
35.915547119
 51
50.270049301
  0
ARC
  5
2F4
100
AcDbEntity
  8
0
100
AcDbCircle
 62
7
  6
CONTINUOUS
 10
22.7467251405
 20
17.5435538967
 40
0.4838602063
100
AcDbArc
 50
323.9757960442
 51
339.2698468715
  0
ARC
  5
2F5
100
AcDbEntity
  8
0
100
AcDbCircle
 62
7
  6
CONTINUOUS
 10
22.7462578155
 20
17.5420351826
 40
0.4838543101
100
AcDbArc
 50
207.2052728027
 51
217.0418370177
  0
ARC
  5
2F6
100
AcDbEntity
  8
0
100
AcDbCircle
 62
7
  6
CONTINUOUS
 10
22.7467438385
 20
17.5429253411
 40
0.4837413458
100
AcDbArc
 50
359.9114223224
 51
17.8391622643
  0
ARC
  5
2F7
100
AcDbEntity
  8
0
100
AcDbCircle
 62
7
  6
CONTINUOUS
 10
22.7475018335
 20
17.5437767864
 40
0.4836870076
100
AcDbArc
 50
235.1927371475
 51
250.8414961697
  0
ARC
  5
2F8
100
AcDbEntity
  8
0
100
AcDbCircle
 62
7
  6
CONTINUOUS
 10
22.7494887141
 20
17.5447210771
 40
0.4836270549
100
AcDbArc
 50
201.4823201426
 51
211.2317301184
  0
ARC
  5
2F9
100
AcDbEntity
  8
0
100
AcDbCircle
 62
7
  6
CONTINUOUS
 10
22.7468646162
 20
17.5432229389
 40
0.4836234111
100
AcDbArc
 50
341.9383584348
 51
357.6313233412
  0
ARC
  5
2FA
100
AcDbEntity
  8
0
100
AcDbCircle
 62
7
  6
CONTINUOUS
 10
22.7490833273
 20
17.5425762804
 40
0.4834837496
100
AcDbArc
 50
127.2216684316
 51
142.8335300212
  0
ARC
  5
2FB
100
AcDbEntity
  8
0
100
AcDbCircle
 62
7
  6
CONTINUOUS
 10
22.7471633244
 20
17.542723314
 40
0.4834074373
100
AcDbArc
 50
19.9330808936
 51
33.1924960412
  0
ARC
  5
2FC
100
AcDbEntity
  8
0
100
AcDbCircle
 62
7
  6
CONTINUOUS
 10
22.7473453449
 20
17.5425480897
 40
0.4833684707
100
AcDbArc
 50
35.8553791615
 51
50.1926342758
  0
ARC
  5
2FD
100
AcDbEntity
  8
0
100
AcDbCircle
 62
7
  6
CONTINUOUS
 10
22.7473945548
 20
17.5432827325
 40
0.4831568879
100
AcDbArc
 50
270.0389104777
 51
320.4737414617
  0
ARC
  5
2FE
100
AcDbEntity
  8
0
100
AcDbCircle
 62
7
  6
CONTINUOUS
 10
22.7485098193
 20
17.5478310338
 40
0.4830793128
100
AcDbArc
 50
237.7636962891
 51
242.9868210027
  0
ARC
  5
2FF
100
AcDbEntity
  8
0
100
AcDbCircle
 62
7
  6
CONTINUOUS
 10
22.7490080651
 20
17.5431951551
 40
0.4830624922
100
AcDbArc
 50
147.1780769783
 51
160.8007519784
  0
ARC
  5
300
100
AcDbEntity
  8
0
100
AcDbCircle
 62
7
  6
CONTINUOUS
 10
22.7486822595
 20
17.5448688527
 40
0.4830444698
100
AcDbArc
 50
220.1715753309
 51
228.9578229652
  0
ARC
  5
301
100
AcDbEntity
  8
0
100
AcDbCircle
 62
7
  6
CONTINUOUS
 10
22.7468522092
 20
17.5441646982
 40
0.4829345528
100
AcDbArc
 50
164.0811790058
 51
165.0776867826
  0
ARC
  5
302
100
AcDbEntity
  8
0
100
AcDbCircle
 62
7
  6
CONTINUOUS
 10
22.7467853244
 20
17.5434447343
 40
0.4828742003
100
AcDbArc
 50
192.8483454989
 51
198.0208094989
  0
ARC
  5
303
100
AcDbEntity
  8
0
100
AcDbCircle
 62
7
  6
CONTINUOUS
 10
22.7489275003
 20
17.5440072599
 40
0.4828611516
100
AcDbArc
 50
182.8215380966
 51
198.0066718396
  0
ARC
  5
304
100
AcDbEntity
  8
0
100
AcDbCircle
 62
7
  6
CONTINUOUS
 10
22.7428266447
 20
17.5498001539
 40
0.4828431932
100
AcDbArc
 50
124.0269251734
 51
125.9761464358
  0
ARC
  5
305
100
AcDbEntity
  8
0
100
AcDbCircle
 62
7
  6
CONTINUOUS
 10
22.7488781665
 20
17.5436211694
 40
0.4828061081
100
AcDbArc
 50
162.7649004685
 51
180.0111016561
  0
ARC
  5
306
100
AcDbEntity
  8
0
100
AcDbCircle
 62
7
  6
CONTINUOUS
 10
22.7472380744
 20
17.5448528111
 40
0.4827783715
100
AcDbArc
 50
124.1338674191
 51
129.596091035
  0
ARC
  5
307
100
AcDbEntity
  8
0
100
AcDbCircle
 62
7
  6
CONTINUOUS
 10
22.7470607662
 20
17.5429196786
 40
0.4827329904
100
AcDbArc
 50
230.310569247
 51
233.4585803897
  0
ARC
  5
308
100
AcDbEntity
  8
0
100
AcDbCircle
 62
7
  6
CONTINUOUS
 10
22.7463931649
 20
17.5430101537
 40
0.4823257113
100
AcDbArc
 50
216.6269065115
 51
220.1888044138
  0
ARC
  5
309
100
AcDbEntity
  8
0
100
AcDbCircle
 62
7
  6
CONTINUOUS
 10
22.7461696238
 20
17.5438334492
 40
0.4823222431
100
AcDbArc
 50
181.0481608816
 51
183.3181972177
  0
ARC
  5
30A
100
AcDbEntity
  8
0
100
AcDbCircle
 62
7
  6
CONTINUOUS
 10
22.7463320531
 20
17.5428521208
 40
0.4821829621
100
AcDbArc
 50
211.2643341078
 51
216.0228294061
  0
ARC
  5
30B
100
AcDbEntity
  8
0
100
AcDbCircle
 62
7
  6
CONTINUOUS
 10
22.7505530569
 20
17.5435719729
 40
0.4821759974
100
AcDbArc
 50
348.4565506224
 51
357.5406002226
  0
ARC
  5
30C
100
AcDbEntity
  8
0
100
AcDbCircle
 62
7
  6
CONTINUOUS
 10
22.7480729643
 20
17.54351962
 40
0.4821252054
100
AcDbArc
 50
90.0416279561
 51
125.4160462917
  0
ARC
  5
30D
100
AcDbEntity
  8
0
100
AcDbCircle
 62
7
  6
CONTINUOUS
 10
22.7457472233
 20
17.5437695266
 40
0.4818993934
100
AcDbArc
 50
176.6107308584
 51
180.0278959442
  0
ARC
  5
30E
100
AcDbEntity
  8
0
100
AcDbCircle
 62
7
  6
CONTINUOUS
 10
22.7459470158
 20
17.5451055679
 40
0.481680598
100
AcDbArc
 50
141.1923151985
 51
147.2023038124
  0
ARC
  5
30F
100
AcDbEntity
  8
0
100
AcDbCircle
 62
7
  6
CONTINUOUS
 10
22.7477383149
 20
17.5437344668
 40
0.4816187746
100
AcDbArc
 50
211.239338527
 51
212.041699688
  0
ARC
  5
310
100
AcDbEntity
  8
0
100
AcDbCircle
 62
7
  6
CONTINUOUS
 10
22.7484721935
 20
17.5440620619
 40
0.4814840285
100
AcDbArc
 50
50.1803047034
 51
71.167513654
  0
ARC
  5
311
100
AcDbEntity
  8
0
100
AcDbCircle
 62
7
  6
CONTINUOUS
 10
22.7502909526
 20
17.5405886812
 40
0.4814564324
100
AcDbArc
 50
324.0086219907
 51
334.1205835942
  0
ARC
  5
312
100
AcDbEntity
  8
0
100
AcDbCircle
 62
7
  6
CONTINUOUS
 10
22.7453256342
 20
17.5446051732
 40
0.4813457087
100
AcDbArc
 50
158.5310519821
 51
164.0817601024
  0
ARC
  5
313
100
AcDbEntity
  8
0
100
AcDbCircle
 62
7
  6
CONTINUOUS
 10
22.7423258831
 20
17.5363366599
 40
0.4812976351
100
AcDbArc
 50
228.7881584095
 51
233.3296014341
  0
ARC
  5
314
100
AcDbEntity
  8
0
100
AcDbCircle
 62
7
  6
CONTINUOUS
 10
22.7469280201
 20
17.5465179504
 40
0.4811446527
100
AcDbArc
 50
107.162513901
 51
111.2969899308
  0
ARC
  5
315
100
AcDbEntity
  8
0
100
AcDbCircle
 62
7
  6
CONTINUOUS
 10
22.7470630825
 20
17.5436764037
 40
0.4809873636
100
AcDbArc
 50
198.8918616195
 51
201.4723377783
  0
ARC
  5
316
100
AcDbEntity
  8
0
100
AcDbCircle
 62
7
  6
CONTINUOUS
 10
22.7491628868
 20
17.5420206765
 40
0.4809869445
100
AcDbArc
 50
320.4556401122
 51
323.9527241607
  0
ARC
  5
317
100
AcDbEntity
  8
0
100
AcDbCircle
 62
7
  6
CONTINUOUS
 10
22.7493937979
 20
17.5442227231
 40
0.4807278423
100
AcDbArc
 50
33.2009017027
 51
34.2200502556
  0
ARC
  5
318
100
AcDbEntity
  8
0
100
AcDbCircle
 62
7
  6
CONTINUOUS
 10
22.7497877823
 20
17.5423952086
 40
0.4805876736
100
AcDbArc
 50
339.2726880244
 51
341.9241288045
  0
ARC
  5
319
100
AcDbEntity
  8
0
100
AcDbCircle
 62
7
  6
CONTINUOUS
 10
22.7457602826
 20
17.5411926499
 40
0.480571137
100
AcDbArc
 50
233.460555195
 51
235.1871697712
  0
ARC
  5
31A
100
AcDbEntity
  8
0
100
AcDbCircle
 62
7
  6
CONTINUOUS
 10
22.742950233
 20
17.5406923376
 40
0.4804217234
100
AcDbArc
 50
220.4020824942
 51
224.901924471
  0
ARC
  5
31B
100
AcDbEntity
  8
0
100
AcDbCircle
 62
7
  6
CONTINUOUS
 10
22.7379330585
 20
17.5405956637
 40
0.4802497675
100
AcDbArc
 50
201.0897910591
 51
201.6316740078
  0
ARC
  5
31C
100
AcDbEntity
  8
0
100
AcDbCircle
 62
7
  6
CONTINUOUS
 10
22.7503570848
 20
17.5430888911
 40
0.4801283865
100
AcDbArc
 50
357.6300812532
 51
359.891238633
  0
ARC
  5
31D
100
AcDbEntity
  8
0
100
AcDbCircle
 62
7
  6
CONTINUOUS
 10
22.7465175312
 20
17.5447656503
 40
0.4801182947
100
AcDbArc
 50
145.2700697673
 51
147.1744773789
  0
ARC
  5
31E
100
AcDbEntity
  8
0
100
AcDbCircle
 62
7
  6
CONTINUOUS
 10
22.7461647178
 20
17.5422866958
 40
0.4800465971
100
AcDbArc
 50
19.8761195426
 51
29.7210803157
  0
ARC
  5
31F
100
AcDbEntity
  8
0
100
AcDbCircle
 62
7
  6
CONTINUOUS
 10
22.7503281155
 20
17.543906993
 40
0.4800287028
100
AcDbArc
 50
17.858686391
 51
19.9290443689
  0
ARC
  5
320
100
AcDbEntity
  8
0
100
AcDbCircle
 62
7
  6
CONTINUOUS
 10
22.7476430234
 20
17.5412474598
 40
0.4799610086
100
AcDbArc
 50
71.8031688333
 51
87.0657975323
  0
ARC
  5
321
100
AcDbEntity
  8
0
100
AcDbCircle
 62
7
  6
CONTINUOUS
 10
22.7517623058
 20
17.5461897969
 40
0.4798933089
100
AcDbArc
 50
25.3546364708
 51
33.1297983345
  0
ARC
  5
322
100
AcDbEntity
  8
0
100
AcDbCircle
 62
7
  6
CONTINUOUS
 10
22.7484032259
 20
17.541346684
 40
0.4798465262
100
AcDbArc
 50
98.7610572736
 51
107.9575938531
  0
ARC
  5
323
100
AcDbEntity
  8
0
100
AcDbCircle
 62
7
  6
CONTINUOUS
 10
22.7443443374
 20
17.5414588685
 40
0.4797559516
100
AcDbArc
 50
216.0278635091
 51
216.6242038472
  0
ARC
  5
324
100
AcDbEntity
  8
0
100
AcDbCircle
 62
7
  6
CONTINUOUS
 10
22.7468029117
 20
17.5420404983
 40
0.4796569918
100
AcDbArc
 50
35.8443204452
 51
50.2283460857
  0
ARC
  5
325
100
AcDbEntity
  8
0
100
AcDbCircle
 62
7
  6
CONTINUOUS
 10
22.7459922756
 20
17.5426198432
 40
0.4795473751
100
AcDbArc
 50
212.0394908856
 51
220.1672676255
  0
ARC
  5
326
100
AcDbEntity
  8
0
100
AcDbCircle
 62
7
  6
CONTINUOUS
 10
22.7410843097
 20
17.543684919
 40
0.4794658581
100
AcDbArc
 50
183.6004151595
 51
189.865898544
  0
ARC
  5
327
100
AcDbEntity
  8
0
100
AcDbCircle
 62
7
  6
CONTINUOUS
 10
22.7467437779
 20
17.5435669462
 40
0.4794009048
100
AcDbArc
 50
323.9663490291
 51
339.5104139465
  0
ARC
  5
328
100
AcDbEntity
  8
0
100
AcDbCircle
 62
7
  6
CONTINUOUS
 10
22.7455529056
 20
17.5431103122
 40
0.4793746091
100
AcDbArc
 50
198.0294007462
 51
200.9329006939
  0
ARC
  5
329
100
AcDbEntity
  8
0
100
AcDbCircle
 62
7
  6
CONTINUOUS
 10
22.7459625764
 20
17.5396804528
 40
0.4793124074
100
AcDbArc
 50
250.8546045009
 51
252.0850928733
  0
ARC
  5
32A
100
AcDbEntity
  8
0
100
AcDbCircle
 62
7
  6
CONTINUOUS
 10
22.7453770799
 20
17.5438052664
 40
0.4793050929
100
AcDbArc
 50
180.0331895584
 51
182.8183131175
  0
ARC
  5
32B
100
AcDbEntity
  8
0
100
AcDbCircle
 62
7
  6
CONTINUOUS
 10
22.746489397
 20
17.5458779381
 40
0.4792855713
100
AcDbArc
 50
125.4251453721
 51
127.2134944729
  0
ARC
  5
32C
100
AcDbEntity
  8
0
100
AcDbCircle
 62
7
  6
CONTINUOUS
 10
22.7506131393
 20
17.5450551898
 40
0.479251432
100
AcDbArc
 50
34.2197359837
 51
35.8412818154
  0
ARC
  5
32D
100
AcDbEntity
  8
0
100
AcDbCircle
 62
7
  6
CONTINUOUS
 10
22.7477524375
 20
17.5459847128
 40
0.4791927747
100
AcDbArc
 50
253.4770821665
 51
269.9964418311
  0
ARC
  5
32E
100
AcDbEntity
  8
0
100
AcDbCircle
 62
7
  6
CONTINUOUS
 10
22.7469962571
 20
17.5431935058
 40
0.4790407607
100
AcDbArc
 50
341.9245513231
 51
355.7976240043
  0
ARC
  5
32F
100
AcDbEntity
  8
0
100
AcDbCircle
 62
7
  6
CONTINUOUS
 10
22.7447755115
 20
17.5447751924
 40
0.4785457588
100
AcDbArc
 50
160.8127564143
 51
162.751325018
  0
ARC
  5
330
100
AcDbEntity
  8
0
100
AcDbCircle
 62
7
  6
CONTINUOUS
 10
22.7450710329
 20
17.5457642928
 40
0.4783605595
100
AcDbArc
 50
142.8468949506
 51
145.2696682594
  0
ARC
  5
331
100
AcDbEntity
  8
0
100
AcDbCircle
 62
7
  6
CONTINUOUS
 10
22.7495857275
 20
17.5411869759
 40
0.4782116401
100
AcDbArc
 50
117.5177175422
 51
126.6567701474
  0
ARC
  5
332
100
AcDbEntity
  8
0
100
AcDbCircle
 62
7
  6
CONTINUOUS
 10
22.7478965177
 20
17.5433512186
 40
0.4779504491
100
AcDbArc
 50
50.2296302328
 51
51.5189017754
  0
ARC
  5
333
100
AcDbEntity
  8
0
100
AcDbCircle
 62
7
  6
CONTINUOUS
 10
22.7496339049
 20
17.5475487187
 40
0.4778170223
100
AcDbArc
 50
71.1844432752
 51
71.7900924371
  0
ARC
  5
334
100
AcDbEntity
  8
0
100
AcDbCircle
 62
7
  6
CONTINUOUS
 10
22.748134213
 20
17.5435754439
 40
0.477616088
100
AcDbArc
 50
53.5664940476
 51
69.1835069049
  0
ARC
  5
335
100
AcDbEntity
  8
0
100
AcDbCircle
 62
7
  6
CONTINUOUS
 10
22.7472067209
 20
17.5444075512
 40
0.4776158908
100
AcDbArc
 50
270.0618953761
 51
320.5237392786
  0
ARC
  5
336
100
AcDbEntity
  8
0
100
AcDbCircle
 62
7
  6
CONTINUOUS
 10
22.7469245461
 20
17.5417159711
 40
0.4776069475
100
AcDbArc
 50
48.3522799891
 51
57.8082673091
  0
ARC
  5
337
100
AcDbEntity
  8
0
100
AcDbCircle
 62
7
  6
CONTINUOUS
 10
22.7465849178
 20
17.5421314165
 40
0.4775460203
100
AcDbArc
 50
29.7244332089
 51
40.4320605797
  0
ARC
  5
338
100
AcDbEntity
  8
0
100
AcDbCircle
 62
7
  6
CONTINUOUS
 10
22.7480125241
 20
17.5436510641
 40
0.4775340658
100
AcDbArc
 50
107.9982441564
 51
144.0399131203
  0
ARC
  5
339
100
AcDbEntity
  8
0
100
AcDbCircle
 62
7
  6
CONTINUOUS
 10
22.748535951
 20
17.5431542236
 40
0.4775023334
100
AcDbArc
 50
355.7887865211
 51
15.9825310443
  0
ARC
  5
33A
100
AcDbEntity
  8
0
100
AcDbCircle
 62
7
  6
CONTINUOUS
 10
22.7396688712
 20
17.5541376251
 40
0.4774780154
100
AcDbArc
 50
125.9752555216
 51
129.613541588
  0
ARC
  5
33B
100
AcDbEntity
  8
0
100
AcDbCircle
 62
7
  6
CONTINUOUS
 10
22.747527377
 20
17.5417654598
 40
0.4772876033
100
AcDbArc
 50
65.5723693425
 51
74.7676561423
  0
ARC
  5
33C
100
AcDbEntity
  8
0
100
AcDbCircle
 62
7
  6
CONTINUOUS
 10
22.74750196
 20
17.5437650743
 40
0.4770054017
100
AcDbArc
 50
236.4468287491
 51
249.5572465473
  0
ARC
  5
33D
100
AcDbEntity
  8
0
100
AcDbCircle
 62
7
  6
CONTINUOUS
 10
22.7335409732
 20
17.5584777753
 40
0.4768567648
100
AcDbArc
 50
231.6337420839
 51
232.2785176343
  0
ARC
  5
33E
100
AcDbEntity
  8
0
100
AcDbCircle
 62
7
  6
CONTINUOUS
 10
22.7481918246
 20
17.5443893137
 40
0.476807266
100
AcDbArc
 50
90.0563751537
 51
98.7916394927
  0
ARC
  5
33F
100
AcDbEntity
  8
0
100
AcDbCircle
 62
7
  6
CONTINUOUS
 10
22.7492051814
 20
17.5426082592
 40
0.4767596453
100
AcDbArc
 50
339.5147948904
 51
340.4746317902
  0
ARC
  5
340
100
AcDbEntity
  8
0
100
AcDbCircle
 62
7
  6
CONTINUOUS
 10
22.7346678801
 20
17.5393540686
 40
0.4767565347
100
AcDbArc
 50
198.004217949
 51
201.0917717023
  0
ARC
  5
341
100
AcDbEntity
  8
0
100
AcDbCircle
 62
7
  6
CONTINUOUS
 10
22.7471269393
 20
17.5433654169
 40
0.4767494663
100
AcDbArc
 50
321.7211431141
 51
333.7586371463
  0
ARC
  5
342
100
AcDbEntity
  8
0
100
AcDbCircle
 62
7
  6
CONTINUOUS
 10
22.7483502827
 20
17.542436637
 40
0.4765687691
100
AcDbArc
 50
100.1254694686
 51
109.3799092151
  0
ARC
  5
343
100
AcDbEntity
  8
0
100
AcDbCircle
 62
7
  6
CONTINUOUS
 10
22.7491715904
 20
17.5420114077
 40
0.4765261135
100
AcDbArc
 50
320.5059736276
 51
323.9433227797
  0
ARC
  5
344
100
AcDbEntity
  8
0
100
AcDbCircle
 62
7
  6
CONTINUOUS
 10
22.7341885471
 20
17.547768846
 40
0.4764423949
100
AcDbArc
 50
161.9858314112
 51
165.1880088872
  0
ARC
  5
345
100
AcDbEntity
  8
0
100
AcDbCircle
 62
7
  6
CONTINUOUS
 10
22.747493434
 20
17.5431503375
 40
0.4763269656
100
AcDbArc
 50
284.5485694387
 51
320.1266986244
  0
ARC
  5
346
100
AcDbEntity
  8
0
100
AcDbCircle
 62
7
  6
CONTINUOUS
 10
22.7489310825
 20
17.5446587867
 40
0.4762831025
100
AcDbArc
 50
51.5184480859
 51
53.5484832568
  0
ARC
  5
347
100
AcDbEntity
  8
0
100
AcDbCircle
 62
7
  6
CONTINUOUS
 10
22.7448763582
 20
17.5419935193
 40
0.4762034887
100
AcDbArc
 50
234.6494173485
 51
237.7588330748
  0
ARC
  5
348
100
AcDbEntity
  8
0
100
AcDbCircle
 62
7
  6
CONTINUOUS
 10
22.7476264274
 20
17.5429971823
 40
0.47619176
100
AcDbArc
 50
40.4340419098
 51
44.0783935371
  0
ARC
  5
349
100
AcDbEntity
  8
0
100
AcDbCircle
 62
7
  6
CONTINUOUS
 10
22.7479879282
 20
17.5428282549
 40
0.47612865
100
AcDbArc
 50
82.8282373349
 51
95.7067306031
  0
ARC
  5
34A
100
AcDbEntity
  8
0
100
AcDbCircle
 62
7
  6
CONTINUOUS
 10
22.7503885484
 20
17.5439404357
 40
0.4755125833
100
AcDbArc
 50
15.9841465817
 51
19.8631184852
  0
ARC
  5
34B
100
AcDbEntity
  8
0
100
AcDbCircle
 62
7
  6
CONTINUOUS
 10
22.7504316205
 20
17.5421753045
 40
0.4754590304
100
AcDbArc
 50
340.4744090196
 51
341.9127495049
  0
ARC
  5
34C
100
AcDbEntity
  8
0
100
AcDbCircle
 62
7
  6
CONTINUOUS
 10
22.7481460144
 20
17.5436481979
 40
0.4753210195
100
AcDbArc
 50
57.808784453
 51
63.5028524007
  0
ARC
  5
34D
100
AcDbEntity
  8
0
100
AcDbCircle
 62
7
  6
CONTINUOUS
 10
22.7477226788
 20
17.5434381
 40
0.4752765551
100
AcDbArc
 50
131.6799395599
 51
226.4570504465
  0
ARC
  5
34E
100
AcDbEntity
  8
0
100
AcDbCircle
 62
7
  6
CONTINUOUS
 10
22.7386401896
 20
17.5315041629
 40
0.4752204342
100
AcDbArc
 50
233.3380673036
 51
235.3335832003
  0
ARC
  5
34F
100
AcDbEntity
  8
0
100
AcDbCircle
 62
7
  6
CONTINUOUS
 10
22.7485627981
 20
17.5427479335
 40
0.4751885725
100
AcDbArc
 50
333.7488675992
 51
29.363461448
  0
ARC
  5
350
100
AcDbEntity
  8
0
100
AcDbCircle
 62
7
  6
CONTINUOUS
 10
22.7324527946
 20
17.5571212437
 40
0.4751177465
100
AcDbArc
 50
228.9293419671
 51
231.6350946471
  0
ARC
  5
351
100
AcDbEntity
  8
0
100
AcDbCircle
 62
7
  6
CONTINUOUS
 10
22.7481687719
 20
17.5440948333
 40
0.4748715484
100
AcDbArc
 50
74.7684833795
 51
80.4782763916
  0
ARC
  5
352
100
AcDbEntity
  8
0
100
AcDbCircle
 62
7
  6
CONTINUOUS
 10
22.7491663458
 20
17.5462001489
 40
0.4747959206
100
AcDbArc
 50
69.1873686674
 51
71.0129154153
  0
ARC
  5
353
100
AcDbEntity
  8
0
100
AcDbCircle
 62
7
  6
CONTINUOUS
 10
22.7506578605
 20
17.5450849758
 40
0.4747493743
100
AcDbArc
 50
33.2597669056
 51
35.8189174796
  0
ARC
  5
354
100
AcDbEntity
  8
0
100
AcDbCircle
 62
7
  6
CONTINUOUS
 10
22.7473956869
 20
17.5441003457
 40
0.4745669604
100
AcDbArc
 50
126.6546491119
 51
130.0694810607
  0
ARC
  5
355
100
AcDbEntity
  8
0
100
AcDbCircle
 62
7
  6
CONTINUOUS
 10
22.7458786202
 20
17.5413597016
 40
0.4741033186
100
AcDbArc
 50
232.4887795666
 51
236.4467835312
  0
ARC
  5
356
100
AcDbEntity
  8
0
100
AcDbCircle
 62
7
  6
CONTINUOUS
 10
22.7519160496
 20
17.5532549853
 40
0.4738945816
100
AcDbArc
 50
71.1646918003
 51
71.8345966708
  0
ARC
  5
357
100
AcDbEntity
  8
0
100
AcDbCircle
 62
7
  6
CONTINUOUS
 10
22.747747949
 20
17.5453509445
 40
0.4735946006
100
AcDbArc
 50
95.7081893794
 51
100.1173644265
  0
ARC
  5
358
100
AcDbEntity
  8
0
100
AcDbCircle
 62
7
  6
CONTINUOUS
 10
22.7495945879
 20
17.5474320834
 40
0.4734916825
100
AcDbArc
 50
71.0134147103
 51
71.7818676997
  0
ARC
  5
359
100
AcDbEntity
  8
0
100
AcDbCircle
 62
7
  6
CONTINUOUS
 10
22.7462087139
 20
17.5404419596
 40
0.4734398803
100
AcDbArc
 50
249.5634344124
 51
253.4654187969
  0
ARC
  5
35A
100
AcDbEntity
  8
0
100
AcDbCircle
 62
7
  6
CONTINUOUS
 10
22.7383201678
 20
17.5803379267
 40
0.4734304336
100
AcDbArc
 50
278.7491429832
 51
283.3272031182
  0
ARC
  5
35B
100
AcDbEntity
  8
0
100
AcDbCircle
 62
7
  6
CONTINUOUS
 10
22.7490535756
 20
17.5453320034
 40
0.4734091793
100
AcDbArc
 50
63.510234208
 51
65.5620406649
  0
ARC
  5
35C
100
AcDbEntity
  8
0
100
AcDbCircle
 62
7
  6
CONTINUOUS
 10
22.7501100598
 20
17.5443729914
 40
0.4733697398
100
AcDbArc
 50
29.3828854254
 51
31.076195874
  0
ARC
  5
35D
100
AcDbEntity
  8
0
100
AcDbCircle
 62
7
  6
CONTINUOUS
 10
22.749689738
 20
17.5449741594
 40
0.4733346884
100
AcDbArc
 50
44.0794695393
 51
48.3403024156
  0
ARC
  5
35E
100
AcDbEntity
  8
0
100
AcDbCircle
 62
7
  6
CONTINUOUS
 10
22.748494907
 20
17.5456504323
 40
0.4732834356
100
AcDbArc
 50
80.4860620548
 51
82.8215245765
  0
ARC
  5
35F
100
AcDbEntity
  8
0
100
AcDbCircle
 62
7
  6
CONTINUOUS
 10
22.7316181783
 20
17.5553942751
 40
0.4732414639
100
AcDbArc
 50
232.2342493985
 51
246.3213452857
  0
ARC
  5
360
100
AcDbEntity
  8
0
100
AcDbCircle
 62
7
  6
CONTINUOUS
 10
22.7472368084
 20
17.5456579043
 40
0.4731612628
100
AcDbArc
 50
109.3850918485
 51
117.5155972393
  0
ARC
  5
361
100
AcDbEntity
  8
0
100
AcDbCircle
 62
7
  6
CONTINUOUS
 10
22.750017379
 20
17.5411729393
 40
0.4731222451
100
AcDbArc
 50
320.1145280221
 51
321.712727673
  0
ARC
  5
362
100
AcDbEntity
  8
0
100
AcDbCircle
 62
7
  6
CONTINUOUS
 10
22.7572897304
 20
17.5360037585
 40
0.4730994632
100
AcDbArc
 50
320.3645674077
 51
323.9597866392
  0
ARC
  5
363
100
AcDbEntity
  8
0
100
AcDbCircle
 62
7
  6
CONTINUOUS
 10
22.7315272732
 20
17.53259602
 40
0.4729998876
100
AcDbArc
 50
125.3333168761
 51
127.9291457334
  0
ARC
  5
364
100
AcDbEntity
  8
0
100
AcDbCircle
 62
7
  6
CONTINUOUS
 10
22.7437370247
 20
17.5313527289
 40
0.472924805
100
AcDbArc
 50
252.5077908195
 51
256.3839814168
  0
ARC
  5
365
100
AcDbEntity
  8
0
100
AcDbCircle
 62
7
  6
CONTINUOUS
 10
22.7480622224
 20
17.5484615419
 40
0.4727349285
100
AcDbArc
 50
87.0717808314
 51
90.0411706211
  0
ARC
  5
366
100
AcDbEntity
  8
0
100
AcDbCircle
 62
7
  6
CONTINUOUS
 10
22.733529816
 20
17.5430810087
 40
0.4718883681
100
AcDbArc
 50
182.8768700905
 51
183.5848356241
  0
ARC
  5
367
100
AcDbEntity
  8
0
100
AcDbCircle
 62
7
  6
CONTINUOUS
 10
22.7363920154
 20
17.535075115
 40
0.4717868976
100
AcDbArc
 50
217.0889138037
 51
220.3966049256
  0
ARC
  5
368
100
AcDbEntity
  8
0
100
AcDbCircle
 62
7
  6
CONTINUOUS
 10
22.7590969591
 20
17.5506901435
 40
0.4712919199
100
AcDbArc
 50
34.1984621804
 51
35.8847974872
  0
ARC
  5
369
100
AcDbEntity
  8
0
100
AcDbCircle
 62
7
  6
CONTINUOUS
 10
22.7620139378
 20
17.5428057865
 40
0.4706928747
100
AcDbArc
 50
357.5739140397
 51
359.918951126
  0
ARC
  5
36A
100
AcDbEntity
  8
0
100
AcDbCircle
 62
7
  6
CONTINUOUS
 10
22.7299167125
 20
17.5346748128
 40
0.4703702052
100
AcDbArc
 50
127.9300521856
 51
129.3495506198
  0
ARC
  5
36B
100
AcDbEntity
  8
0
100
AcDbCircle
 62
7
  6
CONTINUOUS
 10
22.7414171703
 20
17.5371069741
 40
0.4702164802
100
AcDbArc
 50
231.8588451817
 51
234.6487057946
  0
ARC
  5
36C
100
AcDbEntity
  8
0
100
AcDbCircle
 62
7
  6
CONTINUOUS
 10
22.7167807795
 20
17.5541928188
 40
0.4701153861
100
AcDbArc
 50
337.2333576436
 51
342.6044621208
  0
ARC
  5
36D
100
AcDbEntity
  8
0
100
AcDbCircle
 62
7
  6
CONTINUOUS
 10
22.7445370489
 20
17.5475299309
 40
0.47010227
100
AcDbArc
 50
130.0719266126
 51
131.7219549206
  0
ARC
  5
36E
100
AcDbEntity
  8
0
100
AcDbCircle
 62
7
  6
CONTINUOUS
 10
22.7601305815
 20
17.5514087103
 40
0.470033137
100
AcDbArc
 50
33.1545530501
 51
34.1968330812
  0
ARC
  5
36F
100
AcDbEntity
  8
0
100
AcDbCircle
 62
7
  6
CONTINUOUS
 10
22.7436423625
 20
17.5396491102
 40
0.4697192888
100
AcDbArc
 50
224.6948764467
 51
226.4994286331
  0
ARC
  5
370
100
AcDbEntity
  8
0
100
AcDbCircle
 62
7
  6
CONTINUOUS
 10
22.729483632
 20
17.536546366
 40
0.4685956931
100
AcDbArc
 50
97.545311891
 51
125.4088079596
  0
ARC
  5
371
100
AcDbEntity
  8
0
100
AcDbCircle
 62
7
  6
CONTINUOUS
 10
22.7398081284
 20
17.5743464548
 40
0.4672573271
100
AcDbArc
 50
283.3190139166
 51
292.4164036087
  0
ARC
  5
372
100
AcDbEntity
  8
0
100
AcDbCircle
 62
7
  6
CONTINUOUS
 10
22.7281885637
 20
17.5483150611
 40
0.4653809722
100
AcDbArc
 50
246.358012141
 51
264.4024161293
  0
ARC
  5
373
100
AcDbEntity
  8
0
100
AcDbCircle
 62
7
  6
CONTINUOUS
 10
22.7381114894
 20
17.5328761416
 40
0.4648473744
100
AcDbArc
 50
229.8636707883
 51
231.8572334801
  0
ARC
  5
374
100
AcDbEntity
  8
0
100
AcDbCircle
 62
7
  6
CONTINUOUS
 10
22.7205851723
 20
17.5489089354
 40
0.4632456959
100
AcDbArc
 50
343.7367169256
 51
345.2628264721
  0
ARC
  5
375
100
AcDbEntity
  8
0
100
AcDbCircle
 62
7
  6
CONTINUOUS
 10
22.7467429345
 20
17.5270889464
 40
0.462509754
100
AcDbArc
 50
268.275335067
 51
270.1213661593
  0
ARC
  5
376
100
AcDbEntity
  8
0
100
AcDbCircle
 62
7
  6
CONTINUOUS
 10
22.7361766863
 20
17.5305616416
 40
0.4618307191
100
AcDbArc
 50
229.294885784
 51
229.8620871795
  0
ARC
  5
377
100
AcDbEntity
  8
0
100
AcDbCircle
 62
7
  6
CONTINUOUS
 10
22.7275788651
 20
17.5435634418
 40
0.4605925627
100
AcDbArc
 50
264.420243773
 51
282.4605029821
  0
ARC
  5
378
100
AcDbEntity
  8
0
100
AcDbCircle
 62
7
  6
CONTINUOUS
 10
22.7428529125
 20
17.5664469229
 40
0.4587936681
100
AcDbArc
 50
292.4410878034
 51
294.4265301204
  0
ARC
  5
379
100
AcDbEntity
  8
0
100
AcDbCircle
 62
7
  6
CONTINUOUS
 10
22.743773439
 20
17.5643999544
 40
0.4565492575
100
AcDbArc
 50
294.4275770885
 51
295.1861685774
  0
ARC
  5
37A
100
AcDbEntity
  8
0
100
AcDbCircle
 62
7
  6
CONTINUOUS
 10
22.7444294218
 20
17.5630086099
 40
0.4550110277
100
AcDbArc
 50
295.1859776026
 51
296.2489154849
  0
ARC
  5
37B
100
AcDbEntity
  8
0
100
AcDbCircle
 62
7
  6
CONTINUOUS
 10
22.7346566178
 20
17.5483747636
 40
0.4513177683
100
AcDbArc
 50
342.6308278038
 51
344.1014723555
  0
ARC
  5
37C
100
AcDbEntity
  8
0
100
AcDbCircle
 62
7
  6
CONTINUOUS
 10
22.7320198912
 20
17.5449551265
 40
0.4511616575
100
AcDbArc
 50
331.5928472673
 51
343.8120619688
  0
ARC
  5
37D
100
AcDbEntity
  8
0
100
AcDbCircle
 62
7
  6
CONTINUOUS
 10
22.7477107693
 20
17.5565263104
 40
0.447745935
100
AcDbArc
 50
296.239184923
 51
300.6729889255
  0
ARC
  5
37E
100
AcDbEntity
  8
0
100
AcDbCircle
 62
7
  6
CONTINUOUS
 10
22.7346414522
 20
17.5587858598
 40
0.4450189089
100
AcDbArc
 50
16.7671388343
 51
31.3155298119
  0
ARC
  5
37F
100
AcDbEntity
  8
0
100
AcDbCircle
 62
7
  6
CONTINUOUS
 10
22.7387973811
 20
17.5480460486
 40
0.4450020525
100
AcDbArc
 50
0.6655772791
 51
2.3392429916
  0
ARC
  5
380
100
AcDbEntity
  8
0
100
AcDbCircle
 62
7
  6
CONTINUOUS
 10
22.7352068728
 20
17.5582278991
 40
0.4448386575
100
AcDbArc
 50
32.6953180102
 51
48.9842725865
  0
ARC
  5
381
100
AcDbEntity
  8
0
100
AcDbCircle
 62
7
  6
CONTINUOUS
 10
22.7345513579
 20
17.5280382076
 40
0.4431937287
100
AcDbArc
 50
318.9239998932
 51
329.8307295486
  0
ARC
  5
382
100
AcDbEntity
  8
0
100
AcDbCircle
 62
7
  6
CONTINUOUS
 10
22.7437581428
 20
17.5423447492
 40
0.4414419176
100
AcDbArc
 50
9.0442287732
 51
10.9369930229
  0
ARC
  5
383
100
AcDbEntity
  8
0
100
AcDbCircle
 62
7
  6
CONTINUOUS
 10
22.7449687599
 20
17.5425182133
 40
0.4402190842
100
AcDbArc
 50
2.0339110414
 51
9.0467013788
  0
ARC
  5
384
100
AcDbEntity
  8
0
100
AcDbCircle
 62
7
  6
CONTINUOUS
 10
22.7459943
 20
17.5428109424
 40
0.4391579277
100
AcDbArc
 50
10.9326274915
 51
16.6701253931
  0
ARC
  5
385
100
AcDbEntity
  8
0
100
AcDbCircle
 62
7
  6
CONTINUOUS
 10
22.7430295826
 20
17.5395320816
 40
0.4388902728
100
AcDbArc
 50
330.6340194234
 51
334.7744058334
  0
ARC
  5
386
100
AcDbEntity
  8
0
100
AcDbCircle
 62
7
  6
CONTINUOUS
 10
22.7441772899
 20
17.5386624464
 40
0.4374745698
100
AcDbArc
 50
330.6602503015
 51
331.5602732444
  0
ARC
  5
387
100
AcDbEntity
  8
0
100
AcDbCircle
 62
7
  6
CONTINUOUS
 10
22.7477714296
 20
17.5426856914
 40
0.4374122415
100
AcDbArc
 50
1.0603704766
 51
2.0250165543
  0
ARC
  5
388
100
AcDbEntity
  8
0
100
AcDbCircle
 62
7
  6
CONTINUOUS
 10
22.7414625519
 20
17.5627745044
 40
0.4371184417
100
AcDbArc
 50
31.3335790503
 51
32.6367167313
  0
ARC
  5
389
100
AcDbEntity
  8
0
100
AcDbCircle
 62
7
  6
CONTINUOUS
 10
22.7405303392
 20
17.5248125712
 40
0.4364060347
100
AcDbArc
 50
329.8095874409
 51
336.7947655524
  0
ARC
  5
38A
100
AcDbEntity
  8
0
100
AcDbCircle
 62
7
  6
CONTINUOUS
 10
22.746152361
 20
17.5378094244
 40
0.4353239888
100
AcDbArc
 50
329.8389848844
 51
330.6300625931
  0
ARC
  5
38B
100
AcDbEntity
  8
0
100
AcDbCircle
 62
7
  6
CONTINUOUS
 10
22.7505699124
 20
17.5441202568
 40
0.4343990309
100
AcDbArc
 50
16.6778121019
 51
17.8693772723
  0
ARC
  5
38C
100
AcDbEntity
  8
0
100
AcDbCircle
 62
7
  6
CONTINUOUS
 10
22.7519491382
 20
17.5426833106
 40
0.4332352997
100
AcDbArc
 50
352.7276118894
 51
1.0709098985
  0
ARC
  5
38D
100
AcDbEntity
  8
0
100
AcDbCircle
 62
7
  6
CONTINUOUS
 10
22.7487401712
 20
17.5360667266
 40
0.4322251023
100
AcDbArc
 50
327.9632181809
 51
330.6638309472
  0
ARC
  5
38E
100
AcDbEntity
  8
0
100
AcDbCircle
 62
7
  6
CONTINUOUS
 10
22.7528107693
 20
17.5448442407
 40
0.4320441232
100
AcDbArc
 50
17.8691842541
 51
19.2332802958
  0
ARC
  5
38F
100
AcDbEntity
  8
0
100
AcDbCircle
 62
7
  6
CONTINUOUS
 10
22.7548083814
 20
17.542874319
 40
0.4304301429
100
AcDbArc
 50
344.0708271335
 51
351.583774696
  0
ARC
  5
390
100
AcDbEntity
  8
0
100
AcDbCircle
 62
7
  6
CONTINUOUS
 10
22.7589546376
 20
17.5419497498
 40
0.4261933264
100
AcDbArc
 50
351.625147853
 51
352.7062173851
  0
ARC
  5
391
100
AcDbEntity
  8
0
100
AcDbCircle
 62
7
  6
CONTINUOUS
 10
22.7548885755
 20
17.5322367194
 40
0.4249813734
100
AcDbArc
 50
325.9415041733
 51
327.9612258563
  0
ARC
  5
392
100
AcDbEntity
  8
0
100
AcDbCircle
 62
7
  6
CONTINUOUS
 10
22.7602226114
 20
17.5361351615
 40
0.4238250456
100
AcDbArc
 50
300.6244490417
 51
310.295647276
  0
ARC
  5
393
100
AcDbEntity
  8
0
100
AcDbCircle
 62
7
  6
CONTINUOUS
 10
22.7567826471
 20
17.5312708804
 40
0.4228478074
100
AcDbArc
 50
320.7960882376
 51
329.8813071487
  0
ARC
  5
394
100
AcDbEntity
  8
0
100
AcDbCircle
 62
7
  6
CONTINUOUS
 10
22.7591719712
 20
17.5293552441
 40
0.4198189863
100
AcDbArc
 50
324.6781206853
 51
325.9399123348
  0
ARC
  5
395
100
AcDbEntity
  8
0
100
AcDbCircle
 62
7
  6
CONTINUOUS
 10
22.7725036846
 20
17.5437664172
 40
0.4150321698
100
AcDbArc
 50
346.5857904949
 51
351.0994404882
  0
ARC
  5
396
100
AcDbEntity
  8
0
100
AcDbCircle
 62
7
  6
CONTINUOUS
 10
22.7726367393
 20
17.5188146927
 40
0.4026892843
100
AcDbArc
 50
318.3439502976
 51
320.7436181439
  0
ARC
  5
397
100
AcDbEntity
  8
0
100
AcDbCircle
 62
7
  6
CONTINUOUS
 10
22.7830681281
 20
17.5554768441
 40
0.3999738144
100
AcDbArc
 50
16.8488043373
 51
17.9280772718
  0
ARC
  5
398
100
AcDbEntity
  8
0
100
AcDbCircle
 62
7
  6
CONTINUOUS
 10
22.7879956395
 20
17.5413316969
 40
0.3993500637
100
AcDbArc
 50
351.1006580625
 51
355.7469792007
  0
ARC
  5
399
100
AcDbEntity
  8
0
100
AcDbCircle
 62
7
  6
CONTINUOUS
 10
22.7860766195
 20
17.5564519854
 40
0.3968112334
100
AcDbArc
 50
17.9278304456
 51
19.2330512752
  0
ARC
  5
39A
100
AcDbEntity
  8
0
100
AcDbCircle
 62
7
  6
CONTINUOUS
 10
22.7909124059
 20
17.5407690891
 40
0.3964032248
100
AcDbArc
 50
356.9409200984
 51
1.4573418238
  0
ARC
  5
39B
100
AcDbEntity
  8
0
100
AcDbCircle
 62
7
  6
CONTINUOUS
 10
22.7774867253
 20
17.514536739
 40
0.396222253
100
AcDbArc
 50
317.39655765
 51
318.3400006017
  0
ARC
  5
39C
100
AcDbEntity
  8
0
100
AcDbCircle
 62
7
  6
CONTINUOUS
 10
22.7780778684
 20
17.5144426928
 40
0.3957324709
100
AcDbArc
 50
310.3551092316
 51
315.3748031145
  0
ARC
  5
39D
100
AcDbEntity
  8
0
100
AcDbCircle
 62
7
  6
CONTINUOUS
 10
22.7816922059
 20
17.5106456759
 40
0.3904928433
100
AcDbArc
 50
315.3987859994
 51
317.399091221
  0
ARC
  5
39E
100
AcDbEntity
  8
0
100
AcDbCircle
 62
7
  6
CONTINUOUS
 10
22.7974346007
 20
17.5405264159
 40
0.3898773879
100
AcDbArc
 50
355.7621247473
 51
356.9253816212
  0
CIRCLE
  5
39F
100
AcDbEntity
  8
0
100
AcDbCircle
 62
7
  6
CONTINUOUS
 10
22.7477226788
 20
17.5434381
 40
0.375
  0
SPLINE
  5
3A0
100
AcDbEntity
  8
0
100
AcDbSpline
 62
7
  6
CONTINUOUS
 70
0
 71
3
 72
9
 73
5
 74
3
 42
0.0000001
 43
0.0000001
 44
0.0000000001
 12
-0.18691893
 22
-0.2143565678
 32
0.0
 13
-0.277657304
 23
-0.0615942048
 33
0.0
 40
0.0
 40
0.0
 40
0.0
 40
0.0
 40
0.4999803107
 40
1.0
 40
1.0
 40
1.0
 40
1.0
 10
23.0686479359
 20
17.2368335411
 30
0.0
 10
23.0374960076
 20
17.2011088534
 30
0.0
 10
22.9631386935
 20
17.1393664879
 30
0.0
 10
22.8732373729
 20
17.1040862519
 30
0.0
 10
22.8269593333
 20
17.0938201469
 30
0.0
 11
23.0686479359
 21
17.2368335411
 31
0.0
 11
22.959255926
 21
17.1459839306
 31
0.0
 11
22.8269593333
 21
17.0938201469
 31
0.0
  0
SPLINE
  5
3A1
100
AcDbEntity
  8
0
100
AcDbSpline
 62
7
  6
CONTINUOUS
 70
0
 71
3
 72
9
 73
5
 74
3
 42
0.0000001
 43
0.0000001
 44
0.0000000001
 12
0.0313651446
 22
0.119239444
 32
0.0
 13
-0.0014349575
 23
0.1232872994
 33
0.0
 40
0.0
 40
0.0
 40
0.0
 40
0.0
 40
0.2503206489
 40
1.0
 40
1.0
 40
1.0
 40
1.0
 10
23.1685914334
 20
17.4310659683
 30
0.0
 10
23.1712085478
 20
17.4410153333
 30
0.0
 10
23.1803416844
 20
17.4810964934
 30
0.0
 10
23.1841279948
 20
17.5224066578
 30
0.0
 10
23.1837694088
 20
17.5532153053
 30
0.0
 11
23.1685914334
 21
17.4310659683
 31
0.0
 11
23.1754459388
 21
17.4611586273
 31
0.0
 11
23.1837694088
 21
17.5532153053
 31
0.0
  0
SPLINE
  5
3A2
100
AcDbEntity
  8
0
100
AcDbSpline
 62
7
  6
CONTINUOUS
 70
0
 71
3
 72
9
 73
5
 74
3
 42
0.0000001
 43
0.0000001
 44
0.0000000001
 12
-0.0043621585
 22
0.1067223861
 32
0.0
 13
-0.0309601541
 23
0.1022260484
 33
0.0
 40
0.0
 40
0.0
 40
0.0
 40
0.0
 40
0.2504767303
 40
1.0
 40
1.0
 40
1.0
 40
1.0
 10
23.1834286016
 20
17.5662093194
 30
0.0
 10
23.1830643952
 20
17.5751198108
 30
0.0
 10
23.1805403658
 20
17.6106393535
 30
0.0
 10
23.1736073668
 20
17.6458678402
 30
0.0
 10
23.1658722481
 20
17.6714081076
 30
0.0
 11
23.1834286016
 21
17.5662093194
 31
0.0
 11
23.1815233614
 21
17.5928951882
 31
0.0
 11
23.1658722481
 21
17.6714081076
 31
0.0
  0
SPLINE
  5
3A3
100
AcDbEntity
  8
0
100
AcDbSpline
 62
7
  6
CONTINUOUS
 70
0
 71
3
 72
11
 73
7
 74
5
 42
0.0000001
 43
0.0000001
 44
0.0000000001
 12
0.3822740563
 22
0.0503033222
 32
0.0
 13
0.2908925733
 23
-0.2530719052
 33
0.0
 40
0.0
 40
0.0
 40
0.0
 40
0.0
 40
0.250007191
 40
0.5000132936
 40
0.7500058241
 40
1.0
 40
1.0
 40
1.0
 40
1.0
 10
22.6679522251
 20
18.0010846417
 30
0.0
 10
22.6998093128
 20
18.0052767058
 30
0.0
 10
22.7645998615
 20
18.0070291946
 30
0.0
 10
22.860064031
 20
17.9893572121
 30
0.0
 10
22.9496981176
 20
17.9520309881
 30
0.0
 10
23.0028989511
 20
17.9149606082
 30
0.0
 10
23.0271394341
 20
17.8938717741
 30
0.0
 11
22.6679522251
 21
18.0010846417
 31
0.0
 11
22.7643133585
 21
18.0036456756
 31
0.0
 11
22.8590942947
 21
17.986080934
 31
0.0
 11
22.9480593796
 21
17.9489844266
 31
0.0
 11
23.0271394341
 21
17.8938717741
 31
0.0
  0
SPLINE
  5
3A4
100
AcDbEntity
  8
0
100
AcDbSpline
 62
7
  6
CONTINUOUS
 70
0
 71
3
 72
9
 73
5
 74
3
 42
0.0000001
 43
0.0000001
 44
0.0000000001
 12
0.1132385333
 22
-0.0323718664
 32
0.0
 13
0.1177213477
 23
-0.003547881
 33
0.0
 40
0.0
 40
0.0
 40
0.0
 40
0.0
 40
0.2504183942
 40
1.0
 40
1.0
 40
1.0
 40
1.0
 10
22.616634841
 20
17.0829979859
 30
0.0
 10
22.6260871782
 20
17.0802958156
 30
0.0
 10
22.6641494359
 20
17.0706493582
 30
0.0
 10
22.7034090741
 20
17.0656751863
 30
0.0
 10
22.732822993
 20
17.0647887108
 30
0.0
 11
22.616634841
 21
17.0829979859
 31
0.0
 11
22.6452252441
 21
17.0757575109
 31
0.0
 11
22.732822993
 21
17.0647887108
 31
0.0
  0
SPLINE
  5
3A5
100
AcDbEntity
  8
0
100
AcDbSpline
 62
7
  6
CONTINUOUS
 70
0
 71
3
 72
12
 73
8
 74
6
 42
0.0000001
 43
0.0000001
 44
0.0000000001
 12
0.4262587596
 22
0.0004238447
 32
0.0
 13
0.2718847484
 23
0.3282916286
 33
0.0
 40
0.0
 40
0.0
 40
0.0
 40
0.0
 40
0.2500245791
 40
0.3751094425
 40
0.5001913715
 40
0.7501494018
 40
1.0
 40
1.0
 40
1.0
 40
1.0
 10
22.7477224831
 20
17.0580891108
 30
0.0
 10
22.7832475387
 20
17.0581244347
 30
0.0
 10
22.8367835161
 20
17.0639589419
 30
0.0
 10
22.9053039794
 20
17.0832367539
 30
0.0
 10
22.9712262068
 20
17.1101419705
 30
0.0
 10
23.0474331338
 20
17.1570861932
 30
0.0
 10
23.0989890476
 20
17.2068721516
 30
0.0
 10
23.1216325699
 20
17.2342134382
 30
0.0
 11
22.7477224831
 21
17.0580891108
 31
0.0
 11
22.8536597127
 21
17.0697330289
 31
0.0
 11
22.9049805988
 21
17.0841910336
 31
0.0
 11
22.9543548034
 21
17.1043137021
 31
0.0
 11
23.0450959836
 21
17.1601551742
 31
0.0
 11
23.1216325699
 21
17.2342134382
 31
0.0
  0
SPLINE
  5
3A6
100
AcDbEntity
  8
0
100
AcDbSpline
 62
7
  6
CONTINUOUS
 70
0
 71
3
 72
9
 73
5
 74
3
 42
0.0000001
 43
0.0000001
 44
0.0000000001
 12
0.0002134711
 22
0.1518679553
 32
0.0
 13
-0.0465031141
 23
0.1445731019
 33
0.0
 40
0.0
 40
0.0
 40
0.0
 40
0.0
 40
0.4998439197
 40
1.0
 40
1.0
 40
1.0
 40
1.0
 10
23.2327063416
 20
17.5421399589
 30
0.0
 10
23.232741909
 20
17.5674433835
 30
0.0
 10
23.228733612
 20
17.6181462451
 30
0.0
 10
23.2169223736
 20
17.6676028069
 30
0.0
 10
23.2091694352
 20
17.6917058455
 30
0.0
 11
23.2327063416
 21
17.5421399589
 31
0.0
 11
23.2267853456
 21
17.6178190372
 31
0.0
 11
23.2091694352
 21
17.6917058455
 31
0.0
  0
SPLINE
  5
3A7
100
AcDbEntity
  8
0
100
AcDbSpline
 62
7
  6
CONTINUOUS
 70
0
 71
3
 72
9
 73
5
 74
3
 42
0.0000001
 43
0.0000001
 44
0.0000000001
 12
-0.1201502151
 22
0.089371544
 32
0.0
 13
-0.1417253902
 23
0.0483452256
 33
0.0
 40
0.0
 40
0.0
 40
0.0
 40
0.0
 40
0.5002215063
 40
1.0
 40
1.0
 40
1.0
 40
1.0
 10
23.0369481945
 20
17.9320942545
 30
0.0
 10
23.0169142873
 20
17.9469961106
 30
0.0
 10
22.9745414742
 20
17.9737887333
 30
0.0
 10
22.9285228759
 20
17.9937187743
 30
0.0
 10
22.9049124419
 20
18.0017727423
 30
0.0
 11
23.0369481945
 21
17.9320942545
 31
0.0
 11
22.9736104485
 21
17.9720834369
 31
0.0
 11
22.9049124419
 21
18.0017727423
 31
0.0
  0
SPLINE
  5
3A8
100
AcDbEntity
  8
0
100
AcDbSpline
 62
7
  6
CONTINUOUS
 70
0
 71
3
 72
9
 73
5
 74
3
 42
0.0000001
 43
0.0000001
 44
0.0000000001
 12
0.0073029183
 22
-0.125006864
 32
0.0
 13
0.0386983567
 23
-0.1190902425
 33
0.0
 40
0.0
 40
0.0
 40
0.0
 40
0.0
 40
0.2503907909
 40
1.0
 40
1.0
 40
1.0
 40
1.0
 10
22.2582220834
 20
17.5148844052
 30
0.0
 10
22.2588316112
 20
17.5044508827
 30
0.0
 10
22.2625710915
 20
17.4628698848
 30
0.0
 10
22.2715867698
 20
17.4217518654
 30
0.0
 10
22.281256318
 20
17.3919948179
 30
0.0
 11
22.2582220834
 21
17.5148844052
 31
0.0
 11
22.2610350682
 21
17.4836569115
 31
0.0
 11
22.281256318
 21
17.3919948179
 31
0.0
  0
SPLINE
  5
3A9
100
AcDbEntity
  8
0
100
AcDbSpline
 62
7
  6
CONTINUOUS
 70
0
 71
3
 72
9
 73
5
 74
3
 42
0.0000001
 43
0.0000001
 44
0.0000000001
 12
0.1436598436
 22
-0.0456135208
 32
0.0
 13
0.1507272839
 23
0.0001726986
 33
0.0
 40
0.0
 40
0.0
 40
0.0
 40
0.0
 40
0.500222492
 40
1.0
 40
1.0
 40
1.0
 40
1.0
 10
22.5992332801
 20
17.0765823865
 30
0.0
 10
22.6231872418
 20
17.0689767502
 30
0.0
 10
22.6722932209
 20
17.0573717166
 30
0.0
 10
22.7226126387
 20
17.0534195421
 30
0.0
 10
22.7477226742
 20
17.0534483124
 30
0.0
 11
22.5992332801
 21
17.0765823865
 31
0.0
 11
22.672618702
 21
17.0592814704
 31
0.0
 11
22.7477226742
 21
17.0534483124
 31
0.0
  0
ENDSEC
  0
SECTION
  2
OBJECTS
  0
DICTIONARY
  5
C
100
AcDbDictionary
280
0
281
1
  3
ACAD_GROUP
350
D
  3
ACAD_MLINESTYLE
350
17
  3
ACAD_LAYOUT
350
1A
  3
ACAD_PLOTSETTINGS
350
19
  3
ACAD_PLOTSTYLENAME
350
E
  0
DICTIONARY
  5
D
102
{ACAD_REACTORS
330
C
102
}
100
AcDbDictionary
280
0
281
1
  0
ACDBDICTIONARYWDFLT
  5
E
102
{ACAD_REACTORS
330
C
102
}
100
AcDbDictionary
281
1
  3
Normal
350
F
100
AcDbDictionaryWithDefault
340
F
  0
DICTIONARY
  5
17
102
{ACAD_REACTORS
330
C
102
}
100
AcDbDictionary
280
0
281
1
  3
Standard
350
18
  0
DICTIONARY
  5
19
102
{ACAD_REACTORS
330
C
102
}
100
AcDbDictionary
281
1
  0
DICTIONARY
  5
1A
102
{ACAD_REACTORS
330
C
102
}
100
AcDbDictionary
281
1
  3
Model
350
3AA
  3
Layout1
350
3AB
  0
ACDBPLACEHOLDER
  5
F
102
{ACAD_REACTORS
330
E
102
}
  0
MLINESTYLE
  5
18
102
{ACAD_REACTORS
330
17
102
}
100
AcDbMlineStyle
  2
STANDARD
 70
0
  3

 62
256
 51
90.0
 52
90.0
 71
2
 49
0.5
 62
256
  6
BYLAYER
 49
-0.5
 62
256
  6
BYLAYER
  0
LAYOUT
  5
3AA
102
{ACAD_REACTORS
330
1A
102
}
100
AcDbPlotSettings
  1

  2
none_device
  4
ISO_A0_(1189.00_x_841.00_MM)
  6

 40
0.0
 41
0.0
 42
0.0
 43
0.0
 44
1189.0
 45
841.0
 46
0.0
 47
0.0
 48
0.0
 49
0.0
140
0.0
141
0.0
142
1.0
143
1.0
 70
1024
 72
0
 73
0
 74
0
  7

 75
0
147
1.0
148
0.0
149
0.0
100
AcDbLayout
  1
Model
 70
0
 71
0
 10
0.0
 20
0.0
 11
46.811023622
 21
33.1102362205
 12
0.0
 22
0.0
 32
0.0
 14
0.0
 24
0.0
 34
0.0
 15
0.0
 25
0.0
 35
0.0
146
0.0
 13
0.0
 23
0.0
 33
0.0
 16
1.0
 26
0.0
 36
0.0
 17
0.0
 27
1.0
 37
0.0
 76
0
330
20B
345
0
346
0
  0
LAYOUT
  5
3AB
102
{ACAD_REACTORS
330
1A
102
}
100
AcDbPlotSettings
  1

  2
none_device
  4
ISO_A0_(1189.00_x_841.00_MM)
  6

 40
0.0
 41
0.0
 42
0.0
 43
0.0
 44
1189.0
 45
841.0
 46
0.0
 47
0.0
 48
0.0
 49
0.0
140
0.0
141
0.0
142
1.0
143
1.0
 70
0
 72
0
 73
0
 74
0
  7

 75
0
147
1.0
148
0.0
149
0.0
100
AcDbLayout
  1
Layout1
 70
0
 71
1
 10
0.0
 20
0.0
 11
46.811023622
 21
33.1102362205
 12
0.0
 22
0.0
 32
0.0
 14
0.0
 24
0.0
 34
0.0
 15
0.0
 25
0.0
 35
0.0
146
0.0
 13
0.0
 23
0.0
 33
0.0
 16
1.0
 26
0.0
 36
0.0
 17
0.0
 27
1.0
 37
0.0
 76
0
330
20C
345
0
346
0
  0
ENDSEC
  0
EOF
