  0
SECTION
  2
HEADER
  9
$ACADVER
  1
AC1015
  9
$DWGCODEPAGE
  3
ANSI_1252
  9
$EXTMAX
 10
46.811023622
 20
33.1102362205
 30
0.0
  9
$EXTMIN
 10
0.0
 20
0.0
 30
0.0
  9
$LIMMIN
 10
0.0
 20
0.0
  9
$LIMMAX
 10
46.811023622
 20
33.1102362205
  9
$VIEWCTR
 10
23.405511811
 20
16.5551181102
  9
$VIEWSIZE
 40
33.1102362205
  9
$CLAYER
  8
0
  9
$LTSCALE
 40
2.5746062992
  9
$CELTYPE
  6
BYLAYER
  9
$DIMSCALE
 40
1.0
  9
$DIMASZ
 40
0.1
  9
$DIMEXO
 40
0.2925688976
  9
$DIMDLI
 40
1.7788188976
  9
$DIMEXE
 40
0.8425984252
  9
$DIMCEN
 40
0.4212992126
  9
$DIMLFAC
 40
1.0
  9
$DIMBLK
  1
_FILLED
  9
$DIMTXT
 40
0.08
  9
$DIMTOL
 70
1
  9
$DIMLIM
 70
0
  9
$DIMTFAC
 40
1.0
  9
$DIMTP
 40
0.01
  9
$DIMTM
 40
0.01
  9
$PDMODE
 70
3
  9
$PDSIZE
 40
0.06
  9
$HANDSEED
  5
483
  9
$TILEMODE
 70
1
  9
$MEASUREMENT
 70
0
  9
$INSUNITS
 70
1
  0
ENDSEC
  0
SECTION
  2
CLASSES
  0
CLASS
  1
ACDBDICTIONARYWDFLT
  2
AcDbDictionaryWithDefault
  3
AutoCAD 2000
 90
0
280
0
281
0
  0
CLASS
  1
ACDBPLACEHOLDER
  2
AcDbPlaceHolder
  3
AutoCAD 2000
 90
0
280
0
281
0
  0
CLASS
  1
LAYOUT
  2
AcDbLayout
  3
AutoCAD 2000
 90
0
280
0
281
0
  0
ENDSEC
  0
SECTION
  2
TABLES
  0
TABLE
  2
VPORT
  5
8
100
AcDbSymbolTable
 70
2
  0
VPORT
  5
1F4
100
AcDbSymbolTableRecord
100
AcDbViewportTableRecord
  2
*ACTIVE
 70
0
 10
0.0
 20
0.0
 11
1.0
 21
1.0
 12
23.405511811
 22
16.5551181102
 13
0.0
 23
0.0
 14
1.0
 24
1.0
 15
0.0
 25
0.0
 16
0.0
 26
0.0
 36
1.0
 17
0.0
 27
0.0
 37
0.0
 40
33.1102362205
 41
1.4137931034
 42
50.0
 43
0.0
 44
0.0
 50
0.0
 51
0.0
 71
0
 72
100
 73
1
 74
1
 75
0
 76
0
 77
0
 78
0
  0
ENDTAB
  0
TABLE
  2
LTYPE
  5
5
100
AcDbSymbolTable
 70
6
  0
LTYPE
  5
14
100
AcDbSymbolTableRecord
100
AcDbLinetypeTableRecord
  2
BYBLOCK
 70
0
  3

 72
65
 73
0
 40
0.0
  0
LTYPE
  5
15
100
AcDbSymbolTableRecord
100
AcDbLinetypeTableRecord
  2
BYLAYER
 70
0
  3

 72
65
 73
0
 40
0.0
  0
LTYPE
  5
16
100
AcDbSymbolTableRecord
100
AcDbLinetypeTableRecord
  2
CONTINUOUS
 70
64
  3
Solid line
 72
65
 73
0
 40
0.0
  0
LTYPE
  5
1F5
100
AcDbSymbolTableRecord
100
AcDbLinetypeTableRecord
  2
CENTER
 70
64
  3
____ _ ____ _ ____ _ ____ _ ____ _ ____ _ ____
 72
65
 73
4
 40
0.6
 49
0.375
 74
0
 49
-0.075
 74
0
 49
0.075
 74
0
 49
-0.075
 74
0
  0
LTYPE
  5
1F6
100
AcDbSymbolTableRecord
100
AcDbLinetypeTableRecord
  2
HIDDEN
 70
64
  3
- - - - - - - - - - - - - - - - - - - -
 72
65
 73
2
 40
0.2
 49
0.1
 74
0
 49
-0.1
 74
0
  0
LTYPE
  5
1F7
100
AcDbSymbolTableRecord
100
AcDbLinetypeTableRecord
  2
PHANTOM
 70
64
  3
_____ _ _ _____ _ _ _____ _ _ _____
 72
65
 73
6
 40
0.8
 49
0.45
 74
0
 49
-0.05
 74
0
 49
0.1
 74
0
 49
-0.05
 74
0
 49
0.1
 74
0
 49
-0.05
 74
0
  0
LTYPE
  5
1F8
100
AcDbSymbolTableRecord
100
AcDbLinetypeTableRecord
  2
DOT
 70
64
  3
. . . . . . . . . . . . . . . . . . . .
 72
65
 73
2
 40
0.2
 49
0.1
 74
0
 49
-0.1
 74
0
  0
LTYPE
  5
1F9
100
AcDbSymbolTableRecord
100
AcDbLinetypeTableRecord
  2
DASHED
 70
64
  3
- - - - - - - - - - - - - - - - - - - -
 72
65
 73
2
 40
0.2
 49
0.1
 74
0
 49
-0.1
 74
0
  0
ENDTAB
  0
TABLE
  2
LAYER
  5
2
100
AcDbSymbolTable
 70
36
  0
LAYER
  5
10
100
AcDbSymbolTableRecord
100
AcDbLayerTableRecord
  2
0
 70
0
 62
7
  6
CONTINUOUS
370
-3
390
F
  0
LAYER
  5
1FA
100
AcDbSymbolTableRecord
100
AcDbLayerTableRecord
  2
DEFAULT_1
 70
0
 62
7
  6
CENTER
370
-3
390
F
  0
LAYER
  5
1FB
100
AcDbSymbolTableRecord
100
AcDbLayerTableRecord
  2
DEFAULT_2
 70
0
 62
8
  6
HIDDEN
370
-3
390
F
  0
LAYER
  5
1FC
100
AcDbSymbolTableRecord
100
AcDbLayerTableRecord
  2
DEFAULT_3
 70
0
 62
7
  6
PHANTOM
370
-3
390
F
  0
LAYER
  5
1FD
100
AcDbSymbolTableRecord
100
AcDbLayerTableRecord
  2
10325
 70
0
 62
7
  6
CONTINUOUS
370
-3
390
F
  0
LAYER
  5
1FE
100
AcDbSymbolTableRecord
100
AcDbLayerTableRecord
  2
2-221
 70
0
 62
7
  6
CONTINUOUS
370
-3
390
F
  0
LAYER
  5
1FF
100
AcDbSymbolTableRecord
100
AcDbLayerTableRecord
  2
50420-42
 70
0
 62
7
  6
CONTINUOUS
370
-3
390
F
  0
LAYER
  5
200
100
AcDbSymbolTableRecord
100
AcDbLayerTableRecord
  2
91073
 70
0
 62
7
  6
CONTINUOUS
370
-3
390
F
  0
LAYER
  5
201
100
AcDbSymbolTableRecord
100
AcDbLayerTableRecord
  2
ALL_ASSEMBLY_MEMBERS
 70
0
 62
7
  6
CONTINUOUS
370
-3
390
F
  0
LAYER
  5
202
100
AcDbSymbolTableRecord
100
AcDbLayerTableRecord
  2
ALL_ASSEMBLY_MEMBERS_1
 70
0
 62
7
  6
CONTINUOUS
370
-3
390
F
  0
LAYER
  5
203
100
AcDbSymbolTableRecord
100
AcDbLayerTableRecord
  2
DEFAULT_COORDINATE_SYSTEM
 70
0
 62
7
  6
CONTINUOUS
370
-3
390
F
  0
LAYER
  5
204
100
AcDbSymbolTableRecord
100
AcDbLayerTableRecord
  2
DEFAULT_DATUM_AXES
 70
0
 62
7
  6
CONTINUOUS
370
-3
390
F
  0
LAYER
  5
205
100
AcDbSymbolTableRecord
100
AcDbLayerTableRecord
  2
DEFAULT_DATUM_CURVES
 70
0
 62
7
  6
CONTINUOUS
370
-3
390
F
  0
LAYER
  5
206
100
AcDbSymbolTableRecord
100
AcDbLayerTableRecord
  2
DEFAULT_DATUM_PLANES
 70
0
 62
7
  6
CONTINUOUS
370
-3
390
F
  0
LAYER
  5
207
100
AcDbSymbolTableRecord
100
AcDbLayerTableRecord
  2
INTF_10325
 70
0
 62
7
  6
CONTINUOUS
370
-3
390
F
  0
LAYER
  5
208
100
AcDbSymbolTableRecord
100
AcDbLayerTableRecord
  2
INTF_91073
 70
0
 62
7
  6
CONTINUOUS
370
-3
390
F
  0
ENDTAB
  0
TABLE
  2
STYLE
  5
3
100
AcDbSymbolTable
 70
1
  0
STYLE
  5
11
100
AcDbSymbolTableRecord
100
AcDbTextStyleTableRecord
  2
STANDARD
 70
0
 40
0.0
 41
0.8
 50
0.0
 71
0
 42
0.2
  3
txt
  4

  0
STYLE
  5
209
100
AcDbSymbolTableRecord
100
AcDbTextStyleTableRecord
  2
TEXTSTYLE_1
 70
0
 40
0.0
 41
0.8
 50
0.0
 71
0
 42
0.2
  3
gdt
  4

  0
ENDTAB
  0
TABLE
  2
VIEW
  5
6
100
AcDbSymbolTable
 70
0
  0
ENDTAB
  0
TABLE
  2
UCS
  5
7
100
AcDbSymbolTable
 70
0
  0
ENDTAB
  0
TABLE
  2
APPID
  5
9
100
AcDbSymbolTable
 70
1
  0
APPID
  5
20A
100
AcDbSymbolTableRecord
100
AcDbRegAppTableRecord
  2
ACAD
 70
0
  0
ENDTAB
  0
TABLE
  2
BLOCK_RECORD
  5
1
100
AcDbSymbolTable
 70
0
  0
BLOCK_RECORD
  5
20B
100
AcDbSymbolTableRecord
100
AcDbBlockTableRecord
  2
*Model_Space
  0
BLOCK_RECORD
  5
20C
100
AcDbSymbolTableRecord
100
AcDbBlockTableRecord
  2
*Paper_Space
  0
ENDTAB
  0
TABLE
  2
DIMSTYLE
  5
A
100
AcDbSymbolTable
 70
1
100
AcDbDimStyleTable
 71
0
  0
DIMSTYLE
105
20D
100
AcDbSymbolTableRecord
100
AcDbDimStyleTableRecord
  2
STANDARD
 70
0
  3

  4

 40
1.0
 41
0.1
 42
0.0625
 43
0.38
 44
0.18
 45
0.0
 46
0.0
 47
0.01
 48
0.01
140
0.08
141
0.09
142
0.0
143
25.4
144
1.0
145
0.0
146
1.0
147
0.09
 71
1.0
 72
0.0
 73
1
 74
1
 75
0
 76
0
 77
0
 78
4
170
0
171
2
172
0
173
0
174
0
175
0
176
0
177
0
178
0
270
2
271
2
272
2
273
2
274
2
275
0
280
0
281
0
282
0
283
1
284
4
285
0
286
0
287
3
288
0
340
11
  0
ENDTAB
  0
ENDSEC
  0
SECTION
  2
BLOCKS
  0
BLOCK
  5
20
100
AcDbEntity
  8
0
100
AcDbBlockBegin
  2
*Model_Space
 70
0
 10
0.0
 20
0.0
 30
0.0
  3
*Model_Space
  1

  0
ENDBLK
  5
21
100
AcDbEntity
  8
0
100
AcDbBlockEnd
  0
BLOCK
  5
1C
100
AcDbEntity
  8
0
100
AcDbBlockBegin
  2
*Paper_Space
 70
0
 10
0.0
 20
0.0
 30
0.0
  3
*Paper_Space
  1

  0
ENDBLK
  5
1D
100
AcDbEntity
  8
0
100
AcDbBlockEnd
  0
ENDSEC
  0
SECTION
  2
ENTITIES
  0
LINE
  5
20E
100
AcDbEntity
  8
0
100
AcDbLine
 62
7
  6
CONTINUOUS
 10
2.7787901475
 20
17.780094768
 11
2.7787901475
 21
16.8580766012
  0
LINE
  5
20F
100
AcDbEntity
  8
0
100
AcDbLine
 62
7
  6
CONTINUOUS
 10
3.1852703771
 20
17.7676180413
 11
3.1853156997
 21
17.76689075
  0
LINE
  5
210
100
AcDbEntity
  8
0
100
AcDbLine
 62
7
  6
CONTINUOUS
 10
3.5727901475
 20
16.8184875328
 11
3.5727901475
 21
17.8184875328
  0
LINE
  5
211
100
AcDbEntity
  8
0
100
AcDbLine
 62
7
  6
CONTINUOUS
 10
3.2574965877
 20
17.7684202866
 11
3.2574483722
 21
17.7682080576
  0
LINE
  5
212
100
AcDbEntity
  8
0
100
AcDbLine
 62
7
  6
CONTINUOUS
 10
2.7833946022
 20
17.7880691433
 11
2.7787901475
 21
17.780101047
  0
LINE
  5
213
100
AcDbEntity
  8
0
100
AcDbLine
 62
7
  6
CONTINUOUS
 10
2.9294959331
 20
17.7980970643
 11
2.9070298009
 21
17.7592187592
  0
LINE
  5
214
100
AcDbEntity
  8
0
100
AcDbLine
 62
7
  6
CONTINUOUS
 10
3.0008950415
 20
17.8002598348
 11
2.9784434767
 21
17.7614117431
  0
LINE
  5
215
100
AcDbEntity
  8
0
100
AcDbLine
 62
7
  6
CONTINUOUS
 10
3.0687148774
 20
17.7961090617
 11
3.049369924
 21
17.7626451409
  0
LINE
  5
216
100
AcDbEntity
  8
0
100
AcDbLine
 62
7
  6
CONTINUOUS
 10
3.1402010448
 20
17.798403637
 11
3.1198606294
 21
17.7632162229
  0
LINE
  5
217
100
AcDbEntity
  8
0
100
AcDbLine
 62
7
  6
CONTINUOUS
 10
3.2116476133
 20
17.8007611781
 11
3.1908731283
 21
17.7648128524
  0
LINE
  5
218
100
AcDbEntity
  8
0
100
AcDbLine
 62
7
  6
CONTINUOUS
 10
2.8548133026
 20
17.790096001
 11
2.8343743022
 21
17.7547436608
  0
LINE
  5
219
100
AcDbEntity
  8
0
100
AcDbLine
 62
7
  6
CONTINUOUS
 10
2.7989912798
 20
16.882837561
 11
2.8191154111
 21
16.8480287676
  0
LINE
  5
21A
100
AcDbEntity
  8
0
100
AcDbLine
 62
7
  6
CONTINUOUS
 10
3.0123160422
 20
16.8776993184
 11
3.0329921354
 21
16.8419291938
  0
LINE
  5
21B
100
AcDbEntity
  8
0
100
AcDbLine
 62
7
  6
CONTINUOUS
 10
3.0842072352
 20
16.8747672162
 11
3.104443008
 21
16.839763031
  0
LINE
  5
21C
100
AcDbEntity
  8
0
100
AcDbLine
 62
7
  6
CONTINUOUS
 10
2.8706080505
 20
16.8801078148
 11
2.8905497603
 21
16.8455990868
  0
LINE
  5
21D
100
AcDbEntity
  8
0
100
AcDbLine
 62
7
  6
CONTINUOUS
 10
2.9406483822
 20
16.8802450612
 11
2.9614247594
 21
16.8442916668
  0
LINE
  5
21E
100
AcDbEntity
  8
0
100
AcDbLine
 62
7
  6
CONTINUOUS
 10
3.1566138217
 20
16.8708149307
 11
3.1759277001
 21
16.837398967
  0
LINE
  5
21F
100
AcDbEntity
  8
0
100
AcDbLine
 62
7
  6
CONTINUOUS
 10
3.283115512
 20
17.8031243657
 11
3.2620432576
 21
17.7666583287
  0
LINE
  5
220
100
AcDbEntity
  8
0
100
AcDbLine
 62
7
  6
CONTINUOUS
 10
3.2025536719
 20
16.8363457688
 11
3.2206156406
 21
16.8676018755
  0
LINE
  5
221
100
AcDbEntity
  8
0
100
AcDbLine
 62
7
  6
CONTINUOUS
 10
2.7787901475
 20
16.8580649164
 11
2.7927971746
 21
16.882299663
  0
LINE
  5
222
100
AcDbEntity
  8
0
100
AcDbLine
 62
7
  6
CONTINUOUS
 10
3.358103494
 20
17.811383778
 11
3.3338923411
 21
17.7694976503
  0
LINE
  5
223
100
AcDbEntity
  8
0
100
AcDbLine
 62
7
  6
CONTINUOUS
 10
2.8420291442
 20
16.8416809282
 11
2.8644770083
 21
16.8805174002
  0
LINE
  5
224
100
AcDbEntity
  8
0
100
AcDbLine
 62
7
  6
CONTINUOUS
 10
3.4296035026
 20
17.813649319
 11
3.4071265171
 21
17.7747662171
  0
LINE
  5
225
100
AcDbEntity
  8
0
100
AcDbLine
 62
7
  6
CONTINUOUS
 10
2.9166451794
 20
16.8449446621
 11
2.9369370089
 21
16.8800567605
  0
LINE
  5
226
100
AcDbEntity
  8
0
100
AcDbLine
 62
7
  6
CONTINUOUS
 10
3.4978455044
 20
17.8104220452
 11
3.478581372
 21
17.7770898691
  0
LINE
  5
227
100
AcDbEntity
  8
0
100
AcDbLine
 62
7
  6
CONTINUOUS
 10
2.9880478937
 20
16.8427986298
 11
3.0078352348
 21
16.8770286744
  0
LINE
  5
228
100
AcDbEntity
  8
0
100
AcDbLine
 62
7
  6
CONTINUOUS
 10
3.1311214658
 20
16.8386273705
 11
3.1493755935
 21
16.8702079861
  0
LINE
  5
229
100
AcDbEntity
  8
0
100
AcDbLine
 62
7
  6
CONTINUOUS
 10
3.2739401688
 20
16.8341642736
 11
3.2924746158
 21
16.8662319819
  0
LINE
  5
22A
100
AcDbEntity
  8
0
100
AcDbLine
 62
7
  6
CONTINUOUS
 10
3.3419380684
 20
16.8260817057
 11
3.3634658334
 21
16.8633204587
  0
LINE
  5
22B
100
AcDbEntity
  8
0
100
AcDbLine
 62
7
  6
CONTINUOUS
 10
3.4134302763
 20
16.823894107
 11
3.4349131986
 21
16.8610583083
  0
LINE
  5
22C
100
AcDbEntity
  8
0
100
AcDbLine
 62
7
  6
CONTINUOUS
 10
3.4849145619
 20
16.8216447853
 11
3.5063273073
 21
16.8586985235
  0
LINE
  5
22D
100
AcDbEntity
  8
0
100
AcDbLine
 62
7
  6
CONTINUOUS
 10
3.0594704722
 20
16.8405778433
 11
3.0787264411
 21
16.8738849747
  0
LINE
  5
22E
100
AcDbEntity
  8
0
100
AcDbLine
 62
7
  6
CONTINUOUS
 10
2.8290001724
 20
17.754916465
 11
2.8184790037
 21
17.7731186472
  0
LINE
  5
22F
100
AcDbEntity
  8
0
100
AcDbLine
 62
7
  6
CONTINUOUS
 10
3.3713965289
 20
16.8633197121
 11
3.3906624334
 21
16.8299915869
  0
LINE
  5
230
100
AcDbEntity
  8
0
100
AcDbLine
 62
7
  6
CONTINUOUS
 10
3.4428557984
 20
16.8610609034
 11
3.4621201005
 21
16.8277331006
  0
LINE
  5
231
100
AcDbEntity
  8
0
100
AcDbLine
 62
7
  6
CONTINUOUS
 10
3.0430837566
 20
17.7618392902
 11
3.0237586361
 21
17.7952664706
  0
LINE
  5
232
100
AcDbEntity
  8
0
100
AcDbLine
 62
7
  6
CONTINUOUS
 10
3.1154797533
 20
17.7624490679
 11
3.0954199609
 21
17.7971487601
  0
LINE
  5
233
100
AcDbEntity
  8
0
100
AcDbLine
 62
7
  6
CONTINUOUS
 10
3.3292170444
 20
17.7700189025
 11
3.3184419916
 21
17.7886586467
  0
LINE
  5
234
100
AcDbEntity
  8
0
100
AcDbLine
 62
7
  6
CONTINUOUS
 10
3.399191055
 20
17.7747670593
 11
3.389874473
 21
17.7908827215
  0
LINE
  5
235
100
AcDbEntity
  8
0
100
AcDbLine
 62
7
  6
CONTINUOUS
 10
3.2285140221
 20
16.8676626283
 11
3.2473575298
 21
16.83505217
  0
LINE
  5
236
100
AcDbEntity
  8
0
100
AcDbLine
 62
7
  6
CONTINUOUS
 10
3.2998342163
 20
16.865652488
 11
3.318819535
 21
16.8328022153
  0
LINE
  5
237
100
AcDbEntity
  8
0
100
AcDbLine
 62
7
  6
CONTINUOUS
 10
2.8991826063
 20
17.7593749492
 11
2.8809596263
 21
17.7909082512
  0
LINE
  5
238
100
AcDbEntity
  8
0
100
AcDbLine
 62
7
  6
CONTINUOUS
 10
2.9709440535
 20
17.7609233004
 11
2.9523422252
 21
17.793107278
  0
LINE
  5
239
100
AcDbEntity
  8
0
100
AcDbLine
 62
7
  6
CONTINUOUS
 10
3.5143026764
 20
16.8586997006
 11
3.5335633911
 21
16.825368519
  0
LINE
  5
23A
100
AcDbEntity
  8
0
100
AcDbLine
 62
7
  6
CONTINUOUS
 10
3.1870910141
 20
17.7644679761
 11
3.1668126361
 21
17.7995558909
  0
LINE
  5
23B
100
AcDbEntity
  8
0
100
AcDbLine
 62
7
  6
CONTINUOUS
 10
3.2583736042
 20
17.7669028081
 11
3.2382414583
 21
17.8017392932
  0
LINE
  5
23C
100
AcDbEntity
  8
0
100
AcDbLine
 62
7
  6
CONTINUOUS
 10
3.4706267957
 20
17.7770940715
 11
3.4613526477
 21
17.7931399946
  0
LINE
  5
23D
100
AcDbEntity
  8
0
100
AcDbLine
 62
7
  6
CONTINUOUS
 10
2.7870562955
 20
17.7940214572
 11
2.786591683
 21
17.7936033232
  0
LINE
  5
23E
100
AcDbEntity
  8
0
100
AcDbLine
 62
7
  6
CONTINUOUS
 10
2.82277517
 20
16.8418413718
 11
2.8223368226
 21
16.8422094045
  0
LINE
  5
23F
100
AcDbEntity
  8
0
100
AcDbLine
 62
7
  6
CONTINUOUS
 10
2.9656351229
 20
16.8373930229
 11
2.9651772819
 21
16.8377977249
  0
LINE
  5
240
100
AcDbEntity
  8
0
100
AcDbLine
 62
7
  6
CONTINUOUS
 10
3.1084951666
 20
16.8329446711
 11
3.1080385318
 21
16.8333508688
  0
LINE
  5
241
100
AcDbEntity
  8
0
100
AcDbLine
 62
7
  6
CONTINUOUS
 10
3.3942151201
 20
16.8240479717
 11
3.3937562992
 21
16.8244652427
  0
LINE
  5
242
100
AcDbEntity
  8
0
100
AcDbLine
 62
7
  6
CONTINUOUS
 10
3.3227851728
 20
16.8262721453
 11
3.3223181628
 21
16.8267023074
  0
LINE
  5
243
100
AcDbEntity
  8
0
100
AcDbLine
 62
7
  6
CONTINUOUS
 10
3.037065165
 20
16.8351688463
 11
3.0365877497
 21
16.8356101699
  0
LINE
  5
244
100
AcDbEntity
  8
0
100
AcDbLine
 62
7
  6
CONTINUOUS
 10
2.9487254575
 20
17.7990555125
 11
2.9491760467
 21
17.7986913395
  0
LINE
  5
245
100
AcDbEntity
  8
0
100
AcDbLine
 62
7
  6
CONTINUOUS
 10
3.2344454896
 20
17.8079522143
 11
3.2348887638
 21
17.8075931276
  0
LINE
  5
246
100
AcDbEntity
  8
0
100
AcDbLine
 62
7
  6
CONTINUOUS
 10
3.305875457
 20
17.8101763885
 11
3.3063240309
 21
17.8098067351
  0
LINE
  5
247
100
AcDbEntity
  8
0
100
AcDbLine
 62
7
  6
CONTINUOUS
 10
2.8942051577
 20
16.839617197
 11
2.8937719731
 21
16.8399785804
  0
LINE
  5
248
100
AcDbEntity
  8
0
100
AcDbLine
 62
7
  6
CONTINUOUS
 10
3.5370751767
 20
16.8195996195
 11
3.5366573023
 21
16.8199499146
  0
LINE
  5
249
100
AcDbEntity
  8
0
100
AcDbLine
 62
7
  6
CONTINUOUS
 10
2.8058609323
 20
17.7946069787
 11
2.8063431433
 21
17.7942027335
  0
LINE
  5
24A
100
AcDbEntity
  8
0
100
AcDbLine
 62
7
  6
CONTINUOUS
 10
2.8772954444
 20
17.7968313368
 11
2.8777661329
 21
17.796434887
  0
LINE
  5
24B
100
AcDbEntity
  8
0
100
AcDbLine
 62
7
  6
CONTINUOUS
 10
3.1799251207
 20
16.8307204973
 11
3.179494819
 21
16.8310835345
  0
LINE
  5
24C
100
AcDbEntity
  8
0
100
AcDbLine
 62
7
  6
CONTINUOUS
 10
3.0201554917
 20
17.8012796887
 11
3.0206234044
 21
17.8008844951
  0
LINE
  5
24D
100
AcDbEntity
  8
0
100
AcDbLine
 62
7
  6
CONTINUOUS
 10
3.2513551594
 20
16.8284963209
 11
3.2509217973
 21
16.8288660935
  0
LINE
  5
24E
100
AcDbEntity
  8
0
100
AcDbLine
 62
7
  6
CONTINUOUS
 10
3.4656451533
 20
16.8218237954
 11
3.4652149018
 21
16.8221931539
  0
LINE
  5
24F
100
AcDbEntity
  8
0
100
AcDbLine
 62
7
  6
CONTINUOUS
 10
3.3773054473
 20
17.8124005634
 11
3.3777786723
 21
17.8119864283
  0
LINE
  5
250
100
AcDbEntity
  8
0
100
AcDbLine
 62
7
  6
CONTINUOUS
 10
3.1630154521
 20
17.8057280379
 11
3.1634953997
 21
17.805307839
  0
LINE
  5
251
100
AcDbEntity
  8
0
100
AcDbLine
 62
7
  6
CONTINUOUS
 10
3.0915854495
 20
17.8035038626
 11
3.0920747966
 21
17.8030688536
  0
LINE
  5
252
100
AcDbEntity
  8
0
100
AcDbLine
 62
7
  6
CONTINUOUS
 10
3.4487354863
 20
17.8146247398
 11
3.4492162661
 21
17.814195793
  0
LINE
  5
253
100
AcDbEntity
  8
0
100
AcDbLine
 62
7
  6
CONTINUOUS
 10
44.734805125
 20
16.8418413718
 11
44.7159998053
 21
16.841255815
  0
LINE
  5
254
100
AcDbEntity
  8
0
100
AcDbLine
 62
7
  6
CONTINUOUS
 10
44.6633751373
 20
16.839617197
 11
44.6445698399
 21
16.8390316408
  0
LINE
  5
255
100
AcDbEntity
  8
0
100
AcDbLine
 62
7
  6
CONTINUOUS
 10
44.5919451721
 20
16.8373930229
 11
44.5731398028
 21
16.8368074645
  0
LINE
  5
256
100
AcDbEntity
  8
0
100
AcDbLine
 62
7
  6
CONTINUOUS
 10
44.52051513
 20
16.8351688463
 11
44.5017097981
 21
16.8345832891
  0
LINE
  5
257
100
AcDbEntity
  8
0
100
AcDbLine
 62
7
  6
CONTINUOUS
 10
44.4490851284
 20
16.8329446711
 11
44.4302798415
 21
16.8323591153
  0
LINE
  5
258
100
AcDbEntity
  8
0
100
AcDbLine
 62
7
  6
CONTINUOUS
 10
44.3776551743
 20
16.8307204973
 11
44.3588498081
 21
16.830134939
  0
LINE
  5
259
100
AcDbEntity
  8
0
100
AcDbLine
 62
7
  6
CONTINUOUS
 10
44.3062251356
 20
16.8284963209
 11
44.2874197931
 21
16.8279107633
  0
LINE
  5
25A
100
AcDbEntity
  8
0
100
AcDbLine
 62
7
  6
CONTINUOUS
 10
44.2347951221
 20
16.8262721453
 11
44.2159898417
 21
16.8256865896
  0
LINE
  5
25B
100
AcDbEntity
  8
0
100
AcDbLine
 62
7
  6
CONTINUOUS
 10
44.1633651749
 20
16.8240479717
 11
44.1445598136
 21
16.8234624135
  0
LINE
  5
25C
100
AcDbEntity
  8
0
100
AcDbLine
 62
7
  6
CONTINUOUS
 10
44.0919351416
 20
16.8218237954
 11
44.0731297903
 21
16.8212382376
  0
LINE
  5
25D
100
AcDbEntity
  8
0
100
AcDbLine
 62
7
  6
CONTINUOUS
 10
44.0205051183
 20
16.8195996195
 11
43.9847901475
 21
16.8184875328
  0
LINE
  5
25E
100
AcDbEntity
  8
0
100
AcDbLine
 62
7
  6
CONTINUOUS
 10
43.5477901475
 20
16.5774875328
 11
43.6097901475
 21
16.5774875328
  0
LINE
  5
25F
100
AcDbEntity
  8
0
100
AcDbLine
 62
7
  6
CONTINUOUS
 10
43.5477901475
 20
16.8184875328
 11
3.5727901475
 21
16.8184875328
  0
LINE
  5
260
100
AcDbEntity
  8
0
100
AcDbLine
 62
7
  6
CONTINUOUS
 10
3.5058474071
 20
16.8582838763
 11
3.5147823036
 21
16.8582838763
  0
LINE
  5
261
100
AcDbEntity
  8
0
100
AcDbLine
 62
7
  6
CONTINUOUS
 10
44.0427979914
 20
16.8582838763
 11
44.0517328879
 21
16.8582838763
  0
LINE
  5
262
100
AcDbEntity
  8
0
100
AcDbLine
 62
7
  6
CONTINUOUS
 10
3.4344206184
 20
16.8606325807
 11
3.443350611
 21
16.8606325807
  0
LINE
  5
263
100
AcDbEntity
  8
0
100
AcDbLine
 62
7
  6
CONTINUOUS
 10
44.114229684
 20
16.8606325807
 11
44.1231596766
 21
16.8606325807
  0
LINE
  5
264
100
AcDbEntity
  8
0
100
AcDbLine
 62
7
  6
CONTINUOUS
 10
3.3629673063
 20
16.862889207
 11
3.3718939852
 21
16.8628892074
  0
LINE
  5
265
100
AcDbEntity
  8
0
100
AcDbLine
 62
7
  6
CONTINUOUS
 10
44.1856849573
 20
16.8628892084
 11
44.1946129887
 21
16.862889207
  0
LINE
  5
266
100
AcDbEntity
  8
0
100
AcDbLine
 62
7
  6
CONTINUOUS
 10
3.2915878709
 20
16.8654326846
 11
3.3000774627
 21
16.8654326846
  0
LINE
  5
267
100
AcDbEntity
  8
0
100
AcDbLine
 62
7
  6
CONTINUOUS
 10
44.2575028323
 20
16.8654326846
 11
44.2659924241
 21
16.8654326846
  0
LINE
  5
268
100
AcDbEntity
  8
0
100
AcDbLine
 62
7
  6
CONTINUOUS
 10
3.2201352665
 20
16.8671610807
 11
3.2290614064
 21
16.8671610807
  0
LINE
  5
269
100
AcDbEntity
  8
0
100
AcDbLine
 62
7
  6
CONTINUOUS
 10
44.3285188886
 20
16.8671610807
 11
44.3374450285
 21
16.8671610807
  0
LINE
  5
26A
100
AcDbEntity
  8
0
100
AcDbLine
 62
7
  6
CONTINUOUS
 10
3.1491405614
 20
16.8699968709
 11
3.1575271295
 21
16.8699968709
  0
LINE
  5
26B
100
AcDbEntity
  8
0
100
AcDbLine
 62
7
  6
CONTINUOUS
 10
44.4000531655
 20
16.8699968709
 11
44.4084397336
 21
16.8699968709
  0
LINE
  5
26C
100
AcDbEntity
  8
0
100
AcDbLine
 62
7
  6
CONTINUOUS
 10
3.0785988551
 20
16.8737741159
 11
3.0853567102
 21
16.8737741159
  0
LINE
  5
26D
100
AcDbEntity
  8
0
100
AcDbLine
 62
7
  6
CONTINUOUS
 10
44.4722235848
 20
16.8737741159
 11
44.4789814399
 21
16.8737741159
  0
LINE
  5
26E
100
AcDbEntity
  8
0
100
AcDbLine
 62
7
  6
CONTINUOUS
 10
3.0076593603
 20
16.876880225
 11
3.013294292
 21
16.876880225
  0
LINE
  5
26F
100
AcDbEntity
  8
0
100
AcDbLine
 62
7
  6
CONTINUOUS
 10
44.544286003
 20
16.876880225
 11
44.5499209347
 21
16.876880225
  0
LINE
  5
270
100
AcDbEntity
  8
0
100
AcDbLine
 62
7
  6
CONTINUOUS
 10
2.9365748245
 20
16.8797602087
 11
2.9412459331
 21
16.8797602087
  0
LINE
  5
271
100
AcDbEntity
  8
0
100
AcDbLine
 62
7
  6
CONTINUOUS
 10
44.6163343619
 20
16.8797602087
 11
44.6210054705
 21
16.8797602087
  0
LINE
  5
272
100
AcDbEntity
  8
0
100
AcDbLine
 62
7
  6
CONTINUOUS
 10
2.8637230386
 20
16.8798778625
 11
2.8708823752
 21
16.8798778625
  0
LINE
  5
273
100
AcDbEntity
  8
0
100
AcDbLine
 62
7
  6
CONTINUOUS
 10
44.6866979198
 20
16.8798778625
 11
44.6938572564
 21
16.8798778625
  0
LINE
  5
274
100
AcDbEntity
  8
0
100
AcDbLine
 62
7
  6
CONTINUOUS
 10
2.7925877597
 20
16.882120096
 11
2.7998281366
 21
16.882120096
  0
LINE
  5
275
100
AcDbEntity
  8
0
100
AcDbLine
 62
7
  6
CONTINUOUS
 10
44.7577521584
 20
16.882120096
 11
44.7649925353
 21
16.882120096
  0
LINE
  5
276
100
AcDbEntity
  8
0
100
AcDbLine
 62
7
  6
CONTINUOUS
 10
3.5727901475
 20
16.8184875328
 11
3.5370751767
 21
16.8195996195
  0
LINE
  5
277
100
AcDbEntity
  8
0
100
AcDbLine
 62
7
  6
CONTINUOUS
 10
3.4844505047
 20
16.8212382376
 11
3.4656451533
 21
16.8218237954
  0
LINE
  5
278
100
AcDbEntity
  8
0
100
AcDbLine
 62
7
  6
CONTINUOUS
 10
3.4130204814
 20
16.8234624135
 11
3.3942151201
 21
16.8240479717
  0
LINE
  5
279
100
AcDbEntity
  8
0
100
AcDbLine
 62
7
  6
CONTINUOUS
 10
3.3415904533
 20
16.8256865896
 11
3.3227851728
 21
16.8262721453
  0
LINE
  5
27A
100
AcDbEntity
  8
0
100
AcDbLine
 62
7
  6
CONTINUOUS
 10
3.2701605018
 20
16.8279107633
 11
3.2513551594
 21
16.8284963209
  0
LINE
  5
27B
100
AcDbEntity
  8
0
100
AcDbLine
 62
7
  6
CONTINUOUS
 10
3.1987304869
 20
16.830134939
 11
3.1799251207
 21
16.8307204973
  0
LINE
  5
27C
100
AcDbEntity
  8
0
100
AcDbLine
 62
7
  6
CONTINUOUS
 10
3.1273004535
 20
16.8323591153
 11
3.1084951666
 21
16.8329446711
  0
LINE
  5
27D
100
AcDbEntity
  8
0
100
AcDbLine
 62
7
  6
CONTINUOUS
 10
3.0558704969
 20
16.8345832891
 11
3.037065165
 21
16.8351688463
  0
LINE
  5
27E
100
AcDbEntity
  8
0
100
AcDbLine
 62
7
  6
CONTINUOUS
 10
2.9844404922
 20
16.8368074645
 11
2.9656351229
 21
16.8373930229
  0
LINE
  5
27F
100
AcDbEntity
  8
0
100
AcDbLine
 62
7
  6
CONTINUOUS
 10
2.9130104551
 20
16.8390316408
 11
2.8942051577
 21
16.839617197
  0
LINE
  5
280
100
AcDbEntity
  8
0
100
AcDbLine
 62
7
  6
CONTINUOUS
 10
2.8415804896
 20
16.841255815
 11
2.82277517
 21
16.8418413718
  0
LINE
  5
281
100
AcDbEntity
  8
0
100
AcDbLine
 62
7
  6
CONTINUOUS
 10
3.5727901299
 20
17.8184875323
 11
3.5013601737
 21
17.8162633584
  0
LINE
  5
282
100
AcDbEntity
  8
0
100
AcDbLine
 62
7
  6
CONTINUOUS
 10
3.4487354863
 20
17.8146247398
 11
3.4299301165
 21
17.8140391814
  0
LINE
  5
283
100
AcDbEntity
  8
0
100
AcDbLine
 62
7
  6
CONTINUOUS
 10
3.3773054612
 20
17.8124005638
 11
3.3585001369
 21
17.8118150068
  0
LINE
  5
284
100
AcDbEntity
  8
0
100
AcDbLine
 62
7
  6
CONTINUOUS
 10
3.3058754709
 20
17.8101763889
 11
3.2870701767
 21
17.8095908329
  0
LINE
  5
285
100
AcDbEntity
  8
0
100
AcDbLine
 62
7
  6
CONTINUOUS
 10
3.2344455034
 20
17.8079522147
 11
3.2156401358
 21
17.8073666564
  0
LINE
  5
286
100
AcDbEntity
  8
0
100
AcDbLine
 62
7
  6
CONTINUOUS
 10
3.1630154521
 20
17.8057280379
 11
3.1442101154
 21
17.8051424805
  0
LINE
  5
287
100
AcDbEntity
  8
0
100
AcDbLine
 62
7
  6
CONTINUOUS
 10
3.0915854632
 20
17.8035038631
 11
3.0727801783
 21
17.8029183073
  0
LINE
  5
288
100
AcDbEntity
  8
0
100
AcDbLine
 62
7
  6
CONTINUOUS
 10
3.0201555052
 20
17.8012796892
 11
3.0013501416
 21
17.8006941309
  0
LINE
  5
289
100
AcDbEntity
  8
0
100
AcDbLine
 62
7
  6
CONTINUOUS
 10
2.948725471
 20
17.7990555129
 11
2.9299201239
 21
17.7984699552
  0
LINE
  5
28A
100
AcDbEntity
  8
0
100
AcDbLine
 62
7
  6
CONTINUOUS
 10
2.8772954578
 20
17.7968313373
 11
2.8584901782
 21
17.7962457817
  0
LINE
  5
28B
100
AcDbEntity
  8
0
100
AcDbLine
 62
7
  6
CONTINUOUS
 10
2.80586573
 20
17.7946071705
 11
2.7870601871
 21
17.7940216067
  0
LINE
  5
28C
100
AcDbEntity
  8
0
100
AcDbLine
 62
7
  6
CONTINUOUS
 10
44.7290026449
 20
17.7552710884
 11
44.7225759265
 21
17.7552710884
  0
LINE
  5
28D
100
AcDbEntity
  8
0
100
AcDbLine
 62
7
  6
CONTINUOUS
 10
2.8350043685
 20
17.7552710884
 11
2.8285776501
 21
17.7552710884
  0
LINE
  5
28E
100
AcDbEntity
  8
0
100
AcDbLine
 62
7
  6
CONTINUOUS
 10
44.6588417312
 20
17.7597822665
 11
44.649935456
 21
17.7597822665
  0
LINE
  5
28F
100
AcDbEntity
  8
0
100
AcDbLine
 62
7
  6
CONTINUOUS
 10
2.907644839
 20
17.7597822665
 11
2.8987385638
 21
17.7597822665
  0
LINE
  5
290
100
AcDbEntity
  8
0
100
AcDbLine
 62
7
  6
CONTINUOUS
 10
44.5874675706
 20
17.7616733444
 11
44.5788474954
 21
17.7616733444
  0
LINE
  5
291
100
AcDbEntity
  8
0
100
AcDbLine
 62
7
  6
CONTINUOUS
 10
2.9787327995
 20
17.7616733444
 11
2.9701127243
 21
17.7616733444
  0
LINE
  5
292
100
AcDbEntity
  8
0
100
AcDbLine
 62
7
  6
CONTINUOUS
 10
44.5155770783
 20
17.7627855071
 11
44.5080509176
 21
17.7627855071
  0
LINE
  5
293
100
AcDbEntity
  8
0
100
AcDbLine
 62
7
  6
CONTINUOUS
 10
3.0495293773
 20
17.7627855071
 11
3.0420032167
 21
17.7627855071
  0
LINE
  5
294
100
AcDbEntity
  8
0
100
AcDbLine
 62
7
  6
CONTINUOUS
 10
44.4431581262
 20
17.7633395421
 11
44.4375742986
 21
17.7633395421
  0
LINE
  5
295
100
AcDbEntity
  8
0
100
AcDbLine
 62
7
  6
CONTINUOUS
 10
3.1200059964
 20
17.7633395421
 11
3.1144221688
 21
17.7633395421
  0
LINE
  5
296
100
AcDbEntity
  8
0
100
AcDbLine
 62
7
  6
CONTINUOUS
 10
44.3711970804
 20
17.7650467714
 11
44.3664236585
 21
17.7650467714
  0
LINE
  5
297
100
AcDbEntity
  8
0
100
AcDbLine
 62
7
  6
CONTINUOUS
 10
3.1911566365
 20
17.7650467714
 11
3.1863832145
 21
17.7650467714
  0
LINE
  5
298
100
AcDbEntity
  8
0
100
AcDbLine
 62
7
  6
CONTINUOUS
 10
44.2995320724
 20
17.7671698945
 11
44.2949082798
 21
17.7671698945
  0
LINE
  5
299
100
AcDbEntity
  8
0
100
AcDbLine
 62
7
  6
CONTINUOUS
 10
3.2626720152
 20
17.7671698945
 11
3.2580482226
 21
17.7671698945
  0
LINE
  5
29A
100
AcDbEntity
  8
0
100
AcDbLine
 62
7
  6
CONTINUOUS
 10
44.2285894989
 20
17.7702102308
 11
44.2228402555
 21
17.7702102308
  0
LINE
  5
29B
100
AcDbEntity
  8
0
100
AcDbLine
 62
7
  6
CONTINUOUS
 10
3.3347400395
 20
17.7702102308
 11
3.328990796
 21
17.7702102308
  0
LINE
  5
29C
100
AcDbEntity
  8
0
100
AcDbLine
 62
7
  6
CONTINUOUS
 10
44.1588861508
 20
17.7751967135
 11
44.1499568234
 21
17.7751967127
  0
LINE
  5
29D
100
AcDbEntity
  8
0
100
AcDbLine
 62
7
  6
CONTINUOUS
 10
3.4076241382
 20
17.7751967135
 11
3.3986941441
 21
17.7751967135
  0
LINE
  5
29E
100
AcDbEntity
  8
0
100
AcDbLine
 62
7
  6
CONTINUOUS
 10
44.0874393997
 20
17.777513885
 11
44.0785093956
 21
17.777513885
  0
LINE
  5
29F
100
AcDbEntity
  8
0
100
AcDbLine
 62
7
  6
CONTINUOUS
 10
3.4790708994
 20
17.777513885
 11
3.4701408953
 21
17.777513885
  0
LINE
  5
2A0
100
AcDbEntity
  8
0
100
AcDbLine
 62
7
  6
CONTINUOUS
 10
43.5477901475
 20
17.8184875328
 11
3.5727901475
 21
17.8184875328
  0
LINE
  5
2A1
100
AcDbEntity
  8
0
100
AcDbLine
 62
7
  6
CONTINUOUS
 10
43.5477901475
 20
18.0594875328
 11
43.6097901475
 21
18.0594875328
  0
LINE
  5
2A2
100
AcDbEntity
  8
0
100
AcDbLine
 62
7
  6
CONTINUOUS
 10
44.7705200938
 20
17.7940216072
 11
44.7517146072
 21
17.7946071692
  0
LINE
  5
2A3
100
AcDbEntity
  8
0
100
AcDbLine
 62
7
  6
CONTINUOUS
 10
44.6990901301
 20
17.7962457812
 11
44.6802848505
 21
17.7968313368
  0
LINE
  5
2A4
100
AcDbEntity
  8
0
100
AcDbLine
 62
7
  6
CONTINUOUS
 10
44.6276601711
 20
17.7984699552
 11
44.608854824
 21
17.7990555129
  0
LINE
  5
2A5
100
AcDbEntity
  8
0
100
AcDbLine
 62
7
  6
CONTINUOUS
 10
44.5562301534
 20
17.8006941309
 11
44.5374247897
 21
17.8012796892
  0
LINE
  5
2A6
100
AcDbEntity
  8
0
100
AcDbLine
 62
7
  6
CONTINUOUS
 10
44.4848001167
 20
17.8029183073
 11
44.4659948318
 21
17.8035038631
  0
LINE
  5
2A7
100
AcDbEntity
  8
0
100
AcDbLine
 62
7
  6
CONTINUOUS
 10
44.4133701796
 20
17.8051424805
 11
44.3945648428
 21
17.8057280379
  0
LINE
  5
2A8
100
AcDbEntity
  8
0
100
AcDbLine
 62
7
  6
CONTINUOUS
 10
44.3419401592
 20
17.8073666564
 11
44.3231347916
 21
17.8079522147
  0
LINE
  5
2A9
100
AcDbEntity
  8
0
100
AcDbLine
 62
7
  6
CONTINUOUS
 10
44.2705101321
 20
17.8095908324
 11
44.251704838
 21
17.8101763885
  0
LINE
  5
2AA
100
AcDbEntity
  8
0
100
AcDbLine
 62
7
  6
CONTINUOUS
 10
44.199080172
 20
17.8118150064
 11
44.1802748477
 21
17.8124005634
  0
LINE
  5
2AB
100
AcDbEntity
  8
0
100
AcDbLine
 62
7
  6
CONTINUOUS
 10
44.1276501785
 20
17.8140391814
 11
44.1088448087
 21
17.8146247398
  0
LINE
  5
2AC
100
AcDbEntity
  8
0
100
AcDbLine
 62
7
  6
CONTINUOUS
 10
44.0562201213
 20
17.8162633584
 11
43.9847901651
 21
17.8184875323
  0
LINE
  5
2AD
100
AcDbEntity
  8
0
100
AcDbLine
 62
7
  6
CONTINUOUS
 10
44.2512562275
 20
17.8098067362
 11
44.2517048379
 21
17.8101763885
  0
LINE
  5
2AE
100
AcDbEntity
  8
0
100
AcDbLine
 62
7
  6
CONTINUOUS
 10
44.3226914965
 20
17.8075931327
 11
44.3231348054
 21
17.8079522143
  0
LINE
  5
2AF
100
AcDbEntity
  8
0
100
AcDbLine
 62
7
  6
CONTINUOUS
 10
44.6084042058
 20
17.7986913409
 11
44.6088548374
 21
17.7990555125
  0
LINE
  5
2B0
100
AcDbEntity
  8
0
100
AcDbLine
 62
7
  6
CONTINUOUS
 10
44.1638239904
 20
16.8244652426
 11
44.1633651749
 21
16.8240479717
  0
LINE
  5
2B1
100
AcDbEntity
  8
0
100
AcDbLine
 62
7
  6
CONTINUOUS
 10
44.1083639369
 20
17.8141957959
 11
44.1088448087
 21
17.8146247398
  0
LINE
  5
2B2
100
AcDbEntity
  8
0
100
AcDbLine
 62
7
  6
CONTINUOUS
 10
44.4495417563
 20
16.8333508662
 11
44.4490851284
 21
16.8329446711
  0
LINE
  5
2B3
100
AcDbEntity
  8
0
100
AcDbLine
 62
7
  6
CONTINUOUS
 10
44.4655054586
 20
17.8030688593
 11
44.4659948454
 21
17.8035038626
  0
LINE
  5
2B4
100
AcDbEntity
  8
0
100
AcDbLine
 62
7
  6
CONTINUOUS
 10
44.5924030069
 20
16.8377977222
 11
44.5919451721
 21
16.8373930229
  0
LINE
  5
2B5
100
AcDbEntity
  8
0
100
AcDbLine
 62
7
  6
CONTINUOUS
 10
44.3940848589
 20
17.8053078442
 11
44.3945648428
 21
17.8057280379
  0
LINE
  5
2B6
100
AcDbEntity
  8
0
100
AcDbLine
 62
7
  6
CONTINUOUS
 10
44.1798015858
 20
17.8119864295
 11
44.1802748476
 21
17.8124005634
  0
LINE
  5
2B7
100
AcDbEntity
  8
0
100
AcDbLine
 62
7
  6
CONTINUOUS
 10
44.0923653881
 20
16.8221931538
 11
44.0919351416
 21
16.8218237954
  0
LINE
  5
2B8
100
AcDbEntity
  8
0
100
AcDbLine
 62
7
  6
CONTINUOUS
 10
44.3066584926
 20
16.8288660934
 11
44.3062251356
 21
16.8284963209
  0
LINE
  5
2B9
100
AcDbEntity
  8
0
100
AcDbLine
 62
7
  6
CONTINUOUS
 10
44.5369568505
 20
17.8008844964
 11
44.5374248033
 21
17.8012796887
  0
LINE
  5
2BA
100
AcDbEntity
  8
0
100
AcDbLine
 62
7
  6
CONTINUOUS
 10
44.3780854704
 20
16.8310835344
 11
44.3776551743
 21
16.8307204973
  0
LINE
  5
2BB
100
AcDbEntity
  8
0
100
AcDbLine
 62
7
  6
CONTINUOUS
 10
44.6798141177
 20
17.7964348884
 11
44.6802848505
 21
17.7968313368
  0
LINE
  5
2BC
100
AcDbEntity
  8
0
100
AcDbLine
 62
7
  6
CONTINUOUS
 10
44.7352434726
 20
16.8422094045
 11
44.734805125
 21
16.8418413718
  0
LINE
  5
2BD
100
AcDbEntity
  8
0
100
AcDbLine
 62
7
  6
CONTINUOUS
 10
44.0209229881
 20
16.8199499144
 11
44.0205051183
 21
16.8195996195
  0
LINE
  5
2BE
100
AcDbEntity
  8
0
100
AcDbLine
 62
7
  6
CONTINUOUS
 10
44.7512371954
 20
17.7942027321
 11
44.7517202234
 21
17.7946069363
  0
LINE
  5
2BF
100
AcDbEntity
  8
0
100
AcDbLine
 62
7
  6
CONTINUOUS
 10
44.663808317
 20
16.8399785802
 11
44.6633751373
 21
16.839617197
  0
LINE
  5
2C0
100
AcDbEntity
  8
0
100
AcDbLine
 62
7
  6
CONTINUOUS
 10
44.5209925179
 20
16.8356101667
 11
44.52051513
 21
16.8351688463
  0
LINE
  5
2C1
100
AcDbEntity
  8
0
100
AcDbLine
 62
7
  6
CONTINUOUS
 10
44.2352621267
 20
16.8267023073
 11
44.2347951221
 21
16.8262721453
  0
LINE
  5
2C2
100
AcDbEntity
  8
0
100
AcDbLine
 62
7
  6
CONTINUOUS
 10
44.7709885757
 20
17.7936033243
 11
44.7705223672
 21
17.7940215266
  0
LINE
  5
2C3
100
AcDbEntity
  8
0
100
AcDbLine
 62
7
  6
CONTINUOUS
 10
44.024016883
 20
16.825368483
 11
44.0432776186
 21
16.8586997006
  0
LINE
  5
2C4
100
AcDbEntity
  8
0
100
AcDbLine
 62
7
  6
CONTINUOUS
 10
44.3102227652
 20
16.83505217
 11
44.3290662728
 21
16.8676626283
  0
LINE
  5
2C5
100
AcDbEntity
  8
0
100
AcDbLine
 62
7
  6
CONTINUOUS
 10
44.5991112095
 20
16.8494064379
 11
44.6169319107
 21
16.8802450576
  0
LINE
  5
2C6
100
AcDbEntity
  8
0
100
AcDbLine
 62
7
  6
CONTINUOUS
 10
44.6708399731
 20
16.8521912434
 11
44.6869722445
 21
16.8801078148
  0
LINE
  5
2C7
100
AcDbEntity
  8
0
100
AcDbLine
 62
7
  6
CONTINUOUS
 10
44.1018458145
 20
17.8028604217
 11
44.0869534993
 21
17.7770940715
  0
LINE
  5
2C8
100
AcDbEntity
  8
0
100
AcDbLine
 62
7
  6
CONTINUOUS
 10
44.1721651068
 20
17.7985963152
 11
44.15838924
 21
17.7747670593
  0
LINE
  5
2C9
100
AcDbEntity
  8
0
100
AcDbLine
 62
7
  6
CONTINUOUS
 10
44.2432571248
 20
17.7957837885
 11
44.2283632505
 21
17.7700189025
  0
LINE
  5
2CA
100
AcDbEntity
  8
0
100
AcDbLine
 62
7
  6
CONTINUOUS
 10
44.3195679275
 20
17.8021357363
 11
44.2992066926
 21
17.7669028111
  0
LINE
  5
2CB
100
AcDbEntity
  8
0
100
AcDbLine
 62
7
  6
CONTINUOUS
 10
44.3863752813
 20
17.791955729
 11
44.3704892836
 21
17.7644679807
  0
LINE
  5
2CC
100
AcDbEntity
  8
0
100
AcDbLine
 62
7
  6
CONTINUOUS
 10
44.4585831874
 20
17.7909609871
 11
44.442100545
 21
17.7624490735
  0
LINE
  5
2CD
100
AcDbEntity
  8
0
100
AcDbLine
 62
7
  6
CONTINUOUS
 10
44.6019026261
 20
17.7873364558
 11
44.5866362415
 21
17.7609233004
  0
LINE
  5
2CE
100
AcDbEntity
  8
0
100
AcDbLine
 62
7
  6
CONTINUOUS
 10
44.0954602153
 20
16.8277331367
 11
44.1147244966
 21
16.8610609034
  0
LINE
  5
2CF
100
AcDbEntity
  8
0
100
AcDbLine
 62
7
  6
CONTINUOUS
 10
44.67238514
 20
17.7835790325
 11
44.6583976887
 21
17.7593749492
  0
LINE
  5
2D0
100
AcDbEntity
  8
0
100
AcDbLine
 62
7
  6
CONTINUOUS
 10
44.1669178807
 20
16.8299916201
 11
44.1861837661
 21
16.8633197121
  0
LINE
  5
2D1
100
AcDbEntity
  8
0
100
AcDbLine
 62
7
  6
CONTINUOUS
 10
44.7391012944
 20
17.7731186526
 11
44.7285801226
 21
17.754916465
  0
LINE
  5
2D2
100
AcDbEntity
  8
0
100
AcDbLine
 62
7
  6
CONTINUOUS
 10
44.23876076
 20
16.8328022154
 11
44.2577460787
 21
16.865652488
  0
LINE
  5
2D3
100
AcDbEntity
  8
0
100
AcDbLine
 62
7
  6
CONTINUOUS
 10
44.3816525949
 20
16.837398967
 11
44.4009664732
 21
16.8708149307
  0
LINE
  5
2D4
100
AcDbEntity
  8
0
100
AcDbLine
 62
7
  6
CONTINUOUS
 10
44.4550739385
 20
16.8431130796
 11
44.4733730574
 21
16.8747672122
  0
LINE
  5
2D5
100
AcDbEntity
  8
0
100
AcDbLine
 62
7
  6
CONTINUOUS
 10
44.5272357447
 20
16.8465095738
 11
44.5452642503
 21
16.8776993141
  0
LINE
  5
2D6
100
AcDbEntity
  8
0
100
AcDbLine
 62
7
  6
CONTINUOUS
 10
44.5305039182
 20
17.7895276854
 11
44.5144965384
 21
17.7618392902
  0
LINE
  5
2D7
100
AcDbEntity
  8
0
100
AcDbLine
 62
7
  6
CONTINUOUS
 10
44.7411789271
 20
16.8527232594
 11
44.7585890152
 21
16.882837561
  0
LINE
  5
2D8
100
AcDbEntity
  8
0
100
AcDbLine
 62
7
  6
CONTINUOUS
 10
44.1226670964
 20
16.8610583083
 11
44.1441500186
 21
16.823894107
  0
LINE
  5
2D9
100
AcDbEntity
  8
0
100
AcDbLine
 62
7
  6
CONTINUOUS
 10
44.1941144616
 20
16.8633204587
 11
44.2156422266
 21
16.8260817057
  0
LINE
  5
2DA
100
AcDbEntity
  8
0
100
AcDbLine
 62
7
  6
CONTINUOUS
 10
44.408204702
 20
16.8702079852
 11
44.4266868765
 21
16.8382328122
  0
LINE
  5
2DB
100
AcDbEntity
  8
0
100
AcDbLine
 62
7
  6
CONTINUOUS
 10
44.4788538539
 20
16.8738849747
 11
44.4981098546
 21
16.8405777882
  0
LINE
  5
2DC
100
AcDbEntity
  8
0
100
AcDbLine
 62
7
  6
CONTINUOUS
 10
44.5497450602
 20
16.8770286744
 11
44.5695324013
 21
16.8427986298
  0
LINE
  5
2DD
100
AcDbEntity
  8
0
100
AcDbLine
 62
7
  6
CONTINUOUS
 10
44.1504537779
 20
17.7747662171
 11
44.1311892944
 21
17.808091672
  0
LINE
  5
2DE
100
AcDbEntity
  8
0
100
AcDbLine
 62
7
  6
CONTINUOUS
 10
44.6931032866
 20
16.8805174002
 11
44.7155511507
 21
16.8416809282
  0
LINE
  5
2DF
100
AcDbEntity
  8
0
100
AcDbLine
 62
7
  6
CONTINUOUS
 10
44.2236879539
 20
17.7694976503
 11
44.2026423904
 21
17.8059068556
  0
LINE
  5
2E0
100
AcDbEntity
  8
0
100
AcDbLine
 62
7
  6
CONTINUOUS
 10
44.4377196656
 20
17.7632162229
 11
44.4173792502
 21
17.798403637
  0
LINE
  5
2E1
100
AcDbEntity
  8
0
100
AcDbLine
 62
7
  6
CONTINUOUS
 10
44.5082103704
 20
17.7626451419
 11
44.4888235458
 21
17.7961814984
  0
LINE
  5
2E2
100
AcDbEntity
  8
0
100
AcDbLine
 62
7
  6
CONTINUOUS
 10
44.7232059928
 20
17.7547436608
 11
44.7027669924
 21
17.790096001
  0
LINE
  5
2E3
100
AcDbEntity
  8
0
100
AcDbLine
 62
7
  6
CONTINUOUS
 10
44.0512529877
 20
16.8586985235
 11
44.0726657331
 21
16.8216447853
  0
LINE
  5
2E4
100
AcDbEntity
  8
0
100
AcDbLine
 62
7
  6
CONTINUOUS
 10
44.2651056806
 20
16.8662319795
 11
44.2838684758
 21
16.8337691661
  0
LINE
  5
2E5
100
AcDbEntity
  8
0
100
AcDbLine
 62
7
  6
CONTINUOUS
 10
44.336964655
 20
16.8676018743
 11
44.3552564141
 21
16.8359480937
  0
LINE
  5
2E6
100
AcDbEntity
  8
0
100
AcDbLine
 62
7
  6
CONTINUOUS
 10
44.078998923
 20
17.7770898691
 11
44.0597347967
 21
17.8104220345
  0
LINE
  5
2E7
100
AcDbEntity
  8
0
100
AcDbLine
 62
7
  6
CONTINUOUS
 10
44.6206432861
 20
16.8800567605
 11
44.6409350989
 21
16.8449446909
  0
LINE
  5
2E8
100
AcDbEntity
  8
0
100
AcDbLine
 62
7
  6
CONTINUOUS
 10
44.7647831203
 20
16.882299663
 11
44.7787901475
 21
16.8580649164
  0
LINE
  5
2E9
100
AcDbEntity
  8
0
100
AcDbLine
 62
7
  6
CONTINUOUS
 10
44.2955370373
 20
17.7666583287
 11
44.274464783
 21
17.8031243656
  0
LINE
  5
2EA
100
AcDbEntity
  8
0
100
AcDbLine
 62
7
  6
CONTINUOUS
 10
44.3667071667
 20
17.7648128524
 11
44.3459326817
 21
17.8007611781
  0
LINE
  5
2EB
100
AcDbEntity
  8
0
100
AcDbLine
 62
7
  6
CONTINUOUS
 10
44.5791368177
 20
17.7614117441
 11
44.5602599112
 21
17.7940742153
  0
LINE
  5
2EC
100
AcDbEntity
  8
0
100
AcDbLine
 62
7
  6
CONTINUOUS
 10
44.6505504933
 20
17.7592187607
 11
44.6317240277
 21
17.7917981388
  0
LINE
  5
2ED
100
AcDbEntity
  8
0
100
AcDbLine
 62
7
  6
CONTINUOUS
 10
44.7787901475
 20
17.780101047
 11
44.7741856927
 21
17.7880691433
  0
LINE
  5
2EE
100
AcDbEntity
  8
0
100
AcDbLine
 62
7
  6
CONTINUOUS
 10
43.5477901475
 20
16.5774875328
 11
43.5477901475
 21
18.0594875328
  0
LINE
  5
2EF
100
AcDbEntity
  8
0
100
AcDbLine
 62
7
  6
CONTINUOUS
 10
43.6097901475
 20
16.5064857019
 11
43.6097901475
 21
18.1304893637
  0
LINE
  5
2F0
100
AcDbEntity
  8
0
100
AcDbLine
 62
7
  6
CONTINUOUS
 10
43.7969604374
 20
18.3184875328
 11
43.7969604374
 21
16.3184875328
  0
LINE
  5
2F1
100
AcDbEntity
  8
0
100
AcDbLine
 62
7
  6
CONTINUOUS
 10
43.9847901475
 20
16.1384875328
 11
43.9847901475
 21
18.4984875328
  0
LINE
  5
2F2
100
AcDbEntity
  8
0
100
AcDbLine
 62
7
  6
CONTINUOUS
 10
44.7787901475
 20
17.7800962112
 11
44.7787901475
 21
16.8580700517
  0
ARC
  5
2F3
100
AcDbEntity
  8
0
100
AcDbCircle
 62
7
  6
CONTINUOUS
 10
-25.5102457534
 20
16.7690734164
 40
28.3201505354
100
AcDbArc
 50
1.4501093393
 51
1.7177100698
  0
ARC
  5
2F4
100
AcDbEntity
  8
0
100
AcDbCircle
 62
7
  6
CONTINUOUS
 10
-19.5058988339
 20
16.9361978802
 40
22.3323022908
100
AcDbArc
 50
1.4263538293
 51
1.765060269
  0
ARC
  5
2F5
100
AcDbEntity
  8
0
100
AcDbCircle
 62
7
  6
CONTINUOUS
 10
4.2576507334
 20
16.9470609334
 40
1.2273355221
100
AcDbArc
 50
183.4179041005
 51
183.6844923773
  0
ARC
  5
2F6
100
AcDbEntity
  8
0
100
AcDbCircle
 62
7
  6
CONTINUOUS
 10
4.4943107067
 20
16.9342916645
 40
1.1780889493
100
AcDbArc
 50
183.4485282776
 51
183.7066901389
  0
ARC
  5
2F7
100
AcDbEntity
  8
0
100
AcDbCircle
 62
7
  6
CONTINUOUS
 10
4.5178223165
 20
16.9291413273
 40
1.1300759898
100
AcDbArc
 50
183.4745773909
 51
183.7157476385
  0
ARC
  5
2F8
100
AcDbEntity
  8
0
100
AcDbCircle
 62
7
  6
CONTINUOUS
 10
4.2255515855
 20
16.9382663475
 40
1.1235934028
100
AcDbArc
 50
183.435446343
 51
183.7443227623
  0
ARC
  5
2F9
100
AcDbEntity
  8
0
100
AcDbCircle
 62
7
  6
CONTINUOUS
 10
4.3524518387
 20
16.9327021299
 40
1.1075770058
100
AcDbArc
 50
183.5072029104
 51
183.71985951
  0
ARC
  5
2FA
100
AcDbEntity
  8
0
100
AcDbCircle
 62
7
  6
CONTINUOUS
 10
3.9048672143
 20
16.9462251242
 40
1.088688702
100
AcDbArc
 50
183.5155652798
 51
183.7507428055
  0
ARC
  5
2FB
100
AcDbEntity
  8
0
100
AcDbCircle
 62
7
  6
CONTINUOUS
 10
4.5290160837
 20
16.9233979506
 40
1.0697349178
100
AcDbArc
 50
183.4833006448
 51
183.7407296562
  0
ARC
  5
2FC
100
AcDbEntity
  8
0
100
AcDbCircle
 62
7
  6
CONTINUOUS
 10
4.2246883929
 20
16.9318047552
 40
1.0511739205
100
AcDbArc
 50
183.5084145947
 51
183.7863398912
  0
ARC
  5
2FD
100
AcDbEntity
  8
0
100
AcDbCircle
 62
7
  6
CONTINUOUS
 10
3.8862532436
 20
16.9429660788
 40
1.051163161
100
AcDbArc
 50
183.4217657028
 51
184.1840818082
  0
ARC
  5
2FE
100
AcDbEntity
  8
0
100
AcDbCircle
 62
7
  6
CONTINUOUS
 10
4.3823077892
 20
16.9070060984
 40
0.8511295458
100
AcDbArc
 50
183.430447708
 51
184.2382309146
  0
ARC
  5
2FF
100
AcDbEntity
  8
0
100
AcDbCircle
 62
7
  6
CONTINUOUS
 10
4.1604136186
 20
16.9123193072
 40
0.84346993
100
AcDbArc
 50
183.683571509
 51
184.2076210752
  0
ARC
  5
300
100
AcDbEntity
  8
0
100
AcDbCircle
 62
7
  6
CONTINUOUS
 10
3.867929692
 20
16.9214640232
 40
0.8367752505
100
AcDbArc
 50
183.6502791244
 51
184.2879446179
  0
ARC
  5
301
100
AcDbEntity
  8
0
100
AcDbCircle
 62
7
  6
CONTINUOUS
 10
4.2040341264
 20
16.9084212641
 40
0.8156047063
100
AcDbArc
 50
183.6917949201
 51
184.2261238337
  0
ARC
  5
302
100
AcDbEntity
  8
0
100
AcDbCircle
 62
7
  6
CONTINUOUS
 10
4.0355770184
 20
16.9116775129
 40
0.7900058539
100
AcDbArc
 50
183.689249607
 51
184.2923658268
  0
ARC
  5
303
100
AcDbEntity
  8
0
100
AcDbCircle
 62
7
  6
CONTINUOUS
 10
4.2296031385
 20
16.9034919483
 40
0.7696612437
100
AcDbArc
 50
183.7162089361
 51
184.2688028798
  0
ARC
  5
304
100
AcDbEntity
  8
0
100
AcDbCircle
 62
7
  6
CONTINUOUS
 10
3.8703909424
 20
16.9146287909
 40
0.7676473539
100
AcDbArc
 50
183.7149452751
 51
184.3217018289
  0
ARC
  5
305
100
AcDbEntity
  8
0
100
AcDbCircle
 62
7
  6
CONTINUOUS
 10
3.5828081601
 20
16.9246676314
 40
0.7659093961
100
AcDbArc
 50
183.7175670186
 51
184.3587482672
  0
ARC
  5
306
100
AcDbEntity
  8
0
100
AcDbCircle
 62
7
  6
CONTINUOUS
 10
3.9158969641
 20
16.9110062625
 40
0.7416831479
100
AcDbArc
 50
183.7583950193
 51
184.3564385378
  0
ARC
  5
307
100
AcDbEntity
  8
0
100
AcDbCircle
 62
7
  6
CONTINUOUS
 10
7.8177635863
 20
18.0967189889
 40
36.9429209832
100
AcDbArc
 50
358.3720072004
 51
358.5854776309
  0
ARC
  5
308
100
AcDbEntity
  8
0
100
AcDbCircle
 62
7
  6
CONTINUOUS
 10
13.0990229912
 20
17.33384926
 40
10.2912093634
100
AcDbArc
 50
181.5952555487
 51
182.1731609116
  0
ARC
  5
309
100
AcDbEntity
  8
0
100
AcDbCircle
 62
7
  6
CONTINUOUS
 10
2.231246756
 20
17.7086365317
 40
1.0621886389
100
AcDbArc
 50
3.3938371838
 51
4.117358326
  0
ARC
  5
30A
100
AcDbEntity
  8
0
100
AcDbCircle
 62
7
  6
CONTINUOUS
 10
1.9953488032
 20
17.7025304106
 40
1.012328027
100
AcDbArc
 50
3.4983543566
 51
4.1883135257
  0
ARC
  5
30B
100
AcDbEntity
  8
0
100
AcDbCircle
 62
7
  6
CONTINUOUS
 10
2.3556244108
 20
17.7146616
 40
1.009096558
100
AcDbArc
 50
3.4958101244
 51
4.1113883444
  0
ARC
  5
30C
100
AcDbEntity
  8
0
100
AcDbCircle
 62
7
  6
CONTINUOUS
 10
2.1665267021
 20
17.7082702314
 40
0.9839750349
100
AcDbArc
 50
3.4147253416
 51
4.2203209664
  0
ARC
  5
30D
100
AcDbEntity
  8
0
100
AcDbCircle
 62
7
  6
CONTINUOUS
 10
1.8843000051
 20
17.6999334275
 40
0.980485403
100
AcDbArc
 50
3.5535349693
 51
4.2350806349
  0
ARC
  5
30E
100
AcDbEntity
  8
0
100
AcDbCircle
 62
7
  6
CONTINUOUS
 10
2.1042887331
 20
17.7066273113
 40
0.974776303
100
AcDbArc
 50
3.4424206847
 51
4.2319872578
  0
ARC
  5
30F
100
AcDbEntity
  8
0
100
AcDbCircle
 62
7
  6
CONTINUOUS
 10
1.9823884633
 20
17.7031968319
 40
0.9538031269
100
AcDbArc
 50
3.5774212707
 51
4.2658931375
  0
ARC
  5
310
100
AcDbEntity
  8
0
100
AcDbCircle
 62
7
  6
CONTINUOUS
 10
2.5759298081
 20
17.7263763638
 40
0.878713129
100
AcDbArc
 50
3.495155308
 51
4.2129329601
  0
ARC
  5
311
100
AcDbEntity
  8
0
100
AcDbCircle
 62
7
  6
CONTINUOUS
 10
2.2213274287
 20
17.7143468262
 40
0.8762781323
100
AcDbArc
 50
3.4061445138
 51
4.3228207315
  0
ARC
  5
312
100
AcDbEntity
  8
0
100
AcDbCircle
 62
7
  6
CONTINUOUS
 10
2.3095685033
 20
17.7181253655
 40
0.8593897007
100
AcDbArc
 50
3.5027891364
 51
4.2970391199
  0
ARC
  5
313
100
AcDbEntity
  8
0
100
AcDbCircle
 62
7
  6
CONTINUOUS
 10
2.5455315938
 20
17.7264013272
 40
0.837633429
100
AcDbArc
 50
3.5098698353
 51
4.2769296061
  0
ARC
  5
314
100
AcDbEntity
  8
0
100
AcDbCircle
 62
7
  6
CONTINUOUS
 10
2.48824753
 20
17.7243453741
 40
0.8235228814
100
AcDbArc
 50
3.402582264
 51
4.345963173
  0
ARC
  5
315
100
AcDbEntity
  8
0
100
AcDbCircle
 62
7
  6
CONTINUOUS
 10
2.425494317
 20
17.7226968602
 40
0.8148356204
100
AcDbArc
 50
3.4424267548
 51
4.3593016842
  0
ARC
  5
316
100
AcDbEntity
  8
0
100
AcDbCircle
 62
7
  6
CONTINUOUS
 10
2.0741890001
 20
17.7114347011
 40
0.8090499321
100
AcDbArc
 50
3.5921564309
 51
4.4251525239
  0
ARC
  5
317
100
AcDbEntity
  8
0
100
AcDbCircle
 62
7
  6
CONTINUOUS
 10
2.25816422
 20
17.71914998
 40
0.7678009993
100
AcDbArc
 50
3.6114446278
 51
4.4156337082
  0
ARC
  5
318
100
AcDbEntity
  8
0
100
AcDbCircle
 62
7
  6
CONTINUOUS
 10
2.193225177
 20
17.7169853399
 40
0.7613309756
100
AcDbArc
 50
3.5591714601
 51
4.4577868001
  0
ARC
  5
319
100
AcDbEntity
  8
0
100
AcDbCircle
 62
7
  6
CONTINUOUS
 10
71.6734080976
 20
16.8077257528
 40
26.9440042257
100
AcDbArc
 50
178.2632084937
 51
178.5441493087
  0
ARC
  5
31A
100
AcDbEntity
  8
0
100
AcDbCircle
 62
7
  6
CONTINUOUS
 10
68.2566771018
 20
16.9020936082
 40
23.5071790557
100
AcDbArc
 50
178.2555977757
 51
178.5781826702
  0
ARC
  5
31B
100
AcDbEntity
  8
0
100
AcDbCircle
 62
7
  6
CONTINUOUS
 10
43.2564339015
 20
16.9481977999
 40
1.2520876055
100
AcDbArc
 50
356.367626345
 51
356.6335010947
  0
ARC
  5
31C
100
AcDbEntity
  8
0
100
AcDbCircle
 62
7
  6
CONTINUOUS
 10
43.1855477507
 20
16.9454994982
 40
1.2514997719
100
AcDbArc
 50
356.3363893064
 51
356.6175455218
  0
ARC
  5
31D
100
AcDbEntity
  8
0
100
AcDbCircle
 62
7
  6
CONTINUOUS
 10
43.4157377391
 20
16.9521254774
 40
1.2356683727
100
AcDbArc
 50
356.4056071503
 51
356.5455813347
  0
ARC
  5
31E
100
AcDbEntity
  8
0
100
AcDbCircle
 62
7
  6
CONTINUOUS
 10
43.3460991161
 20
16.9497362324
 40
1.2338620901
100
AcDbArc
 50
356.3789506619
 51
356.6480413802
  0
ARC
  5
31F
100
AcDbEntity
  8
0
100
AcDbCircle
 62
7
  6
CONTINUOUS
 10
43.5038079213
 20
16.9532898855
 40
1.2189998777
100
AcDbArc
 50
356.3251526258
 51
356.572315661
  0
ARC
  5
320
100
AcDbEntity
  8
0
100
AcDbCircle
 62
7
  6
CONTINUOUS
 10
42.8652616865
 20
16.9311899896
 40
1.2144608802
100
AcDbArc
 50
356.3668412155
 51
356.5814910318
  0
ARC
  5
321
100
AcDbEntity
  8
0
100
AcDbCircle
 62
7
  6
CONTINUOUS
 10
42.9406317059
 20
16.9333776391
 40
1.210536263
100
AcDbArc
 50
356.3604832475
 51
356.5733480212
  0
ARC
  5
322
100
AcDbEntity
  8
0
100
AcDbCircle
 62
7
  6
CONTINUOUS
 10
43.1832837139
 20
16.9390260101
 40
1.1821982301
100
AcDbArc
 50
356.3144102322
 51
356.5756755812
  0
ARC
  5
323
100
AcDbEntity
  8
0
100
AcDbCircle
 62
7
  6
CONTINUOUS
 10
43.0737209865
 20
16.9323408532
 40
1.148810258
100
AcDbArc
 50
356.3279692554
 51
356.5566906346
  0
ARC
  5
324
100
AcDbEntity
  8
0
100
AcDbCircle
 62
7
  6
CONTINUOUS
 10
43.1527740961
 20
16.9344529526
 40
1.1412088852
100
AcDbArc
 50
356.33460034
 51
356.5298894322
  0
ARC
  5
325
100
AcDbEntity
  8
0
100
AcDbCircle
 62
7
  6
CONTINUOUS
 10
43.2145136849
 20
16.908583038
 40
0.8644783482
100
AcDbArc
 50
355.8261054682
 51
356.395346148
  0
ARC
  5
326
100
AcDbEntity
  8
0
100
AcDbCircle
 62
7
  6
CONTINUOUS
 10
43.2936912436
 20
16.9104662074
 40
0.85673451
100
AcDbArc
 50
355.8026602932
 51
356.3908061378
  0
ARC
  5
327
100
AcDbEntity
  8
0
100
AcDbCircle
 62
7
  6
CONTINUOUS
 10
43.8701792618
 20
16.9293064176
 40
0.8518447692
100
AcDbArc
 50
355.7557292452
 51
356.3555456865
  0
ARC
  5
328
100
AcDbEntity
  8
0
100
AcDbCircle
 62
7
  6
CONTINUOUS
 10
43.5872624234
 20
16.9192845138
 40
0.8489310868
100
AcDbArc
 50
355.7401414592
 51
356.3696251904
  0
ARC
  5
329
100
AcDbEntity
  8
0
100
AcDbCircle
 62
7
  6
CONTINUOUS
 10
43.6841280278
 20
16.9204003373
 40
0.8234918385
100
AcDbArc
 50
355.677936517
 51
356.4125245644
  0
ARC
  5
32A
100
AcDbEntity
  8
0
100
AcDbCircle
 62
7
  6
CONTINUOUS
 10
43.5503440819
 20
16.9149127065
 40
0.8143471097
100
AcDbArc
 50
355.7178791491
 51
356.3473592964
  0
ARC
  5
32B
100
AcDbEntity
  8
0
100
AcDbCircle
 62
7
  6
CONTINUOUS
 10
43.8435860667
 20
16.9243788976
 40
0.8069226348
100
AcDbArc
 50
355.6065267472
 51
356.467308489
  0
ARC
  5
32C
100
AcDbEntity
  8
0
100
AcDbCircle
 62
7
  6
CONTINUOUS
 10
43.4203307905
 20
16.9096196298
 40
0.8014570003
100
AcDbArc
 50
355.7249576158
 51
356.3619907999
  0
ARC
  5
32D
100
AcDbEntity
  8
0
100
AcDbCircle
 62
7
  6
CONTINUOUS
 10
43.7905084003
 20
16.9208508407
 40
0.7885160743
100
AcDbArc
 50
355.6073705605
 51
356.4341810584
  0
ARC
  5
32E
100
AcDbEntity
  8
0
100
AcDbCircle
 62
7
  6
CONTINUOUS
 10
43.5143605946
 20
16.9107506775
 40
0.7788469526
100
AcDbArc
 50
355.6732960211
 51
356.3741551505
  0
ARC
  5
32F
100
AcDbEntity
  8
0
100
AcDbCircle
 62
7
  6
CONTINUOUS
 10
44.1873497527
 20
16.9085309968
 40
0.5527202088
100
AcDbArc
 50
355.1200778248
 51
355.6345718356
  0
ARC
  5
330
100
AcDbEntity
  8
0
100
AcDbCircle
 62
7
  6
CONTINUOUS
 10
43.9847901475
 20
16.3264875328
 40
0.188
100
AcDbArc
 50
182.438854691
 51
270.0
  0
ARC
  5
331
100
AcDbEntity
  8
0
100
AcDbCircle
 62
7
  6
CONTINUOUS
 10
43.7977901475
 20
16.5064857019
 40
0.188
100
AcDbArc
 50
180.0
 51
269.747132756
  0
ARC
  5
332
100
AcDbEntity
  8
0
100
AcDbCircle
 62
7
  6
CONTINUOUS
 10
33.2696644643
 20
17.9249128395
 40
30.4705018066
100
AcDbArc
 50
181.3914266915
 51
181.6503630356
  0
ARC
  5
333
100
AcDbEntity
  8
0
100
AcDbCircle
 62
7
  6
CONTINUOUS
 10
45.7008862341
 20
17.6912933907
 40
1.2228450416
100
AcDbArc
 50
176.4221527426
 51
176.5491967303
  0
ARC
  5
334
100
AcDbEntity
  8
0
100
AcDbCircle
 62
7
  6
CONTINUOUS
 10
45.1538756049
 20
17.7200250677
 40
0.8893574771
100
AcDbArc
 50
175.7332779572
 51
176.5950954186
  0
ARC
  5
335
100
AcDbEntity
  8
0
100
AcDbCircle
 62
7
  6
CONTINUOUS
 10
45.0809107027
 20
17.7226166932
 40
0.8877915247
100
AcDbArc
 50
175.7564107914
 51
176.5637714792
  0
ARC
  5
336
100
AcDbEntity
  8
0
100
AcDbCircle
 62
7
  6
CONTINUOUS
 10
45.5549558051
 20
17.7078806479
 40
0.8618957932
100
AcDbArc
 50
175.6406294612
 51
176.5093836761
  0
ARC
  5
337
100
AcDbEntity
  8
0
100
AcDbCircle
 62
7
  6
CONTINUOUS
 10
45.3886805683
 20
17.7143310389
 40
0.8383772254
100
AcDbArc
 50
175.6636457306
 51
176.4301382575
  0
ARC
  5
338
100
AcDbEntity
  8
0
100
AcDbCircle
 62
7
  6
CONTINUOUS
 10
44.9272832811
 20
17.7301504528
 40
0.805418967
100
AcDbArc
 50
175.7078722653
 51
176.4395420226
  0
ARC
  5
339
100
AcDbEntity
  8
0
100
AcDbCircle
 62
7
  6
CONTINUOUS
 10
45.2101066396
 20
17.7205962581
 40
0.8026127374
100
AcDbArc
 50
175.6154034734
 51
176.5264804377
  0
ARC
  5
33A
100
AcDbEntity
  8
0
100
AcDbCircle
 62
7
  6
CONTINUOUS
 10
45.2753368907
 20
17.7187869916
 40
0.7964098852
100
AcDbArc
 50
175.6068282959
 51
176.485732773
  0
ARC
  5
33B
100
AcDbEntity
  8
0
100
AcDbCircle
 62
7
  6
CONTINUOUS
 10
45.4129318453
 20
17.7145189128
 40
0.7911506915
100
AcDbArc
 50
175.5842042288
 51
176.3360536849
  0
ARC
  5
33C
100
AcDbEntity
  8
0
100
AcDbCircle
 62
7
  6
CONTINUOUS
 10
44.8390117596
 20
17.7332266971
 40
0.7885547889
100
AcDbArc
 50
175.6899822452
 51
176.4742892969
  0
ARC
  5
33D
100
AcDbEntity
  8
0
100
AcDbCircle
 62
7
  6
CONTINUOUS
 10
43.9847901475
 20
18.3104875328
 40
0.188
100
AcDbArc
 50
90.0
 51
177.561145309
  0
ARC
  5
33E
100
AcDbEntity
  8
0
100
AcDbCircle
 62
7
  6
CONTINUOUS
 10
43.7977901475
 20
18.1304893637
 40
0.188
100
AcDbArc
 50
90.252867244
 51
180.0
  0
SPLINE
  5
33F
100
AcDbEntity
  8
0
100
AcDbSpline
 62
7
  6
CONTINUOUS
 70
0
 71
3
 72
12
 73
8
 74
6
 42
0.0000001
 43
0.0000001
 44
0.0000000001
 12
-0.0140121334
 22
0.0003617556
 32
0.0
 13
-0.0014057049
 23
-0.0139461372
 33
0.0
 40
0.0
 40
0.0
 40
0.0
 40
0.0
 40
0.0284260166
 40
0.0796983368
 40
0.2675345176
 40
0.573993257
 40
1.0
 40
1.0
 40
1.0
 40
1.0
 10
44.7705223052
 20
17.7940084825
 30
0.0
 10
44.7703895355
 20
17.7940119103
 30
0.0
 10
44.7700639336
 20
17.7937293419
 30
0.0
 10
44.7695890259
 20
17.7925976708
 30
0.0
 10
44.7689992846
 20
17.7900804015
 30
0.0
 10
44.7683698643
 20
17.785843283
 30
0.0
 10
44.7679893058
 20
17.782435864
 30
0.0
 10
44.7677896925
 20
17.7804554812
 30
0.0
 11
44.7705223052
 21
17.7940084825
 31
0.0
 11
44.770180694
 21
17.7938034027
 31
0.0
 11
44.7698390759
 21
17.7931711137
 31
0.0
 11
44.7691558524
 21
17.7906284436
 31
0.0
 11
44.7684727021
 21
17.7863875426
 31
0.0
 11
44.7677896925
 21
17.7804554812
 31
0.0
  0
SPLINE
  5
340
100
AcDbEntity
  8
0
100
AcDbSpline
 62
7
  6
CONTINUOUS
 70
0
 71
3
 72
9
 73
5
 74
3
 42
0.0000001
 43
0.0000001
 44
0.0000000001
 12
-0.0060809678
 22
-0.0603298815
 32
0.0
 13
-0.0027012062
 23
-0.0605753766
 33
0.0
 40
0.0
 40
0.0
 40
0.0
 40
0.0
 40
0.404593257
 40
1.0
 40
1.0
 40
1.0
 40
1.0
 10
44.7677896925
 20
17.7804554812
 30
0.0
 10
44.7669695863
 20
17.7723191268
 30
0.0
 10
44.7656234926
 20
17.7521452956
 30
0.0
 10
44.7646188166
 20
17.7319599633
 30
0.0
 10
44.7640827112
 20
17.7199376341
 30
0.0
 11
44.7677896925
 21
17.7804554812
 31
0.0
 11
44.7659362341
 21
17.755992852
 31
0.0
 11
44.7640827112
 21
17.7199376341
 31
0.0
  0
SPLINE
  5
341
100
AcDbEntity
  8
0
100
AcDbSpline
 62
7
  6
CONTINUOUS
 70
0
 71
3
 72
9
 73
5
 74
3
 42
0.0000001
 43
0.0000001
 44
0.0000000001
 12
-0.0045587234
 22
-0.1022307681
 32
0.0
 13
-0.0031453527
 23
-0.1022840098
 33
0.0
 40
0.0
 40
0.0
 40
0.0
 40
0.0
 40
0.2150895976
 40
1.0
 40
1.0
 40
1.0
 40
1.0
 10
44.7640827112
 20
17.7199376341
 30
0.0
 10
44.7637558665
 20
17.7126080425
 30
0.0
 10
44.7623395508
 20
17.6785265207
 30
0.0
 10
44.7612149259
 20
17.6444335928
 30
0.0
 10
44.7603919859
 20
17.6176723317
 30
0.0
 11
44.7640827112
 21
17.7199376341
 31
0.0
 11
44.7631600916
 21
17.6979463532
 31
0.0
 11
44.7603919859
 21
17.6176723317
 31
0.0
  0
LINE
  5
342
100
AcDbEntity
  8
0
100
AcDbLine
 62
7
  6
CONTINUOUS
 10
44.7567355794
 20
17.4853736442
 11
44.7561881422
 21
17.463726571
  0
LINE
  5
343
100
AcDbEntity
  8
0
100
AcDbLine
 62
7
  6
CONTINUOUS
 10
44.7561881422
 20
17.463726571
 11
44.7530846584
 21
17.3361561416
  0
LINE
  5
344
100
AcDbEntity
  8
0
100
AcDbLine
 62
7
  6
CONTINUOUS
 10
44.7530846584
 20
17.3361561416
 11
44.7526777414
 21
17.3191229661
  0
LINE
  5
345
100
AcDbEntity
  8
0
100
AcDbLine
 62
7
  6
CONTINUOUS
 10
44.7526777414
 20
17.3191229661
 11
44.7494267689
 21
17.1847621169
  0
SPLINE
  5
346
100
AcDbEntity
  8
0
100
AcDbSpline
 62
7
  6
CONTINUOUS
 70
0
 71
3
 72
9
 73
5
 74
3
 42
0.0000001
 43
0.0000001
 44
0.0000000001
 12
-0.0030103599
 22
-0.10358906
 32
0.0
 13
-0.0039865679
 23
-0.1035560857
 33
0.0
 40
0.0
 40
0.0
 40
0.0
 40
0.0
 40
0.2757068184
 40
1.0
 40
1.0
 40
1.0
 40
1.0
 10
44.7457727132
 20
17.0471701823
 30
0.0
 10
44.7454960543
 20
17.0376501123
 30
0.0
 10
44.7444654012
 20
17.0031212712
 30
0.0
 10
44.7433269639
 20
16.9685952862
 30
0.0
 10
44.7423644826
 20
16.9435936306
 30
0.0
 11
44.7457727132
 21
17.0471701823
 31
0.0
 11
44.744919545
 21
17.0186106556
 31
0.0
 11
44.7423644826
 21
16.9435936306
 31
0.0
  0
LINE
  5
347
100
AcDbEntity
  8
0
100
AcDbLine
 62
7
  6
CONTINUOUS
 10
44.7423644826
 20
16.9435936306
 11
44.7421162949
 21
16.9372346108
  0
SPLINE
  5
348
100
AcDbEntity
  8
0
100
AcDbSpline
 62
7
  6
CONTINUOUS
 70
0
 71
3
 72
9
 73
5
 74
3
 42
0.0000001
 43
0.0000001
 44
0.0000000001
 12
-0.002802943
 22
-0.0708162365
 32
0.0
 13
-0.0054024126
 23
-0.070665478
 33
0.0
 40
0.0
 40
0.0
 40
0.0
 40
0.0
 40
0.5762325762
 40
1.0
 40
1.0
 40
1.0
 40
1.0
 10
44.7421162949
 20
16.9372346108
 30
0.0
 10
44.7415779125
 20
16.9236324034
 30
0.0
 10
44.7405596083
 20
16.9000308384
 30
0.0
 10
44.7392295663
 20
16.8764412807
 30
0.0
 10
44.7384664442
 20
16.8664593715
 30
0.0
 11
44.7421162949
 21
16.9372346108
 31
0.0
 11
44.7403008417
 21
16.8964364091
 31
0.0
 11
44.7384664442
 21
16.8664593715
 31
0.0
  0
SPLINE
  5
349
100
AcDbEntity
  8
0
100
AcDbSpline
 62
7
  6
CONTINUOUS
 70
0
 71
3
 72
11
 73
7
 74
5
 42
0.0000001
 43
0.0000001
 44
0.0000000001
 12
-0.0016703556
 22
-0.0194812936
 32
0.0
 13
-0.0097961097
 23
-0.0169217943
 33
0.0
 40
0.0
 40
0.0
 40
0.0
 40
0.0
 40
0.3870716485
 40
0.6829444437
 40
0.8870795485
 40
1.0
 40
1.0
 40
1.0
 40
1.0
 10
44.7380664432
 20
16.8615123188
 30
0.0
 10
44.7378509275
 20
16.8589987666
 30
0.0
 10
44.7374308262
 20
16.8545717704
 30
0.0
 10
44.7367586261
 20
16.8488134774
 30
0.0
 10
44.7360654904
 20
16.8449063012
 30
0.0
 10
44.7355919272
 20
16.8428506005
 30
0.0
 10
44.7352232002
 20
16.8422136616
 30
0.0
 11
44.7380664432
 21
16.8615123188
 31
0.0
 11
44.7373434355
 21
16.8539786091
 31
0.0
 11
44.7366237898
 21
16.8482384107
 31
0.0
 11
44.7359146601
 21
16.8443105021
 31
0.0
 11
44.7352232002
 21
16.8422136616
 31
0.0
  0
SPLINE
  5
34A
100
AcDbEntity
  8
0
100
AcDbSpline
 62
7
  6
CONTINUOUS
 70
0
 71
3
 72
14
 73
10
 74
8
 42
0.0000001
 43
0.0000001
 44
0.0000000001
 12
-0.0236432941
 22
0.0007361975
 32
0.0
 13
-0.0018199674
 23
-0.0235846361
 33
0.0
 40
0.0
 40
0.0
 40
0.0
 40
0.0
 40
0.0235480566
 40
0.0731864976
 40
0.1524016022
 40
0.2617334668
 40
0.4012513327
 40
0.5708879242
 40
1.0
 40
1.0
 40
1.0
 40
1.0
 10
44.4133701797
 20
17.8051424805
 30
0.0
 10
44.4131845951
 20
17.8051482592
 30
0.0
 10
44.412764478
 20
17.804577737
 30
0.0
 10
44.4124394019
 20
17.8035019806
 30
0.0
 10
44.4119907824
 20
17.8016344218
 30
0.0
 10
44.4115781195
 20
17.7990972115
 30
0.0
 10
44.411136993
 20
17.7958202919
 30
0.0
 10
44.4105026243
 20
17.7900364945
 30
0.0
 10
44.4101031989
 20
17.7853302696
 30
0.0
 10
44.4098428756
 20
17.7819567855
 30
0.0
 11
44.4133701797
 21
17.8051424805
 31
0.0
 11
44.412941578
 21
17.8047867057
 31
0.0
 11
44.4125072612
 21
17.803695798
 31
0.0
 11
44.4120683282
 21
17.8018741187
 31
0.0
 11
44.4116258776
 21
17.7993260287
 31
0.0
 11
44.4111810083
 21
17.7960558893
 31
0.0
 11
44.410734819
 21
17.7920680616
 31
0.0
 11
44.4098428756
 21
17.7819567855
 31
0.0
  0
LINE
  5
34B
100
AcDbEntity
  8
0
100
AcDbLine
 62
7
  6
CONTINUOUS
 10
44.4089683766
 20
17.769224336
 11
44.4088301995
 21
17.766959264
  0
SPLINE
  5
34C
100
AcDbEntity
  8
0
100
AcDbSpline
 62
7
  6
CONTINUOUS
 70
0
 71
3
 72
18
 73
14
 74
12
 42
0.0000001
 43
0.0000001
 44
0.0000000001
 12
-0.0547482438
 22
-0.9109745166
 32
0.0
 13
-0.0693266341
 23
-0.9099811855
 33
0.0
 40
0.0
 40
0.0
 40
0.0
 40
0.0
 40
0.0370250011
 40
0.084502021
 40
0.2062369256
 40
0.3540775292
 40
0.5145221954
 40
0.6729139653
 40
0.8147970324
 40
0.8754030985
 40
0.9272343028
 40
0.9690677998
 40
1.0
 40
1.0
 40
1.0
 40
1.0
 10
44.4088301995
 20
17.766959264
 30
0.0
 10
44.4081545149
 20
17.7557163198
 30
0.0
 10
44.4069079217
 20
17.7300392687
 30
0.0
 10
44.4044697555
 20
17.6673480225
 30
0.0
 10
44.4016069188
 20
17.5709395523
 30
0.0
 10
44.3983450175
 20
17.4401657251
 30
0.0
 10
44.3950451714
 20
17.2982379522
 30
0.0
 10
44.3917551035
 20
17.1581230409
 30
0.0
 10
44.3889171944
 20
17.0483770228
 30
0.0
 10
44.3865325892
 20
16.9710479481
 30
0.0
 10
44.3848593731
 20
16.9241470709
 30
0.0
 10
44.3832066741
 20
16.8862802647
 30
0.0
 10
44.3819479933
 20
16.864177589
 30
0.0
 10
44.3812331849
 20
16.8547950156
 30
0.0
 11
44.4088301995
 21
17.766959264
 31
0.0
 11
44.4071096459
 21
17.7332134082
 31
0.0
 11
44.4053848447
 21
17.6899193605
 31
0.0
 11
44.4019220262
 21
17.5788758533
 31
0.0
 11
44.3984771036
 21
17.4439978172
 31
0.0
 11
44.3950249868
 21
17.2976137974
 31
0.0
 11
44.3915768319
 21
17.1531037212
 31
0.0
 11
44.3881276728
 21
17.0236646016
 31
0.0
 11
44.3864023043
 21
16.9683813214
 31
0.0
 11
44.3846815743
 21
16.9211105304
 31
0.0
 11
44.3829650717
 21
16.8829711275
 31
0.0
 11
44.3812331849
 21
16.8547950156
 31
0.0
  0
SPLINE
  5
34D
100
AcDbEntity
  8
0
100
AcDbSpline
 62
7
  6
CONTINUOUS
 70
0
 71
3
 72
9
 73
5
 74
3
 42
0.0000001
 43
0.0000001
 44
0.0000000001
 12
-0.0014889412
 22
-0.0195438373
 32
0.0
 13
-0.0033073362
 23
-0.0193194215
 33
0.0
 40
0.0
 40
0.0
 40
0.0
 40
0.0
 40
0.5957737533
 40
1.0
 40
1.0
 40
1.0
 40
1.0
 10
44.3812331849
 20
16.8547950156
 30
0.0
 10
44.3809374942
 20
16.8509137805
 30
0.0
 10
44.3803796814
 20
16.8444050719
 30
0.0
 10
44.3796193498
 20
16.8379102682
 30
0.0
 10
44.3791737124
 20
16.8353071292
 30
0.0
 11
44.3812331849
 21
16.8547950156
 31
0.0
 11
44.3802009504
 21
16.8431632805
 31
0.0
 11
44.3791737124
 21
16.8353071292
 31
0.0
  0
SPLINE
  5
34E
100
AcDbEntity
  8
0
100
AcDbSpline
 62
7
  6
CONTINUOUS
 70
0
 71
3
 72
9
 73
5
 74
3
 42
0.0000001
 43
0.0000001
 44
0.0000000001
 12
-0.0007377003
 22
-0.0043091908
 32
0.0
 13
-0.0021932949
 23
-0.0037819022
 33
0.0
 40
0.0
 40
0.0
 40
0.0
 40
0.0
 40
0.629842382
 40
1.0
 40
1.0
 40
1.0
 40
1.0
 10
44.3791737124
 20
16.8353071292
 30
0.0
 10
44.3790188341
 20
16.8344024255
 30
0.0
 10
44.3787332811
 20
16.8329827007
 30
0.0
 10
44.3783395957
 20
16.8315542483
 30
0.0
 10
44.3780689741
 20
16.831087615
 30
0.0
 11
44.3791737124
 21
16.8353071292
 31
0.0
 11
44.3786162311
 21
16.8326105575
 31
0.0
 11
44.3780689741
 21
16.831087615
 31
0.0
  0
SPLINE
  5
34F
100
AcDbEntity
  8
0
100
AcDbSpline
 62
7
  6
CONTINUOUS
 70
0
 71
3
 72
14
 73
10
 74
8
 42
0.0000001
 43
0.0000001
 44
0.0000000001
 12
0.0244288189
 22
0.0007606604
 32
0.0
 13
0.0018306312
 23
0.0243720042
 33
0.0
 40
0.0
 40
0.0
 40
0.0
 40
0.0
 40
0.0243742844
 40
0.0746916113
 40
0.1543204427
 40
0.2638011385
 40
0.4032035421
 40
0.5724588811
 40
1.0
 40
1.0
 40
1.0
 40
1.0
 10
44.3588498081
 20
16.830134939
 30
0.0
 10
44.3590482864
 20
16.8301411192
 30
0.0
 10
44.3594733833
 20
16.830741121
 30
0.0
 10
44.3598176118
 20
16.8318726731
 30
0.0
 10
44.3602686276
 20
16.8338122369
 30
0.0
 10
44.3606859799
 20
16.8364402486
 30
0.0
 10
44.3611264169
 20
16.8398246767
 30
0.0
 10
44.3617587883
 20
16.8457864087
 30
0.0
 10
44.362157037
 20
16.850634057
 30
0.0
 10
44.3624179271
 20
16.8541074017
 30
0.0
 11
44.3588498081
 21
16.830134939
 31
0.0
 11
44.3592982049
 21
16.8305271467
 31
0.0
 11
44.3597454708
 21
16.8316727178
 31
0.0
 11
44.3601918311
 21
16.8335670207
 31
0.0
 11
44.3606375108
 21
16.8362054236
 31
0.0
 11
44.3610827351
 21
16.8395832949
 31
0.0
 11
44.3615277291
 21
16.8436960028
 31
0.0
 11
44.3624179271
 21
16.8541074017
 31
0.0
  0
SPLINE
  5
350
100
AcDbEntity
  8
0
100
AcDbSpline
 62
7
  6
CONTINUOUS
 70
0
 71
3
 72
17
 73
13
 74
11
 42
0.0000001
 43
0.0000001
 44
0.0000000001
 12
0.0546658957
 22
0.9116358431
 32
0.0
 13
0.0670232168
 23
0.9108107153
 33
0.0
 40
0.0
 40
0.0
 40
0.0
 40
0.0
 40
0.0369765653
 40
0.0843683954
 40
0.2058780531
 40
0.3534936883
 40
0.5137833549
 40
0.67214845
 40
0.8141572174
 40
0.9268615506
 40
0.9688726446
 40
1.0
 40
1.0
 40
1.0
 40
1.0
 10
44.3633712
 20
16.8684131181
 30
0.0
 10
44.3640449857
 20
16.8796495056
 30
0.0
 10
44.3652975233
 20
16.9053039739
 30
0.0
 10
44.3677299321
 20
16.9679312831
 30
0.0
 10
44.37056602
 20
17.0642467022
 30
0.0
 10
44.3738413876
 20
17.194929841
 30
0.0
 10
44.3771279472
 20
17.336835959
 30
0.0
 10
44.380416674
 20
17.4770348895
 30
0.0
 10
44.3836732184
 20
17.6027432589
 30
0.0
 10
44.3865150366
 20
17.6930314678
 30
0.0
 10
44.3889885705
 20
17.7495524286
 30
0.0
 10
44.3902456949
 20
17.7717842614
 30
0.0
 10
44.3909411134
 20
17.7812346377
 30
0.0
 11
44.3633712
 21
16.8684131181
 31
0.0
 11
44.3650937736
 21
16.9021388686
 31
0.0
 11
44.3668162864
 21
16.9453862759
 31
0.0
 11
44.3702589841
 21
17.0563043973
 31
0.0
 11
44.3737037478
 21
17.1910738101
 31
0.0
 11
44.3771488093
 21
17.3374215529
 31
0.0
 11
44.3805956047
 21
17.4820111015
 31
0.0
 11
44.384038339
 21
17.6116582266
 31
0.0
 11
44.3874985299
 21
17.7145299172
 31
0.0
 11
44.3892270238
 21
17.7528585762
 31
0.0
 11
44.3909411134
 21
17.7812346377
 31
0.0
  0
SPLINE
  5
351
100
AcDbEntity
  8
0
100
AcDbSpline
 62
7
  6
CONTINUOUS
 70
0
 71
3
 72
10
 73
6
 74
4
 42
0.0000001
 43
0.0000001
 44
0.0000000001
 12
0.0016341922
 22
0.0222078228
 32
0.0
 13
0.0051449763
 23
0.0216653455
 33
0.0
 40
0.0
 40
0.0
 40
0.0
 40
0.0
 40
0.6279006936
 40
0.8460613419
 40
1.0
 40
1.0
 40
1.0
 40
1.0
 10
44.3909411134
 20
17.7812346377
 30
0.0
 10
44.3912831502
 20
17.7858827402
 30
0.0
 10
44.3917822734
 20
17.7921461506
 30
0.0
 10
44.3926890601
 20
17.7995125393
 30
0.0
 10
44.3931489486
 20
17.8022399122
 30
0.0
 10
44.3934129522
 20
17.8033516236
 30
0.0
 11
44.3909411134
 21
17.7812346377
 31
0.0
 11
44.3921716442
 21
17.7951623943
 31
0.0
 11
44.3927893954
 21
17.7999809295
 31
0.0
 11
44.3934129522
 21
17.8033516236
 31
0.0
  0
LINE
  5
352
100
AcDbEntity
  8
0
100
AcDbLine
 62
7
  6
CONTINUOUS
 10
44.3934129522
 20
17.8033516236
 11
44.3940683708
 21
17.8053025491
  0
SPLINE
  5
353
100
AcDbEntity
  8
0
100
AcDbSpline
 62
7
  6
CONTINUOUS
 70
0
 71
3
 72
12
 73
8
 74
6
 42
0.0000001
 43
0.0000001
 44
0.0000000001
 12
-0.0118327519
 22
0.0204794971
 32
0.0
 13
-0.0017972906
 23
0.0235837564
 33
0.0
 40
0.0
 40
0.0
 40
0.0
 40
0.0
 40
0.0438759495
 40
0.1108681055
 40
0.3150720383
 40
0.6120730746
 40
1.0
 40
1.0
 40
1.0
 40
1.0
 10
2.9651770944
 20
16.8377977764
 30
0.0
 10
2.9650040366
 20
16.8380972955
 30
0.0
 10
2.9647143809
 20
16.8389316388
 30
0.0
 10
2.9641357475
 20
16.8413436854
 30
0.0
 10
2.9634928916
 20
16.8457874152
 30
0.0
 10
2.9627416896
 20
16.8527534547
 30
0.0
 10
2.9622987517
 20
16.8581370524
 30
0.0
 10
2.9620663459
 20
16.8611866438
 30
0.0
 11
2.9651770944
 21
16.8377977764
 31
0.0
 11
2.9647882508
 21
16.8387599338
 31
0.0
 11
2.9643994072
 21
16.8402959892
 31
0.0
 11
2.9636217201
 21
16.8450628282
 31
0.0
 11
2.962844033
 21
16.8520443583
 31
0.0
 11
2.9620663459
 21
16.8611866438
 31
0.0
  0
LINE
  5
354
100
AcDbEntity
  8
0
100
AcDbLine
 62
7
  6
CONTINUOUS
 10
2.9620663459
 20
16.8611866438
 11
2.961010614
 21
16.8769586084
  0
SPLINE
  5
355
100
AcDbEntity
  8
0
100
AcDbSpline
 62
7
  6
CONTINUOUS
 70
0
 71
3
 72
17
 73
13
 74
11
 42
0.0000001
 43
0.0000001
 44
0.0000000001
 12
-0.0528576997
 22
0.8846047471
 32
0.0
 13
-0.0555353784
 23
0.8844406801
 33
0.0
 40
0.0
 40
0.0
 40
0.0
 40
0.0
 40
0.0367104512
 40
0.0833556966
 40
0.2024166588
 40
0.3464434939
 40
0.5035218468
 40
0.6601045887
 40
0.8026810192
 40
0.9194898175
 40
0.9647673962
 40
1.0
 40
1.0
 40
1.0
 40
1.0
 10
2.961010614
 20
16.8769586084
 30
0.0
 10
2.960363804
 20
16.8877833549
 30
0.0
 10
2.9591517864
 20
16.9123773663
 30
0.0
 10
2.9567972979
 20
16.9721239499
 30
0.0
 10
2.9540504049
 20
17.0635775306
 30
0.0
 10
2.9508652676
 20
17.1876510824
 30
0.0
 10
2.9476767379
 20
17.3228119188
 30
0.0
 10
2.9444897526
 20
17.4575442687
 30
0.0
 10
2.9413059034
 20
17.5803772756
 30
0.0
 10
2.9385608721
 20
17.6703327106
 30
0.0
 10
2.9362001348
 20
17.7285720091
 30
0.0
 10
2.9349852233
 20
17.7523244452
 30
0.0
 10
2.9343330047
 20
17.7627114946
 30
0.0
 11
2.961010614
 21
16.8769586084
 31
0.0
 11
2.9593432634
 21
16.9094480134
 31
0.0
 11
2.9576759128
 21
16.9507505743
 31
0.0
 11
2.9543412116
 21
17.0562076094
 31
0.0
 11
2.9510065105
 21
17.1837981057
 31
0.0
 11
2.9476718093
 21
17.3229582505
 31
0.0
 11
2.9443371081
 21
17.4616790669
 31
0.0
 11
2.941002407
 21
17.5879837965
 31
0.0
 11
2.9376677058
 21
17.6914439865
 31
0.0
 11
2.9360003552
 21
17.731533528
 31
0.0
 11
2.9343330047
 21
17.7627114946
 31
0.0
  0
SPLINE
  5
356
100
AcDbEntity
  8
0
100
AcDbSpline
 62
7
  6
CONTINUOUS
 70
0
 71
3
 72
13
 73
9
 74
7
 42
0.0000001
 43
0.0000001
 44
0.0000000001
 12
-0.0018340531
 22
0.0242787337
 32
0.0
 13
-0.0140611769
 23
0.0198772223
 33
0.0
 40
0.0
 40
0.0
 40
0.0
 40
0.0
 40
0.394856713
 40
0.6941252367
 40
0.807307207
 40
0.8959383669
 40
0.9599997963
 40
1.0
 40
1.0
 40
1.0
 40
1.0
 10
2.9335491644
 20
17.7741455844
 30
0.0
 10
2.9333077684
 20
17.7773411247
 30
0.0
 10
2.9328442826
 20
17.7829551392
 30
0.0
 10
2.9321548837
 20
17.7894739348
 30
0.0
 10
2.9315703346
 20
17.7934971872
 30
0.0
 10
2.9311811214
 20
17.7956239921
 30
0.0
 10
2.9307956597
 20
17.7971334419
 30
0.0
 10
2.9304944992
 20
17.7979387579
 30
0.0
 10
2.9303070159
 20
17.7982037889
 30
0.0
 11
2.9335491644
 21
17.7741455844
 31
0.0
 11
2.9327386273
 21
17.7837252911
 31
0.0
 11
2.9319280902
 21
17.7909666325
 31
0.0
 11
2.9315228216
 21
17.7936924139
 31
0.0
 11
2.931117553
 21
17.795812001
 31
0.0
 11
2.9307122844
 21
17.797318193
 31
0.0
 11
2.9303070159
 21
17.7982037889
 31
0.0
  0
SPLINE
  5
357
100
AcDbEntity
  8
0
100
AcDbSpline
 62
7
  6
CONTINUOUS
 70
0
 71
3
 72
12
 73
8
 74
6
 42
0.0000001
 43
0.0000001
 44
0.0000000001
 12
0.0116254375
 22
-0.0202077244
 32
0.0
 13
0.0017789791
 23
-0.0232451749
 33
0.0
 40
0.0
 40
0.0
 40
0.0
 40
0.0
 40
0.0432028376
 40
0.1094328818
 40
0.3123622882
 40
0.6094244273
 40
1.0
 40
1.0
 40
1.0
 40
1.0
 10
3.3063102177
 20
17.8098015207
 30
0.0
 10
3.306477635
 20
17.8095105104
 30
0.0
 10
3.3067598316
 20
17.8086991667
 30
0.0
 10
3.3073303151
 20
17.8063432638
 30
0.0
 10
3.3079730475
 20
17.8019802113
 30
0.0
 10
3.3087279619
 20
17.79510425
 30
0.0
 10
3.3091708978
 20
17.7897771614
 30
0.0
 10
3.3094025064
 20
17.7867508289
 30
0.0
 11
3.3063102177
 21
17.8098015207
 31
0.0
 11
3.3066876186
 21
17.8088677066
 31
0.0
 11
3.3070693892
 21
17.8073716175
 31
0.0
 11
3.3078425203
 21
17.8027042944
 31
0.0
 11
3.3086225723
 21
17.7958229114
 31
0.0
 11
3.3094025064
 21
17.7867508289
 31
0.0
  0
SPLINE
  5
358
100
AcDbEntity
  8
0
100
AcDbSpline
 62
7
  6
CONTINUOUS
 70
0
 71
3
 72
18
 73
14
 74
12
 42
0.0000001
 43
0.0000001
 44
0.0000000001
 12
0.0560472361
 22
-0.9219700483
 32
0.0
 13
0.0688982077
 23
-0.9210988544
 33
0.0
 40
0.0
 40
0.0
 40
0.0
 40
0.0
 40
0.0364915394
 40
0.083538588
 40
0.2047443465
 40
0.3524598623
 40
0.5130994756
 40
0.6718846159
 40
0.814220602
 40
0.8750327842
 40
0.9270370107
 40
0.9689975686
 40
1.0
 40
1.0
 40
1.0
 40
1.0
 10
3.3103186673
 20
17.7732225797
 30
0.0
 10
3.3110004173
 20
17.7620078776
 30
0.0
 10
3.3122516153
 20
17.7363162052
 30
0.0
 10
3.3146986795
 20
17.6733247577
 30
0.0
 10
3.3175724806
 20
17.5760817662
 30
0.0
 10
3.3208433007
 20
17.4438646791
 30
0.0
 10
3.3241539031
 20
17.3000744966
 30
0.0
 10
3.3274544641
 20
17.1579411124
 30
0.0
 10
3.3303027337
 20
17.0465410935
 30
0.0
 10
3.3326928507
 20
16.9680183662
 30
0.0
 10
3.3343724239
 20
16.9203929844
 30
0.0
 10
3.3360372275
 20
16.8819529861
 30
0.0
 10
3.3373009556
 20
16.859521369
 30
0.0
 10
3.3380129596
 20
16.8500026009
 30
0.0
 11
3.3103186673
 21
17.7732225797
 31
0.0
 11
3.3120452899
 21
17.7395606173
 31
0.0
 11
3.3137747698
 21
17.6961390022
 31
0.0
 11
3.3172504697
 21
17.5842385961
 31
0.0
 11
3.3207075739
 21
17.4478417069
 31
0.0
 11
3.3241719589
 21
17.2995038347
 31
0.0
 11
3.327632477
 21
17.1528792686
 31
0.0
 11
3.3310936668
 21
17.0214530645
 31
0.0
 11
3.3328240092
 21
16.9653092094
 31
0.0
 11
3.3345525137
 21
16.9173054683
 31
0.0
 11
3.3362796925
 21
16.8785861772
 31
0.0
 11
3.3380129596
 21
16.8500026009
 31
0.0
  0
SPLINE
  5
359
100
AcDbEntity
  8
0
100
AcDbSpline
 62
7
  6
CONTINUOUS
 70
0
 71
3
 72
12
 73
8
 74
6
 42
0.0000001
 43
0.0000001
 44
0.0000000001
 12
0.0017987435
 22
-0.024047368
 32
0.0
 13
0.0112736512
 23
-0.0213170395
 33
0.0
 40
0.0
 40
0.0
 40
0.0
 40
0.0
 40
0.3877135265
 40
0.6838665934
 40
0.8878017388
 40
0.9552201564
 40
1.0
 40
1.0
 40
1.0
 40
1.0
 10
3.3380129596
 20
16.8500026009
 30
0.0
 10
3.3382454253
 20
16.846894771
 30
0.0
 10
3.3386896906
 20
16.8414141555
 30
0.0
 10
3.3394440985
 20
16.8343205744
 30
0.0
 10
3.3400901552
 20
16.829796019
 30
0.0
 10
3.3406643788
 20
16.8273231263
 30
0.0
 10
3.340950794
 20
16.8264601793
 30
0.0
 10
3.3411190714
 20
16.8261419881
 30
0.0
 11
3.3380129596
 21
16.8500026009
 31
0.0
 11
3.3387931584
 21
16.8406856746
 31
0.0
 11
3.3395730871
 21
16.833586793
 31
0.0
 11
3.3403494801
 21
16.8287306621
 31
0.0
 11
3.3407353301
 21
16.8271513489
 31
0.0
 11
3.3411190714
 21
16.8261419881
 31
0.0
  0
SPLINE
  5
35A
100
AcDbEntity
  8
0
100
AcDbSpline
 62
7
  6
CONTINUOUS
 70
0
 71
3
 72
11
 73
7
 74
5
 42
0.0000001
 43
0.0000001
 44
0.0000000001
 12
0.0049116073
 22
-0.0055544885
 32
0.0
 13
0.0010417214
 23
-0.0073410521
 33
0.0
 40
0.0
 40
0.0
 40
0.0
 40
0.0
 40
0.1252007659
 40
0.3312605217
 40
0.6222915471
 40
1.0
 40
1.0
 40
1.0
 40
1.0
 10
3.3277249248
 20
17.7700178421
 30
0.0
 10
3.3279299038
 20
17.7697860333
 30
0.0
 10
3.3282601343
 20
17.7690124063
 30
0.0
 10
3.3286756069
 20
17.7675414582
 30
0.0
 10
3.3290967611
 20
17.7654140132
 30
0.0
 10
3.3293498582
 20
17.7637820707
 30
0.0
 10
3.3294810138
 20
17.7628578116
 30
0.0
 11
3.3277249248
 21
17.7700178421
 31
0.0
 11
3.3281639471
 21
17.7691999028
 31
0.0
 11
3.3286029693
 21
17.7677364875
 31
0.0
 11
3.3290419916
 21
17.7656237418
 31
0.0
 11
3.3294810138
 21
17.7628578116
 31
0.0
  0
SPLINE
  5
35B
100
AcDbEntity
  8
0
100
AcDbSpline
 62
7
  6
CONTINUOUS
 70
0
 71
3
 72
21
 73
17
 74
15
 42
0.0000001
 43
0.0000001
 44
0.0000000001
 12
0.123890082
 22
-0.8730583574
 32
0.0
 13
0.0767013127
 23
-0.8784626096
 33
0.0
 40
0.0
 40
0.0
 40
0.0
 40
0.0
 40
0.0093333976
 40
0.0221372162
 40
0.0582472211
 40
0.1073298251
 40
0.1675371504
 40
0.2370023127
 40
0.3137992631
 40
0.4805738442
 40
0.6498691495
 40
0.8036665831
 40
0.8691621575
 40
0.9245864584
 40
0.9686293249
 40
1.0
 40
1.0
 40
1.0
 40
1.0
 10
3.3294810138
 20
17.7628578116
 30
0.0
 10
3.3298664523
 20
17.7601416113
 30
0.0
 10
3.3305651982
 20
17.7536697537
 30
0.0
 10
3.3319476167
 20
17.736604602
 30
0.0
 10
3.3335189033
 20
17.7078389638
 30
0.0
 10
3.3353318486
 20
17.6651400142
 30
0.0
 10
3.3371620872
 20
17.6126287722
 30
0.0
 10
3.3390127292
 20
17.5519684683
 30
0.0
 10
3.3415555978
 20
17.4599910578
 30
0.0
 10
3.3446070267
 20
17.3386733559
 30
0.0
 10
3.3481912822
 20
17.194729048
 30
0.0
 10
3.3512662548
 20
17.0805501058
 30
0.0
 10
3.3538677493
 20
16.999843062
 30
0.0
 10
3.3556969596
 20
16.9513882202
 30
0.0
 10
3.3575080718
 20
16.9129739263
 30
0.0
 10
3.358881466
 20
16.8908454837
 30
0.0
 10
3.3596835234
 20
16.8816594953
 30
0.0
 11
3.3294810138
 21
17.7628578116
 31
0.0
 11
3.3304248423
 21
17.7546818744
 31
0.0
 11
3.3313686707
 21
17.743430925
 31
0.0
 11
3.3332563275
 21
17.7116449519
 31
0.0
 11
3.3351439844
 21
17.6684048611
 31
0.0
 11
3.3370316412
 21
17.6153473232
 31
0.0
 11
3.3389192981
 21
17.5541217043
 31
0.0
 11
3.3408069549
 21
17.4864281011
 31
0.0
 11
3.3445822686
 21
17.3394139473
 31
0.0
 11
3.3483575823
 21
17.190176285
 31
0.0
 11
3.352132896
 21
17.0546095329
 31
0.0
 11
3.3540205528
 21
16.9968860797
 31
0.0
 11
3.3559082097
 21
16.9480491344
 31
0.0
 11
3.3577958665
 21
16.909257826
 31
0.0
 11
3.3596835234
 21
16.8816594953
 31
0.0
  0
LINE
  5
35C
100
AcDbEntity
  8
0
100
AcDbLine
 62
7
  6
CONTINUOUS
 10
3.3596835234
 20
16.8816594953
 11
3.3606202939
 21
16.8724642218
  0
SPLINE
  5
35D
100
AcDbEntity
  8
0
100
AcDbSpline
 62
7
  6
CONTINUOUS
 70
0
 71
3
 72
11
 73
7
 74
5
 42
0.0000001
 43
0.0000001
 44
0.0000000001
 12
0.001214842
 22
-0.0099319267
 32
0.0
 13
0.0100059487
 23
0.000000031
 33
0.0
 40
0.0
 40
0.0
 40
0.0
 40
0.0
 40
0.4231047038
 40
0.7277943132
 40
0.9163528978
 40
1.0
 40
1.0
 40
1.0
 40
1.0
 10
3.3606202939
 20
16.8724642218
 30
0.0
 10
3.360791629
 20
16.8710634735
 30
0.0
 10
3.3611002839
 20
16.8686855083
 30
0.0
 10
3.3616982193
 20
16.8655903531
 30
0.0
 10
3.3621331548
 20
16.8638918443
 30
0.0
 10
3.3626868826
 20
16.8628892062
 30
0.0
 10
3.3629658721
 20
16.862889207
 30
0.0
 11
3.3606202939
 21
16.8724642218
 31
0.0
 11
3.3612066884
 21
16.8682714655
 31
0.0
 11
3.361793083
 21
16.8652796825
 31
0.0
 11
3.3623794776
 21
16.8634864154
 31
0.0
 11
3.3629658721
 21
16.862889207
 31
0.0
  0
SPLINE
  5
35E
100
AcDbEntity
  8
0
100
AcDbSpline
 62
7
  6
CONTINUOUS
 70
0
 71
3
 72
12
 73
8
 74
6
 42
0.0000001
 43
0.0000001
 44
0.0000000001
 12
-0.0114707146
 22
0.0205587924
 32
0.0
 13
-0.0017659774
 23
0.0234759997
 33
0.0
 40
0.0
 40
0.0
 40
0.0
 40
0.0
 40
0.045100587
 40
0.1126525102
 40
0.316586895
 40
0.6125598935
 40
1.0
 40
1.0
 40
1.0
 40
1.0
 10
3.0365713606
 20
16.8356160868
 30
0.0
 10
3.0363989153
 20
16.835925158
 30
0.0
 10
3.0361064428
 20
16.836767981
 30
0.0
 10
3.035529918
 20
16.8391819373
 30
0.0
 10
3.0348940142
 20
16.8435989086
 30
0.0
 10
3.0341582235
 20
16.8505202932
 30
0.0
 10
3.0337247398
 20
16.8558674008
 30
0.0
 10
3.0334966696
 20
16.8588992487
 30
0.0
 11
3.0365713606
 21
16.8356160868
 31
0.0
 11
3.0361787284
 21
16.8366025965
 31
0.0
 11
3.0357900526
 21
16.8381446988
 31
0.0
 11
3.0350213979
 21
16.8428838588
 31
0.0
 11
3.0342590519
 21
16.8498099234
 31
0.0
 11
3.0334966696
 21
16.8588992487
 31
0.0
  0
SPLINE
  5
35F
100
AcDbEntity
  8
0
100
AcDbSpline
 62
7
  6
CONTINUOUS
 70
0
 71
3
 72
17
 73
13
 74
11
 42
0.0000001
 43
0.0000001
 44
0.0000000001
 12
-0.053229221
 22
0.8892499479
 32
0.0
 13
-0.0546157044
 23
0.8891658701
 33
0.0
 40
0.0
 40
0.0
 40
0.0
 40
0.0
 40
0.0364730202
 40
0.0828566001
 40
0.2012139089
 40
0.3449916715
 40
0.5019190574
 40
0.6585894327
 40
0.8016106346
 40
0.9187503551
 40
0.9643698334
 40
1.0
 40
1.0
 40
1.0
 40
1.0
 10
3.0324983383
 20
16.8738892685
 30
0.0
 10
3.0318511948
 20
16.884700479
 30
0.0
 10
3.0306353623
 20
16.9092755182
 30
0.0
 10
3.0282753061
 20
16.9689790798
 30
0.0
 10
3.0255278877
 20
17.0605531522
 30
0.0
 10
3.0223459252
 20
17.184951677
 30
0.0
 10
3.0191577
 20
17.3207307377
 30
0.0
 10
3.0159590271
 20
17.4562848314
 30
0.0
 10
3.0127929435
 20
17.5800209988
 30
0.0
 10
3.0100279403
 20
17.6707812144
 30
0.0
 10
3.0076544742
 20
17.7296448031
 30
0.0
 10
3.0064390646
 20
17.7537421603
 30
0.0
 10
3.005790409
 20
17.7643025364
 30
0.0
 11
3.0324983383
 21
16.8738892685
 31
0.0
 11
3.0308280694
 21
16.9063379941
 31
0.0
 11
3.0291563713
 21
16.9476245886
 31
0.0
 11
3.0258243825
 21
17.053009546
 31
0.0
 11
3.0224885549
 21
17.1810493164
 31
0.0
 11
3.0191532047
 21
17.3208069717
 31
0.0
 11
3.0158150514
 21
17.4603355389
 31
0.0
 11
3.0124826002
 21
17.587701192
 31
0.0
 11
3.0091349427
 21
17.6920004217
 31
0.0
 11
3.007458244
 21
17.7326055493
 31
0.0
 11
3.005790409
 21
17.7643025364
 31
0.0
  0
SPLINE
  5
360
100
AcDbEntity
  8
0
100
AcDbSpline
 62
7
  6
CONTINUOUS
 70
0
 71
3
 72
13
 73
9
 74
7
 42
0.0000001
 43
0.0000001
 44
0.0000000001
 12
-0.0017956078
 22
0.0241820954
 32
0.0
 13
-0.0141722345
 23
0.0196760188
 33
0.0
 40
0.0
 40
0.0
 40
0.0
 40
0.0
 40
0.3960708215
 40
0.694895958
 40
0.8076203491
 40
0.895849739
 40
0.9597386827
 40
1.0
 40
1.0
 40
1.0
 40
1.0
 10
3.0049733016
 20
17.7764655612
 30
0.0
 10
3.004736239
 20
17.7796581686
 30
0.0
 10
3.0042828042
 20
17.7852561955
 30
0.0
 10
3.0036060738
 20
17.7917520358
 30
0.0
 10
3.0030274797
 20
17.7957488659
 30
0.0
 10
3.0026390821
 20
17.7978583291
 30
0.0
 10
3.0022512872
 20
17.7993583454
 30
0.0
 10
3.0019434731
 20
17.8001583262
 30
0.0
 10
3.0017532755
 20
17.800422387
 30
0.0
 11
3.0049733016
 21
17.7764655612
 31
0.0
 11
3.0041774932
 21
17.786036724
 31
0.0
 11
3.0033807519
 21
17.7932389001
 31
0.0
 11
3.0029795943
 21
17.7959427192
 31
0.0
 11
3.0025752789
 21
17.7980436131
 31
0.0
 11
3.0021668309
 21
17.7995380222
 31
0.0
 11
3.0017532755
 21
17.800422387
 31
0.0
  0
SPLINE
  5
361
100
AcDbEntity
  8
0
100
AcDbSpline
 62
7
  6
CONTINUOUS
 70
0
 71
3
 72
11
 73
7
 74
5
 42
0.0000001
 43
0.0000001
 44
0.0000000001
 12
-0.0093446155
 22
-0.0370554363
 32
0.0
 13
-0.0024319924
 23
-0.038138073
 33
0.0
 40
0.0
 40
0.0
 40
0.0
 40
0.0
 40
0.1387758364
 40
0.3533016206
 40
0.6411376198
 40
1.0
 40
1.0
 40
1.0
 40
1.0
 10
44.5151425569
 20
17.7605679312
 30
0.0
 10
44.514710288
 20
17.7588537982
 30
0.0
 10
44.5139961409
 20
17.7543999288
 30
0.0
 10
44.5130859332
 20
17.7462866297
 30
0.0
 10
44.5121468803
 20
17.7353535541
 30
0.0
 10
44.5115849412
 20
17.7271350067
 30
0.0
 10
44.5112940243
 20
17.7225729001
 30
0.0
 11
44.5151425569
 21
17.7605679312
 31
0.0
 11
44.5141820561
 21
17.7553522419
 31
0.0
 11
44.5132201777
 21
17.7472106471
 31
0.0
 11
44.5122526936
 21
17.73625347
 31
0.0
 11
44.5112940243
 21
17.7225729001
 31
0.0
  0
SPLINE
  5
362
100
AcDbEntity
  8
0
100
AcDbSpline
 62
7
  6
CONTINUOUS
 70
0
 71
3
 72
29
 73
25
 74
23
 42
0.0000001
 43
0.0000001
 44
0.0000000001
 12
-0.0540083891
 22
-0.8469499845
 32
0.0
 13
-0.3303196229
 23
-0.7817481238
 33
0.0
 40
0.0
 40
0.0
 40
0.0
 40
0.0
 40
0.0413202479
 40
0.0664257095
 40
0.0944092824
 40
0.1586548795
 40
0.2328693403
 40
0.400097716
 40
0.4876986349
 40
0.5750239423
 40
0.6599409867
 40
0.7007469778
 40
0.7399853259
 40
0.812146191
 40
0.8443676576
 40
0.8737822669
 40
0.9002990616
 40
0.9238558114
 40
0.9444047576
 40
0.9618946102
 40
0.976273367
 40
0.9874704136
 40
0.9953999969
 40
1.0
 40
1.0
 40
1.0
 40
1.0
 10
44.5112940243
 20
17.7225729001
 30
0.0
 10
44.5105501443
 20
17.7109075057
 30
0.0
 10
44.5095387327
 20
17.6921422823
 30
0.0
 10
44.5084249251
 20
17.6654581126
 30
0.0
 10
44.5070194176
 20
17.632294964
 30
0.0
 10
44.5054497291
 20
17.5852352332
 30
0.0
 10
44.5028558356
 20
17.4987980406
 30
0.0
 10
44.5004401809
 20
17.405745843
 30
0.0
 10
44.4979468288
 20
17.3089858852
 30
0.0
 10
44.4960694119
 20
17.2355027432
 30
0.0
 10
44.4944446251
 20
17.1752554162
 30
0.0
 10
44.493240927
 20
17.1286049156
 30
0.0
 10
44.491940159
 20
17.085567215
 30
0.0
 10
44.4907548468
 20
17.0449553605
 30
0.0
 10
44.4893835884
 20
17.0071303411
 30
0.0
 10
44.4884867395
 20
16.9822087861
 30
0.0
 10
44.4875252309
 20
16.9597429322
 30
0.0
 10
44.4865971281
 20
16.9397856737
 30
0.0
 10
44.4856032783
 20
16.922389663
 30
0.0
 10
44.4847108798
 20
16.907586427
 30
0.0
 10
44.4837687391
 20
16.895443304
 30
0.0
 10
44.4828464664
 20
16.8859989047
 30
0.0
 10
44.4819797462
 20
16.8793638375
 30
0.0
 10
44.4812951436
 20
16.8758469467
 30
0.0
 10
44.4807886531
 20
16.8746482654
 30
0.0
 11
44.5112940243
 21
17.7225729001
 31
0.0
 11
44.5093799684
 21
17.6875579112
 31
0.0
 11
44.5084567315
 21
17.666271665
 31
0.0
 11
44.5074754197
 21
17.6425431222
 31
0.0
 11
44.5055719235
 21
17.5880530329
 31
0.0
 11
44.5036711937
 21
17.5250981151
 31
0.0
 11
44.4998615521
 21
17.3832275096
 31
0.0
 11
44.4979475411
 21
17.3089078588
 31
0.0
 11
44.4960342499
 21
17.2348221706
 31
0.0
 11
44.4941271179
 21
17.1627808409
 31
0.0
 11
44.4932034995
 21
17.1281623293
 31
0.0
 11
44.4922255702
 21
17.0948762733
 31
0.0
 11
44.4903256656
 21
17.0336649723
 31
0.0
 11
44.489356085
 21
17.006336767
 31
0.0
 11
44.4884275187
 21
16.9813907393
 31
0.0
 11
44.4874747445
 21
16.9589069031
 31
0.0
 11
44.4865199392
 21
16.938937804
 31
0.0
 11
44.4855440431
 21
16.9215258516
 31
0.0
 11
44.484611341
 21
16.9067120674
 31
0.0
 11
44.483653466
 21
16.8945468973
 31
0.0
 11
44.4826975096
 21
16.8850925036
 31
0.0
 11
44.4817672383
 21
16.8784275107
 31
0.0
 11
44.4807886531
 21
16.8746482654
 31
0.0
  0
SPLINE
  5
363
100
AcDbEntity
  8
0
100
AcDbSpline
 62
7
  6
CONTINUOUS
 70
0
 71
3
 72
12
 73
8
 74
6
 42
0.0000001
 43
0.0000001
 44
0.0000000001
 12
0.0114113027
 22
-0.0203917977
 32
0.0
 13
0.0017509976
 23
-0.0233018722
 33
0.0
 40
0.0
 40
0.0
 40
0.0
 40
0.0
 40
0.0443940742
 40
0.1114593949
 40
0.3150258473
 40
0.6114000466
 40
1.0
 40
1.0
 40
1.0
 40
1.0
 10
3.3777833043
 20
17.8119813033
 30
0.0
 10
3.377952169
 20
17.811679545
 30
0.0
 10
3.3782378253
 20
17.8108511019
 30
0.0
 10
3.3788062635
 20
17.8084669361
 30
0.0
 10
3.3794381986
 20
17.8040863124
 30
0.0
 10
3.3801733757
 20
17.7972075625
 30
0.0
 10
3.3806056049
 20
17.7918880516
 30
0.0
 10
3.3808324174
 20
17.7888696828
 30
0.0
 11
3.3777833043
 21
17.8119813033
 31
0.0
 11
3.3781663107
 21
17.8110172148
 31
0.0
 11
3.3785484926
 21
17.809497377
 31
0.0
 11
3.3793109648
 21
17.8048020298
 31
0.0
 11
3.380071885
 21
17.7979184141
 31
0.0
 11
3.3808324174
 21
17.7888696828
 31
0.0
  0
SPLINE
  5
364
100
AcDbEntity
  8
0
100
AcDbSpline
 62
7
  6
CONTINUOUS
 70
0
 71
3
 72
17
 73
13
 74
11
 42
0.0000001
 43
0.0000001
 44
0.0000000001
 12
0.0578023832
 22
-0.9284504254
 32
0.0
 13
0.068109522
 23
-0.9277512603
 33
0.0
 40
0.0
 40
0.0
 40
0.0
 40
0.0
 40
0.0356782878
 40
0.0820686255
 40
0.2024622415
 40
0.3499807466
 40
0.510912805
 40
0.6702957089
 40
0.8133244078
 40
0.9267250177
 40
0.9688843224
 40
1.0
 40
1.0
 40
1.0
 40
1.0
 10
3.3815938464
 20
17.7776816464
 30
0.0
 10
3.3822812764
 20
17.7666398059
 30
0.0
 10
3.3835478194
 20
17.741221838
 30
0.0
 10
3.3860202129
 20
17.6784903666
 30
0.0
 10
3.3888979554
 20
17.5810712286
 30
0.0
 10
3.3921880383
 20
17.4481350826
 30
0.0
 10
3.3955146413
 20
17.3031061221
 30
0.0
 10
3.3988231736
 20
17.1594690998
 30
0.0
 10
3.4021254156
 20
17.0305758908
 30
0.0
 10
3.4049677476
 20
16.9380294874
 30
0.0
 10
3.4074641215
 20
16.8801985147
 30
0.0
 10
3.4087365323
 20
16.8575105395
 30
0.0
 10
3.4094429569
 20
16.8478880031
 30
0.0
 11
3.3815938464
 21
17.7776816464
 31
0.0
 11
3.3833325417
 21
17.7445375647
 31
0.0
 11
3.3850770843
 21
17.7014183231
 31
0.0
 11
3.3885693139
 21
17.589476865
 31
0.0
 11
3.3920455277
 21
17.4522921092
 31
0.0
 11
3.3955280745
 21
17.3026258984
 31
0.0
 11
3.3990072458
 21
17.1544011001
 31
0.0
 11
3.4024865652
 21
17.0213944416
 31
0.0
 11
3.4059644732
 21
16.9159610999
 31
0.0
 11
3.4077086402
 21
16.8767812952
 31
0.0
 11
3.4094429569
 21
16.8478880031
 31
0.0
  0
SPLINE
  5
365
100
AcDbEntity
  8
0
100
AcDbSpline
 62
7
  6
CONTINUOUS
 70
0
 71
3
 72
12
 73
8
 74
6
 42
0.0000001
 43
0.0000001
 44
0.0000000001
 12
0.0017739728
 22
-0.0241641026
 32
0.0
 13
0.0116255764
 23
-0.0212578646
 33
0.0
 40
0.0
 40
0.0
 40
0.0
 40
0.0
 40
0.3879693256
 40
0.6841537829
 40
0.887944628
 40
0.9552663235
 40
1.0
 40
1.0
 40
1.0
 40
1.0
 10
3.4094429569
 20
16.8478880031
 30
0.0
 10
3.4096723726
 20
16.8447630263
 30
0.0
 10
3.410108541
 20
16.8392531593
 30
0.0
 10
3.4108494064
 20
16.8321232604
 30
0.0
 10
3.4114882841
 20
16.827576783
 30
0.0
 10
3.4120671348
 20
16.8250952296
 30
0.0
 10
3.4123597537
 20
16.8242302317
 30
0.0
 10
3.4125331053
 20
16.8239132509
 30
0.0
 11
3.4094429569
 21
16.8478880031
 31
0.0
 11
3.410210361
 21
16.83851922
 31
0.0
 11
3.4109776982
 21
16.83138407
 31
0.0
 11
3.4117502018
 21
16.8265071986
 31
0.0
 11
3.4121400264
 21
16.8249233189
 31
0.0
 11
3.4125331053
 21
16.8239132509
 31
0.0
  0
SPLINE
  5
366
100
AcDbEntity
  8
0
100
AcDbSpline
 62
7
  6
CONTINUOUS
 70
0
 71
3
 72
14
 73
10
 74
8
 42
0.0000001
 43
0.0000001
 44
0.0000000001
 12
-0.0237425453
 22
0.0007392879
 32
0.0
 13
-0.0018245636
 23
-0.0236838758
 33
0.0
 40
0.0
 40
0.0
 40
0.0
 40
0.0
 40
0.023375718
 40
0.0729704653
 40
0.1521845804
 40
0.2615369614
 40
0.4010893631
 40
0.5707711872
 40
1.0
 40
1.0
 40
1.0
 40
1.0
 10
44.3419401732
 20
17.807366656
 30
0.0
 10
44.3417551735
 20
17.8073724164
 30
0.0
 10
44.3413390322
 20
17.8067956688
 30
0.0
 10
44.3410153942
 20
17.8057191166
 30
0.0
 10
44.3405674529
 20
17.8038418217
 30
0.0
 10
44.3401541857
 20
17.8012940404
 30
0.0
 10
44.3397118719
 20
17.7980022145
 30
0.0
 10
44.339075139
 20
17.792192671
 30
0.0
 10
44.338674173
 20
17.78746533
 30
0.0
 10
44.3384131212
 20
17.7840767294
 30
0.0
 11
44.3419401732
 21
17.807366656
 31
0.0
 11
44.3415153361
 21
17.8070091143
 31
0.0
 11
44.3410830765
 21
17.8059132059
 31
0.0
 11
44.3406448136
 21
17.8040832999
 31
0.0
 11
44.3402019667
 21
17.8015237656
 31
0.0
 11
44.3397559548
 21
17.7982389722
 31
0.0
 11
44.3393081971
 21
17.7942332888
 31
0.0
 11
44.3384131212
 21
17.7840767294
 31
0.0
  0
LINE
  5
367
100
AcDbEntity
  8
0
100
AcDbLine
 62
7
  6
CONTINUOUS
 10
44.3384131212
 20
17.7840767294
 11
44.3374206444
 21
17.769375464
  0
SPLINE
  5
368
100
AcDbEntity
  8
0
100
AcDbSpline
 62
7
  6
CONTINUOUS
 70
0
 71
3
 72
18
 73
14
 74
12
 42
0.0000001
 43
0.0000001
 44
0.0000000001
 12
-0.0550634609
 22
-0.9154983446
 32
0.0
 13
-0.0686644622
 23
-0.9145788076
 33
0.0
 40
0.0
 40
0.0
 40
0.0
 40
0.0
 40
0.0369053928
 40
0.0842862702
 40
0.2059036866
 40
0.3537178199
 40
0.5142076541
 40
0.6726885157
 40
0.814672862
 40
0.8753244084
 40
0.927193491
 40
0.9690544213
 40
1.0
 40
1.0
 40
1.0
 40
1.0
 10
44.3374206444
 20
17.769375464
 30
0.0
 10
44.3367432649
 20
17.7581131887
 30
0.0
 10
44.3354969288
 20
17.7323742534
 30
0.0
 10
44.3330580757
 20
17.6694730414
 30
0.0
 10
44.3301911747
 20
17.5726586681
 30
0.0
 10
44.3269280899
 20
17.4412648917
 30
0.0
 10
44.323625381
 20
17.2985986387
 30
0.0
 10
44.32033332
 20
17.1577151572
 30
0.0
 10
44.3174918352
 20
17.0473514552
 30
0.0
 10
44.3151086183
 20
16.9695812628
 30
0.0
 10
44.3134333667
 20
16.9224132448
 30
0.0
 10
44.3117714118
 20
16.884334161
 30
0.0
 10
44.3105109719
 20
16.8621091235
 30
0.0
 10
44.3098026848
 20
16.8526750667
 30
0.0
 11
44.3374206444
 21
17.769375464
 31
0.0
 11
44.3356993749
 21
17.7355713751
 31
0.0
 11
44.3339745141
 21
17.6921501177
 31
0.0
 11
44.3305083416
 21
17.5806622362
 31
0.0
 11
44.3270607608
 21
17.4451379386
 31
0.0
 11
44.323605806
 21
17.2979847958
 31
0.0
 11
44.3201547527
 21
17.1526746092
 31
0.0
 11
44.3167030752
 21
17.0224990263
 31
0.0
 11
44.3149777561
 21
16.9668990552
 31
0.0
 11
44.3132536119
 21
16.9193584367
 31
0.0
 11
44.3115300683
 21
16.8810042749
 31
0.0
 11
44.3098026848
 21
16.8526750667
 31
0.0
  0
SPLINE
  5
369
100
AcDbEntity
  8
0
100
AcDbSpline
 62
7
  6
CONTINUOUS
 70
0
 71
3
 72
9
 73
5
 74
3
 42
0.0000001
 43
0.0000001
 44
0.0000000001
 12
-0.001480415
 22
-0.0197184411
 32
0.0
 13
-0.0033431172
 23
-0.0194892821
 33
0.0
 40
0.0
 40
0.0
 40
0.0
 40
0.0
 40
0.596829587
 40
1.0
 40
1.0
 40
1.0
 40
1.0
 10
44.3098026848
 20
16.8526750667
 30
0.0
 10
44.3095081663
 20
16.848752217
 30
0.0
 10
44.3089549481
 20
16.8421853193
 30
0.0
 10
44.3082002823
 20
16.8356312103
 30
0.0
 10
44.3077510003
 20
16.833012043
 30
0.0
 11
44.3098026848
 21
16.8526750667
 31
0.0
 11
44.3087760556
 21
16.8409181347
 31
0.0
 11
44.3077510003
 21
16.833012043
 31
0.0
  0
SPLINE
  5
36A
100
AcDbEntity
  8
0
100
AcDbSpline
 62
7
  6
CONTINUOUS
 70
0
 71
3
 72
9
 73
5
 74
3
 42
0.0000001
 43
0.0000001
 44
0.0000000001
 12
-0.0007260211
 22
-0.0042324658
 32
0.0
 13
-0.0021742052
 23
-0.003703202
 33
0.0
 40
0.0
 40
0.0
 40
0.0
 40
0.0
 40
0.628026026
 40
1.0
 40
1.0
 40
1.0
 40
1.0
 10
44.3077510003
 20
16.833012043
 30
0.0
 10
44.3075990136
 20
16.8321260101
 30
0.0
 10
44.3073180797
 20
16.8307315144
 30
0.0
 10
44.3069249175
 20
16.8293298303
 30
0.0
 10
44.3066553349
 20
16.8288706653
 30
0.0
 11
44.3077510003
 21
16.833012043
 31
0.0
 11
44.3072018813
 21
16.8303716157
 31
0.0
 11
44.3066553349
 21
16.8288706653
 31
0.0
  0
SPLINE
  5
36B
100
AcDbEntity
  8
0
100
AcDbSpline
 62
7
  6
CONTINUOUS
 70
0
 71
3
 72
12
 73
8
 74
6
 42
0.0000001
 43
0.0000001
 44
0.0000000001
 12
-0.0117673072
 22
0.0203473082
 32
0.0
 13
-0.0017762534
 23
0.0234377344
 33
0.0
 40
0.0
 40
0.0
 40
0.0
 40
0.0
 40
0.0437577349
 40
0.110127106
 40
0.3126341944
 40
0.6091573133
 40
1.0
 40
1.0
 40
1.0
 40
1.0
 10
3.1080385214
 20
16.8335429808
 30
0.0
 10
3.1078668845
 20
16.8338397649
 30
0.0
 10
3.1075761389
 20
16.8346612915
 30
0.0
 10
3.1069962757
 20
16.8370380423
 30
0.0
 10
3.1063506608
 20
16.8414308235
 30
0.0
 10
3.1055985407
 20
16.8483589302
 30
0.0
 10
3.1051576809
 20
16.8537281427
 30
0.0
 10
3.1049262691
 20
16.8567816317
 30
0.0
 11
3.1080385214
 21
16.8335429808
 31
0.0
 11
3.1076494898
 21
16.8344950913
 31
0.0
 11
3.1072604583
 21
16.8360058133
 31
0.0
 11
3.1064823952
 21
16.8407017092
 31
0.0
 11
3.1057043321
 21
16.8476279036
 31
0.0
 11
3.1049262691
 21
16.8567816317
 31
0.0
  0
SPLINE
  5
36C
100
AcDbEntity
  8
0
100
AcDbSpline
 62
7
  6
CONTINUOUS
 70
0
 71
3
 72
17
 73
13
 74
11
 42
0.0000001
 43
0.0000001
 44
0.0000000001
 12
-0.0537686903
 22
0.893029626
 32
0.0
 13
-0.0540498774
 23
0.8930126515
 33
0.0
 40
0.0
 40
0.0
 40
0.0
 40
0.0
 40
0.0362653381
 40
0.0823799257
 40
0.2000689904
 40
0.3435951429
 40
0.5002881379
 40
0.6569604732
 40
0.8003286954
 40
0.9178166491
 40
0.9638563423
 40
1.0
 40
1.0
 40
1.0
 40
1.0
 10
3.1039773399
 20
16.8709362166
 30
0.0
 10
3.10332736
 20
16.8817315571
 30
0.0
 10
3.1021200189
 20
16.9062699871
 30
0.0
 10
3.0997646489
 20
16.9658873552
 30
0.0
 10
3.0970026859
 20
17.057497851
 30
0.0
 10
3.0938354705
 20
17.1820841551
 30
0.0
 10
3.0906418333
 20
17.318298989
 30
0.0
 10
3.0874497543
 20
17.4544667503
 30
0.0
 10
3.0842821116
 20
17.5789397776
 30
0.0
 10
3.0815184114
 20
17.6704207635
 30
0.0
 10
3.0791646308
 20
17.7299194907
 30
0.0
 10
3.0779573804
 20
17.7543992636
 30
0.0
 10
3.0773061936
 20
17.7651581782
 30
0.0
 11
3.1039773399
 21
16.8709362166
 31
0.0
 11
3.1023103933
 21
16.9033380365
 31
0.0
 11
3.1006434466
 21
16.944560617
 31
0.0
 11
3.0973095534
 21
17.0497979727
 31
0.0
 11
3.0939756601
 21
17.1781599053
 31
0.0
 11
3.0906417668
 21
17.3183051504
 31
0.0
 11
3.0873078735
 21
17.4584319072
 31
0.0
 11
3.0839739802
 21
17.5866525001
 31
0.0
 11
3.0806400869
 21
17.6917098421
 31
0.0
 11
3.0789731403
 21
17.7328653637
 31
0.0
 11
3.0773061936
 21
17.7651581782
 31
0.0
  0
SPLINE
  5
36D
100
AcDbEntity
  8
0
100
AcDbSpline
 62
7
  6
CONTINUOUS
 70
0
 71
3
 72
13
 73
9
 74
7
 42
0.0000001
 43
0.0000001
 44
0.0000000001
 12
-0.0018239267
 22
0.0242277395
 32
0.0
 13
-0.0156826272
 23
0.0185570816
 33
0.0
 40
0.0
 40
0.0
 40
0.0
 40
0.0
 40
0.4024721536
 40
0.7028766282
 40
0.8148237148
 40
0.9013647119
 40
0.9627748015
 40
1.0
 40
1.0
 40
1.0
 40
1.0
 10
3.0764072443
 20
17.7785608988
 30
0.0
 10
3.0761625511
 20
17.7818112289
 30
0.0
 10
3.0756936155
 20
17.7874836614
 30
0.0
 10
3.0749896906
 20
17.7940491602
 30
0.0
 10
3.0743905416
 20
17.7980427594
 30
0.0
 10
3.0739942585
 20
17.8001162042
 30
0.0
 10
3.0736025813
 20
17.8015543476
 30
0.0
 10
3.0732935865
 20
17.8023136679
 30
0.0
 10
3.0730989902
 20
17.8025439316
 30
0.0
 11
3.0764072443
 21
17.7785608988
 31
0.0
 11
3.0755801808
 21
17.788304443
 31
0.0
 11
3.0747531173
 21
17.7955561482
 31
0.0
 11
3.0743395855
 21
17.7982444276
 31
0.0
 11
3.0739260537
 21
17.8003059869
 31
0.0
 11
3.073512522
 21
17.8017395727
 31
0.0
 11
3.0730989902
 21
17.8025439316
 31
0.0
  0
SPLINE
  5
36E
100
AcDbEntity
  8
0
100
AcDbSpline
 62
7
  6
CONTINUOUS
 70
0
 71
3
 72
11
 73
7
 74
5
 42
0.0000001
 43
0.0000001
 44
0.0000000001
 12
0.0065671993
 22
-0.0113593722
 32
0.0
 13
0.0013525577
 23
-0.013051208
 33
0.0
 40
0.0
 40
0.0
 40
0.0
 40
0.0
 40
0.1250270277
 40
0.3322734875
 40
0.6236866277
 40
1.0
 40
1.0
 40
1.0
 40
1.0
 10
3.399191046
 20
17.7747670593
 30
0.0
 10
3.3994647385
 20
17.7742936498
 30
0.0
 10
3.3998772931
 20
17.7728774646
 30
0.0
 10
3.4004190067
 20
17.7702143655
 30
0.0
 10
3.4009592433
 20
17.7664189341
 30
0.0
 10
3.4012878348
 20
17.7635185453
 30
0.0
 10
3.4014574966
 20
17.7618814306
 30
0.0
 11
3.399191046
 21
17.7747670593
 31
0.0
 11
3.3997576587
 21
17.7732275245
 31
0.0
 11
3.4003242713
 21
17.7705679083
 31
0.0
 11
3.400890884
 21
17.7667864604
 31
0.0
 11
3.4014574966
 21
17.7618814306
 31
0.0
  0
SPLINE
  5
36F
100
AcDbEntity
  8
0
100
AcDbSpline
 62
7
  6
CONTINUOUS
 70
0
 71
3
 72
21
 73
17
 74
15
 42
0.0000001
 43
0.0000001
 44
0.0000000001
 12
0.0917352205
 22
-0.8851788391
 32
0.0
 13
0.0975265722
 23
-0.8845594924
 33
0.0
 40
0.0
 40
0.0
 40
0.0
 40
0.0
 40
0.0276244093
 40
0.0683445189
 40
0.1208412768
 40
0.1837846676
 40
0.2556333026
 40
0.3342407207
 40
0.5027074669
 40
0.6709099118
 40
0.7490534344
 40
0.8201407634
 40
0.8823379017
 40
0.9340561551
 40
0.9737121688
 40
1.0
 40
1.0
 40
1.0
 40
1.0
 10
3.4014574966
 20
17.7618814306
 30
0.0
 10
3.402302207
 20
17.7537305831
 30
0.0
 10
3.4036731135
 20
17.7334958756
 30
0.0
 10
3.405486058
 20
17.6976976948
 30
0.0
 10
3.4073116091
 20
17.6514084601
 30
0.0
 10
3.4091672397
 20
17.5958824293
 30
0.0
 10
3.4110231459
 20
17.5326065861
 30
0.0
 10
3.4135692969
 20
17.4380356472
 30
0.0
 10
3.4166269243
 20
17.314885937
 30
0.0
 10
3.4196834027
 20
17.1918738357
 30
0.0
 10
3.4222304914
 20
17.097744931
 30
0.0
 10
3.4240905701
 20
17.0350542389
 30
0.0
 10
3.4259448914
 20
16.9802067747
 30
0.0
 10
3.427763661
 20
16.9346855664
 30
0.0
 10
3.4295658979
 20
16.8998315871
 30
0.0
 10
3.4309465779
 20
16.8803101763
 30
0.0
 10
3.4318011653
 20
16.8725591261
 30
0.0
 11
3.4014574966
 21
17.7618814306
 31
0.0
 11
3.4033539759
 21
17.7373711873
 31
0.0
 11
3.4052504552
 21
17.7011832226
 31
0.0
 11
3.4071469345
 21
17.6545038368
 31
0.0
 11
3.4090434138
 21
17.5985213921
 31
0.0
 11
3.4109398931
 21
17.5346100137
 31
0.0
 11
3.4128363723
 21
17.4646814419
 31
0.0
 11
3.4166293309
 21
17.3148075672
 31
0.0
 11
3.4204222895
 21
17.1651689748
 31
0.0
 11
3.4223187688
 21
17.0956533854
 31
0.0
 11
3.4242152481
 21
17.0324198095
 31
0.0
 11
3.4261117274
 21
16.9771018551
 31
0.0
 11
3.4280082067
 21
16.9311158559
 31
0.0
 11
3.429904686
 21
16.8958761855
 31
0.0
 11
3.4318011653
 21
16.8725591261
 31
0.0
  0
SPLINE
  5
370
100
AcDbEntity
  8
0
100
AcDbSpline
 62
7
  6
CONTINUOUS
 70
0
 71
3
 72
12
 73
8
 74
6
 42
0.0000001
 43
0.0000001
 44
0.0000000001
 12
0.0013585264
 22
-0.0123217433
 32
0.0
 13
0.0123964089
 23
0.0000000002
 33
0.0
 40
0.0
 40
0.0
 40
0.0
 40
0.0
 40
0.4231513069
 40
0.7285300503
 40
0.9170730727
 40
0.969556501
 40
1.0
 40
1.0
 40
1.0
 40
1.0
 10
3.4318011653
 20
16.8725591261
 30
0.0
 10
3.431992786
 20
16.8708211388
 30
0.0
 10
3.4323567334
 20
16.8678279517
 30
0.0
 10
3.4329658324
 20
16.8640994101
 30
0.0
 10
3.4335239588
 20
16.861882775
 30
0.0
 10
3.4339904915
 20
16.8608765071
 30
0.0
 10
3.4342948143
 20
16.8606325807
 30
0.0
 10
3.434420611
 20
16.8606325807
 30
0.0
 11
3.4318011653
 21
16.8725591261
 31
0.0
 11
3.4324560267
 21
16.8673546068
 31
0.0
 11
3.4331108881
 21
16.8636260787
 31
0.0
 11
3.4337657495
 21
16.8613824379
 31
0.0
 11
3.4340931803
 21
16.8608202304
 31
0.0
 11
3.434420611
 21
16.8606325807
 31
0.0
  0
LINE
  5
371
100
AcDbEntity
  8
0
100
AcDbLine
 62
7
  6
CONTINUOUS
 10
44.5869880857
 20
17.7609227178
 11
44.5861291788
 21
17.7575881425
  0
SPLINE
  5
372
100
AcDbEntity
  8
0
100
AcDbSpline
 62
7
  6
CONTINUOUS
 70
0
 71
3
 72
10
 73
6
 74
4
 42
0.0000001
 43
0.0000001
 44
0.0000000001
 12
-0.0051931309
 22
-0.0280977682
 32
0.0
 13
-0.0019386639
 23
-0.0285078019
 33
0.0
 40
0.0
 40
0.0
 40
0.0
 40
0.0
 40
0.1654985855
 40
0.3888276009
 40
1.0
 40
1.0
 40
1.0
 40
1.0
 10
44.5861291788
 20
17.7575881425
 30
0.0
 10
44.5858426935
 20
17.7560380955
 30
0.0
 10
44.5853299044
 20
17.7523681599
 30
0.0
 10
44.5842523599
 20
17.742904911
 30
0.0
 10
44.5836835009
 20
17.73497367
 30
0.0
 10
44.5832885483
 20
17.7291659428
 30
0.0
 11
44.5861291788
 21
17.7575881425
 31
0.0
 11
44.5854231668
 21
17.7529122445
 31
0.0
 11
44.5846939384
 21
17.7465727239
 31
0.0
 11
44.5832885483
 21
17.7291659428
 31
0.0
  0
SPLINE
  5
373
100
AcDbEntity
  8
0
100
AcDbSpline
 62
7
  6
CONTINUOUS
 70
0
 71
3
 72
29
 73
25
 74
23
 42
0.0000001
 43
0.0000001
 44
0.0000000001
 12
-0.0578822704
 22
-0.8511513081
 32
0.0
 13
-0.6841127477
 23
-0.509704478
 33
0.0
 40
0.0
 40
0.0
 40
0.0
 40
0.0
 40
0.0916915656
 40
0.2282135407
 40
0.3100554495
 40
0.3972753302
 40
0.4867313164
 40
0.5758929747
 40
0.6625094243
 40
0.7442281533
 40
0.8182669527
 40
0.8513691948
 40
0.8813385156
 40
0.9080171771
 40
0.9313471311
 40
0.9512965331
 40
0.9678576313
 40
0.9810194538
 40
0.9863207144
 40
0.9907652595
 40
0.9943506044
 40
0.9970750495
 40
0.9989441413
 40
1.0
 40
1.0
 40
1.0
 40
1.0
 10
44.5832885483
 20
17.7291659428
 30
0.0
 10
44.581519443
 20
17.7031514775
 30
0.0
 10
44.5786469889
 20
17.6383067899
 30
0.0
 10
44.5758016535
 20
17.5501843788
 30
0.0
 10
44.573369011
 20
17.4633181349
 30
0.0
 10
44.5714701497
 20
17.3898274751
 30
0.0
 10
44.569501385
 20
17.3142562224
 30
0.0
 10
44.5675648295
 20
17.2388558559
 30
0.0
 10
44.5656500004
 20
17.1656558517
 30
0.0
 10
44.5636749561
 20
17.0967596658
 30
0.0
 10
44.562056701
 20
17.0430774373
 30
0.0
 10
44.5607094657
 20
17.0041101797
 30
0.0
 10
44.5597234439
 20
16.9786067977
 30
0.0
 10
44.558783245
 20
16.9558823752
 30
0.0
 10
44.5577393427
 20
16.9360155906
 30
0.0
 10
44.5568290622
 20
16.9190225955
 30
0.0
 10
44.5558572317
 20
16.9049304357
 30
0.0
 10
44.5550111633
 20
16.8950049443
 30
0.0
 10
44.5543131726
 20
16.8885288388
 30
0.0
 10
44.5538294721
 20
16.8847662482
 30
0.0
 10
44.5533481925
 20
16.8817514057
 30
0.0
 10
44.5528760032
 20
16.8794579228
 30
0.0
 10
44.5524196668
 20
16.8779458833
 30
0.0
 10
44.5520449294
 20
16.8771476252
 30
0.0
 10
44.5518041539
 20
16.8769682333
 30
0.0
 11
44.5832885483
 21
17.7291659428
 31
0.0
 11
44.5793368732
 21
17.6510421723
 31
0.0
 11
44.5754036715
 21
17.5346393628
 31
0.0
 11
44.5734362069
 21
17.4648463511
 31
0.0
 11
44.5714839603
 21
17.3904631879
 31
0.0
 11
44.569503891
 21
17.3141724414
 31
0.0
 11
44.56754014
 21
17.2381324527
 31
0.0
 11
44.5655818278
 21
17.1642644261
 31
0.0
 11
44.5635943755
 21
17.0945771102
 31
0.0
 11
44.5616416023
 21
17.0314435324
 31
0.0
 11
44.5606585224
 21
17.0032205577
 31
0.0
 11
44.5596750922
 21
16.977672136
 31
0.0
 11
44.5586988167
 21
16.9549330598
 31
0.0
 11
44.5576852522
 21
16.9350556999
 31
0.0
 11
44.5567300702
 21
16.9180633479
 31
0.0
 11
44.5557483538
 21
16.903968939
 31
0.0
 11
44.5547620442
 21
16.8927837645
 31
0.0
 11
44.5542703041
 21
16.8882879809
 31
0.0
 11
44.553777464
 21
16.8845284288
 31
0.0
 11
44.5532832205
 21
16.8815099047
 31
0.0
 11
44.552789386
 21
16.8792387018
 31
0.0
 11
44.5522974333
 21
16.8777219336
 31
0.0
 11
44.5518041539
 21
16.8769682333
 31
0.0
  0
SPLINE
  5
374
100
AcDbEntity
  8
0
100
AcDbSpline
 62
7
  6
CONTINUOUS
 70
0
 71
3
 72
12
 73
8
 74
6
 42
0.0000001
 43
0.0000001
 44
0.0000000001
 12
0.0111576286
 22
-0.0200247136
 32
0.0
 13
0.0017397889
 23
-0.0228572738
 33
0.0
 40
0.0
 40
0.0
 40
0.0
 40
0.0
 40
0.0452286018
 40
0.1128734039
 40
0.3168748751
 40
0.6127673513
 40
1.0
 40
1.0
 40
1.0
 40
1.0
 10
3.0920869905
 20
17.8030637524
 30
0.0
 10
3.0922552051
 20
17.8027618558
 30
0.0
 10
3.0925415709
 20
17.801940094
 30
0.0
 10
3.0931074148
 20
17.7995883143
 30
0.0
 10
3.0937344972
 20
17.7952880805
 30
0.0
 10
3.0944605989
 20
17.7885513112
 30
0.0
 10
3.0948881491
 20
17.783347437
 30
0.0
 10
3.0951127168
 20
17.7803970761
 30
0.0
 11
3.0920869905
 21
17.8030637524
 31
0.0
 11
3.092471083
 21
17.8021007298
 31
0.0
 11
3.0928524549
 21
17.8005977111
 31
0.0
 11
3.09360912
 21
17.7959829277
 31
0.0
 11
3.094361152
 21
17.7892418877
 31
0.0
 11
3.0951127168
 21
17.7803970761
 31
0.0
  0
SPLINE
  5
375
100
AcDbEntity
  8
0
100
AcDbSpline
 62
7
  6
CONTINUOUS
 70
0
 71
3
 72
17
 73
13
 74
11
 42
0.0000001
 43
0.0000001
 44
0.0000000001
 12
0.0543452229
 22
-0.893515041
 32
0.0
 13
0.0529401741
 23
-0.8935993899
 33
0.0
 40
0.0
 40
0.0
 40
0.0
 40
0.0
 40
0.0357685689
 40
0.0814907917
 40
0.1987124808
 40
0.3416762634
 40
0.498211116
 40
0.6549843525
 40
0.7986547539
 40
0.9170072295
 40
0.9634398053
 40
1.0
 40
1.0
 40
1.0
 40
1.0
 10
3.0960575824
 20
17.7664095126
 30
0.0
 10
3.0967055327
 20
17.7557562612
 30
0.0
 10
3.0979173204
 20
17.731469413
 30
0.0
 10
3.1002821147
 20
17.6722227912
 30
0.0
 10
3.103043746
 20
17.5809835275
 30
0.0
 10
3.1062037381
 20
17.4566792466
 30
0.0
 10
3.1093971434
 20
17.3205702229
 30
0.0
 10
3.1125794939
 20
17.1842500303
 30
0.0
 10
3.1157561698
 20
17.0593265804
 30
0.0
 10
3.1184982232
 20
16.9673263074
 30
0.0
 10
3.1208537312
 20
16.9072930639
 30
0.0
 10
3.122067345
 20
16.8825576791
 30
0.0
 10
3.1227125127
 20
16.8716676232
 30
0.0
 11
3.0960575824
 21
17.7664095126
 31
0.0
 11
3.0977226841
 21
17.7344340237
 31
0.0
 11
3.0993943706
 21
17.6935391883
 31
0.0
 11
3.1027350598
 21
17.5886594852
 31
0.0
 11
3.1060609683
 21
17.4607263636
 31
0.0
 11
3.1093927367
 21
17.3206412695
 31
0.0
 11
3.1127215712
 21
17.1803426522
 31
0.0
 11
3.1160509661
 21
17.051776867
 31
0.0
 11
3.1193763582
 21
16.9458839321
 31
0.0
 11
3.1210451935
 21
16.904352575
 31
0.0
 11
3.1227125127
 21
16.8716676232
 31
0.0
  0
LINE
  5
376
100
AcDbEntity
  8
0
100
AcDbLine
 62
7
  6
CONTINUOUS
 10
3.1227125127
 20
16.8716676232
 11
3.1237224433
 21
16.8563531334
  0
SPLINE
  5
377
100
AcDbEntity
  8
0
100
AcDbSpline
 62
7
  6
CONTINUOUS
 70
0
 71
3
 72
12
 73
8
 74
6
 42
0.0000001
 43
0.0000001
 44
0.0000000001
 12
0.0017673337
 22
-0.0237113761
 32
0.0
 13
0.0113355832
 23
-0.0209011334
 33
0.0
 40
0.0
 40
0.0
 40
0.0
 40
0.0
 40
0.3866676531
 40
0.6823969257
 40
0.8866085948
 40
0.9544823442
 40
1.0
 40
1.0
 40
1.0
 40
1.0
 10
3.1237224433
 20
16.8563531334
 30
0.0
 10
3.1239502336
 20
16.8532969927
 30
0.0
 10
3.1243832552
 20
16.8479043363
 30
0.0
 10
3.1251176758
 20
16.8409186613
 30
0.0
 10
3.1257531167
 20
16.836454321
 30
0.0
 10
3.1263288859
 20
16.8340061904
 30
0.0
 10
3.1266212678
 20
16.8331482489
 30
0.0
 10
3.1267932575
 20
16.8328311254
 30
0.0
 11
3.1237224433
 21
16.8563531334
 31
0.0
 11
3.1244834197
 21
16.8471908261
 31
0.0
 11
3.1252443459
 21
16.8402005202
 31
0.0
 11
3.1260120244
 21
16.8354060189
 31
0.0
 11
3.1264005215
 21
16.8338396335
 31
0.0
 11
3.1267932575
 21
16.8328311254
 31
0.0
  0
SPLINE
  5
378
100
AcDbEntity
  8
0
100
AcDbSpline
 62
7
  6
CONTINUOUS
 70
0
 71
3
 72
12
 73
8
 74
6
 42
0.0000001
 43
0.0000001
 44
0.0000000001
 12
0.011498081
 22
-0.0205124702
 32
0.0
 13
0.001735042
 23
-0.0234511605
 33
0.0
 40
0.0
 40
0.0
 40
0.0
 40
0.0
 40
0.0447450428
 40
0.1120378095
 40
0.3157623583
 40
0.6119397989
 40
1.0
 40
1.0
 40
1.0
 40
1.0
 10
3.4492346279
 20
17.8141908855
 30
0.0
 10
3.449406122
 20
17.8138849417
 30
0.0
 10
3.4496955722
 20
17.8130470313
 30
0.0
 10
3.4502659744
 20
17.8106413958
 30
0.0
 10
3.4508927619
 20
17.8062302224
 30
0.0
 10
3.4516177552
 20
17.7993110298
 30
0.0
 10
3.4520441506
 20
17.7939630277
 30
0.0
 10
3.4522685841
 20
17.7909295404
 30
0.0
 11
3.4492346279
 21
17.8141908855
 31
0.0
 11
3.4496234337
 21
17.8132131655
 31
0.0
 11
3.4500078013
 21
17.8116781501
 31
0.0
 11
3.450766635
 21
17.8069479962
 31
0.0
 11
3.4515179542
 21
17.8000239507
 31
0.0
 11
3.4522685841
 21
17.7909295404
 31
0.0
  0
SPLINE
  5
379
100
AcDbEntity
  8
0
100
AcDbSpline
 62
7
  6
CONTINUOUS
 70
0
 71
3
 72
17
 73
13
 74
11
 42
0.0000001
 43
0.0000001
 44
0.0000000001
 12
0.0577522007
 22
-0.9328306606
 32
0.0
 13
0.0680496265
 23
-0.932136045
 33
0.0
 40
0.0
 40
0.0
 40
0.0
 40
0.0
 40
0.0356082184
 40
0.0819420606
 40
0.2022648194
 40
0.3497638817
 40
0.510717874
 40
0.670150175
 40
0.8132385174
 40
0.9266923273
 40
0.9688712889
 40
1.0
 40
1.0
 40
1.0
 40
1.0
 10
3.4530084927
 20
17.7799463551
 30
0.0
 10
3.4536939771
 20
17.7688742091
 30
0.0
 10
3.4549654017
 20
17.7433763612
 30
0.0
 10
3.4574455289
 20
17.6804116207
 30
0.0
 10
3.4603167521
 20
17.5825801381
 30
0.0
 10
3.4636113734
 20
17.4490407388
 30
0.0
 10
3.4669382463
 20
17.3033141527
 30
0.0
 10
3.4702482058
 20
17.1589614356
 30
0.0
 10
3.4735519517
 20
17.029411985
 30
0.0
 10
3.4763947354
 20
16.9363892885
 30
0.0
 10
3.4788931705
 20
16.8782595153
 30
0.0
 10
3.4801661914
 20
16.8554545266
 30
0.0
 10
3.4808722905
 20
16.845782462
 30
0.0
 11
3.4530084927
 21
17.7799463551
 31
0.0
 11
3.4547486245
 21
17.7467118446
 31
0.0
 11
3.4564980724
 21
17.7034428146
 31
0.0
 11
3.4599896838
 21
17.5910413742
 31
0.0
 11
3.4634675494
 21
17.4532301662
 31
0.0
 11
3.466951587
 21
17.3028402301
 31
0.0
 11
3.4704321939
 21
17.153872797
 31
0.0
 11
3.4739129597
 21
17.02018535
 31
0.0
 11
3.477392365
 21
16.9142066267
 31
0.0
 11
3.4791377743
 21
16.874824124
 31
0.0
 11
3.4808722905
 21
16.845782462
 31
0.0
  0
SPLINE
  5
37A
100
AcDbEntity
  8
0
100
AcDbSpline
 62
7
  6
CONTINUOUS
 70
0
 71
3
 72
12
 73
8
 74
6
 42
0.0000001
 43
0.0000001
 44
0.0000000001
 12
0.001773152
 22
-0.0242884348
 32
0.0
 13
0.0117372833
 23
-0.0213379548
 33
0.0
 40
0.0
 40
0.0
 40
0.0
 40
0.0
 40
0.388301377
 40
0.6845957985
 40
0.8882724844
 40
0.9554544777
 40
1.0
 40
1.0
 40
1.0
 40
1.0
 10
3.4808722905
 20
16.845782462
 30
0.0
 10
3.4811017963
 20
16.8426387178
 30
0.0
 10
3.4815378926
 20
16.8370968616
 30
0.0
 10
3.4822789246
 20
16.8299275303
 30
0.0
 10
3.4829179384
 20
16.8253583884
 30
0.0
 10
3.4834981592
 20
16.8228675807
 30
0.0
 10
3.4837915836
 20
16.8220005585
 30
0.0
 10
3.4839658648
 20
16.8216837217
 30
0.0
 11
3.4808722905
 21
16.845782462
 31
0.0
 11
3.4816399401
 21
16.8363573403
 31
0.0
 11
3.4824075441
 21
16.8291826058
 31
0.0
 11
3.4831809148
 21
16.8242831144
 31
0.0
 11
3.4835715791
 21
16.8226943522
 31
0.0
 11
3.4839658648
 21
16.8216837217
 31
0.0
  0
SPLINE
  5
37B
100
AcDbEntity
  8
0
100
AcDbSpline
 62
7
  6
CONTINUOUS
 70
0
 71
3
 72
11
 73
7
 74
5
 42
0.0000001
 43
0.0000001
 44
0.0000000001
 12
0.0097524827
 22
-0.0168727483
 32
0.0
 13
0.0016508294
 23
-0.0194184272
 33
0.0
 40
0.0
 40
0.0
 40
0.0
 40
0.0
 40
0.1147442831
 40
0.3195179568
 40
0.6152418562
 40
1.0
 40
1.0
 40
1.0
 40
1.0
 10
3.4706267935
 20
17.7770940715
 30
0.0
 10
3.4709998074
 20
17.776448721
 30
0.0
 10
3.471489613
 20
17.7743886398
 30
0.0
 10
3.4721733418
 20
17.7704760836
 30
0.0
 10
3.472833766
 20
17.7647485446
 30
0.0
 10
3.4732448087
 20
17.7603511492
 30
0.0
 10
3.473456532
 20
17.7578606832
 30
0.0
 11
3.4706267935
 21
17.7770940715
 31
0.0
 11
3.4713342281
 21
17.774972731
 31
0.0
 11
3.4720416628
 21
17.7710452088
 31
0.0
 11
3.4727490974
 21
17.7653255854
 31
0.0
 11
3.473456532
 21
17.7578606832
 31
0.0
  0
SPLINE
  5
37C
100
AcDbEntity
  8
0
100
AcDbSpline
 62
7
  6
CONTINUOUS
 70
0
 71
3
 72
21
 73
17
 74
15
 42
0.0000001
 43
0.0000001
 44
0.0000000001
 12
0.0756117761
 22
-0.8894085283
 32
0.0
 13
0.1214252221
 23
-0.8843192785
 33
0.0
 40
0.0
 40
0.0
 40
0.0
 40
0.0
 40
0.031705185
 40
0.0760000134
 40
0.1318498481
 40
0.197880928
 40
0.352273475
 40
0.5221691246
 40
0.6889819716
 40
0.7652686712
 40
0.8340615469
 40
0.8935338917
 40
0.9418623402
 40
0.9775735546
 40
0.9904808611
 40
1.0
 40
1.0
 40
1.0
 40
1.0
 10
3.473456532
 20
17.7578606832
 30
0.0
 10
3.4742556272
 20
17.7484610625
 30
0.0
 10
3.4756395074
 20
17.7258864836
 30
0.0
 10
3.4774621597
 20
17.6866990282
 30
0.0
 10
3.4792976071
 20
17.6372883785
 30
0.0
 10
3.4819018336
 20
17.5551275665
 30
0.0
 10
3.4849996633
 20
17.4390331026
 30
0.0
 10
3.4885919573
 20
17.292955764
 30
0.0
 10
3.4916507929
 20
17.1701115862
 30
0.0
 10
3.4942130044
 20
17.0773466934
 30
0.0
 10
3.496071831
 20
17.0165129436
 30
0.0
 10
3.4979099513
 20
16.964000934
 30
0.0
 10
3.4997320877
 20
16.9213398474
 30
0.0
 10
3.5013273821
 20
16.8925349484
 30
0.0
 10
3.5027048328
 20
16.8752915628
 30
0.0
 10
3.5034029154
 20
16.8686530584
 30
0.0
 10
3.5037882033
 20
16.8658470724
 30
0.0
 11
3.473456532
 21
17.7578606832
 31
0.0
 11
3.4753522615
 21
17.7296236684
 31
0.0
 11
3.4772479909
 21
17.6901308356
 31
0.0
 11
3.4791437204
 21
17.6403143946
 31
0.0
 11
3.4810394498
 21
17.5814044409
 31
0.0
 11
3.4848309088
 21
17.4436432309
 31
0.0
 11
3.4886223677
 21
17.2920389302
 31
0.0
 11
3.4924138266
 21
17.1431872671
 31
0.0
 11
3.494309556
 21
17.0751188742
 31
0.0
 11
3.4962052855
 21
17.0137424704
 31
0.0
 11
3.4981010149
 21
16.9606903185
 31
0.0
 11
3.4999967444
 21
16.9175932097
 31
0.0
 11
3.5018924738
 21
16.8857732019
 31
0.0
 11
3.5028403386
 21
16.8742909809
 31
0.0
 11
3.5037882033
 21
16.8658470724
 31
0.0
  0
SPLINE
  5
37D
100
AcDbEntity
  8
0
100
AcDbSpline
 62
7
  6
CONTINUOUS
 70
0
 71
3
 72
11
 73
7
 74
5
 42
0.0000001
 43
0.0000001
 44
0.0000000001
 12
0.0010847302
 22
-0.007899906
 32
0.0
 13
0.00797403
 23
-0.0000000443
 33
0.0
 40
0.0
 40
0.0
 40
0.0
 40
0.0
 40
0.4180254856
 40
0.7216041674
 40
0.9118510935
 40
1.0
 40
1.0
 40
1.0
 40
1.0
 10
3.5037882033
 20
16.8658470724
 30
0.0
 10
3.5039393516
 20
16.864746285
 30
0.0
 10
3.5042124312
 20
16.8628670038
 30
0.0
 10
3.5047378413
 20
16.860435278
 30
0.0
 10
3.5051228234
 20
16.8590564502
 30
0.0
 10
3.5056156239
 20
16.8582838776
 30
0.0
 10
3.5058499246
 20
16.8582838763
 30
0.0
 11
3.5037882033
 21
16.8658470724
 31
0.0
 11
3.5043036336
 21
16.8625538158
 31
0.0
 11
3.5048190639
 21
16.86018858
 31
0.0
 11
3.5053344942
 21
16.8587617914
 31
0.0
 11
3.5058499246
 21
16.8582838763
 31
0.0
  0
LINE
  5
37E
100
AcDbEntity
  8
0
100
AcDbLine
 62
7
  6
CONTINUOUS
 10
44.65813375
 20
17.7587566682
 11
44.6572079927
 21
17.7544942959
  0
SPLINE
  5
37F
100
AcDbEntity
  8
0
100
AcDbSpline
 62
7
  6
CONTINUOUS
 70
0
 71
3
 72
9
 73
5
 74
3
 42
0.0000001
 43
0.0000001
 44
0.0000000001
 12
-0.0050915262
 22
-0.0314428247
 32
0.0
 13
-0.0020363507
 23
-0.0317872323
 33
0.0
 40
0.0
 40
0.0
 40
0.0
 40
0.0
 40
0.3960670446
 40
1.0
 40
1.0
 40
1.0
 40
1.0
 10
44.6572079927
 20
17.7544942959
 30
0.0
 10
44.6565357975
 20
17.7503431403
 30
0.0
 10
44.6555175251
 20
17.7397621546
 30
0.0
 10
44.6547782738
 20
17.7291742564
 30
0.0
 10
44.6543683341
 20
17.7227751373
 30
0.0
 11
44.6572079927
 21
17.7544942959
 31
0.0
 11
44.655772959
 21
17.7419604965
 31
0.0
 11
44.6543683341
 21
17.7227751373
 31
0.0
  0
SPLINE
  5
380
100
AcDbEntity
  8
0
100
AcDbSpline
 62
7
  6
CONTINUOUS
 70
0
 71
3
 72
29
 73
25
 74
23
 42
0.0000001
 43
0.0000001
 44
0.0000000001
 12
-0.0538889164
 22
-0.8412006271
 32
0.0
 13
-0.3411491415
 23
-0.7708046273
 33
0.0
 40
0.0
 40
0.0
 40
0.0
 40
0.0
 40
0.041674411
 40
0.0946362523
 40
0.1576565735
 40
0.2296009613
 40
0.3939663429
 40
0.4812083945
 40
0.5681720854
 40
0.6527116428
 40
0.7328523032
 40
0.7706221522
 40
0.8064670658
 40
0.8400557819
 40
0.87102418
 40
0.8989817148
 40
0.9236032219
 40
0.9447995575
 40
0.9625671103
 40
0.9769299091
 40
0.9879278805
 40
0.9955932867
 40
0.9981971329
 40
1.0
 40
1.0
 40
1.0
 40
1.0
 10
44.6543683341
 20
17.7227751373
 30
0.0
 10
44.6536197378
 20
17.7110896238
 30
0.0
 10
44.6522190634
 20
17.6845347357
 30
0.0
 10
44.6503774142
 20
17.64027519
 30
0.0
 10
44.6485520985
 20
17.5875038398
 30
0.0
 10
44.6458546269
 20
17.5034427068
 30
0.0
 10
44.6435110651
 20
17.4125624317
 30
0.0
 10
44.6409766097
 20
17.3174662579
 30
0.0
 10
44.6391543862
 20
17.2447880921
 30
0.0
 10
44.6372582334
 20
17.174107873
 30
0.0
 10
44.6356639481
 20
17.1172467365
 30
0.0
 10
44.6343477027
 20
17.0740653839
 30
0.0
 10
44.6334669557
 20
17.0439566742
 30
0.0
 10
44.6324676537
 20
17.0157638135
 30
0.0
 10
44.6315352448
 20
16.9897862879
 30
0.0
 10
44.6306073387
 20
16.9663296679
 30
0.0
 10
44.6296352083
 20
16.9456234922
 30
0.0
 10
44.628731993
 20
16.9277798807
 30
0.0
 10
44.627782636
 20
16.9128269916
 30
0.0
 10
44.6268797661
 20
16.9007400509
 30
0.0
 10
44.6259002003
 20
16.8915146918
 30
0.0
 10
44.6251409795
 20
16.885579945
 30
0.0
 10
44.6244412629
 20
16.8822616304
 30
0.0
 10
44.6240819495
 20
16.881070314
 30
0.0
 10
44.623876934
 20
16.8806070946
 30
0.0
 11
44.6543683341
 21
17.7227751373
 31
0.0
 11
44.6524433678
 21
17.6876995174
 31
0.0
 11
44.6505425177
 21
17.6430971452
 31
0.0
 11
44.648659412
 21
17.5900091303
 31
0.0
 11
44.6467262321
 21
17.5293962297
 31
0.0
 11
44.642926404
 21
17.3909006619
 31
0.0
 11
44.6409938898
 21
17.3173875545
 31
0.0
 11
44.6391155955
 21
17.2441077558
 31
0.0
 11
44.6372103365
 21
17.1728727262
 31
0.0
 11
44.6352929308
 21
17.1053473794
 31
0.0
 11
44.6343379095
 21
17.0735245576
 31
0.0
 11
44.6334162702
 21
17.0433240445
 31
0.0
 11
44.6324393805
 21
17.015028135
 31
0.0
 11
44.6314881714
 21
16.9889414352
 31
0.0
 11
44.6305395074
 21
16.9653944331
 31
0.0
 11
44.6295764755
 21
16.9446627053
 31
0.0
 11
44.6286418013
 21
16.9268202492
 31
0.0
 11
44.6276912515
 21
16.9118737308
 31
0.0
 11
44.6267383477
 21
16.899804528
 31
0.0
 11
44.6257622186
 21
16.890585597
 31
0.0
 11
44.6248329065
 21
16.8841914135
 31
0.0
 11
44.6243585633
 21
16.8820484362
 31
0.0
 11
44.623876934
 21
16.8806070946
 31
0.0
  0
SPLINE
  5
381
100
AcDbEntity
  8
0
100
AcDbSpline
 62
7
  6
CONTINUOUS
 70
0
 71
3
 72
14
 73
10
 74
8
 42
0.0000001
 43
0.0000001
 44
0.0000000001
 12
0.0245192816
 22
0.0007634772
 32
0.0
 13
0.0018575919
 23
0.0244607322
 33
0.0
 40
0.0
 40
0.0
 40
0.0
 40
0.0
 40
0.02368445
 40
0.0738343114
 40
0.1534717989
 40
0.2630477441
 40
0.4025973818
 40
0.5720341943
 40
1.0
 40
1.0
 40
1.0
 40
1.0
 10
44.2874197931
 20
16.8279107633
 30
0.0
 10
44.2876133684
 20
16.8279167908
 30
0.0
 10
44.288016879
 20
16.8285327676
 30
0.0
 10
44.2883549625
 20
16.8296529668
 30
0.0
 10
44.2888018772
 20
16.831606125
 30
0.0
 10
44.2892230975
 20
16.8342429403
 30
0.0
 10
44.2896702165
 20
16.8376437259
 30
0.0
 10
44.2903159872
 20
16.8436320599
 30
0.0
 10
44.2907229002
 20
16.8485023014
 30
0.0
 10
44.2909878955
 20
16.8519917537
 30
0.0
 11
44.2874197931
 21
16.8279107633
 31
0.0
 11
44.2878474591
 21
16.8283040459
 31
0.0
 11
44.2882834969
 21
16.8294544145
 31
0.0
 11
44.2887263417
 21
16.8313571607
 31
0.0
 11
44.2891744285
 21
16.8340075757
 31
0.0
 11
44.2896261923
 21
16.8374009511
 31
0.0
 11
44.290080068
 21
16.8415325783
 31
0.0
 11
44.2909878955
 21
16.8519917537
 31
0.0
  0
SPLINE
  5
382
100
AcDbEntity
  8
0
100
AcDbSpline
 62
7
  6
CONTINUOUS
 70
0
 71
3
 72
18
 73
14
 74
12
 42
0.0000001
 43
0.0000001
 44
0.0000000001
 12
0.0556346847
 22
0.9167328986
 32
0.0
 13
0.0684524208
 23
0.9158649964
 33
0.0
 40
0.0
 40
0.0
 40
0.0
 40
0.0
 40
0.0366532972
 40
0.0837840707
 40
0.2049719446
 40
0.3525095254
 40
0.5129150787
 40
0.6715170006
 40
0.8138003366
 40
0.8746497635
 40
0.9267370695
 40
0.9688267977
 40
1.0
 40
1.0
 40
1.0
 40
1.0
 10
44.2918905859
 20
16.8653780492
 30
0.0
 10
44.2925703174
 20
16.876578477
 30
0.0
 10
44.2938180259
 20
16.9021991128
 30
0.0
 10
44.2962473067
 20
16.9649022558
 30
0.0
 10
44.2990991909
 20
17.0615580326
 30
0.0
 10
44.3023757261
 20
17.1928910068
 30
0.0
 10
44.3056681755
 20
17.3356812498
 30
0.0
 10
44.308971274
 20
17.4768619584
 30
0.0
 10
44.311799726
 20
17.5875677876
 30
0.0
 10
44.314198309
 20
17.6656640637
 30
0.0
 10
44.3158838261
 20
17.7130944836
 30
0.0
 10
44.3175421448
 20
17.7514330787
 30
0.0
 10
44.3187997445
 20
17.7738290785
 30
0.0
 10
44.3195110382
 20
17.7833458935
 30
0.0
 11
44.2918905859
 21
16.8653780492
 31
0.0
 11
44.293613247
 21
16.8989970467
 31
0.0
 11
44.2953323473
 21
16.9422487188
 31
0.0
 11
44.2987851045
 21
17.0534964605
 31
0.0
 11
44.3022366053
 21
17.1889538899
 31
0.0
 11
44.3056892492
 21
17.3362330178
 31
0.0
 11
44.3091431825
 21
17.4818551645
 31
0.0
 11
44.3125938307
 21
17.6124853913
 31
0.0
 11
44.3143289931
 21
17.6683437494
 31
0.0
 11
44.3160604266
 21
17.7161504045
 31
0.0
 11
44.3177817419
 21
17.7547680895
 31
0.0
 11
44.3195110382
 21
17.7833458935
 31
0.0
  0
SPLINE
  5
383
100
AcDbEntity
  8
0
100
AcDbSpline
 62
7
  6
CONTINUOUS
 70
0
 71
3
 72
10
 73
6
 74
4
 42
0.0000001
 43
0.0000001
 44
0.0000000001
 12
0.001672821
 22
0.0223816513
 32
0.0
 13
0.0051840688
 23
0.0218371718
 33
0.0
 40
0.0
 40
0.0
 40
0.0
 40
0.0
 40
0.629204759
 40
0.8470604429
 40
1.0
 40
1.0
 40
1.0
 40
1.0
 10
44.3195110382
 20
17.7833458935
 30
0.0
 10
44.3198618872
 20
17.7880401073
 30
0.0
 10
44.3203796699
 20
17.7943595053
 30
0.0
 10
44.3213137703
 20
17.8017817575
 30
0.0
 10
44.321780359
 20
17.8045200686
 30
0.0
 10
44.322044642
 20
17.8056333244
 30
0.0
 11
44.3195110382
 21
17.7833458935
 31
0.0
 11
44.3207819995
 21
17.7974105052
 31
0.0
 11
44.3214159113
 21
17.8022588091
 31
0.0
 11
44.322044642
 21
17.8056333244
 31
0.0
  0
LINE
  5
384
100
AcDbEntity
  8
0
100
AcDbLine
 62
7
  6
CONTINUOUS
 10
44.322044642
 20
17.8056333244
 11
44.3227027629
 21
17.807587697
  0
SPLINE
  5
385
100
AcDbEntity
  8
0
100
AcDbSpline
 62
7
  6
CONTINUOUS
 70
0
 71
3
 72
12
 73
8
 74
6
 42
0.0000001
 43
0.0000001
 44
0.0000000001
 12
-0.0119647388
 22
0.0206280443
 32
0.0
 13
-0.0018161754
 23
0.023777567
 33
0.0
 40
0.0
 40
0.0
 40
0.0
 40
0.0
 40
0.0427399561
 40
0.1086574278
 40
0.3113795917
 40
0.6087246575
 40
1.0
 40
1.0
 40
1.0
 40
1.0
 10
3.1795113099
 20
16.8310875821
 30
0.0
 10
3.1793408524
 20
16.8313814627
 30
0.0
 10
3.1790547558
 20
16.8322060146
 30
0.0
 10
3.1784739734
 20
16.8346081729
 30
0.0
 10
3.1778186565
 20
16.8390697611
 30
0.0
 10
3.1770465806
 20
16.8461091777
 30
0.0
 10
3.1765935673
 20
16.8515661097
 30
0.0
 10
3.1763566925
 20
16.8546673016
 30
0.0
 11
3.1795113099
 21
16.8310875821
 31
0.0
 11
3.1791286909
 21
16.8320322496
 31
0.0
 11
3.1787405814
 21
16.8335555065
 31
0.0
 11
3.1779521817
 21
16.8383250655
 31
0.0
 11
3.1771546917
 21
16.8453708128
 31
0.0
 11
3.1763566925
 21
16.8546673016
 31
0.0
  0
SPLINE
  5
386
100
AcDbEntity
  8
0
100
AcDbSpline
 62
7
  6
CONTINUOUS
 70
0
 71
3
 72
17
 73
13
 74
11
 42
0.0000001
 43
0.0000001
 44
0.0000000001
 12
-0.0551881042
 22
0.8981313149
 32
0.0
 13
-0.0539397815
 23
0.8982071507
 33
0.0
 40
0.0
 40
0.0
 40
0.0
 40
0.0
 40
0.0356451424
 40
0.0812937332
 40
0.1985309829
 40
0.3416906429
 40
0.4985124293
 40
0.6555519184
 40
0.7993389925
 40
0.9175333243
 40
0.9637510158
 40
1.0
 40
1.0
 40
1.0
 40
1.0
 10
3.1754845595
 20
16.8674780333
 30
0.0
 10
3.1748288302
 20
16.8781493728
 30
0.0
 10
3.1736211936
 20
16.9025041159
 30
0.0
 10
3.1712695334
 20
16.962005525
 30
0.0
 10
3.1685022254
 20
17.0537612491
 30
0.0
 10
3.165323855
 20
17.178861989
 30
0.0
 10
3.1621293767
 20
17.3159045362
 30
0.0
 10
3.158923222
 20
17.4531350171
 30
0.0
 10
3.1557580386
 20
17.5787768522
 30
0.0
 10
3.1529737324
 20
17.6711782709
 30
0.0
 10
3.1506132592
 20
17.7313187176
 30
0.0
 10
3.1494064955
 20
17.7560256302
 30
0.0
 10
3.1487547414
 20
17.7668786625
 30
0.0
 11
3.1754845595
 21
16.8674780333
 31
0.0
 11
3.1738168404
 21
16.8995090484
 31
0.0
 11
3.1721533837
 21
16.9405511091
 31
0.0
 11
3.1688117907
 21
17.0459912161
 31
0.0
 11
3.1654708523
 21
17.1747665701
 31
0.0
 11
3.1621296501
 21
17.315839221
 31
0.0
 11
3.1587854514
 21
17.4571077503
 31
0.0
 11
3.1554478924
 21
17.5864479437
 31
0.0
 11
3.1520915755
 21
17.6927492224
 31
0.0
 11
3.1504216564
 21
17.7343035304
 31
0.0
 11
3.1487547414
 21
17.7668786625
 31
0.0
  0
SPLINE
  5
387
100
AcDbEntity
  8
0
100
AcDbSpline
 62
7
  6
CONTINUOUS
 70
0
 71
3
 72
13
 73
9
 74
7
 42
0.0000001
 43
0.0000001
 44
0.0000000001
 12
-0.0018345294
 22
0.0244043593
 32
0.0
 13
-0.0137497934
 23
0.0202455287
 33
0.0
 40
0.0
 40
0.0
 40
0.0
 40
0.0
 40
0.3963853071
 40
0.695408656
 40
0.8081704011
 40
0.8963718718
 40
0.9601209726
 40
1.0
 40
1.0
 40
1.0
 40
1.0
 10
3.147833629
 20
17.7806828314
 30
0.0
 10
3.1475912355
 20
17.7839073412
 30
0.0
 10
3.1471243204
 20
17.7895607511
 30
0.0
 10
3.146425978
 20
17.7961194952
 30
0.0
 10
3.1458372282
 20
17.8001544291
 30
0.0
 10
3.1454477354
 20
17.8022824475
 30
0.0
 10
3.1450647251
 20
17.8037942627
 30
0.0
 10
3.1447684459
 20
17.8046006928
 30
0.0
 10
3.1445856698
 20
17.8048698168
 30
0.0
 11
3.147833629
 21
17.7806828314
 31
0.0
 11
3.1470154154
 21
17.7903490866
 31
0.0
 11
3.146196971
 21
17.7976212384
 31
0.0
 11
3.1457897154
 21
17.8003506649
 31
0.0
 11
3.1453848658
 21
17.8024709329
 31
0.0
 11
3.1449832435
 21
17.8039784983
 31
0.0
 11
3.1445856698
 21
17.8048698168
 31
0.0
  0
LINE
  5
388
100
AcDbEntity
  8
0
100
AcDbLine
 62
7
  6
CONTINUOUS
 10
3.1571147314
 20
16.870815793
 11
3.1566574399
 21
16.8722606879
  0
SPLINE
  5
389
100
AcDbEntity
  8
0
100
AcDbSpline
 62
7
  6
CONTINUOUS
 70
0
 71
3
 72
11
 73
7
 74
5
 42
0.0000001
 43
0.0000001
 44
0.0000000001
 12
-0.0095023038
 22
0.0382200079
 32
0.0
 13
-0.0024534205
 23
0.0393070415
 33
0.0
 40
0.0
 40
0.0
 40
0.0
 40
0.0
 40
0.1392091732
 40
0.3545851973
 40
0.6425908892
 40
1.0
 40
1.0
 40
1.0
 40
1.0
 10
3.1566574399
 20
16.8722606879
 30
0.0
 10
3.1562165039
 20
16.8740342131
 30
0.0
 10
3.1555770977
 20
16.8786582157
 30
0.0
 10
3.1546317022
 20
16.8870346171
 30
0.0
 10
3.153728866
 20
16.8983032411
 30
0.0
 10
3.1531478863
 20
16.9067552614
 30
0.0
 10
3.1528555947
 20
16.9114381597
 30
0.0
 11
3.1566574399
 21
16.8722606879
 31
0.0
 11
3.155732592
 21
16.8776646681
 31
0.0
 11
3.1547774792
 21
16.8860929923
 31
0.0
 11
3.1538207675
 21
16.8973952549
 31
0.0
 11
3.1528555947
 21
16.9114381597
 31
0.0
  0
SPLINE
  5
38A
100
AcDbEntity
  8
0
100
AcDbSpline
 62
7
  6
CONTINUOUS
 70
0
 71
3
 72
34
 73
30
 74
28
 42
0.0000001
 43
0.0000001
 44
0.0000000001
 12
-0.0530884416
 22
0.8505470585
 32
0.0
 13
-0.4212739764
 23
0.7407947881
 33
0.0
 40
0.0
 40
0.0
 40
0.0
 40
0.0
 40
0.0422085969
 40
0.0958982938
 40
0.1602934783
 40
0.2343586893
 40
0.3160777154
 40
0.3588201026
 40
0.4023262586
 40
0.4462780361
 40
0.4903856968
 40
0.5780048818
 40
0.6630871931
 40
0.7039808093
 40
0.7433545941
 40
0.7808480328
 40
0.816062613
 40
0.8485766255
 40
0.8781073853
 40
0.9045443016
 40
0.9278295379
 40
0.9479330425
 40
0.9648383595
 40
0.9785225176
 40
0.9889653167
 40
0.9929605986
 40
0.996130684
 40
0.9984726984
 40
1.0
 40
1.0
 40
1.0
 40
1.0
 10
3.1528555947
 20
16.9114381597
 30
0.0
 10
3.1521086652
 20
16.923404959
 30
0.0
 10
3.1507176958
 20
16.9506124729
 30
0.0
 10
3.1489070564
 20
16.996110711
 30
0.0
 10
3.1469699991
 20
17.0506601936
 30
0.0
 10
3.1451220512
 20
17.1131789136
 30
0.0
 10
3.143584936
 20
17.1695529098
 30
0.0
 10
3.1423518612
 20
17.217251091
 30
0.0
 10
3.1413396224
 20
17.2542229429
 30
0.0
 10
3.1404489705
 20
17.2915858719
 30
0.0
 10
3.1391491551
 20
17.3414735244
 30
0.0
 10
3.1376050266
 20
17.4030425846
 30
0.0
 10
3.1359893199
 20
17.4636965249
 30
0.0
 10
3.1346823347
 20
17.5106487844
 30
0.0
 10
3.1337940263
 20
17.544089078
 30
0.0
 10
3.1327859599
 20
17.575911979
 30
0.0
 10
3.1318515919
 20
17.6057874898
 30
0.0
 10
3.1309137163
 20
17.6333999128
 30
0.0
 10
3.1299221673
 20
17.6585151196
 30
0.0
 10
3.1290201163
 20
17.6810103625
 30
0.0
 10
3.1280565197
 20
17.7008222429
 30
0.0
 10
3.1271279901
 20
17.7179250032
 30
0.0
 10
3.1261322006
 20
17.7322912235
 30
0.0
 10
3.1252439301
 20
17.7439130321
 30
0.0
 10
3.124417333
 20
17.7518619074
 30
0.0
 10
3.1237176564
 20
17.7568139406
 30
0.0
 10
3.1232549515
 20
17.7594779233
 30
0.0
 10
3.1228110526
 20
17.7614231606
 30
0.0
 10
3.1224651196
 20
17.7624795445
 30
0.0
 10
3.1222506488
 20
17.7628566835
 30
0.0
 11
3.1528555947
 21
16.9114381597
 31
0.0
 11
3.1509438379
 21
16.9473575819
 31
0.0
 11
3.1490576382
 21
16.9930731673
 31
0.0
 11
3.1471180373
 21
17.0479166013
 31
0.0
 11
3.1452091883
 21
17.1110062705
 31
0.0
 11
3.1433046957
 21
17.1806213625
 31
0.0
 11
3.1423482895
 21
17.217033963
 31
0.0
 11
3.1413648336
 21
17.2540969617
 31
0.0
 11
3.1404362234
 21
17.2915412526
 31
0.0
 11
3.1394751768
 21
17.3291176126
 31
0.0
 11
3.1375672981
 21
17.4037625014
 31
0.0
 11
3.1356355224
 21
17.4762441007
 31
0.0
 11
3.1346778434
 21
17.5110805714
 31
0.0
 11
3.1337505839
 21
17.5446221849
 31
0.0
 11
3.132767669
 21
17.576559056
 31
0.0
 11
3.1318136396
 21
17.6065538322
 31
0.0
 11
3.1308583134
 21
17.6342458734
 31
0.0
 11
3.1298847597
 21
17.6593932154
 31
0.0
 11
3.1289502544
 21
17.6819034255
 31
0.0
 11
3.1279926177
 21
17.7017240357
 31
0.0
 11
3.1270323971
 21
17.7188293575
 31
0.0
 11
3.1260501976
 21
17.7332025863
 31
0.0
 11
3.1251136504
 21
17.7448265888
 31
0.0
 11
3.1241497003
 21
17.7536736059
 31
0.0
 11
3.1236649686
 21
17.7570437124
 31
0.0
 11
3.1231884135
 21
17.7597029019
 31
0.0
 11
3.1227223316
 21
17.7616435885
 31
0.0
 11
3.1222506488
 21
17.7628566835
 31
0.0
  0
SPLINE
  5
38B
100
AcDbEntity
  8
0
100
AcDbSpline
 62
7
  6
CONTINUOUS
 70
0
 71
3
 72
12
 73
8
 74
6
 42
0.0000001
 43
0.0000001
 44
0.0000000001
 12
-0.012283916
 22
0.0212188249
 32
0.0
 13
-0.0018690291
 23
0.0244466736
 33
0.0
 40
0.0
 40
0.0
 40
0.0
 40
0.0
 40
0.0425895671
 40
0.1084245871
 40
0.3111263457
 40
0.6085726648
 40
1.0
 40
1.0
 40
1.0
 40
1.0
 10
2.8223570951
 20
16.8422136534
 30
0.0
 10
2.8221827062
 20
16.8425148869
 30
0.0
 10
2.821890198
 20
16.8433611808
 30
0.0
 10
2.8212944293
 20
16.8458290799
 30
0.0
 10
2.8206202798
 20
16.8504161601
 30
0.0
 10
2.819824614
 20
16.8576554123
 30
0.0
 10
2.8193578439
 20
16.8632679365
 30
0.0
 10
2.8191139809
 20
16.8664576352
 30
0.0
 11
2.8223570951
 21
16.8422136534
 31
0.0
 11
2.8219660075
 21
16.8431818623
 31
0.0
 11
2.821568194
 21
16.844746217
 31
0.0
 11
2.8207576687
 21
16.8496495229
 31
0.0
 11
2.8199360781
 21
16.8568958894
 31
0.0
 11
2.8191139809
 21
16.8664576352
 31
0.0
  0
SPLINE
  5
38C
100
AcDbEntity
  8
0
100
AcDbSpline
 62
7
  6
CONTINUOUS
 70
0
 71
3
 72
9
 73
5
 74
3
 42
0.0000001
 43
0.0000001
 44
0.0000000001
 12
-0.0035587089
 22
0.0578321694
 32
0.0
 13
-0.0022904291
 23
0.0578962707
 33
0.0
 40
0.0
 40
0.0
 40
0.0
 40
0.0
 40
0.2099222034
 40
1.0
 40
1.0
 40
1.0
 40
1.0
 10
2.8182272319
 20
16.8794670641
 30
0.0
 10
2.8179782146
 20
16.8835138162
 30
0.0
 10
2.8168876255
 20
16.9027970803
 30
0.0
 10
2.8160629401
 20
16.9220942916
 30
0.0
 10
2.8154597344
 20
16.9373418109
 30
0.0
 11
2.8182272319
 21
16.8794670641
 31
0.0
 11
2.8175320545
 21
16.8916104014
 31
0.0
 11
2.8154597344
 21
16.9373418109
 31
0.0
  0
LINE
  5
38D
100
AcDbEntity
  8
0
100
AcDbLine
 62
7
  6
CONTINUOUS
 10
2.8154597344
 20
16.9373418109
 11
2.8152151809
 21
16.9436094855
  0
LINE
  5
38E
100
AcDbEntity
  8
0
100
AcDbLine
 62
7
  6
CONTINUOUS
 10
2.8081473594
 20
17.1850101345
 11
2.8049025475
 21
17.3191229736
  0
LINE
  5
38F
100
AcDbEntity
  8
0
100
AcDbLine
 62
7
  6
CONTINUOUS
 10
2.8049025475
 20
17.3191229736
 11
2.8044910692
 21
17.3363470945
  0
LINE
  5
390
100
AcDbEntity
  8
0
100
AcDbLine
 62
7
  6
CONTINUOUS
 10
2.8044910692
 20
17.3363470945
 11
2.8013917954
 21
17.4637417723
  0
LINE
  5
391
100
AcDbEntity
  8
0
100
AcDbLine
 62
7
  6
CONTINUOUS
 10
2.8013917954
 20
17.4637417723
 11
2.8008349631
 21
17.4857567561
  0
SPLINE
  5
392
100
AcDbEntity
  8
0
100
AcDbSpline
 62
7
  6
CONTINUOUS
 70
0
 71
3
 72
9
 73
5
 74
3
 42
0.0000001
 43
0.0000001
 44
0.0000000001
 12
-0.0031348226
 22
0.1018713201
 32
0.0
 13
-0.0045372318
 23
0.1018184978
 33
0.0
 40
0.0
 40
0.0
 40
0.0
 40
0.0
 40
0.2831450255
 40
1.0
 40
1.0
 40
1.0
 40
1.0
 10
2.7971789117
 20
17.6179757526
 30
0.0
 10
2.7968830419
 20
17.6275905384
 30
0.0
 10
2.7958015831
 20
17.6615463791
 30
0.0
 10
2.7945865201
 20
17.6954989004
 30
0.0
 10
2.7935023411
 20
17.7198285993
 30
0.0
 11
2.7971789117
 21
17.6179757526
 31
0.0
 11
2.7962599113
 21
17.646819127
 31
0.0
 11
2.7935023411
 21
17.7198285993
 31
0.0
  0
SPLINE
  5
393
100
AcDbEntity
  8
0
100
AcDbSpline
 62
7
  6
CONTINUOUS
 70
0
 71
3
 72
10
 73
6
 74
4
 42
0.0000001
 43
0.0000001
 44
0.0000000001
 12
-0.0028509012
 22
0.0639761177
 32
0.0
 13
-0.0073589892
 23
0.0636153799
 33
0.0
 40
0.0
 40
0.0
 40
0.0
 40
0.0
 40
0.6092685653
 40
0.8329695095
 40
1.0
 40
1.0
 40
1.0
 40
1.0
 10
2.7935023411
 20
17.7198285993
 30
0.0
 10
2.7929233529
 20
17.7328214784
 30
0.0
 10
2.792062602
 20
17.750583569
 30
0.0
 10
2.7905939775
 20
17.7718796069
 30
0.0
 10
2.78984759
 20
17.7801888814
 30
0.0
 10
2.7894378648
 20
17.7837307841
 30
0.0
 11
2.7935023411
 21
17.7198285993
 31
0.0
 11
2.7914701982
 21
17.7587929627
 31
0.0
 11
2.790454192
 21
17.7730826094
 31
0.0
 11
2.7894378648
 21
17.7837307841
 31
0.0
  0
SPLINE
  5
394
100
AcDbEntity
  8
0
100
AcDbSpline
 62
7
  6
CONTINUOUS
 70
0
 71
3
 72
10
 73
6
 74
4
 42
0.0000001
 43
0.0000001
 44
0.0000000001
 12
-0.0011223166
 22
0.0097019571
 32
0.0
 13
-0.0039717845
 23
0.0089225834
 33
0.0
 40
0.0
 40
0.0
 40
0.0
 40
0.0
 40
0.6411851734
 40
0.8554803387
 40
1.0
 40
1.0
 40
1.0
 40
1.0
 10
2.7894378648
 20
17.7837307841
 30
0.0
 10
2.7891979939
 20
17.7858043678
 30
0.0
 10
2.7888505297
 20
17.7885729591
 30
0.0
 10
2.7881972323
 20
17.7917602533
 30
0.0
 10
2.7878700703
 20
17.792888534
 30
0.0
 10
2.7876787367
 20
17.7933183636
 30
0.0
 11
2.7894378648
 21
17.7837307841
 31
0.0
 11
2.7885583773
 21
17.7899309525
 31
0.0
 11
2.788118566
 21
17.791977167
 31
0.0
 11
2.7876787367
 21
17.7933183636
 31
0.0
  0
SPLINE
  5
395
100
AcDbEntity
  8
0
100
AcDbSpline
 62
7
  6
CONTINUOUS
 70
0
 71
3
 72
11
 73
7
 74
5
 42
0.0000001
 43
0.0000001
 44
0.0000000001
 12
-0.0049116073
 22
-0.0055544885
 32
0.0
 13
-0.0010417214
 23
-0.0073410521
 33
0.0
 40
0.0
 40
0.0
 40
0.0
 40
0.0
 40
0.1252007659
 40
0.3312605217
 40
0.6222915471
 40
1.0
 40
1.0
 40
1.0
 40
1.0
 10
44.2298553701
 20
17.7700178421
 30
0.0
 10
44.2296503911
 20
17.7697860333
 30
0.0
 10
44.2293201607
 20
17.7690124063
 30
0.0
 10
44.228904688
 20
17.7675414582
 30
0.0
 10
44.2284835339
 20
17.7654140132
 30
0.0
 10
44.2282304368
 20
17.7637820707
 30
0.0
 10
44.2280992811
 20
17.7628578116
 30
0.0
 11
44.2298553701
 21
17.7700178421
 31
0.0
 11
44.2294163479
 21
17.7691999028
 31
0.0
 11
44.2289773256
 21
17.7677364875
 31
0.0
 11
44.2285383034
 21
17.7656237418
 31
0.0
 11
44.2280992811
 21
17.7628578116
 31
0.0
  0
SPLINE
  5
396
100
AcDbEntity
  8
0
100
AcDbSpline
 62
7
  6
CONTINUOUS
 70
0
 71
3
 72
21
 73
17
 74
15
 42
0.0000001
 43
0.0000001
 44
0.0000000001
 12
-0.123890082
 22
-0.8730583574
 32
0.0
 13
-0.0767013127
 23
-0.8784626096
 33
0.0
 40
0.0
 40
0.0
 40
0.0
 40
0.0
 40
0.0093333976
 40
0.0221372162
 40
0.0582472211
 40
0.1073298251
 40
0.1675371504
 40
0.2370023127
 40
0.3137992631
 40
0.4805738442
 40
0.6498691495
 40
0.8036665831
 40
0.8691621575
 40
0.9245864584
 40
0.9686293249
 40
1.0
 40
1.0
 40
1.0
 40
1.0
 10
44.2280992811
 20
17.7628578116
 30
0.0
 10
44.2277138427
 20
17.7601416113
 30
0.0
 10
44.2270150968
 20
17.7536697537
 30
0.0
 10
44.2256326783
 20
17.736604602
 30
0.0
 10
44.2240613916
 20
17.7078389638
 30
0.0
 10
44.2222484464
 20
17.6651400142
 30
0.0
 10
44.2204182078
 20
17.6126287722
 30
0.0
 10
44.2185675657
 20
17.5519684683
 30
0.0
 10
44.2160246972
 20
17.4599910578
 30
0.0
 10
44.2129732682
 20
17.3386733559
 30
0.0
 10
44.2093890128
 20
17.194729048
 30
0.0
 10
44.2063140402
 20
17.0805501058
 30
0.0
 10
44.2037125457
 20
16.999843062
 30
0.0
 10
44.2018833354
 20
16.9513882202
 30
0.0
 10
44.2000722232
 20
16.9129739263
 30
0.0
 10
44.1986988289
 20
16.8908454837
 30
0.0
 10
44.1978967716
 20
16.8816594953
 30
0.0
 11
44.2280992811
 21
17.7628578116
 31
0.0
 11
44.2271554527
 21
17.7546818744
 31
0.0
 11
44.2262116243
 21
17.743430925
 31
0.0
 11
44.2243239675
 21
17.7116449519
 31
0.0
 11
44.2224363106
 21
17.6684048611
 31
0.0
 11
44.2205486538
 21
17.6153473232
 31
0.0
 11
44.2186609969
 21
17.5541217043
 31
0.0
 11
44.2167733401
 21
17.4864281011
 31
0.0
 11
44.2129980264
 21
17.3394139474
 31
0.0
 11
44.2092227127
 21
17.190176285
 31
0.0
 11
44.205447399
 21
17.0546095329
 31
0.0
 11
44.2035597422
 21
16.9968860797
 31
0.0
 11
44.2016720853
 21
16.9480491344
 31
0.0
 11
44.1997844285
 21
16.909257826
 31
0.0
 11
44.1978967716
 21
16.8816594953
 31
0.0
  0
LINE
  5
397
100
AcDbEntity
  8
0
100
AcDbLine
 62
7
  6
CONTINUOUS
 10
44.1978967716
 20
16.8816594953
 11
44.1969600011
 21
16.8724642218
  0
SPLINE
  5
398
100
AcDbEntity
  8
0
100
AcDbSpline
 62
7
  6
CONTINUOUS
 70
0
 71
3
 72
11
 73
7
 74
5
 42
0.0000001
 43
0.0000001
 44
0.0000000001
 12
-0.001214842
 22
-0.0099319267
 32
0.0
 13
-0.0100059487
 23
0.000000031
 33
0.0
 40
0.0
 40
0.0
 40
0.0
 40
0.0
 40
0.4231047038
 40
0.7277943132
 40
0.9163528978
 40
1.0
 40
1.0
 40
1.0
 40
1.0
 10
44.1969600011
 20
16.8724642218
 30
0.0
 10
44.196788666
 20
16.8710634735
 30
0.0
 10
44.1964800111
 20
16.8686855083
 30
0.0
 10
44.1958820757
 20
16.8655903531
 30
0.0
 10
44.1954471402
 20
16.8638918443
 30
0.0
 10
44.1948934124
 20
16.8628892062
 30
0.0
 10
44.1946144228
 20
16.862889207
 30
0.0
 11
44.1969600011
 21
16.8724642218
 31
0.0
 11
44.1963736065
 21
16.8682714655
 31
0.0
 11
44.195787212
 21
16.8652796825
 31
0.0
 11
44.1952008174
 21
16.8634864154
 31
0.0
 11
44.1946144228
 21
16.862889207
 31
0.0
  0
SPLINE
  5
399
100
AcDbEntity
  8
0
100
AcDbSpline
 62
7
  6
CONTINUOUS
 70
0
 71
3
 72
12
 73
8
 74
6
 42
0.0000001
 43
0.0000001
 44
0.0000000001
 12
-0.012123852
 22
0.020647918
 32
0.0
 13
-0.0017971634
 23
0.023876652
 33
0.0
 40
0.0
 40
0.0
 40
0.0
 40
0.0
 40
0.0429688658
 40
0.1090083554
 40
0.3117806221
 40
0.6089951953
 40
1.0
 40
1.0
 40
1.0
 40
1.0
 10
3.2509249573
 20
16.8288706327
 30
0.0
 10
3.2507513079
 20
16.8291663719
 30
0.0
 10
3.2504608689
 20
16.8299965161
 30
0.0
 10
3.2498777296
 20
16.8324117345
 30
0.0
 10
3.2492283856
 20
16.8368934132
 30
0.0
 10
3.2484676854
 20
16.8439601836
 30
0.0
 10
3.2480212732
 20
16.8494368836
 30
0.0
 10
3.2477870401
 20
16.8525488455
 30
0.0
 11
3.2509249573
 21
16.8288706327
 31
0.0
 11
3.2505357864
 21
16.8298230444
 31
0.0
 11
3.2501452004
 21
16.8313553083
 31
0.0
 11
3.2493608598
 21
16.836146754
 31
0.0
 11
3.2485740887
 21
16.8432196922
 31
0.0
 11
3.2477870401
 21
16.8525488455
 31
0.0
  0
SPLINE
  5
39A
100
AcDbEntity
  8
0
100
AcDbSpline
 62
7
  6
CONTINUOUS
 70
0
 71
3
 72
17
 73
13
 74
11
 42
0.0000001
 43
0.0000001
 44
0.0000000001
 12
-0.0553925773
 22
0.9025675762
 32
0.0
 13
-0.0539044634
 23
0.9026576738
 33
0.0
 40
0.0
 40
0.0
 40
0.0
 40
0.0
 40
0.0354828525
 40
0.0809946498
 40
0.1980423538
 40
0.341123645
 40
0.4979657047
 40
0.6551018058
 40
0.7990328048
 40
0.9173870135
 40
0.9636813949
 40
1.0
 40
1.0
 40
1.0
 40
1.0
 10
3.2469491963
 20
16.864947193
 30
0.0
 10
3.246294034
 20
16.8756224171
 30
0.0
 10
3.2450802508
 20
16.9000070347
 30
0.0
 10
3.2427185725
 20
16.9596547915
 30
0.0
 10
3.2399568778
 20
17.0517418696
 30
0.0
 10
3.2367729013
 20
17.1773855198
 30
0.0
 10
3.2335775929
 20
17.3151163153
 30
0.0
 10
3.2303683366
 20
17.4531029257
 30
0.0
 10
3.227201827
 20
17.5794858747
 30
0.0
 10
3.2244137232
 20
17.6724582937
 30
0.0
 10
3.2220533451
 20
17.7329883266
 30
0.0
 10
3.2208470605
 20
17.7578616275
 30
0.0
 10
3.2201944822
 20
17.7687893834
 30
0.0
 11
3.2469491963
 21
16.864947193
 31
0.0
 11
3.2452781241
 21
16.8969895764
 31
0.0
 11
3.2436084627
 21
16.9381104532
 31
0.0
 11
3.2402658333
 21
17.0438998889
 31
0.0
 11
3.2369220014
 21
17.1732401849
 31
0.0
 11
3.2335782785
 21
17.3150276681
 31
0.0
 11
3.2302314017
 21
17.4570810422
 31
0.0
 11
3.2268913944
 21
17.5871900532
 31
0.0
 11
3.2235321013
 21
17.6941609777
 31
0.0
 11
3.2218620734
 21
17.735990077
 31
0.0
 11
3.2201944822
 21
17.7687893834
 31
0.0
  0
LINE
  5
39B
100
AcDbEntity
  8
0
100
AcDbLine
 62
7
  6
CONTINUOUS
 10
3.2201944822
 20
17.7687893834
 11
3.2192638895
 21
17.7827900137
  0
SPLINE
  5
39C
100
AcDbEntity
  8
0
100
AcDbSpline
 62
7
  6
CONTINUOUS
 70
0
 71
3
 72
13
 73
9
 74
7
 42
0.0000001
 43
0.0000001
 44
0.0000000001
 12
-0.0018414095
 22
0.0245412312
 32
0.0
 13
-0.0140528568
 23
0.0202034659
 33
0.0
 40
0.0
 40
0.0
 40
0.0
 40
0.0
 40
0.397515523
 40
0.6969244119
 40
0.8095943662
 40
0.8975112269
 40
0.9607817758
 40
1.0
 40
1.0
 40
1.0
 40
1.0
 10
3.2192638895
 20
17.7827900137
 30
0.0
 10
3.2190198932
 20
17.7860418538
 30
0.0
 10
3.2185496005
 20
17.7917392875
 30
0.0
 10
3.2178456949
 20
17.7983464579
 30
0.0
 10
3.2172528776
 20
17.8024037752
 30
0.0
 10
3.2168620838
 20
17.8045370452
 30
0.0
 10
3.2164784902
 20
17.8060450476
 30
0.0
 10
3.2161828033
 20
17.8068477686
 30
0.0
 10
3.215999094
 20
17.8071118833
 30
0.0
 11
3.2192638895
 21
17.7827900137
 31
0.0
 11
3.2184392642
 21
17.7925381406
 31
0.0
 11
3.2176145483
 21
17.7998603602
 31
0.0
 11
3.217204832
 21
17.8026027553
 31
0.0
 11
3.216798304
 21
17.804727874
 31
0.0
 11
3.2163960346
 21
17.8062321166
 31
0.0
 11
3.215999094
 21
17.8071118833
 31
0.0
  0
LINE
  5
39D
100
AcDbEntity
  8
0
100
AcDbLine
 62
7
  6
CONTINUOUS
 10
3.2285551478
 20
16.8676622507
 11
3.2277073768
 21
16.8707852191
  0
SPLINE
  5
39E
100
AcDbEntity
  8
0
100
AcDbSpline
 62
7
  6
CONTINUOUS
 70
0
 71
3
 72
9
 73
5
 74
3
 42
0.0000001
 43
0.0000001
 44
0.0000000001
 12
-0.0052675912
 22
0.0279328506
 32
0.0
 13
-0.001934289
 23
0.0283593051
 33
0.0
 40
0.0
 40
0.0
 40
0.0
 40
0.0
 40
0.3846440655
 40
1.0
 40
1.0
 40
1.0
 40
1.0
 10
3.2277073768
 20
16.8707852191
 30
0.0
 10
3.2270319942
 20
16.8743666208
 30
0.0
 10
3.226069206
 20
16.88380981
 30
0.0
 10
3.2252878195
 20
16.8932464616
 30
0.0
 10
3.2248910608
 20
16.8990634839
 30
0.0
 11
3.2277073768
 21
16.8707852191
 31
0.0
 11
3.2263181713
 21
16.8816301869
 31
0.0
 11
3.2248910608
 21
16.8990634839
 31
0.0
  0
SPLINE
  5
39F
100
AcDbEntity
  8
0
100
AcDbSpline
 62
7
  6
CONTINUOUS
 70
0
 71
3
 72
33
 73
29
 74
27
 42
0.0000001
 43
0.0000001
 44
0.0000000001
 12
-0.0589886568
 22
0.8648538542
 32
0.0
 13
-0.7490087143
 23
0.4363917927
 33
0.0
 40
0.0
 40
0.0
 40
0.0
 40
0.0
 40
0.0183871167
 40
0.0399910711
 40
0.092131982
 40
0.1551751639
 40
0.2279621018
 40
0.2675749301
 40
0.3090165516
 40
0.3958813566
 40
0.4852373253
 40
0.5742984997
 40
0.6607668001
 40
0.7424418631
 40
0.8168603333
 40
0.8504392973
 40
0.8810373543
 40
0.9082594721
 40
0.9319472174
 40
0.9520747429
 40
0.9686437601
 40
0.9816833383
 40
0.9868881688
 40
0.9912204045
 40
0.9946845615
 40
0.9972862657
 40
0.9990393905
 40
1.0
 40
1.0
 40
1.0
 40
1.0
 10
3.2248910608
 20
16.8990634839
 30
0.0
 10
3.224529517
 20
16.9043642068
 30
0.0
 10
3.2238736175
 20
16.9159015614
 30
0.0
 10
3.2224566658
 20
16.9424857461
 30
0.0
 10
3.220828318
 20
16.981978766
 30
0.0
 10
3.218839377
 20
17.0362574037
 30
0.0
 10
3.2173524885
 20
17.0869309241
 30
0.0
 10
3.2160218195
 20
17.1313641403
 30
0.0
 10
3.2147335677
 20
17.1798681016
 30
0.0
 10
3.2130551696
 20
17.242740206
 30
0.0
 10
3.2111724039
 20
17.3193715097
 30
0.0
 10
3.2091904404
 20
17.3958856711
 30
0.0
 10
3.2072483013
 20
17.4701806581
 30
0.0
 10
3.205348291
 20
17.5402442991
 30
0.0
 10
3.2036587584
 20
17.5950250724
 30
0.0
 10
3.20233948
 20
17.6350511328
 30
0.0
 10
3.2013637784
 20
17.6614434333
 30
0.0
 10
3.2003774912
 20
17.6849747998
 30
0.0
 10
3.1994398368
 20
17.7054803576
 30
0.0
 10
3.1983982434
 20
17.7228979111
 30
0.0
 10
3.1974913848
 20
17.7372405858
 30
0.0
 10
3.1966405213
 20
17.7472663032
 30
0.0
 10
3.1959346323
 20
17.7537505543
 30
0.0
 10
3.1954514574
 20
17.7574794439
 30
0.0
 10
3.1949711552
 20
17.7604382174
 30
0.0
 10
3.1944960335
 20
17.7626679376
 30
0.0
 10
3.1940443655
 20
17.764098612
 30
0.0
 10
3.19365955
 20
17.7648535627
 30
0.0
 10
3.193419715
 20
17.7649932967
 30
0.0
 11
3.2248910608
 21
16.8990634839
 31
0.0
 11
3.2239350136
 21
16.9149739009
 31
0.0
 11
3.2229483074
 21
16.9336755631
 31
0.0
 11
3.2209893286
 21
16.9788321291
 31
0.0
 11
3.2190041005
 21
17.0334458751
 31
0.0
 11
3.2170631081
 21
17.096512333
 31
0.0
 11
3.2160565669
 21
17.130836482
 31
0.0
 11
3.2150815235
 21
17.1667474651
 31
0.0
 11
3.2131006606
 21
17.2420213111
 31
0.0
 11
3.211153077
 21
17.319456226
 31
0.0
 11
3.2091679393
 21
17.3966345568
 31
0.0
 11
3.2071995618
 21
17.4715648969
 31
0.0
 11
3.2052455281
 21
17.5423390357
 31
0.0
 11
3.2032636286
 21
17.6068192196
 31
0.0
 11
3.2022907903
 21
17.6359113273
 31
0.0
 11
3.2013046602
 21
17.66241732
 31
0.0
 11
3.2003187273
 21
17.6859945674
 31
0.0
 11
3.199340979
 21
17.7065053113
 31
0.0
 11
3.1983259983
 21
17.723923576
 31
0.0
 11
3.197369477
 21
17.738254762
 31
0.0
 11
3.1963854223
 21
17.7495153769
 31
0.0
 11
3.1958905976
 21
17.7540000368
 31
0.0
 11
3.1953974642
 21
17.7577229749
 31
0.0
 11
3.1949024853
 21
17.7606848503
 31
0.0
 11
3.1944068425
 21
17.7628850354
 31
0.0
 11
3.1939126602
 21
17.7643221613
 31
0.0
 11
3.193419715
 21
17.7649932967
 31
0.0
  0
SPLINE
  5
3A0
100
AcDbEntity
  8
0
100
AcDbSpline
 62
7
  6
CONTINUOUS
 70
0
 71
3
 72
12
 73
8
 74
6
 42
0.0000001
 43
0.0000001
 44
0.0000000001
 12
-0.0135065718
 22
-0.0294260261
 32
0.0
 13
-0.0021568442
 23
-0.0323058279
 33
0.0
 40
0.0
 40
0.0
 40
0.0
 40
0.0
 40
0.0451538088
 40
0.1123253218
 40
0.3148409854
 40
0.610012372
 40
1.0
 40
1.0
 40
1.0
 40
1.0
 10
44.3010155108
 20
17.7664577848
 30
0.0
 10
44.3008122198
 20
17.7660148858
 30
0.0
 10
44.3004702062
 20
17.764843931
 30
0.0
 10
44.2997724669
 20
17.7615214617
 30
0.0
 10
44.2989219669
 20
17.755475841
 30
0.0
 10
44.2980254103
 20
17.7459389444
 30
0.0
 10
44.2974746337
 20
17.7385637363
 30
0.0
 10
44.2971942528
 20
17.7343641119
 30
0.0
 11
44.3010155108
 21
17.7664577848
 31
0.0
 11
44.3005522886
 21
17.7650711318
 31
0.0
 11
44.3000842984
 21
17.7629472177
 31
0.0
 11
44.2991023246
 21
17.7564641638
 31
0.0
 11
44.2981473883
 21
17.7469550078
 31
0.0
 11
44.2971942528
 21
17.7343641119
 31
0.0
  0
SPLINE
  5
3A1
100
AcDbEntity
  8
0
100
AcDbSpline
 62
7
  6
CONTINUOUS
 70
0
 71
3
 72
28
 73
24
 74
22
 42
0.0000001
 43
0.0000001
 44
0.0000000001
 12
-0.057873524
 22
-0.8668461502
 32
0.0
 13
-0.3190438287
 23
-0.8080734053
 33
0.0
 40
0.0
 40
0.0
 40
0.0
 40
0.0
 40
0.0395597216
 40
0.0927603354
 40
0.2298085554
 40
0.3923914578
 40
0.4352171333
 40
0.4784160168
 40
0.5647191339
 40
0.6484693633
 40
0.7269860965
 40
0.7636920929
 40
0.7984543059
 40
0.8615095739
 40
0.8894816277
 40
0.9148525539
 40
0.9374241841
 40
0.9569771209
 40
0.9732664998
 40
0.9860369575
 40
0.9950176337
 40
0.9980080346
 40
1.0
 40
1.0
 40
1.0
 40
1.0
 10
44.2971942528
 20
17.7343641119
 30
0.0
 10
44.2964310994
 20
17.7229333811
 30
0.0
 10
44.2950367004
 20
17.6961047935
 30
0.0
 10
44.2924085182
 20
17.6296058935
 30
0.0
 10
44.289346433
 20
17.5274729341
 30
0.0
 10
44.2866356559
 20
17.4283374516
 30
0.0
 10
44.2849074378
 20
17.3563633946
 30
0.0
 10
44.2835719612
 20
17.3064765267
 30
0.0
 10
44.2820647818
 20
17.2447387369
 30
0.0
 10
44.2801861341
 20
17.1727793951
 30
0.0
 10
44.2786353995
 20
17.115179124
 30
0.0
 10
44.2772778387
 20
17.0717658885
 30
0.0
 10
44.2761307652
 20
17.032825787
 30
0.0
 10
44.2748333065
 20
16.996421088
 30
0.0
 10
44.2735684155
 20
16.9627366714
 30
0.0
 10
44.2725923022
 20
16.9407741003
 30
0.0
 10
44.2716715494
 20
16.9212492287
 30
0.0
 10
44.2707146253
 20
16.9043607052
 30
0.0
 10
44.269864944
 20
16.8903063226
 30
0.0
 10
44.2689023265
 20
16.8793344317
 30
0.0
 10
44.2681262835
 20
16.8722040906
 30
0.0
 10
44.2674349129
 20
16.8682227345
 30
0.0
 10
44.2670845263
 20
16.8668154172
 30
0.0
 10
44.2668726849
 20
16.8662788657
 30
0.0
 11
44.2971942528
 21
17.7343641119
 31
0.0
 11
44.2953024206
 21
17.7000476864
 31
0.0
 11
44.2934084602
 21
17.6538670957
 31
0.0
 11
44.2896158617
 21
17.5348633217
 31
0.0
 11
44.2858117603
 21
17.3936664471
 31
0.0
 11
44.284893018
 21
17.3564718767
 31
0.0
 11
44.2839158316
 21
17.3189544509
 31
0.0
 11
44.2820252673
 21
17.2440002203
 31
0.0
 11
44.2801363844
 21
17.1712645602
 31
0.0
 11
44.2782422517
 21
17.1030774163
 31
0.0
 11
44.2772701305
 21
17.0712029513
 31
0.0
 11
44.276349935
 21
17.0410164001
 31
0.0
 11
44.2744473116
 21
16.9862685523
 31
0.0
 11
44.2735109435
 21
16.961985152
 31
0.0
 11
44.2725457873
 21
16.9399646436
 31
0.0
 11
44.2715972292
 21
16.9203779101
 31
0.0
 11
44.2706494634
 21
16.9034172495
 31
0.0
 11
44.269731975
 21
16.8892952021
 31
0.0
 11
44.2687609824
 21
16.8782431077
 31
0.0
 11
44.2678161221
 21
16.870498336
 31
0.0
 11
44.2673481238
 21
16.8679428476
 31
0.0
 11
44.2668726849
 21
16.8662788657
 31
0.0
  0
SPLINE
  5
3A2
100
AcDbEntity
  8
0
100
AcDbSpline
 62
7
  6
CONTINUOUS
 70
0
 71
3
 72
11
 73
7
 74
5
 42
0.0000001
 43
0.0000001
 44
0.0000000001
 12
-0.0071178812
 22
0.0154346006
 32
0.0
 13
-0.0016160963
 23
0.016919792
 33
0.0
 40
0.0
 40
0.0
 40
0.0
 40
0.0
 40
0.1311103364
 40
0.3416363059
 40
0.6315506805
 40
1.0
 40
1.0
 40
1.0
 40
1.0
 10
2.7999548533
 20
16.8828389677
 30
0.0
 10
2.7996437773
 20
16.883513513
 30
0.0
 10
2.7991648226
 20
16.8854069408
 30
0.0
 10
2.798534804
 20
16.8889216465
 30
0.0
 10
2.7979050258
 20
16.8938092389
 30
0.0
 10
2.7975199442
 20
16.8975183073
 30
0.0
 10
2.797321461
 20
16.8995963359
 30
0.0
 11
2.7999548533
 21
16.8828389677
 31
0.0
 11
2.7992965052
 21
16.8849679565
 31
0.0
 11
2.7986381571
 21
16.8884851393
 31
0.0
 11
2.7979798091
 21
16.8933685783
 31
0.0
 11
2.797321461
 21
16.8995963359
 31
0.0
  0
SPLINE
  5
3A3
100
AcDbEntity
  8
0
100
AcDbSpline
 62
7
  6
CONTINUOUS
 70
0
 71
3
 72
9
 73
5
 74
3
 42
0.0000001
 43
0.0000001
 44
0.0000000001
 12
-0.0056483831
 22
0.0591359977
 32
0.0
 13
-0.0027894592
 23
0.0593396105
 33
0.0
 40
0.0
 40
0.0
 40
0.0
 40
0.0
 40
0.4157263888
 40
1.0
 40
1.0
 40
1.0
 40
1.0
 10
2.797321461
 20
16.8995963359
 30
0.0
 10
2.7965387337
 20
16.9077911342
 30
0.0
 10
2.7951764433
 20
16.9275504106
 30
0.0
 10
2.7941500048
 20
16.9473249427
 30
0.0
 10
2.7936067356
 20
16.9588817989
 30
0.0
 11
2.797321461
 21
16.8995963359
 31
0.0
 11
2.7954640983
 21
16.924222676
 31
0.0
 11
2.7936067356
 21
16.9588817989
 31
0.0
  0
SPLINE
  5
3A4
100
AcDbEntity
  8
0
100
AcDbSpline
 62
7
  6
CONTINUOUS
 70
0
 71
3
 72
9
 73
5
 74
3
 42
0.0000001
 43
0.0000001
 44
0.0000000001
 12
-0.0045988935
 22
0.0978313445
 32
0.0
 13
-0.0031789342
 23
0.0978877733
 33
0.0
 40
0.0
 40
0.0
 40
0.0
 40
0.0
 40
0.2150941306
 40
1.0
 40
1.0
 40
1.0
 40
1.0
 10
2.7936067356
 20
16.9588817989
 30
0.0
 10
2.793277004
 20
16.9658961149
 30
0.0
 10
2.7918421073
 20
16.9985111787
 30
0.0
 10
2.790705659
 20
17.0311386059
 30
0.0
 10
2.7898739376
 20
17.0567495018
 30
0.0
 11
2.7936067356
 21
16.9588817989
 31
0.0
 11
2.7926735361
 21
16.9799273045
 31
0.0
 11
2.7898739376
 21
17.0567495018
 31
0.0
  0
SPLINE
  5
3A5
100
AcDbEntity
  8
0
100
AcDbSpline
 62
7
  6
CONTINUOUS
 70
0
 71
3
 72
9
 73
5
 74
3
 42
0.0000001
 43
0.0000001
 44
0.0000000001
 12
-0.0085017904
 22
0.2617925602
 32
0.0
 13
-0.0067984459
 23
0.2618423307
 33
0.0
 40
0.0
 40
0.0
 40
0.0
 40
0.0
 40
0.4731767759
 40
1.0
 40
1.0
 40
1.0
 40
1.0
 10
2.7898739376
 20
17.0567495018
 30
0.0
 10
2.7885329877
 20
17.0980408883
 30
0.0
 10
2.7860519372
 20
17.1853163238
 30
0.0
 10
2.7837865826
 20
17.2725970198
 30
0.0
 10
2.7825927228
 20
17.3185785601
 30
0.0
 11
2.7898739376
 21
17.0567495018
 31
0.0
 11
2.7862333302
 21
17.1806354845
 31
0.0
 11
2.7825927228
 21
17.3185785601
 31
0.0
  0
LINE
  5
3A6
100
AcDbEntity
  8
0
100
AcDbLine
 62
7
  6
CONTINUOUS
 10
2.7825927228
 20
17.3185785601
 11
2.7824330933
 21
17.3247263014
  0
LINE
  5
3A7
100
AcDbEntity
  8
0
100
AcDbLine
 62
7
  6
CONTINUOUS
 10
2.7824330933
 20
17.3247263014
 11
2.7787901475
 21
17.4622155458
  0
SPLINE
  5
3A8
100
AcDbEntity
  8
0
100
AcDbSpline
 62
7
  6
CONTINUOUS
 70
0
 71
3
 72
12
 73
8
 74
6
 42
0.0000001
 43
0.0000001
 44
0.0000000001
 12
-0.0117543006
 22
0.0209043052
 32
0.0
 13
-0.0017635854
 23
0.0239174272
 33
0.0
 40
0.0
 40
0.0
 40
0.0
 40
0.0
 40
0.0445771378
 40
0.1117499798
 40
0.3153841063
 40
0.6116616651
 40
1.0
 40
1.0
 40
1.0
 40
1.0
 10
3.3222994876
 20
16.8267081897
 30
0.0
 10
3.3221248299
 20
16.8270188078
 30
0.0
 10
3.321830718
 20
16.8278714284
 30
0.0
 10
3.3212511153
 20
16.8303221377
 30
0.0
 10
3.3206150282
 20
16.834820583
 30
0.0
 10
3.3198787001
 20
16.84187978
 30
0.0
 10
3.3194453599
 20
16.8473371817
 30
0.0
 10
3.3192170706
 20
16.8504331997
 30
0.0
 11
3.3222994876
 21
16.8267081897
 31
0.0
 11
3.3219043077
 21
16.8277015339
 31
0.0
 11
3.3215138309
 21
16.8292644576
 31
0.0
 11
3.3207432247
 21
16.8340869027
 31
0.0
 11
3.3199801457
 21
16.8411512438
 31
0.0
 11
3.3192170706
 21
16.8504331997
 31
0.0
  0
SPLINE
  5
3A9
100
AcDbEntity
  8
0
100
AcDbSpline
 62
7
  6
CONTINUOUS
 70
0
 71
3
 72
17
 73
13
 74
11
 42
0.0000001
 43
0.0000001
 44
0.0000000001
 12
-0.0547619347
 22
0.906860445
 32
0.0
 13
-0.0540758252
 23
0.9069016161
 33
0.0
 40
0.0
 40
0.0
 40
0.0
 40
0.0
 40
0.0356933266
 40
0.0814042113
 40
0.1987889918
 40
0.342100893
 40
0.4990399509
 40
0.6561232596
 40
0.7998482621
 40
0.9178538441
 40
0.9639268195
 40
1.0
 40
1.0
 40
1.0
 40
1.0
 10
3.3183549953
 20
16.863427447
 30
0.0
 10
3.3177034501
 20
16.874217069
 30
0.0
 10
3.3164821877
 20
16.8988401771
 30
0.0
 10
3.3141093065
 20
16.958994428
 30
0.0
 10
3.3113577585
 20
17.0517469385
 30
0.0
 10
3.3081675468
 20
17.1781821947
 30
0.0
 10
3.304972181
 20
17.3166433961
 30
0.0
 10
3.3017643601
 20
17.4552294093
 30
0.0
 10
3.2985903741
 20
17.5820220171
 30
0.0
 10
3.2958159782
 20
17.6751967737
 30
0.0
 10
3.2934398795
 20
17.7357638582
 30
0.0
 10
3.2922227588
 20
17.7606120962
 30
0.0
 10
3.2915725298
 20
17.7715170381
 30
0.0
 11
3.3183549953
 21
16.863427447
 31
0.0
 11
3.3166804562
 21
16.8958120113
 31
0.0
 11
3.315002734
 21
16.9373070129
 31
0.0
 11
3.3116614787
 21
17.0439001842
 31
0.0
 11
3.3083162271
 21
17.174057838
 31
0.0
 11
3.3049715493
 21
17.316599679
 31
0.0
 11
3.3016239354
 21
17.4592725409
 31
0.0
 11
3.2982822017
 21
17.589805716
 31
0.0
 11
3.2949250572
 21
17.6969626722
 31
0.0
 11
3.293245065
 21
17.7387868131
 31
0.0
 11
3.2915725298
 21
17.7715170381
 31
0.0
  0
SPLINE
  5
3AA
100
AcDbEntity
  8
0
100
AcDbSpline
 62
7
  6
CONTINUOUS
 70
0
 71
3
 72
13
 73
9
 74
7
 42
0.0000001
 43
0.0000001
 44
0.0000000001
 12
-0.0018111145
 22
0.0247615729
 32
0.0
 13
-0.0164655629
 23
0.0185822729
 33
0.0
 40
0.0
 40
0.0
 40
0.0
 40
0.0
 40
0.4025572368
 40
0.7035164426
 40
0.8156580591
 40
0.9022051133
 40
0.9633453605
 40
1.0
 40
1.0
 40
1.0
 40
1.0
 10
3.2906939671
 20
17.7849012783
 30
0.0
 10
3.2904509414
 20
17.7882239284
 30
0.0
 10
3.2899864201
 20
17.7940267746
 30
0.0
 10
3.2892908204
 20
17.8007455921
 30
0.0
 10
3.2886943709
 20
17.8048347077
 30
0.0
 10
3.2882981093
 20
17.80695547
 30
0.0
 10
3.2879036149
 20
17.8084176472
 30
0.0
 10
3.2875896108
 20
17.8091898115
 30
0.0
 10
3.287388431
 20
17.8094168537
 30
0.0
 11
3.2906939671
 21
17.7849012783
 31
0.0
 11
3.2898749895
 21
17.7948622453
 31
0.0
 11
3.2890550426
 21
17.8022892516
 31
0.0
 11
3.2886428455
 21
17.8050427907
 31
0.0
 11
3.2882281739
 21
17.8071511651
 31
0.0
 11
3.2878102837
 21
17.8086104833
 31
0.0
 11
3.287388431
 21
17.8094168537
 31
0.0
  0
LINE
  5
3AB
100
AcDbEntity
  8
0
100
AcDbLine
 62
7
  6
CONTINUOUS
 10
3.2995957241
 20
16.8663903171
 11
3.2986709453
 21
16.8706463055
  0
SPLINE
  5
3AC
100
AcDbEntity
  8
0
100
AcDbSpline
 62
7
  6
CONTINUOUS
 70
0
 71
3
 72
10
 73
6
 74
4
 42
0.0000001
 43
0.0000001
 44
0.0000000001
 12
-0.0049623278
 22
0.0323907589
 32
0.0
 13
-0.001944712
 23
0.0327109165
 33
0.0
 40
0.0
 40
0.0
 40
0.0
 40
0.0
 40
0.1685962698
 40
0.3934559851
 40
1.0
 40
1.0
 40
1.0
 40
1.0
 10
3.2986709453
 20
16.8706463055
 30
0.0
 10
3.2983920687
 20
16.8724666258
 30
0.0
 10
3.2978859233
 20
16.8767359469
 30
0.0
 10
3.2968249807
 20
16.8876072236
 30
0.0
 10
3.296261224
 20
16.8966736567
 30
0.0
 10
3.2958680396
 20
16.9032871936
 30
0.0
 11
3.2986709453
 21
16.8706463055
 31
0.0
 11
3.2979745897
 21
16.8761269199
 31
0.0
 11
3.2972532098
 21
16.8834598771
 31
0.0
 11
3.2958680396
 21
16.9032871936
 31
0.0
  0
SPLINE
  5
3AD
100
AcDbEntity
  8
0
100
AcDbSpline
 62
7
  6
CONTINUOUS
 70
0
 71
3
 72
27
 73
23
 74
21
 42
0.0000001
 43
0.0000001
 44
0.0000000001
 12
-0.0512717052
 22
0.8624127923
 32
0.0
 13
-0.3662374406
 23
0.7824670914
 33
0.0
 40
0.0
 40
0.0
 40
0.0
 40
0.0
 40
0.0960829698
 40
0.2315690789
 40
0.3950248057
 40
0.4819478171
 40
0.5254510038
 40
0.5685737278
 40
0.652640581
 40
0.7322283536
 40
0.8054244354
 40
0.8389572888
 40
0.870037279
 40
0.8983183313
 40
0.9234307806
 40
0.945036084
 40
0.9630397146
 40
0.9774699712
 40
0.9883846714
 40
0.9958640277
 40
0.9983399449
 40
1.0
 40
1.0
 40
1.0
 40
1.0
 10
3.2958680396
 20
16.9032871936
 30
0.0
 10
3.294225927
 20
16.9309082543
 30
0.0
 10
3.2914873481
 20
16.9975456604
 30
0.0
 10
3.2879239667
 20
17.1112466396
 30
0.0
 10
3.2849997741
 20
17.2223300074
 30
0.0
 10
3.2829271939
 20
17.3069362014
 30
0.0
 10
3.2815884664
 20
17.3568966784
 30
0.0
 10
3.2804139824
 20
17.4060385354
 30
0.0
 10
3.2788188632
 20
17.4655646349
 30
0.0
 10
3.276966435
 20
17.5337474829
 30
0.0
 10
3.2753166335
 20
17.5873773133
 30
0.0
 10
3.2741031196
 20
17.6270448893
 30
0.0
 10
3.2731113648
 20
17.6537780621
 30
0.0
 10
3.2721779282
 20
17.6780866693
 30
0.0
 10
3.2712567433
 20
17.6996652654
 30
0.0
 10
3.2702940772
 20
17.7182789774
 30
0.0
 10
3.2693922672
 20
17.733814994
 30
0.0
 10
3.2684576106
 20
17.746265015
 30
0.0
 10
3.2675651755
 20
17.755674101
 30
0.0
 10
3.2667193894
 20
17.7616335632
 30
0.0
 10
3.2660249169
 20
17.7649024244
 30
0.0
 10
3.2656845425
 20
17.7660519946
 30
0.0
 10
3.2654818844
 20
17.7664849741
 30
0.0
 11
3.2958680396
 21
16.9032871936
 31
0.0
 11
3.2920651848
 21
16.9862095311
 31
0.0
 11
3.2882648395
 21
17.1031990857
 31
0.0
 11
3.2844759015
 21
17.2443634573
 31
0.0
 11
3.2825826633
 21
17.3194354668
 31
0.0
 11
3.2816037333
 21
17.3570066648
 31
0.0
 11
3.2806835202
 21
17.394250552
 31
0.0
 11
3.2787796947
 21
17.466853937
 31
0.0
 11
3.2768735875
 21
17.5355862167
 31
0.0
 11
3.274967885
 21
17.5987941912
 31
0.0
 11
3.2740489692
 21
17.6277498376
 31
0.0
 11
3.2730753993
 21
17.6545832899
 31
0.0
 11
3.2721244509
 21
17.6789977833
 31
0.0
 11
3.2711786861
 21
17.7006726966
 31
0.0
 11
3.2702191272
 21
17.7193136053
 31
0.0
 11
3.2692839324
 21
17.7348394414
 31
0.0
 11
3.2683355807
 21
17.74727013
 31
0.0
 11
3.2673853884
 21
17.7566517312
 31
0.0
 11
3.2664083757
 21
17.7630391232
 31
0.0
 11
3.2659427784
 21
17.7651268685
 31
0.0
 11
3.2654818844
 21
17.7664849741
 31
0.0
  0
LINE
  5
3AE
100
AcDbEntity
  8
0
100
AcDbLine
 62
7
  6
CONTINUOUS
 10
44.3726682806
 20
17.7644653377
 11
44.3721223726
 21
17.7629538769
  0
SPLINE
  5
3AF
100
AcDbEntity
  8
0
100
AcDbSpline
 62
7
  6
CONTINUOUS
 70
0
 71
3
 72
11
 73
7
 74
5
 42
0.0000001
 43
0.0000001
 44
0.0000000001
 12
-0.0102745426
 22
-0.0371527361
 32
0.0
 13
-0.0024099194
 23
-0.0384718639
 33
0.0
 40
0.0
 40
0.0
 40
0.0
 40
0.0
 40
0.133751353
 40
0.3445687853
 40
0.633128215
 40
1.0
 40
1.0
 40
1.0
 40
1.0
 10
44.3721223726
 20
17.7629538769
 30
0.0
 10
44.3716642946
 20
17.7612974673
 30
0.0
 10
44.370946287
 20
17.756914434
 30
0.0
 10
44.3700076218
 20
17.7488390336
 30
0.0
 10
44.3690539115
 20
17.737745095
 30
0.0
 10
44.3685237409
 20
17.7293406842
 30
0.0
 10
44.3682290304
 20
17.7246359371
 30
0.0
 11
44.3721223726
 21
17.7629538769
 31
0.0
 11
44.3711380896
 21
17.757892954
 31
0.0
 11
44.3701568443
 21
17.7498259764
 31
0.0
 11
44.3691772366
 21
17.7387460187
 31
0.0
 11
44.3682290304
 21
17.7246359371
 31
0.0
  0
SPLINE
  5
3B0
100
AcDbEntity
  8
0
100
AcDbSpline
 62
7
  6
CONTINUOUS
 70
0
 71
3
 72
30
 73
26
 74
24
 42
0.0000001
 43
0.0000001
 44
0.0000000001
 12
-0.0536360032
 22
-0.8562431781
 32
0.0
 13
-0.4636322488
 23
-0.7218547907
 33
0.0
 40
0.0
 40
0.0
 40
0.0
 40
0.0
 40
0.0975222235
 40
0.1643556916
 40
0.2397081488
 40
0.2797727908
 40
0.3210573477
 40
0.4062786183
 40
0.4933895484
 40
0.5802309951
 40
0.664144504
 40
0.7421264971
 40
0.8121241878
 40
0.8728560568
 40
0.8994218937
 40
0.9232791595
 40
0.9442796369
 40
0.9622549816
 40
0.9770229653
 40
0.9831384901
 40
0.9883718614
 40
0.9926970864
 40
0.9960888649
 40
0.9985251171
 40
1.0
 40
1.0
 40
1.0
 40
1.0
 10
44.3682290304
 20
17.7246359371
 30
0.0
 10
44.366485463
 20
17.6968016909
 30
0.0
 10
44.3646230005
 20
17.6498291274
 30
0.0
 10
44.3624233263
 20
17.581316247
 30
0.0
 10
44.3608379053
 20
17.5292208275
 30
0.0
 10
44.3596656383
 20
17.4844236297
 30
0.0
 10
44.3583568323
 20
17.4368067933
 30
0.0
 10
44.3568224388
 20
17.3757372357
 30
0.0
 10
44.3548877717
 20
17.3016456056
 30
0.0
 10
44.3530771726
 20
17.2279249318
 30
0.0
 10
44.3511914569
 20
17.1568175907
 30
0.0
 10
44.3492845636
 20
17.0905296674
 30
0.0
 10
44.3474843711
 20
17.030870534
 30
0.0
 10
44.3458178513
 20
16.9859187468
 30
0.0
 10
44.3445323726
 20
16.9541573131
 30
0.0
 10
44.3435893232
 20
16.9337535899
 30
0.0
 10
44.3426295596
 20
16.9158106713
 30
0.0
 10
44.3417624827
 20
16.9004654193
 30
0.0
 10
44.340906091
 20
16.8893848091
 30
0.0
 10
44.3402327589
 20
16.8819467634
 30
0.0
 10
44.3397736727
 20
16.8774869467
 30
0.0
 10
44.3393102016
 20
16.8738143214
 30
0.0
 10
44.3388580064
 20
16.8709399315
 30
0.0
 10
44.3384116134
 20
16.8689101192
 30
0.0
 10
44.3380730667
 20
16.8678223831
 30
0.0
 10
44.3378451322
 20
16.8674674993
 30
0.0
 11
44.3682290304
 21
17.7246359371
 31
0.0
 11
44.3643999645
 21
17.6410571967
 31
0.0
 11
44.3625164959
 21
17.5837502743
 31
0.0
 11
44.3605908641
 21
17.5191324714
 31
0.0
 11
44.3596673356
 21
17.4847725651
 31
0.0
 11
44.3587111462
 21
17.4493665678
 31
0.0
 11
44.356824135
 21
17.3762777678
 31
0.0
 11
44.3549050971
 21
17.3015680757
 31
0.0
 11
44.3530318953
 21
17.2270884889
 31
0.0
 11
44.3511185664
 21
17.1551227203
 31
0.0
 11
44.3492023828
 21
17.0882477431
 31
0.0
 11
44.3473306322
 21
17.0282244003
 31
0.0
 11
44.3454148889
 21
16.9761564589
 31
0.0
 11
44.3444781103
 21
16.9533843178
 31
0.0
 11
44.3435253232
 21
16.9329388464
 31
0.0
 11
44.3425736347
 21
16.9149472394
 31
0.0
 11
44.3416524658
 21
16.8995533424
 31
0.0
 11
44.3406763145
 21
16.8869212326
 31
0.0
 11
44.3401984555
 21
16.8816963996
 31
0.0
 11
44.3397284527
 21
16.8772312463
 31
0.0
 11
44.3392555865
 21
16.8735507957
 31
0.0
 11
44.3387827058
 21
16.8706795969
 31
0.0
 11
44.3383142516
 21
16.8686426573
 31
0.0
 11
44.3378451322
 21
16.8674674993
 31
0.0
  0
SPLINE
  5
3B1
100
AcDbEntity
  8
0
100
AcDbSpline
 62
7
  6
CONTINUOUS
 70
0
 71
3
 72
12
 73
8
 74
6
 42
0.0000001
 43
0.0000001
 44
0.0000000001
 12
0.0114033168
 22
-0.0200248097
 32
0.0
 13
0.0017355574
 23
-0.0229786091
 33
0.0
 40
0.0
 40
0.0
 40
0.0
 40
0.0
 40
0.0448273335
 40
0.1121614128
 40
0.3158970348
 40
0.6120263706
 40
1.0
 40
1.0
 40
1.0
 40
1.0
 10
3.1635118095
 20
17.8053030242
 30
0.0
 10
3.1636822029
 20
17.8050038046
 30
0.0
 10
3.163970733
 20
17.8041832247
 30
0.0
 10
3.1645395633
 20
17.8018270858
 30
0.0
 10
3.1651662397
 20
17.7975058576
 30
0.0
 10
3.1658913704
 20
17.7907278536
 30
0.0
 10
3.1663180153
 20
17.7854887234
 30
0.0
 10
3.1665424655
 20
17.7825170253
 30
0.0
 11
3.1635118095
 21
17.8053030242
 31
0.0
 11
3.1638990083
 21
17.8043453323
 31
0.0
 11
3.1642823092
 21
17.80284177
 31
0.0
 11
3.1650402319
 21
17.7982084561
 31
0.0
 11
3.1657916074
 21
17.7914259265
 31
0.0
 11
3.1665424655
 21
17.7825170253
 31
0.0
  0
LINE
  5
3B2
100
AcDbEntity
  8
0
100
AcDbLine
 62
7
  6
CONTINUOUS
 10
3.1673527141
 20
17.7706316083
 11
3.1675015324
 21
17.7682015102
  0
SPLINE
  5
3B3
100
AcDbEntity
  8
0
100
AcDbSpline
 62
7
  6
CONTINUOUS
 70
0
 71
3
 72
17
 73
13
 74
11
 42
0.0000001
 43
0.0000001
 44
0.0000000001
 12
0.0550441786
 22
-0.9127648095
 32
0.0
 13
0.0683185833
 23
-0.9118673315
 33
0.0
 40
0.0
 40
0.0
 40
0.0
 40
0.0
 40
0.0367943137
 40
0.0840855114
 40
0.205592057
 40
0.3533793552
 40
0.5139090857
 40
0.6724714297
 40
0.814550197
 40
0.9271503294
 40
0.9690387582
 40
1.0
 40
1.0
 40
1.0
 40
1.0
 10
3.1675015324
 20
17.7682015102
 30
0.0
 10
3.1681766366
 20
17.7570066586
 30
0.0
 10
3.1694367901
 20
17.7314065344
 30
0.0
 10
3.1718914345
 20
17.6687883548
 30
0.0
 10
3.1747447619
 20
17.5723312986
 30
0.0
 10
3.1780173771
 20
17.4413589046
 30
0.0
 10
3.1813216278
 20
17.2990888114
 30
0.0
 10
3.1846085186
 20
17.1585585454
 30
0.0
 10
3.1878863735
 20
17.0326427329
 30
0.0
 10
3.1907145624
 20
16.9422881005
 30
0.0
 10
3.1931853024
 20
16.8858157009
 30
0.0
 10
3.1944478621
 20
16.8636440494
 30
0.0
 10
3.1951529382
 20
16.8542332011
 30
0.0
 11
3.1675015324
 21
17.7682015102
 31
0.0
 11
3.1692304166
 21
17.7346003917
 31
0.0
 11
3.1709665733
 21
17.6913910974
 31
0.0
 11
3.1744312002
 21
17.5803367458
 31
0.0
 11
3.1778823493
 21
17.4452407125
 31
0.0
 11
3.1813395865
 21
17.2984893495
 31
0.0
 11
3.1847933043
 21
17.1535374315
 31
0.0
 11
3.1882473642
 21
17.023663259
 31
0.0
 11
3.1916996581
 21
16.9207569984
 31
0.0
 11
3.1934274223
 21
16.8824922418
 31
0.0
 11
3.1951529382
 21
16.8542332011
 31
0.0
  0
SPLINE
  5
3B4
100
AcDbEntity
  8
0
100
AcDbSpline
 62
7
  6
CONTINUOUS
 70
0
 71
3
 72
12
 73
8
 74
6
 42
0.0000001
 43
0.0000001
 44
0.0000000001
 12
0.0017846172
 22
-0.0238197873
 32
0.0
 13
0.0112443757
 23
-0.0210744191
 33
0.0
 40
0.0
 40
0.0
 40
0.0
 40
0.0
 40
0.3870309139
 40
0.6829217159
 40
0.887052716
 40
0.9547654366
 40
1.0
 40
1.0
 40
1.0
 40
1.0
 10
3.1951529382
 20
16.8542332011
 30
0.0
 10
3.1953831722
 20
16.851160203
 30
0.0
 10
3.1958222226
 20
16.8457388817
 30
0.0
 10
3.1965671996
 20
16.838718145
 30
0.0
 10
3.1972082423
 20
16.8342345787
 30
0.0
 10
3.197782502
 20
16.8317785023
 30
0.0
 10
3.1980713172
 20
16.8309190111
 30
0.0
 10
3.198240862
 20
16.830601247
 30
0.0
 11
3.1951529382
 21
16.8542332011
 31
0.0
 11
3.1959240123
 21
16.8450205812
 31
0.0
 11
3.1966949158
 21
16.8379949396
 31
0.0
 11
3.1974668115
 21
16.8331804403
 31
0.0
 11
3.1978534948
 21
16.8316099201
 31
0.0
 11
3.198240862
 21
16.830601247
 31
0.0
  0
LINE
  5
3B5
100
AcDbEntity
  8
0
100
AcDbLine
 62
7
  6
CONTINUOUS
 10
44.4440634134
 20
17.7624460786
 11
44.4432925251
 21
17.7595589306
  0
SPLINE
  5
3B6
100
AcDbEntity
  8
0
100
AcDbSpline
 62
7
  6
CONTINUOUS
 70
0
 71
3
 72
9
 73
5
 74
3
 42
0.0000001
 43
0.0000001
 44
0.0000000001
 12
-0.0054735036
 22
-0.0272830455
 32
0.0
 13
-0.0020111222
 23
-0.0277539043
 33
0.0
 40
0.0
 40
0.0
 40
0.0
 40
0.0
 40
0.3825691864
 40
1.0
 40
1.0
 40
1.0
 40
1.0
 10
44.4432925251
 20
17.7595589306
 30
0.0
 10
44.4425945272
 20
17.756079713
 30
0.0
 10
44.4415011727
 20
17.7468514759
 30
0.0
 10
44.440778891
 20
17.7376087768
 30
0.0
 10
44.4403649814
 20
17.7318967383
 30
0.0
 11
44.4432925251
 21
17.7595589306
 31
0.0
 11
44.4418122696
 21
17.7490167181
 31
0.0
 11
44.4403649814
 21
17.7318967383
 31
0.0
  0
SPLINE
  5
3B7
100
AcDbEntity
  8
0
100
AcDbSpline
 62
7
  6
CONTINUOUS
 70
0
 71
3
 72
32
 73
28
 74
26
 42
0.0000001
 43
0.0000001
 44
0.0000000001
 12
-0.0623535873
 22
-0.8604924656
 32
0.0
 13
-0.7322927105
 23
-0.4561607606
 33
0.0
 40
0.0
 40
0.0
 40
0.0
 40
0.0
 40
0.0383869103
 40
0.0900158236
 40
0.1206792358
 40
0.154402733
 40
0.2295115647
 40
0.3120081863
 40
0.3990538076
 40
0.4882718555
 40
0.5774066597
 40
0.663944396
 40
0.7447840434
 40
0.8167835174
 40
0.8489040398
 40
0.8782574422
 40
0.9047398634
 40
0.9282517155
 40
0.9486868328
 40
0.965926687
 40
0.9798311682
 40
0.9854843498
 40
0.9902423656
 40
0.9940819449
 40
0.9969852807
 40
0.9989473828
 40
1.0
 40
1.0
 40
1.0
 40
1.0
 10
44.4403649814
 20
17.7318967383
 30
0.0
 10
44.4395671275
 20
17.7208861892
 30
0.0
 10
44.4380703412
 20
17.6950399637
 30
0.0
 10
44.4366488348
 20
17.6603635029
 30
0.0
 10
44.4353644485
 20
17.6270240098
 30
0.0
 10
44.4340519222
 20
17.5869287726
 30
0.0
 10
44.4323471667
 20
17.5319321779
 30
0.0
 10
44.4304822484
 20
17.4615993026
 30
0.0
 10
44.4285026823
 20
17.387210638
 30
0.0
 10
44.4265596015
 20
17.3109112925
 30
0.0
 10
44.4246577154
 20
17.2347570428
 30
0.0
 10
44.4226989107
 20
17.1610144661
 30
0.0
 10
44.4207796608
 20
17.0922006489
 30
0.0
 10
44.4191708631
 20
17.0390332936
 30
0.0
 10
44.4177371051
 20
17.0006753477
 30
0.0
 10
44.4168048808
 20
16.9753977726
 30
0.0
 10
44.415832377
 20
16.9525992688
 30
0.0
 10
44.4148460504
 20
16.9323690272
 30
0.0
 10
44.4138929677
 20
16.9147981091
 30
0.0
 10
44.4129112746
 20
16.8999974965
 30
0.0
 10
44.4120759462
 20
16.8894463153
 30
0.0
 10
44.4113746062
 20
16.8824901024
 30
0.0
 10
44.4108900249
 20
16.8784167537
 30
0.0
 10
44.4104297647
 20
16.8751508571
 30
0.0
 10
44.4099859575
 20
16.872661944
 30
0.0
 10
44.4095267296
 20
16.8710682078
 30
0.0
 10
44.4091403372
 20
16.8702118375
 30
0.0
 10
44.4088833959
 20
16.8700517833
 30
0.0
 11
44.4403649814
 21
17.7318967383
 31
0.0
 11
44.4383699047
 21
17.6988386301
 31
0.0
 11
44.4364248245
 21
17.6543383431
 31
0.0
 11
44.435422592
 21
17.6279025167
 31
0.0
 11
44.4344465345
 21
17.5988239913
 31
0.0
 11
44.4324590704
 21
17.5340544329
 31
0.0
 11
44.4305158235
 21
17.4629071161
 31
0.0
 11
44.4285334366
 21
17.387834792
 31
0.0
 11
44.4265653062
 21
17.3108872065
 31
0.0
 11
44.424618427
 21
17.2340109217
 31
0.0
 11
44.4226383343
 21
17.1593768675
 31
0.0
 11
44.4206796903
 21
17.0896600778
 31
0.0
 11
44.4187222353
 21
17.0275734775
 31
0.0
 11
44.4177097841
 21
16.9998800408
 31
0.0
 11
44.4167488743
 21
16.9745736689
 31
0.0
 11
44.4157714447
 21
16.9517469124
 31
0.0
 11
44.4147831866
 21
16.9314861814
 31
0.0
 11
44.4138048892
 21
16.9138829747
 31
0.0
 11
44.4128127894
 21
16.8990424378
 31
0.0
 11
44.4118279159
 21
16.8870868626
 31
0.0
 11
44.4113329453
 21
16.8822347687
 31
0.0
 11
44.4108429547
 21
16.8781591458
 31
0.0
 11
44.4103683267
 21
16.8748807325
 31
0.0
 11
44.4098918605
 21
16.8724216171
 31
0.0
 11
44.4093915758
 21
16.8708044311
 31
0.0
 11
44.4088833959
 21
16.8700517833
 31
0.0
  0
SPLINE
  5
3B8
100
AcDbEntity
  8
0
100
AcDbSpline
 62
7
  6
CONTINUOUS
 70
0
 71
3
 72
12
 73
8
 74
6
 42
0.0000001
 43
0.0000001
 44
0.0000000001
 12
-0.0119568518
 22
0.0201599023
 32
0.0
 13
-0.0018089715
 23
0.0233691161
 33
0.0
 40
0.0
 40
0.0
 40
0.0
 40
0.0
 40
0.0430110461
 40
0.1090839793
 40
0.3118873765
 40
0.6090791162
 40
1.0
 40
1.0
 40
1.0
 40
1.0
 10
2.8937825074
 20
16.839982787
 30
0.0
 10
2.8936110819
 20
16.8402718198
 30
0.0
 10
2.8933227288
 20
16.8410836374
 30
0.0
 10
2.892741102
 20
16.8434461719
 30
0.0
 10
2.8920880001
 20
16.8478311344
 30
0.0
 10
2.8913210863
 20
16.8547458294
 30
0.0
 10
2.890870887
 20
16.8601050906
 30
0.0
 10
2.8906351654
 20
16.8631502491
 30
0.0
 11
2.8937825074
 21
16.839982787
 31
0.0
 11
2.8933968939
 21
16.8409142603
 31
0.0
 11
2.8930076314
 21
16.8424132268
 31
0.0
 11
2.8922209975
 21
16.8471012013
 31
0.0
 11
2.8914282831
 21
16.8540218341
 31
0.0
 11
2.8906351654
 21
16.8631502491
 31
0.0
  0
LINE
  5
3B9
100
AcDbEntity
  8
0
100
AcDbLine
 62
7
  6
CONTINUOUS
 10
2.8906351654
 20
16.8631502491
 11
2.8896546432
 21
16.877528575
  0
SPLINE
  5
3BA
100
AcDbEntity
  8
0
100
AcDbSpline
 62
7
  6
CONTINUOUS
 70
0
 71
3
 72
17
 73
13
 74
11
 42
0.0000001
 43
0.0000001
 44
0.0000000001
 12
-0.0538076812
 22
0.8819701471
 32
0.0
 13
-0.0550124947
 23
0.8818958172
 33
0.0
 40
0.0
 40
0.0
 40
0.0
 40
0.0
 40
0.0363559188
 40
0.0826668539
 40
0.2010060562
 40
0.3448930616
 40
0.5019936294
 40
0.6588267144
 40
0.8019271029
 40
0.9190004736
 40
0.9645188112
 40
1.0
 40
1.0
 40
1.0
 40
1.0
 10
2.8896546432
 20
16.877528575
 30
0.0
 10
2.8890025673
 20
16.8882168534
 30
0.0
 10
2.8877936732
 20
16.9125364276
 30
0.0
 10
2.8854400435
 20
16.9716934492
 30
0.0
 10
2.8826739192
 20
17.0625283954
 30
0.0
 10
2.8794919558
 20
17.1859943138
 30
0.0
 10
2.8762951931
 20
17.3208014739
 30
0.0
 10
2.873090512
 20
17.4553767114
 30
0.0
 10
2.8699175621
 20
17.5781592861
 30
0.0
 10
2.8671481831
 20
17.6681559503
 30
0.0
 10
2.8647690845
 20
17.7264474036
 30
0.0
 10
2.863550886
 20
17.7502747848
 30
0.0
 10
2.8629002497
 20
17.7607050221
 30
0.0
 11
2.8896546432
 21
16.877528575
 31
0.0
 11
2.8879858509
 21
16.9096096537
 31
0.0
 11
2.8863191827
 21
16.9504965033
 31
0.0
 11
2.8829765023
 21
17.0550087624
 31
0.0
 11
2.8796338871
 21
17.1821048095
 31
0.0
 11
2.8762910185
 21
17.3208801837
 31
0.0
 11
2.8729452649
 21
17.4594190692
 31
0.0
 11
2.8696053597
 21
17.5858198838
 31
0.0
 11
2.8662511036
 21
17.6892126883
 31
0.0
 11
2.8645710627
 21
17.7293980422
 31
0.0
 11
2.8629002497
 21
17.7607050221
 31
0.0
  0
SPLINE
  5
3BB
100
AcDbEntity
  8
0
100
AcDbSpline
 62
7
  6
CONTINUOUS
 70
0
 71
3
 72
13
 73
9
 74
7
 42
0.0000001
 43
0.0000001
 44
0.0000000001
 12
-0.001797595
 22
0.023957312
 32
0.0
 13
-0.0156710131
 23
0.0182099834
 33
0.0
 40
0.0
 40
0.0
 40
0.0
 40
0.0
 40
0.4005107643
 40
0.700742572
 40
0.8130328019
 40
0.9000834371
 40
0.9620972997
 40
1.0
 40
1.0
 40
1.0
 40
1.0
 10
2.8621081423
 20
17.7723411094
 30
0.0
 10
2.8618681569
 20
17.7755394965
 30
0.0
 10
2.8614098347
 20
17.7811317659
 30
0.0
 10
2.8607239829
 20
17.7876104973
 30
0.0
 10
2.8601351036
 20
17.7915655162
 30
0.0
 10
2.8597412835
 20
17.7936273479
 30
0.0
 10
2.8593484933
 20
17.7950627708
 30
0.0
 10
2.8590335537
 20
17.7958216555
 30
0.0
 10
2.8588355624
 20
17.7960517247
 30
0.0
 11
2.8621081423
 21
17.7723411094
 31
0.0
 11
2.8613008635
 21
17.7819293187
 31
0.0
 11
2.8604921983
 21
17.7890968108
 31
0.0
 11
2.8600846
 21
17.7917635755
 31
0.0
 11
2.8596733601
 21
17.793814106
 31
0.0
 11
2.8592573803
 21
17.7952447174
 31
0.0
 11
2.8588355624
 21
17.7960517247
 31
0.0
  0
SPLINE
  5
3BC
100
AcDbEntity
  8
0
100
AcDbSpline
 62
7
  6
CONTINUOUS
 70
0
 71
3
 72
13
 73
9
 74
7
 42
0.0000001
 43
0.0000001
 44
0.0000000001
 12
0.0243346311
 22
0.0007577276
 32
0.0
 13
0.0018142874
 23
0.0242787311
 33
0.0
 40
0.0
 40
0.0
 40
0.0
 40
0.0
 40
0.0248308056
 40
0.0752638265
 40
0.1548914301
 40
0.264313342
 40
0.572738888
 40
1.0
 40
1.0
 40
1.0
 40
1.0
 10
44.4302798415
 20
16.8323591153
 30
0.0
 10
44.4304812577
 20
16.8323653869
 30
0.0
 10
44.4309191458
 20
16.8329543896
 30
0.0
 10
44.4312679217
 20
16.8340911745
 30
0.0
 10
44.4317211698
 20
16.8360191369
 30
0.0
 10
44.4323502331
 20
16.8399882344
 30
0.0
 10
44.4331053779
 20
16.8468224733
 30
0.0
 10
44.4335898778
 20
16.8527680589
 30
0.0
 10
44.4338482693
 20
16.8562258448
 30
0.0
 11
44.4302798415
 21
16.8323591153
 31
0.0
 11
44.4307409755
 21
16.8327500445
 31
0.0
 11
44.4311951597
 21
16.8338908188
 31
0.0
 11
44.4316437146
 21
16.8357768603
 31
0.0
 11
44.4320879608
 21
16.838403591
 31
0.0
 11
44.4329688092
 21
16.8458608077
 31
0.0
 11
44.4338482693
 21
16.8562258448
 31
0.0
  0
SPLINE
  5
3BD
100
AcDbEntity
  8
0
100
AcDbSpline
 62
7
  6
CONTINUOUS
 70
0
 71
3
 72
17
 73
13
 74
11
 42
0.0000001
 43
0.0000001
 44
0.0000000001
 12
0.0537032011
 22
0.9063297287
 32
0.0
 13
0.0671504941
 23
0.9054327265
 33
0.0
 40
0.0
 40
0.0
 40
0.0
 40
0.0
 40
0.037365918
 40
0.0850720149
 40
0.2069698536
 40
0.3546802224
 40
0.5148313612
 40
0.6729119434
 40
0.8145899788
 40
0.9270137271
 40
0.9689288154
 40
1.0
 40
1.0
 40
1.0
 40
1.0
 10
44.4348673378
 20
16.8716601573
 30
0.0
 10
44.4355362276
 20
16.8829487714
 30
0.0
 10
44.4367899768
 20
16.9086655314
 30
0.0
 10
44.4392192689
 20
16.9712559952
 30
0.0
 10
44.4420431282
 20
17.0672479543
 30
0.0
 10
44.4453142304
 20
17.1972688608
 30
0.0
 10
44.4485922852
 20
17.3382434278
 30
0.0
 10
44.4518733882
 20
17.4773919942
 30
0.0
 10
44.4551213902
 20
17.6020919357
 30
0.0
 10
44.4579587314
 20
17.6916362947
 30
0.0
 10
44.460422304
 20
17.7476945789
 30
0.0
 10
44.4616758871
 20
17.7697497962
 30
0.0
 10
44.4623713689
 20
17.7791274186
 30
0.0
 11
44.4348673378
 21
16.8716601573
 31
0.0
 11
44.4365883506
 21
16.9055417174
 31
0.0
 11
44.4383103646
 21
16.9488207629
 31
0.0
 11
44.441742442
 21
17.0594409451
 31
0.0
 11
44.4451787058
 21
17.1935060216
 31
0.0
 11
44.4486148237
 21
17.3388697392
 31
0.0
 11
44.4520525799
 21
17.4823529872
 31
0.0
 11
44.4554866043
 21
17.6109393757
 31
0.0
 11
44.4589377331
 21
17.7129527167
 31
0.0
 11
44.4606599885
 21
17.7509692465
 31
0.0
 11
44.4623713689
 21
17.7791274186
 31
0.0
  0
SPLINE
  5
3BE
100
AcDbEntity
  8
0
100
AcDbSpline
 62
7
  6
CONTINUOUS
 70
0
 71
3
 72
10
 73
6
 74
4
 42
0.0000001
 43
0.0000001
 44
0.0000000001
 12
0.001634459
 22
0.0220384474
 32
0.0
 13
0.0050572367
 23
0.0215125307
 33
0.0
 40
0.0
 40
0.0
 40
0.0
 40
0.0
 40
0.6267335676
 40
0.8451876583
 40
1.0
 40
1.0
 40
1.0
 40
1.0
 10
44.4623713689
 20
17.7791274186
 30
0.0
 10
44.4627128256
 20
17.7837314969
 30
0.0
 10
44.4632128138
 20
17.7899404866
 30
0.0
 10
44.4641165388
 20
17.7972506497
 30
0.0
 10
44.4645741714
 20
17.7999656368
 30
0.0
 10
44.4648351457
 20
17.8010757719
 30
0.0
 11
44.4623713689
 21
17.7791274186
 31
0.0
 11
44.4635994115
 21
17.7929230366
 31
0.0
 11
44.4642152591
 21
17.7977112054
 31
0.0
 11
44.4648351457
 21
17.8010757719
 31
0.0
  0
LINE
  5
3BF
100
AcDbEntity
  8
0
100
AcDbLine
 62
7
  6
CONTINUOUS
 10
44.4648351457
 20
17.8010757719
 11
44.4654932153
 21
17.8030632656
  0
SPLINE
  5
3C0
100
AcDbEntity
  8
0
100
AcDbSpline
 62
7
  6
CONTINUOUS
 70
0
 71
3
 72
11
 73
7
 74
5
 42
0.0000001
 43
0.0000001
 44
0.0000000001
 12
-0.0089927548
 22
0.0110518687
 32
0.0
 13
-0.0014549871
 23
0.0141737946
 33
0.0
 40
0.0
 40
0.0
 40
0.0
 40
0.0
 40
0.1115683921
 40
0.3134247621
 40
0.6090580032
 40
1.0
 40
1.0
 40
1.0
 40
1.0
 10
2.8714358219
 20
16.8801084956
 30
0.0
 10
2.8711013861
 20
16.8805195087
 30
0.0
 10
2.8706497356
 20
16.8819932593
 30
0.0
 10
2.8700368623
 20
16.8847877232
 30
0.0
 10
2.8694375636
 20
16.8889835652
 30
0.0
 10
2.8690705722
 20
16.8922185058
 30
0.0
 10
2.868880967
 20
16.8940655496
 30
0.0
 11
2.8714358219
 21
16.8801084956
 31
0.0
 11
2.8707971082
 21
16.8815641933
 31
0.0
 11
2.8701583944
 21
16.884368481
 31
0.0
 11
2.8695196807
 21
16.8885320395
 31
0.0
 11
2.868880967
 21
16.8940655496
 31
0.0
  0
SPLINE
  5
3C1
100
AcDbEntity
  8
0
100
AcDbSpline
 62
7
  6
CONTINUOUS
 70
0
 71
3
 72
21
 73
17
 74
15
 42
0.0000001
 43
0.0000001
 44
0.0000000001
 12
-0.0868840662
 22
0.8463833957
 32
0.0
 13
-0.1004221766
 23
0.844884063
 33
0.0
 40
0.0
 40
0.0
 40
0.0
 40
0.0
 40
0.028659004
 40
0.0710295333
 40
0.1253540797
 40
0.1896457669
 40
0.2619147781
 40
0.3401701286
 40
0.5066713054
 40
0.6728427488
 40
0.7504701938
 40
0.8215940759
 40
0.8840666153
 40
0.9357415667
 40
0.9746076756
 40
1.0
 40
1.0
 40
1.0
 40
1.0
 10
2.868880967
 20
16.8940655496
 30
0.0
 10
2.8680509634
 20
16.9021510514
 30
0.0
 10
2.8666782903
 20
16.9222559006
 30
0.0
 10
2.8648993474
 20
16.9577611823
 30
0.0
 10
2.8630943794
 20
17.003384594
 30
0.0
 10
2.8612599203
 20
17.0574902979
 30
0.0
 10
2.8594159468
 20
17.1183866632
 30
0.0
 10
2.8568954931
 20
17.2082630635
 30
0.0
 10
2.8538570094
 20
17.3247669335
 30
0.0
 10
2.8508219835
 20
17.4410927945
 30
0.0
 10
2.8482996603
 20
17.5303725058
 30
0.0
 10
2.8464607096
 20
17.5902498905
 30
0.0
 10
2.8446305701
 20
17.6427623968
 30
0.0
 10
2.8428450716
 20
17.6861243384
 30
0.0
 10
2.8410549304
 20
17.7189525475
 30
0.0
 10
2.8396776784
 20
17.7371343393
 30
0.0
 10
2.8388276942
 20
17.7442855294
 30
0.0
 11
2.868880967
 21
16.8940655496
 31
0.0
 11
2.8670026375
 21
16.9183770711
 31
0.0
 11
2.8651243079
 21
16.9543782717
 31
0.0
 11
2.8632459784
 21
17.0005611079
 31
0.0
 11
2.8613676488
 21
17.0552302214
 31
0.0
 11
2.8594893193
 21
17.1166902535
 31
0.0
 11
2.8576109897
 21
17.1832458457
 31
0.0
 11
2.8538543306
 21
17.3248604198
 31
0.0
 11
2.8500976715
 21
17.4661943475
 31
0.0
 11
2.848219342
 21
17.5322154837
 31
0.0
 11
2.8463410124
 21
17.592700742
 31
0.0
 11
2.8444626829
 21
17.6458211279
 31
0.0
 11
2.8425843533
 21
17.6897476467
 31
0.0
 11
2.8407060238
 21
17.7227627551
 31
0.0
 11
2.8388276942
 21
17.7442855294
 31
0.0
  0
SPLINE
  5
3C2
100
AcDbEntity
  8
0
100
AcDbSpline
 62
7
  6
CONTINUOUS
 70
0
 71
3
 72
11
 73
7
 74
5
 42
0.0000001
 43
0.0000001
 44
0.0000000001
 12
-0.0012748521
 22
0.0100672088
 32
0.0
 13
-0.010147587
 23
-0.0000204827
 33
0.0
 40
0.0
 40
0.0
 40
0.0
 40
0.0
 40
0.4223710782
 40
0.7266073444
 40
0.9151983914
 40
1.0
 40
1.0
 40
1.0
 40
1.0
 10
2.8386679
 20
17.7455886537
 30
0.0
 10
2.8384884131
 20
17.7470060196
 30
0.0
 10
2.8381653043
 20
17.7494143874
 30
0.0
 10
2.8375377529
 20
17.7525392055
 30
0.0
 10
2.8370827417
 20
17.7542713459
 30
0.0
 10
2.8364975314
 20
17.7552716668
 30
0.0
 10
2.8362106875
 20
17.7552710878
 30
0.0
 11
2.8386679
 21
17.7455886537
 31
0.0
 11
2.8380535969
 21
17.7498304584
 31
0.0
 11
2.8374392938
 21
17.7528559947
 31
0.0
 11
2.8368249907
 21
17.7546684689
 31
0.0
 11
2.8362106875
 21
17.7552710878
 31
0.0
  0
SPLINE
  5
3C3
100
AcDbEntity
  8
0
100
AcDbSpline
 62
7
  6
CONTINUOUS
 70
0
 71
3
 72
13
 73
9
 74
7
 42
0.0000001
 43
0.0000001
 44
0.0000000001
 12
-0.0234207462
 22
-0.0001999272
 32
0.0
 13
-0.0018042834
 23
-0.0233519996
 33
0.0
 40
0.0
 40
0.0
 40
0.0
 40
0.0
 40
0.0244212658
 40
0.0743198814
 40
0.1534122069
 40
0.2624149636
 40
0.5708304043
 40
1.0
 40
1.0
 40
1.0
 40
1.0
 10
44.4847996955
 20
17.8027337123
 30
0.0
 10
44.4846090407
 20
17.8027320848
 30
0.0
 10
44.484184388
 20
17.8021759872
 30
0.0
 10
44.4838457787
 20
17.8010959523
 30
0.0
 10
44.48339808
 20
17.7992555683
 30
0.0
 10
44.482771156
 20
17.7954485963
 30
0.0
 10
44.4820107656
 20
17.7888657577
 30
0.0
 10
44.4815250612
 20
17.7831328063
 30
0.0
 10
44.4812669467
 20
17.7797921502
 30
0.0
 11
44.4847996955
 21
17.8027337123
 31
0.0
 11
44.4843581019
 21
17.8023701713
 31
0.0
 11
44.4839165083
 21
17.8012881051
 31
0.0
 11
44.4834749147
 21
17.7994890399
 31
0.0
 11
44.4830333211
 21
17.796974502
 31
0.0
 11
44.4821501339
 21
17.7898051136
 31
0.0
 11
44.4812669467
 21
17.7797921502
 31
0.0
  0
SPLINE
  5
3C4
100
AcDbEntity
  8
0
100
AcDbSpline
 62
7
  6
CONTINUOUS
 70
0
 71
3
 72
18
 73
14
 74
12
 42
0.0000001
 43
0.0000001
 44
0.0000000001
 12
-0.0547007822
 22
-0.9068027979
 32
0.0
 13
-0.0684771961
 23
-0.9058666367
 33
0.0
 40
0.0
 40
0.0
 40
0.0
 40
0.0
 40
0.0371082699
 40
0.0845995894
 40
0.2060619977
 40
0.3539039506
 40
0.5142477744
 40
0.6726155819
 40
0.8146344974
 40
0.8751774519
 40
0.9269950506
 40
0.968972775
 40
1.0
 40
1.0
 40
1.0
 40
1.0
 10
44.4802583946
 20
17.7648982359
 30
0.0
 10
44.4795817775
 20
17.7536816083
 30
0.0
 10
44.4783322786
 20
17.7280926362
 30
0.0
 10
44.4758972971
 20
17.665740932
 30
0.0
 10
44.4730461008
 20
17.5698505252
 30
0.0
 10
44.4697758624
 20
17.4397870908
 30
0.0
 10
44.4664824294
 20
17.2985449453
 30
0.0
 10
44.4631862044
 20
17.1590669635
 30
0.0
 10
44.4603539379
 20
17.0498074599
 30
0.0
 10
44.4579679582
 20
16.9728139212
 30
0.0
 10
44.4562893396
 20
16.9261072043
 30
0.0
 10
44.4546277202
 20
16.8883455891
 30
0.0
 10
44.4533714138
 20
16.8662716103
 30
0.0
 10
44.4526631946
 20
16.8569027677
 30
0.0
 11
44.4802583946
 21
17.7648982359
 31
0.0
 11
44.4785336946
 21
17.7312313333
 31
0.0
 11
44.4768089946
 21
17.6881222766
 31
0.0
 11
44.4733595946
 21
17.5778335409
 31
0.0
 11
44.4699101946
 21
17.4435706516
 31
0.0
 11
44.4664607946
 21
17.297946968
 31
0.0
 11
44.4630113946
 21
17.1541189085
 31
0.0
 11
44.4595619946
 21
17.0251477814
 31
0.0
 11
44.4578372946
 21
16.970174513
 31
0.0
 11
44.4561125946
 21
16.9231323615
 31
0.0
 11
44.4543878946
 21
16.8850366706
 31
0.0
 11
44.4526631946
 21
16.8569027677
 31
0.0
  0
SPLINE
  5
3C5
100
AcDbEntity
  8
0
100
AcDbSpline
 62
7
  6
CONTINUOUS
 70
0
 71
3
 72
9
 73
5
 74
3
 42
0.0000001
 43
0.0000001
 44
0.0000000001
 12
-0.0014548591
 22
-0.0192459442
 32
0.0
 13
-0.0032741852
 23
-0.0190211118
 33
0.0
 40
0.0
 40
0.0
 40
0.0
 40
0.0
 40
0.5963028369
 40
1.0
 40
1.0
 40
1.0
 40
1.0
 10
44.4526631946
 20
16.8569027677
 30
0.0
 10
44.4523740158
 20
16.8530772973
 30
0.0
 10
44.4518310364
 20
16.8466677077
 30
0.0
 10
44.4510881318
 20
16.8402711687
 30
0.0
 10
44.4506475387
 20
16.8377115791
 30
0.0
 11
44.4526631946
 21
16.8569027677
 31
0.0
 11
44.4516553667
 21
16.8454378249
 31
0.0
 11
44.4506475387
 21
16.8377115791
 31
0.0
  0
SPLINE
  5
3C6
100
AcDbEntity
  8
0
100
AcDbSpline
 62
7
  6
CONTINUOUS
 70
0
 71
3
 72
9
 73
5
 74
3
 42
0.0000001
 43
0.0000001
 44
0.0000000001
 12
-0.0007333695
 22
-0.0042604505
 32
0.0
 13
-0.0021642875
 23
-0.0037423427
 33
0.0
 40
0.0
 40
0.0
 40
0.0
 40
0.0
 40
0.6257945636
 40
1.0
 40
1.0
 40
1.0
 40
1.0
 10
44.4506475387
 20
16.8377115791
 30
0.0
 10
44.4504945592
 20
16.8368228568
 30
0.0
 10
44.4502116586
 20
16.8354181329
 30
0.0
 10
44.4498117349
 20
16.8340097801
 30
0.0
 10
44.4495417722
 20
16.8335429785
 30
0.0
 11
44.4506475387
 21
16.8377115791
 31
0.0
 11
44.4500946555
 21
16.8350632985
 31
0.0
 11
44.4495417722
 21
16.8335429785
 31
0.0
  0
SPLINE
  5
3C7
100
AcDbEntity
  8
0
100
AcDbSpline
 62
7
  6
CONTINUOUS
 70
0
 71
3
 72
12
 73
8
 74
6
 42
0.0000001
 43
0.0000001
 44
0.0000000001
 12
0.0117621721
 22
-0.020020543
 32
0.0
 13
0.0017765328
 23
-0.0231519927
 33
0.0
 40
0.0
 40
0.0
 40
0.0
 40
0.0
 40
0.0430067671
 40
0.1090741966
 40
0.3118546703
 40
0.60903418
 40
1.0
 40
1.0
 40
1.0
 40
1.0
 10
3.2348775932
 20
17.8075881136
 30
0.0
 10
3.2350462109
 20
17.8073011073
 30
0.0
 10
3.2353297412
 20
17.8064963624
 30
0.0
 10
3.2359019342
 20
17.8041551168
 30
0.0
 10
3.2365444507
 20
17.7998109298
 30
0.0
 10
3.2372987178
 20
17.7929600917
 30
0.0
 10
3.2377410933
 20
17.7876503661
 30
0.0
 10
3.2379726145
 20
17.7846331535
 30
0.0
 11
3.2348775932
 21
17.8075881136
 31
0.0
 11
3.235256831
 21
17.8066643066
 31
0.0
 11
3.2356397326
 21
17.805178771
 31
0.0
 11
3.2364135653
 21
17.800534221
 31
0.0
 11
3.2371931672
 21
17.7936778772
 31
0.0
 11
3.2379726145
 21
17.7846331535
 31
0.0
  0
SPLINE
  5
3C8
100
AcDbEntity
  8
0
100
AcDbSpline
 62
7
  6
CONTINUOUS
 70
0
 71
3
 72
18
 73
14
 74
12
 42
0.0000001
 43
0.0000001
 44
0.0000000001
 12
0.0563937199
 22
-0.9182311078
 32
0.0
 13
0.0694871372
 23
-0.9173331765
 33
0.0
 40
0.0
 40
0.0
 40
0.0
 40
0.0
 40
0.0363377483
 40
0.0832605538
 40
0.2043125492
 40
0.3519904895
 40
0.5126849883
 40
0.6715826545
 40
0.814049418
 40
0.874921701
 40
0.9269766163
 40
0.9689747333
 40
1.0
 40
1.0
 40
1.0
 40
1.0
 10
3.2388596795
 20
17.7716241054
 30
0.0
 10
3.2395427531
 20
17.7605019551
 30
0.0
 10
3.240796574
 20
17.7349992025
 30
0.0
 10
3.2432477087
 20
17.6723938713
 30
0.0
 10
3.2461228677
 20
17.5756387093
 30
0.0
 10
3.2493972449
 20
17.4439950867
 30
0.0
 10
3.252710383
 20
17.3007431137
 30
0.0
 10
3.2560144849
 20
17.1590896829
 30
0.0
 10
3.2588641602
 20
17.0480444563
 30
0.0
 10
3.2612591465
 20
16.9697635295
 30
0.0
 10
3.2629398609
 20
16.9222842256
 30
0.0
 10
3.2645999781
 20
16.8839647284
 30
0.0
 10
3.2658643612
 20
16.8616048191
 30
0.0
 10
3.2665829802
 20
16.8521179836
 30
0.0
 11
3.2388596795
 21
17.7716241054
 31
0.0
 11
3.240588613
 21
17.738239526
 31
0.0
 11
3.2423205222
 21
17.6951071223
 31
0.0
 11
3.2457994442
 21
17.5837983358
 31
0.0
 11
3.2492601834
 21
17.447984445
 31
0.0
 11
3.2527280044
 21
17.3001924195
 31
0.0
 11
3.2561919716
 21
17.154053779
 31
0.0
 11
3.2596568517
 21
17.0230356913
 31
0.0
 11
3.2613900974
 21
16.9670623815
 31
0.0
 11
3.2631188014
 21
16.9192050908
 31
0.0
 11
3.2648432526
 21
16.880606955
 31
0.0
 11
3.2665829802
 21
16.8521179836
 31
0.0
  0
SPLINE
  5
3C9
100
AcDbEntity
  8
0
100
AcDbSpline
 62
7
  6
CONTINUOUS
 70
0
 71
3
 72
12
 73
8
 74
6
 42
0.0000001
 43
0.0000001
 44
0.0000000001
 12
0.001812846
 22
-0.0239322534
 32
0.0
 13
0.0110370017
 23
-0.0213125258
 33
0.0
 40
0.0
 40
0.0
 40
0.0
 40
0.0
 40
0.3874272195
 40
0.6835148925
 40
0.8875787629
 40
0.9551112061
 40
1.0
 40
1.0
 40
1.0
 40
1.0
 10
3.2665829802
 20
16.8521179836
 30
0.0
 10
3.2668170955
 20
16.8490273148
 30
0.0
 10
3.2672658566
 20
16.8435759504
 30
0.0
 10
3.2680276628
 20
16.8365185726
 30
0.0
 10
3.2686776771
 20
16.8320153455
 30
0.0
 10
3.2692489019
 20
16.8295509705
 30
0.0
 10
3.2695316919
 20
16.8286899435
 30
0.0
 10
3.2696968378
 20
16.8283710456
 30
0.0
 11
3.2665829802
 21
16.8521179836
 31
0.0
 11
3.2673701294
 21
16.8428527913
 31
0.0
 11
3.2681569056
 21
16.8357901337
 31
0.0
 11
3.2689351836
 21
16.8309546665
 31
0.0
 11
3.2693185965
 21
16.8293798343
 31
0.0
 11
3.2696968378
 21
16.8283710456
 31
0.0
  0
SPLINE
  5
3CA
100
AcDbEntity
  8
0
100
AcDbSpline
 62
7
  6
CONTINUOUS
 70
0
 71
3
 72
11
 73
7
 74
5
 42
0.0000001
 43
0.0000001
 44
0.0000000001
 12
0.0122363869
 22
0.0308134245
 32
0.0
 13
0.0022649626
 23
0.0330766721
 33
0.0
 40
0.0
 40
0.0
 40
0.0
 40
0.0
 40
0.1228847432
 40
0.3317181061
 40
0.6248293827
 40
1.0
 40
1.0
 40
1.0
 40
1.0
 10
44.4719079632
 20
16.8747697158
 30
0.0
 10
44.4724091849
 20
16.8760318824
 30
0.0
 10
44.4731011506
 20
16.879666316
 30
0.0
 10
44.4739698822
 20
16.8864991288
 30
0.0
 10
44.4749015998
 20
16.8961571245
 30
0.0
 10
44.4754635827
 20
16.9035190382
 30
0.0
 10
44.4757468319
 20
16.9076555034
 30
0.0
 11
44.4719079632
 21
16.8747697158
 31
0.0
 11
44.4728901934
 21
16.8787236775
 31
0.0
 11
44.4738241997
 21
16.8855840778
 31
0.0
 11
44.4747859798
 21
16.8952542159
 31
0.0
 11
44.4757468319
 21
16.9076555034
 31
0.0
  0
SPLINE
  5
3CB
100
AcDbEntity
  8
0
100
AcDbSpline
 62
7
  6
CONTINUOUS
 70
0
 71
3
 72
31
 73
27
 74
25
 42
0.0000001
 43
0.0000001
 44
0.0000000001
 12
0.058478617
 22
0.854000007
 32
0.0
 13
0.7500769545
 23
0.4124564498
 33
0.0
 40
0.0
 40
0.0
 40
0.0
 40
0.0
 40
0.0394894384
 40
0.0916240191
 40
0.2309304155
 40
0.2715912296
 40
0.3137684343
 40
0.4012133374
 40
0.4906876713
 40
0.5799087855
 40
0.6665138415
 40
0.7477036589
 40
0.8201294709
 40
0.8522555577
 40
0.8814611143
 40
0.9076511418
 40
0.9307542419
 40
0.9507008528
 40
0.9674141614
 40
0.9808047638
 40
0.98622078
 40
0.9907644834
 40
0.9944217462
 40
0.9971771456
 40
0.9990217713
 40
1.0
 40
1.0
 40
1.0
 40
1.0
 10
44.4757468319
 20
16.9076555034
 30
0.0
 10
44.4765165945
 20
16.9188968303
 30
0.0
 10
44.4779861105
 20
16.9450005969
 30
0.0
 10
44.4807817996
 20
17.0108342122
 30
0.0
 10
44.4827911013
 20
17.0770316951
 30
0.0
 10
44.4846267224
 20
17.1403902026
 30
0.0
 10
44.4858797122
 20
17.1889614972
 30
0.0
 10
44.4875637729
 20
17.2514543044
 30
0.0
 10
44.489487679
 20
17.3273686506
 30
0.0
 10
44.4914091094
 20
17.4030433443
 30
0.0
 10
44.4933828574
 20
17.4763519795
 30
0.0
 10
44.4952654055
 20
17.5448692031
 30
0.0
 10
44.4969440989
 20
17.5978409707
 30
0.0
 10
44.4982603962
 20
17.635983929
 30
0.0
 10
44.4993045833
 20
17.6609350078
 30
0.0
 10
44.5002274175
 20
17.6833143639
 30
0.0
 10
44.5012036068
 20
17.7030468295
 30
0.0
 10
44.502181495
 20
17.7200715023
 30
0.0
 10
44.5031370721
 20
17.7343203951
 30
0.0
 10
44.5039896683
 20
17.7444215882
 30
0.0
 10
44.5046879636
 20
17.7510459819
 30
0.0
 10
44.5051700947
 20
17.7549056332
 30
0.0
 10
44.5056522761
 20
17.7579844895
 30
0.0
 10
44.5061234774
 20
17.7603203399
 30
0.0
 10
44.5065525452
 20
17.7618010519
 30
0.0
 10
44.5069168005
 20
17.7626075182
 30
0.0
 10
44.5071613828
 20
17.7627420105
 30
0.0
 11
44.4757468319
 21
16.9076555034
 31
0.0
 11
44.4777163733
 21
16.9414010303
 31
0.0
 11
44.4796775096
 21
16.9859851124
 31
0.0
 11
44.4836026106
 21
17.1051667515
 31
0.0
 11
44.4845961318
 21
17.1399582199
 31
0.0
 11
44.4855511226
 21
17.1760492686
 31
0.0
 11
44.4875284014
 21
17.2508759734
 31
0.0
 11
44.4894901167
 21
17.3274408637
 31
0.0
 11
44.4914478413
 21
17.4037890291
 31
0.0
 11
44.4934314735
 21
17.4778964017
 31
0.0
 11
44.4953856245
 21
17.5473673953
 31
0.0
 11
44.4973486138
 21
17.6093327955
 31
0.0
 11
44.498324302
 21
17.6368154073
 31
0.0
 11
44.4993378725
 21
17.6617948047
 31
0.0
 11
44.5002963055
 21
17.6841929679
 31
0.0
 11
44.5012761804
 21
17.703944928
 31
0.0
 11
44.5022640237
 21
17.7209906241
 31
0.0
 11
44.50324608
 21
17.7352634681
 31
0.0
 11
44.5042373549
 21
17.7466828783
 31
0.0
 11
44.504730253
 21
17.7512927111
 31
0.0
 11
44.505223137
 21
17.755150764
 31
0.0
 11
44.505719198
 21
17.758241829
 31
0.0
 11
44.5062082175
 21
17.7605491987
 31
0.0
 11
44.5066820116
 21
17.7620554384
 31
0.0
 11
44.5071613828
 21
17.7627420105
 31
0.0
  0
SPLINE
  5
3CC
100
AcDbEntity
  8
0
100
AcDbSpline
 62
7
  6
CONTINUOUS
 70
0
 71
3
 72
11
 73
7
 74
5
 42
0.0000001
 43
0.0000001
 44
0.0000000001
 12
-0.0065671993
 22
-0.0113593722
 32
0.0
 13
-0.0013525577
 23
-0.013051208
 33
0.0
 40
0.0
 40
0.0
 40
0.0
 40
0.0
 40
0.1250270275
 40
0.3322734874
 40
0.6236866276
 40
1.0
 40
1.0
 40
1.0
 40
1.0
 10
44.158389249
 20
17.7747670593
 30
0.0
 10
44.1581155565
 20
17.7742936498
 30
0.0
 10
44.1577030019
 20
17.7728774646
 30
0.0
 10
44.1571612882
 20
17.7702143655
 30
0.0
 10
44.1566210517
 20
17.7664189341
 30
0.0
 10
44.1562924602
 20
17.7635185453
 30
0.0
 10
44.1561227984
 20
17.7618814306
 30
0.0
 11
44.158389249
 21
17.7747670593
 31
0.0
 11
44.1578226363
 21
17.7732275245
 31
0.0
 11
44.1572560237
 21
17.7705679083
 31
0.0
 11
44.156689411
 21
17.7667864604
 31
0.0
 11
44.1561227984
 21
17.7618814306
 31
0.0
  0
SPLINE
  5
3CD
100
AcDbEntity
  8
0
100
AcDbSpline
 62
7
  6
CONTINUOUS
 70
0
 71
3
 72
21
 73
17
 74
15
 42
0.0000001
 43
0.0000001
 44
0.0000000001
 12
-0.0917352205
 22
-0.8851788391
 32
0.0
 13
-0.0975265723
 23
-0.8845594924
 33
0.0
 40
0.0
 40
0.0
 40
0.0
 40
0.0
 40
0.0276244093
 40
0.0683445189
 40
0.1208412768
 40
0.1837846676
 40
0.2556333026
 40
0.3342407207
 40
0.5027074669
 40
0.6709099118
 40
0.7490534344
 40
0.8201407634
 40
0.8823379017
 40
0.9340561551
 40
0.9737121688
 40
1.0
 40
1.0
 40
1.0
 40
1.0
 10
44.1561227984
 20
17.7618814306
 30
0.0
 10
44.155278088
 20
17.7537305831
 30
0.0
 10
44.1539071814
 20
17.7334958756
 30
0.0
 10
44.152094237
 20
17.6976976948
 30
0.0
 10
44.1502686859
 20
17.6514084601
 30
0.0
 10
44.1484130553
 20
17.5958824293
 30
0.0
 10
44.1465571491
 20
17.5326065861
 30
0.0
 10
44.1440109981
 20
17.4380356472
 30
0.0
 10
44.1409533707
 20
17.314885937
 30
0.0
 10
44.1378968923
 20
17.1918738357
 30
0.0
 10
44.1353498036
 20
17.097744931
 30
0.0
 10
44.1334897249
 20
17.0350542389
 30
0.0
 10
44.1316354035
 20
16.9802067747
 30
0.0
 10
44.129816634
 20
16.9346855664
 30
0.0
 10
44.1280143971
 20
16.8998315871
 30
0.0
 10
44.1266337171
 20
16.8803101763
 30
0.0
 10
44.1257791297
 20
16.8725591261
 30
0.0
 11
44.1561227984
 21
17.7618814306
 31
0.0
 11
44.1542263191
 21
17.7373711873
 31
0.0
 11
44.1523298398
 21
17.7011832226
 31
0.0
 11
44.1504333605
 21
17.6545038368
 31
0.0
 11
44.1485368812
 21
17.5985213921
 31
0.0
 11
44.1466404019
 21
17.5346100137
 31
0.0
 11
44.1447439226
 21
17.4646814419
 31
0.0
 11
44.140950964
 21
17.3148075672
 31
0.0
 11
44.1371580055
 21
17.1651689748
 31
0.0
 11
44.1352615262
 21
17.0956533854
 31
0.0
 11
44.1333650469
 21
17.0324198095
 31
0.0
 11
44.1314685676
 21
16.9771018551
 31
0.0
 11
44.1295720883
 21
16.9311158559
 31
0.0
 11
44.127675609
 21
16.8958761855
 31
0.0
 11
44.1257791297
 21
16.8725591261
 31
0.0
  0
SPLINE
  5
3CE
100
AcDbEntity
  8
0
100
AcDbSpline
 62
7
  6
CONTINUOUS
 70
0
 71
3
 72
12
 73
8
 74
6
 42
0.0000001
 43
0.0000001
 44
0.0000000001
 12
-0.0013585264
 22
-0.0123217433
 32
0.0
 13
-0.0123964089
 23
0.0000000002
 33
0.0
 40
0.0
 40
0.0
 40
0.0
 40
0.0
 40
0.4231513069
 40
0.7285300503
 40
0.9170730727
 40
0.969556501
 40
1.0
 40
1.0
 40
1.0
 40
1.0
 10
44.1257791297
 20
16.8725591261
 30
0.0
 10
44.125587509
 20
16.8708211388
 30
0.0
 10
44.1252235616
 20
16.8678279517
 30
0.0
 10
44.1246144626
 20
16.8640994101
 30
0.0
 10
44.1240563362
 20
16.861882775
 30
0.0
 10
44.1235898035
 20
16.8608765071
 30
0.0
 10
44.1232854807
 20
16.8606325807
 30
0.0
 10
44.123159684
 20
16.8606325807
 30
0.0
 11
44.1257791297
 21
16.8725591261
 31
0.0
 11
44.1251242683
 21
16.8673546068
 31
0.0
 11
44.1244694069
 21
16.8636260787
 31
0.0
 11
44.1238145454
 21
16.8613824379
 31
0.0
 11
44.1234871147
 21
16.8608202304
 31
0.0
 11
44.123159684
 21
16.8606325807
 31
0.0
  0
SPLINE
  5
3CF
100
AcDbEntity
  8
0
100
AcDbSpline
 62
7
  6
CONTINUOUS
 70
0
 71
3
 72
12
 73
8
 74
6
 42
0.0000001
 43
0.0000001
 44
0.0000000001
 12
-0.0117630787
 22
0.0210390098
 32
0.0
 13
-0.0017803722
 23
0.0240383076
 33
0.0
 40
0.0
 40
0.0
 40
0.0
 40
0.0
 40
0.0441071054
 40
0.1109769985
 40
0.3144108835
 40
0.6109594073
 40
1.0
 40
1.0
 40
1.0
 40
1.0
 10
3.3937498991
 20
16.8244706075
 30
0.0
 10
3.393576954
 20
16.8247799308
 30
0.0
 10
3.393285843
 20
16.8256317491
 30
0.0
 10
3.392706609
 20
16.8280875051
 30
0.0
 10
3.392064699
 20
16.8326064673
 30
0.0
 10
3.3913173943
 20
16.8397070146
 30
0.0
 10
3.390877944
 20
16.8451996858
 30
0.0
 10
3.390647065
 20
16.8483169783
 30
0.0
 11
3.3937498991
 21
16.8244706075
 31
0.0
 11
3.3933592425
 21
16.8254593974
 31
0.0
 11
3.3929699419
 21
16.8270235199
 31
0.0
 11
3.3921942981
 21
16.8318653867
 31
0.0
 11
3.3914207463
 21
16.8389714566
 31
0.0
 11
3.390647065
 21
16.8483169783
 31
0.0
  0
SPLINE
  5
3D0
100
AcDbEntity
  8
0
100
AcDbSpline
 62
7
  6
CONTINUOUS
 70
0
 71
3
 72
17
 73
13
 74
11
 42
0.0000001
 43
0.0000001
 44
0.0000000001
 12
-0.0556111929
 22
0.9142764421
 32
0.0
 13
-0.0560634549
 23
0.9142488208
 33
0.0
 40
0.0
 40
0.0
 40
0.0
 40
0.0
 40
0.0355981151
 40
0.0813438002
 40
0.1991258705
 40
0.3431056591
 40
0.5007394084
 40
0.6582804242
 40
0.8019825129
 40
0.9192998495
 40
0.9647433516
 40
1.0
 40
1.0
 40
1.0
 40
1.0
 10
3.389823646
 20
16.8606523341
 30
0.0
 10
3.3891637615
 20
16.8715011734
 30
0.0
 10
3.3879368375
 20
16.8963081367
 30
0.0
 10
3.3855511859
 20
16.9570590543
 30
0.0
 10
3.3827745897
 20
17.0509084908
 30
0.0
 10
3.3795651189
 20
17.1789187422
 30
0.0
 10
3.3763465171
 20
17.3190719146
 30
0.0
 10
3.3731174087
 20
17.4591400259
 30
0.0
 10
3.3699218849
 20
17.5868955515
 30
0.0
 10
3.3671298713
 20
17.6804255397
 30
0.0
 10
3.3647303673
 20
17.740837234
 30
0.0
 10
3.3635021724
 20
17.7654473665
 30
0.0
 10
3.3628433025
 20
17.7761918163
 30
0.0
 11
3.389823646
 21
16.8606523341
 31
0.0
 11
3.388138229
 21
16.8932154149
 31
0.0
 11
3.3864519939
 21
16.9350829716
 31
0.0
 11
3.383084102
 21
17.0429147813
 31
0.0
 11
3.3797137852
 21
17.1747523237
 31
0.0
 11
3.3763437274
 21
17.31910017
 31
0.0
 11
3.3729707907
 21
17.4633629851
 31
0.0
 11
3.3696036856
 21
17.5949461627
 31
0.0
 11
3.366220775
 21
17.7023516117
 31
0.0
 11
3.3645275569
 21
17.7439418694
 31
0.0
 11
3.3628433025
 21
17.7761918163
 31
0.0
  0
SPLINE
  5
3D1
100
AcDbEntity
  8
0
100
AcDbSpline
 62
7
  6
CONTINUOUS
 70
0
 71
3
 72
13
 73
9
 74
7
 42
0.0000001
 43
0.0000001
 44
0.0000000001
 12
-0.0018007049
 22
0.0247731656
 32
0.0
 13
-0.0146399276
 23
0.0200655125
 33
0.0
 40
0.0
 40
0.0
 40
0.0
 40
0.0
 40
0.3974207034
 40
0.6967206625
 40
0.8093443552
 40
0.8972403124
 40
0.9605552677
 40
1.0
 40
1.0
 40
1.0
 40
1.0
 10
3.3621241114
 20
17.7870094824
 30
0.0
 10
3.3618855656
 20
17.7902912721
 30
0.0
 10
3.3614291795
 20
17.7960412251
 30
0.0
 10
3.3607476268
 20
17.802710725
 30
0.0
 10
3.360164909
 20
17.8068063392
 30
0.0
 10
3.3597750566
 20
17.8089604125
 30
0.0
 10
3.3593859738
 20
17.8104835393
 30
0.0
 10
3.3590781157
 20
17.8112943884
 30
0.0
 10
3.3588856264
 20
17.8115582147
 30
0.0
 11
3.3621241114
 21
17.7870094824
 31
0.0
 11
3.361322501
 21
17.7968482245
 31
0.0
 11
3.3605200201
 21
17.804238955
 31
0.0
 11
3.3601163578
 21
17.8070070841
 31
0.0
 11
3.3597099636
 21
17.8091521322
 31
0.0
 11
3.3592999991
 21
17.8106704066
 31
0.0
 11
3.3588856264
 21
17.8115582147
 31
0.0
  0
SPLINE
  5
3D2
100
AcDbEntity
  8
0
100
AcDbSpline
 62
7
  6
CONTINUOUS
 70
0
 71
3
 72
11
 73
7
 74
5
 42
0.0000001
 43
0.0000001
 44
0.0000000001
 12
-0.009168034
 22
0.0158589258
 32
0.0
 13
-0.0016051183
 23
0.0182477936
 33
0.0
 40
0.0
 40
0.0
 40
0.0
 40
0.0
 40
0.1166349373
 40
0.3211174191
 40
0.6153384909
 40
1.0
 40
1.0
 40
1.0
 40
1.0
 10
3.3713979752
 20
16.8633197136
 30
0.0
 10
3.3710415375
 20
16.8639362819
 30
0.0
 10
3.3705575434
 20
16.8658746753
 30
0.0
 10
3.3698917149
 20
16.8695510373
 30
0.0
 10
3.3692427664
 20
16.874918703
 30
0.0
 10
3.3688437253
 20
16.8790414124
 30
0.0
 10
3.3686379162
 20
16.8813811537
 30
0.0
 11
3.3713979752
 21
16.8633197136
 31
0.0
 11
3.3707079604
 21
16.8653417715
 31
0.0
 11
3.3700179457
 21
16.8690234302
 31
0.0
 11
3.369327931
 21
16.8743686934
 31
0.0
 11
3.3686379162
 21
16.8813811537
 31
0.0
  0
SPLINE
  5
3D3
100
AcDbEntity
  8
0
100
AcDbSpline
 62
7
  6
CONTINUOUS
 70
0
 71
3
 72
21
 73
17
 74
15
 42
0.0000001
 43
0.0000001
 44
0.0000000001
 12
-0.0772902676
 22
0.8786746851
 32
0.0
 13
-0.1237893504
 23
0.8733379555
 33
0.0
 40
0.0
 40
0.0
 40
0.0
 40
0.0
 40
0.0312168035
 40
0.0751362011
 40
0.1304651209
 40
0.1958918802
 40
0.3496408764
 40
0.518982678
 40
0.685864818
 40
0.7627277797
 40
0.8322605166
 40
0.8925324397
 40
0.9416731213
 40
0.9778308811
 40
0.9906527545
 40
1.0
 40
1.0
 40
1.0
 40
1.0
 10
3.3686379162
 20
16.8813811537
 30
0.0
 10
3.3678336645
 20
16.890524292
 30
0.0
 10
3.366459505
 20
16.9125777084
 30
0.0
 10
3.3646474193
 20
16.9508936698
 30
0.0
 10
3.362817343
 20
16.9992783203
 30
0.0
 10
3.3602133488
 20
17.0799467904
 30
0.0
 10
3.3571363156
 20
17.1941389158
 30
0.0
 10
3.3535497388
 20
17.3381571325
 30
0.0
 10
3.3504964352
 20
17.4595756751
 30
0.0
 10
3.3479519263
 20
17.5516513893
 30
0.0
 10
3.3460999477
 20
17.6123880371
 30
0.0
 10
3.3442683686
 20
17.6649708648
 30
0.0
 10
3.3424540703
 20
17.7077326561
 30
0.0
 10
3.3408816885
 20
17.7365433038
 30
0.0
 10
3.3394983068
 20
17.7536369929
 30
0.0
 10
3.338799055
 20
17.7601201775
 30
0.0
 10
3.3384133585
 20
17.7628412789
 30
0.0
 11
3.3686379162
 21
16.8813811537
 31
0.0
 11
3.3667488814
 21
16.9088516058
 31
0.0
 11
3.3648598465
 21
16.9475453929
 31
0.0
 11
3.3629708117
 21
16.9963126593
 31
0.0
 11
3.3610817768
 21
17.0539925491
 31
0.0
 11
3.3573037071
 21
17.1895568986
 31
0.0
 11
3.3535256374
 21
17.3388800025
 31
0.0
 11
3.3497475677
 21
17.4860328143
 31
0.0
 11
3.3478585328
 21
17.5538048092
 31
0.0
 11
3.345969498
 21
17.6151082753
 31
0.0
 11
3.3440804631
 21
17.6682386054
 31
0.0
 11
3.3421914283
 21
17.7115428186
 31
0.0
 11
3.3403023934
 21
17.7433804093
 31
0.0
 11
3.339357876
 21
17.7546506575
 31
0.0
 11
3.3384133585
 21
17.7628412789
 31
0.0
  0
SPLINE
  5
3D4
100
AcDbEntity
  8
0
100
AcDbSpline
 62
7
  6
CONTINUOUS
 70
0
 71
3
 72
11
 73
7
 74
5
 42
0.0000001
 43
0.0000001
 44
0.0000000001
 12
-0.0010955663
 22
0.0077292564
 32
0.0
 13
-0.0078064726
 23
-0.0000255833
 33
0.0
 40
0.0
 40
0.0
 40
0.0
 40
0.0
 40
0.4198303121
 40
0.7222993768
 40
0.9109262852
 40
1.0
 40
1.0
 40
1.0
 40
1.0
 10
3.3384133585
 20
17.7628412789
 30
0.0
 10
3.3382600412
 20
17.7639229376
 30
0.0
 10
3.3379836533
 20
17.7657658726
 30
0.0
 10
3.3374470613
 20
17.7681313459
 30
0.0
 10
3.337053583
 20
17.7694869701
 30
0.0
 10
3.3365452116
 20
17.7702109887
 30
0.0
 10
3.3363134278
 20
17.7702102292
 30
0.0
 11
3.3384133585
 21
17.7628412789
 31
0.0
 11
3.3378883759
 21
17.7660763707
 31
0.0
 11
3.3373633932
 21
17.7683784994
 31
0.0
 11
3.3368384105
 21
17.7697542554
 31
0.0
 11
3.3363134278
 21
17.7702102292
 31
0.0
  0
LINE
  5
3D5
100
AcDbEntity
  8
0
100
AcDbLine
 62
7
  6
CONTINUOUS
 10
44.5433588449
 20
16.8777021614
 11
44.5438442572
 21
16.8791808548
  0
SPLINE
  5
3D6
100
AcDbEntity
  8
0
100
AcDbSpline
 62
7
  6
CONTINUOUS
 70
0
 71
3
 72
11
 73
7
 74
5
 42
0.0000001
 43
0.0000001
 44
0.0000000001
 12
0.0097406988
 22
0.0370152912
 32
0.0
 13
0.0023798707
 23
0.0382014294
 33
0.0
 40
0.0
 40
0.0
 40
0.0
 40
0.0
 40
0.1376998149
 40
0.3505562902
 40
0.6381149736
 40
1.0
 40
1.0
 40
1.0
 40
1.0
 10
44.5438442572
 20
16.8791808548
 30
0.0
 10
44.5442913547
 20
16.8808798544
 30
0.0
 10
44.5450077338
 20
16.8853066567
 30
0.0
 10
44.5459412004
 20
16.8933903869
 30
0.0
 10
44.5468794713
 20
16.9043552017
 30
0.0
 10
44.5474619279
 20
16.9126202389
 30
0.0
 10
44.5477490077
 20
16.917228414
 30
0.0
 11
44.5438442572
 21
16.8791808548
 31
0.0
 11
44.544822738
 21
16.8843597579
 31
0.0
 11
44.5457979924
 21
16.8924483616
 31
0.0
 11
44.5467742461
 21
16.9034114291
 31
0.0
 11
44.5477490077
 21
16.917228414
 31
0.0
  0
SPLINE
  5
3D7
100
AcDbEntity
  8
0
100
AcDbSpline
 62
7
  6
CONTINUOUS
 70
0
 71
3
 72
26
 73
22
 74
20
 42
0.0000001
 43
0.0000001
 44
0.0000000001
 12
0.0525191049
 22
0.8430310318
 32
0.0
 13
0.3781941415
 23
0.7552673489
 33
0.0
 40
0.0
 40
0.0
 40
0.0
 40
0.0
 40
0.0959183426
 40
0.2372430667
 40
0.4042363146
 40
0.4915221011
 40
0.578563688
 40
0.6212632699
 40
0.6629579121
 40
0.7417388083
 40
0.7781276591
 40
0.8122260676
 40
0.8729885576
 40
0.9231075306
 40
0.9439137547
 40
0.9617255745
 40
0.9764003301
 40
0.9877856245
 40
0.9957008308
 40
0.9983076196
 40
1.0
 40
1.0
 40
1.0
 40
1.0
 10
44.5477490077
 20
16.917228414
 30
0.0
 10
44.5494281896
 20
16.9441824604
 30
0.0
 10
44.55219358
 20
17.0109309122
 30
0.0
 10
44.5556139006
 20
17.1246916685
 30
0.0
 10
44.5585690537
 20
17.2360377657
 30
0.0
 10
44.561036973
 20
17.3321064979
 30
0.0
 10
44.5626410914
 20
17.3931905068
 30
0.0
 10
44.563843998
 20
17.4414441942
 30
0.0
 10
44.5651441867
 20
17.4873685985
 30
0.0
 10
44.5663375934
 20
17.5315185933
 30
0.0
 10
44.5676923616
 20
17.5735240138
 30
0.0
 10
44.5688485128
 20
17.6104599779
 30
0.0
 10
44.5703644096
 20
17.6512520819
 30
0.0
 10
44.5719865484
 20
17.6882941524
 30
0.0
 10
44.5733206902
 20
17.7132437252
 30
0.0
 10
44.5742826731
 20
17.7282168007
 30
0.0
 10
44.5751408736
 20
17.740542447
 30
0.0
 10
44.5761140198
 20
17.7500550375
 30
0.0
 10
44.5768884606
 20
17.7561853182
 30
0.0
 10
44.5775938207
 20
17.7595468495
 30
0.0
 10
44.5779454025
 20
17.7607157662
 30
0.0
 10
44.578158752
 20
17.7611418328
 30
0.0
 11
44.5477490077
 21
16.917228414
 31
0.0
 11
44.5515403977
 21
16.9981585555
 31
0.0
 11
44.5553325043
 21
17.1174704077
 31
0.0
 11
44.5591382032
 21
17.2584724709
 31
0.0
 11
44.5610457677
 21
17.33217507
 31
0.0
 11
44.5629469589
 21
17.4056714979
 31
0.0
 11
44.5638716034
 21
17.4417265014
 31
0.0
 11
44.5648434841
 21
17.4769311088
 31
0.0
 11
44.5667392268
 21
17.543447594
 31
0.0
 11
44.5677081287
 21
17.5741687208
 31
0.0
 11
44.5686338232
 21
17.6029555855
 31
0.0
 11
44.5705377027
 21
17.6542442316
 31
0.0
 11
44.5724438409
 21
17.6965350571
 31
0.0
 11
44.5733995204
 21
17.7140833501
 31
0.0
 11
44.5743540525
 21
17.7290980666
 31
0.0
 11
44.575280264
 21
17.7414586713
 31
0.0
 11
44.5762584649
 21
17.7510255553
 31
0.0
 11
44.5772094778
 21
17.7576432715
 31
0.0
 11
44.5776846096
 21
17.7597932612
 31
0.0
 11
44.578158752
 21
17.7611418328
 31
0.0
  0
SPLINE
  5
3D8
100
AcDbEntity
  8
0
100
AcDbSpline
 62
7
  6
CONTINUOUS
 70
0
 71
3
 72
12
 73
8
 74
6
 42
0.0000001
 43
0.0000001
 44
0.0000000001
 12
-0.0120728948
 22
0.0210506462
 32
0.0
 13
-0.0018105399
 23
0.0241993066
 33
0.0
 40
0.0
 40
0.0
 40
0.0
 40
0.0
 40
0.0426750988
 40
0.1085513975
 40
0.3112457998
 40
0.6086267179
 40
1.0
 40
1.0
 40
1.0
 40
1.0
 10
3.465227802
 20
16.8221973946
 30
0.0
 10
3.4650560647
 20
16.8224968407
 30
0.0
 10
3.464768981
 20
16.823336338
 30
0.0
 10
3.4641872434
 20
16.8257819105
 30
0.0
 10
3.4635337524
 20
16.8303236477
 30
0.0
 10
3.4627645108
 20
16.8374897233
 30
0.0
 10
3.4623132794
 20
16.8430446445
 30
0.0
 10
3.4620770805
 20
16.8462016318
 30
0.0
 11
3.465227802
 21
16.8221973946
 31
0.0
 11
3.4648433533
 21
16.8231589841
 31
0.0
 11
3.4644545082
 21
16.8247095884
 31
0.0
 11
3.4636670554
 21
16.8295649205
 31
0.0
 11
3.4628722955
 21
16.8367375489
 31
0.0
 11
3.4620770805
 21
16.8462016318
 31
0.0
  0
SPLINE
  5
3D9
100
AcDbEntity
  8
0
100
AcDbSpline
 62
7
  6
CONTINUOUS
 70
0
 71
3
 72
18
 73
14
 74
12
 42
0.0000001
 43
0.0000001
 44
0.0000000001
 12
-0.056686457
 22
0.9294386358
 32
0.0
 13
-0.0681747458
 23
0.9286666442
 33
0.0
 40
0.0
 40
0.0
 40
0.0
 40
0.0
 40
0.0362061963
 40
0.0829760138
 40
0.2037165528
 40
0.3511442626
 40
0.511708623
 40
0.670637747
 40
0.8133018639
 40
0.8743263319
 40
0.9265618709
 40
0.96876223
 40
1.0
 40
1.0
 40
1.0
 40
1.0
 10
3.4612574485
 20
16.858403401
 30
0.0
 10
3.4605733149
 20
16.8696205469
 30
0.0
 10
3.459319384
 20
16.895346227
 30
0.0
 10
3.4568794615
 20
16.9585305257
 30
0.0
 10
3.4540224126
 20
17.0562436669
 30
0.0
 10
3.450736507
 20
17.1892765084
 30
0.0
 10
3.4474360418
 20
17.334166096
 30
0.0
 10
3.444123855
 20
17.4775761332
 30
0.0
 10
3.4412871925
 20
17.5900933128
 30
0.0
 10
3.4388837384
 20
17.6694929366
 30
0.0
 10
3.4371930395
 20
17.7177170023
 30
0.0
 10
3.4355257236
 20
17.7566888075
 30
0.0
 10
3.4342640424
 20
17.7794506877
 30
0.0
 10
3.4335541667
 20
17.7891205127
 30
0.0
 11
3.4612574485
 21
16.858403401
 31
0.0
 11
3.4595285479
 21
16.8920730092
 31
0.0
 11
3.4578033503
 21
16.935589274
 31
0.0
 11
3.4543410306
 21
17.0479653961
 31
0.0
 11
3.4508792249
 21
17.185201365
 31
0.0
 11
3.4474165573
 21
17.3346732849
 31
0.0
 11
3.4439523517
 21
17.48262208
 31
0.0
 11
3.4404918148
 21
17.6154209295
 31
0.0
 11
3.4387524001
 21
17.6722181915
 31
0.0
 11
3.4370148019
 21
17.7208270863
 31
0.0
 11
3.4352853886
 21
17.7600845381
 31
0.0
 11
3.4335541667
 21
17.7891205127
 31
0.0
  0
SPLINE
  5
3DA
100
AcDbEntity
  8
0
100
AcDbSpline
 62
7
  6
CONTINUOUS
 70
0
 71
3
 72
13
 73
9
 74
7
 42
0.0000001
 43
0.0000001
 44
0.0000000001
 12
-0.0018264167
 22
0.0248791867
 32
0.0
 13
-0.0143108445
 23
0.0204330483
 33
0.0
 40
0.0
 40
0.0
 40
0.0
 40
0.0
 40
0.3975307383
 40
0.6969277847
 40
0.8095840763
 40
0.8974865978
 40
0.9607513471
 40
1.0
 40
1.0
 40
1.0
 40
1.0
 10
3.4335541667
 20
17.7891205127
 30
0.0
 10
3.4333121478
 20
17.7924172599
 30
0.0
 10
3.4328469037
 20
17.7981933798
 30
0.0
 10
3.4321511645
 20
17.804892511
 30
0.0
 10
3.4315619767
 20
17.8090065271
 30
0.0
 10
3.4311716179
 20
17.8111697719
 30
0.0
 10
3.4307859386
 20
17.8126990904
 30
0.0
 10
3.4304861122
 20
17.8135133977
 30
0.0
 10
3.4302988851
 20
17.8137807209
 30
0.0
 11
3.4335541667
 21
17.7891205127
 31
0.0
 11
3.4327378986
 21
17.7990037177
 31
0.0
 11
3.4319212659
 21
17.8064277381
 31
0.0
 11
3.4315137486
 21
17.809208374
 31
0.0
 11
3.4311072631
 21
17.8113631978
 31
0.0
 11
3.4307021839
 21
17.8128885375
 31
0.0
 11
3.4302988851
 21
17.8137807209
 31
0.0
  0
SPLINE
  5
3DB
100
AcDbEntity
  8
0
100
AcDbSpline
 62
7
  6
CONTINUOUS
 70
0
 71
3
 72
11
 73
7
 74
5
 42
0.0000001
 43
0.0000001
 44
0.0000000001
 12
-0.0057624676
 22
0.0099688354
 32
0.0
 13
-0.0012729982
 23
0.0114439149
 33
0.0
 40
0.0
 40
0.0
 40
0.0
 40
0.0
 40
0.1289902944
 40
0.3378837571
 40
0.6281411467
 40
1.0
 40
1.0
 40
1.0
 40
1.0
 10
3.4428557984
 20
16.8610609034
 30
0.0
 10
3.4426080309
 20
16.8614895311
 30
0.0
 10
3.4422224345
 20
16.8627462407
 30
0.0
 10
3.4417209042
 20
16.865096747
 30
0.0
 10
3.4412180891
 20
16.8684071555
 30
0.0
 10
3.4409123975
 20
16.8709289569
 30
0.0
 10
3.4407546056
 20
16.8723474639
 30
0.0
 11
3.4428557984
 21
16.8610609034
 31
0.0
 11
3.4423305002
 21
16.8624501678
 31
0.0
 11
3.441805202
 21
16.8647974104
 31
0.0
 11
3.4412799038
 21
16.8680980397
 31
0.0
 11
3.4407546056
 21
16.8723474639
 31
0.0
  0
SPLINE
  5
3DC
100
AcDbEntity
  8
0
100
AcDbSpline
 62
7
  6
CONTINUOUS
 70
0
 71
3
 72
21
 73
17
 74
15
 42
0.0000001
 43
0.0000001
 44
0.0000000001
 12
-0.0983829472
 22
0.8844365235
 32
0.0
 13
-0.0909243514
 23
0.8852343931
 33
0.0
 40
0.0
 40
0.0
 40
0.0
 40
0.0
 40
0.0261184107
 40
0.0656142539
 40
0.1171913232
 40
0.1792665164
 40
0.2502516151
 40
0.3283194063
 40
0.496458879
 40
0.6649806308
 40
0.7436591152
 40
0.8156081014
 40
0.8786766822
 40
0.931316455
 40
0.972197396
 40
1.0
 40
1.0
 40
1.0
 40
1.0
 10
3.4407546056
 20
16.8723474639
 30
0.0
 10
3.4398980702
 20
16.8800474894
 30
0.0
 10
3.4385180573
 20
16.8994705317
 30
0.0
 10
3.4367159694
 20
16.9341834761
 30
0.0
 10
3.4348979847
 20
16.9795776814
 30
0.0
 10
3.4330438415
 20
17.034314968
 30
0.0
 10
3.4311839025
 20
17.0969147008
 30
0.0
 10
3.4286364701
 20
17.1909691401
 30
0.0
 10
3.4255797688
 20
17.3139525375
 30
0.0
 10
3.4225226552
 20
17.4371171089
 30
0.0
 10
3.4199770163
 20
17.5317522786
 30
0.0
 10
3.4181210674
 20
17.5951141443
 30
0.0
 10
3.4162655093
 20
17.6507478331
 30
0.0
 10
3.4144394194
 20
17.6971629015
 30
0.0
 10
3.4126262817
 20
17.7331032112
 30
0.0
 10
3.411254865
 20
17.753437852
 30
0.0
 10
3.4104122204
 20
17.7616417924
 30
0.0
 11
3.4407546056
 21
16.8723474639
 31
0.0
 11
3.4388582065
 21
16.8955125254
 31
0.0
 11
3.4369618074
 21
16.9306083484
 31
0.0
 11
3.4350654084
 21
16.9764671581
 31
0.0
 11
3.4331690093
 21
17.0316747936
 31
0.0
 11
3.4312726102
 21
17.0948153687
 31
0.0
 11
3.4293762111
 21
17.1642613568
 31
0.0
 11
3.425583413
 21
17.3138391928
 31
0.0
 11
3.4217906148
 21
17.4637573249
 31
0.0
 11
3.4198942158
 21
17.5337469649
 31
0.0
 11
3.4179978167
 21
17.597745677
 31
0.0
 11
3.4161014176
 21
17.653837833
 31
0.0
 11
3.4142050185
 21
17.7006431256
 31
0.0
 11
3.4123086195
 21
17.7369732727
 31
0.0
 11
3.4104122204
 21
17.7616417924
 31
0.0
  0
LINE
  5
3DD
100
AcDbEntity
  8
0
100
AcDbLine
 62
7
  6
CONTINUOUS
 10
3.4104122204
 20
17.7616417924
 11
3.4098094262
 21
17.7668740515
  0
SPLINE
  5
3DE
100
AcDbEntity
  8
0
100
AcDbSpline
 62
7
  6
CONTINUOUS
 70
0
 71
3
 72
11
 73
7
 74
5
 42
0.0000001
 43
0.0000001
 44
0.0000000001
 12
-0.0011375264
 22
0.0086732482
 32
0.0
 13
-0.0087475254
 23
-0.0
 33
0.0
 40
0.0
 40
0.0
 40
0.0
 40
0.0
 40
0.4211761247
 40
0.7249575581
 40
0.9138262668
 40
1.0
 40
1.0
 40
1.0
 40
1.0
 10
3.4098094262
 20
17.7668740515
 30
0.0
 10
3.4096497266
 20
17.7680917066
 30
0.0
 10
3.4093619945
 20
17.7701634585
 30
0.0
 10
3.4088039928
 20
17.7728445106
 30
0.0
 10
3.4083978916
 20
17.7743464585
 30
0.0
 10
3.4078754089
 20
17.7751967135
 30
0.0
 10
3.4076241399
 20
17.7751967135
 30
0.0
 11
3.4098094262
 21
17.7668740515
 31
0.0
 11
3.4092631046
 21
17.7705175694
 31
0.0
 11
3.4087167831
 21
17.7731181398
 31
0.0
 11
3.4081704615
 21
17.7746773315
 31
0.0
 11
3.4076241399
 21
17.7751967135
 31
0.0
  0
SPLINE
  5
3DF
100
AcDbEntity
  8
0
100
AcDbSpline
 62
7
  6
CONTINUOUS
 70
0
 71
3
 72
12
 73
8
 74
6
 42
0.0000001
 43
0.0000001
 44
0.0000000001
 12
0.0114987359
 22
-0.0196816757
 32
0.0
 13
0.0017822033
 23
-0.0227247231
 33
0.0
 40
0.0
 40
0.0
 40
0.0
 40
0.0
 40
0.0433857496
 40
0.1097319438
 40
0.3127367503
 40
0.6096946462
 40
1.0
 40
1.0
 40
1.0
 40
1.0
 10
2.9491600577
 20
17.7986861265
 30
0.0
 10
2.9493263515
 20
17.7984014918
 30
0.0
 10
2.9496080453
 20
17.7976077142
 30
0.0
 10
2.9501775654
 20
17.7953041098
 30
0.0
 10
2.9508213218
 20
17.7910395724
 30
0.0
 10
2.9515773746
 20
17.7843208583
 30
0.0
 10
2.9520211585
 20
17.7791160021
 30
0.0
 10
2.9522530263
 20
17.776159475
 30
0.0
 11
2.9491600577
 21
17.7986861265
 31
0.0
 11
2.9495363062
 21
17.797771538
 31
0.0
 11
2.949917515
 21
17.7963080432
 31
0.0
 11
2.9506908204
 21
17.7917457228
 31
0.0
 11
2.9514719866
 21
17.7850219414
 31
0.0
 11
2.9522530263
 21
17.776159475
 31
0.0
  0
SPLINE
  5
3E0
100
AcDbEntity
  8
0
100
AcDbSpline
 62
7
  6
CONTINUOUS
 70
0
 71
3
 72
17
 73
13
 74
11
 42
0.0000001
 43
0.0000001
 44
0.0000000001
 12
0.0561100356
 22
-0.8853031314
 32
0.0
 13
0.0519897315
 23
-0.8855546501
 33
0.0
 40
0.0
 40
0.0
 40
0.0
 40
0.0
 40
0.035027142
 40
0.0800736409
 40
0.1962140808
 40
0.338515167
 40
0.4948508721
 40
0.6518931555
 40
0.7962655234
 40
0.9156824358
 40
0.9627539486
 40
1.0
 40
1.0
 40
1.0
 40
1.0
 10
2.9530877119
 20
17.7642482471
 30
0.0
 10
2.9537428366
 20
17.7539117009
 30
0.0
 10
2.9549466106
 20
17.73026374
 30
0.0
 10
2.9573001575
 20
17.67229224
 30
0.0
 10
2.9600774075
 20
17.5825941491
 30
0.0
 10
2.9632311176
 20
17.4599881126
 30
0.0
 10
2.9664264709
 20
17.3252847237
 30
0.0
 10
2.9696130224
 20
17.1899685174
 30
0.0
 10
2.9727842198
 20
17.06557208
 30
0.0
 10
2.9755436555
 20
16.9736926868
 30
0.0
 10
2.9778836591
 20
16.9134950911
 30
0.0
 10
2.9790843332
 20
16.8885908348
 30
0.0
 10
2.9797298039
 20
16.8775963635
 30
0.0
 11
2.9530877119
 21
17.7642482471
 31
0.0
 11
2.9547494292
 21
17.7332208548
 31
0.0
 11
2.9564116012
 21
17.6932956158
 31
0.0
 11
2.95975723
 21
17.5903241537
 31
0.0
 11
2.9630843268
 21
17.4641356364
 31
0.0
 11
2.9664175419
 21
17.3254935059
 31
0.0
 11
2.9697482056
 21
17.186224343
 31
0.0
 11
2.9730782487
 21
17.0581978815
 31
0.0
 11
2.9764093021
 21
16.9523179768
 31
0.0
 11
2.9780688898
 21
16.9105947976
 31
0.0
 11
2.9797298039
 21
16.8775963635
 31
0.0
  0
LINE
  5
3E1
100
AcDbEntity
  8
0
100
AcDbLine
 62
7
  6
CONTINUOUS
 10
2.9797298039
 20
16.8775963635
 11
2.9808624972
 21
16.8605828294
  0
SPLINE
  5
3E2
100
AcDbEntity
  8
0
100
AcDbSpline
 62
7
  6
CONTINUOUS
 70
0
 71
3
 72
12
 73
8
 74
6
 42
0.0000001
 43
0.0000001
 44
0.0000000001
 12
0.0018082079
 22
-0.0234785983
 32
0.0
 13
0.0107456671
 23
-0.0209533967
 33
0.0
 40
0.0
 40
0.0
 40
0.0
 40
0.0
 40
0.3861002169
 40
0.6817292346
 40
0.8862273644
 40
0.954321045
 40
1.0
 40
1.0
 40
1.0
 40
1.0
 10
2.9808624972
 20
16.8605828294
 30
0.0
 10
2.9810952137
 20
16.8575611321
 30
0.0
 10
2.9815414165
 20
16.8522271975
 30
0.0
 10
2.9822978416
 20
16.8453143842
 30
0.0
 10
2.9829450202
 20
16.8408934756
 30
0.0
 10
2.9835131166
 20
16.8384626374
 30
0.0
 10
2.9837954081
 20
16.837608602
 30
0.0
 10
2.9839590251
 20
16.8372895589
 30
0.0
 11
2.9808624972
 21
16.8605828294
 31
0.0
 11
2.9816441505
 21
16.8515245557
 31
0.0
 11
2.982425502
 21
16.8446070346
 31
0.0
 11
2.9831994831
 21
16.8398540932
 31
0.0
 11
2.9835815008
 21
16.838296786
 31
0.0
 11
2.9839590251
 21
16.8372895589
 31
0.0
  0
SPLINE
  5
3E3
100
AcDbEntity
  8
0
100
AcDbSpline
 62
7
  6
CONTINUOUS
 70
0
 71
3
 72
12
 73
8
 74
6
 42
0.0000001
 43
0.0000001
 44
0.0000000001
 12
0.013053348
 22
0.0298287694
 32
0.0
 13
0.0022456833
 23
0.032482338
 33
0.0
 40
0.0
 40
0.0
 40
0.0
 40
0.0
 40
0.0479892595
 40
0.1174296246
 40
0.322115268
 40
0.6160119158
 40
1.0
 40
1.0
 40
1.0
 40
1.0
 10
44.6149553833
 20
16.8806264914
 30
0.0
 10
44.6151641902
 20
16.8811036449
 30
0.0
 10
44.6155294043
 20
16.8823312366
 30
0.0
 10
44.6162403541
 20
16.8857534311
 30
0.0
 10
44.6170127371
 20
16.8918774579
 30
0.0
 10
44.618010464
 20
16.9014016999
 30
0.0
 10
44.6185452983
 20
16.9087415765
 30
0.0
 10
44.6188327369
 20
16.9128991868
 30
0.0
 11
44.6149553833
 21
16.8806264914
 31
0.0
 11
44.6154449819
 21
16.8821103294
 31
0.0
 11
44.6159269452
 21
16.8843193325
 31
0.0
 11
44.6168721623
 21
16.8909165016
 31
0.0
 11
44.6178651036
 21
16.9004340842
 31
0.0
 11
44.6188327369
 21
16.9128991868
 31
0.0
  0
SPLINE
  5
3E4
100
AcDbEntity
  8
0
100
AcDbSpline
 62
7
  6
CONTINUOUS
 70
0
 71
3
 72
30
 73
26
 74
24
 42
0.0000001
 43
0.0000001
 44
0.0000000001
 12
0.0583950648
 22
0.8446463677
 32
0.0
 13
0.2911217657
 23
0.7950381045
 33
0.0
 40
0.0
 40
0.0
 40
0.0
 40
0.0
 40
0.039183222
 40
0.0918329965
 40
0.1227591664
 40
0.1562569522
 40
0.191968563
 40
0.2295687823
 40
0.3933029968
 40
0.4796819168
 40
0.5662922858
 40
0.6505142207
 40
0.7293574009
 40
0.7660666269
 40
0.8007132705
 40
0.833144251
 40
0.8632216831
 40
0.9157625114
 40
0.9379263347
 40
0.9571217239
 40
0.9731500537
 40
0.9857883558
 40
0.9948127462
 40
0.9978983302
 40
1.0
 40
1.0
 40
1.0
 40
1.0
 10
44.6188327369
 20
16.9128991868
 30
0.0
 10
44.6195954391
 20
16.9239311755
 30
0.0
 10
44.6209649175
 20
16.9498143695
 30
0.0
 10
44.6224225912
 20
16.9844287923
 30
0.0
 10
44.6235963975
 20
17.0174486914
 30
0.0
 10
44.6245923215
 20
17.0456915437
 30
0.0
 10
44.6254709052
 20
17.0758227399
 30
0.0
 10
44.6275022031
 20
17.1426911927
 30
0.0
 10
44.6296936291
 20
17.2238606404
 30
0.0
 10
44.6320843981
 20
17.3188609261
 30
0.0
 10
44.6340148104
 20
17.3914256388
 30
0.0
 10
44.6358595379
 20
17.4618651359
 30
0.0
 10
44.6374535008
 20
17.5182231045
 30
0.0
 10
44.638729348
 20
17.5605932881
 30
0.0
 10
44.63973466
 20
17.5898668577
 30
0.0
 10
44.6406179815
 20
17.6172719107
 30
0.0
 10
44.6418592284
 20
17.6497174658
 30
0.0
 10
44.6430554065
 20
17.6792655564
 30
0.0
 10
44.644425541
 20
17.7057308628
 30
0.0
 10
44.6453487391
 20
17.7219006087
 30
0.0
 10
44.6462998797
 20
17.7353755792
 30
0.0
 10
44.6471494698
 20
17.7459776398
 30
0.0
 10
44.6479806158
 20
17.7529196716
 30
0.0
 10
44.6486878573
 20
17.7568656092
 30
0.0
 10
44.6490337281
 20
17.7582938287
 30
0.0
 10
44.6492376754
 20
17.7588507979
 30
0.0
 11
44.6188327369
 21
16.9128991868
 31
0.0
 11
44.6207132959
 21
16.9460208097
 31
0.0
 11
44.6226192481
 21
16.9905566371
 31
0.0
 11
44.6235694195
 21
17.0167234212
 31
0.0
 11
44.6245424158
 21
17.0450680466
 31
0.0
 11
44.6254613458
 21
17.0752897626
 31
0.0
 11
44.6264146455
 21
17.1071101834
 31
0.0
 11
44.6302274479
 21
17.2456853672
 31
0.0
 11
44.6321002261
 21
17.3187951811
 31
0.0
 11
44.6340276133
 21
17.3920996029
 31
0.0
 11
44.6359249576
 21
17.4633819142
 31
0.0
 11
44.6378174149
 21
17.5301086512
 31
0.0
 11
44.6387693783
 21
17.5611743957
 31
0.0
 11
44.6397454838
 21
17.5904921665
 31
0.0
 11
44.6406679327
 21
17.617934764
 31
0.0
 11
44.6416237405
 21
17.6433822555
 31
0.0
 11
44.6435195315
 21
17.6878261923
 31
0.0
 11
44.6444866191
 21
17.7065665349
 31
0.0
 11
44.6454392863
 21
17.722790606
 31
0.0
 11
44.6463911618
 21
17.736327768
 31
0.0
 11
44.6473123552
 21
17.7469884186
 31
0.0
 11
44.6482888815
 21
17.7545663714
 31
0.0
 11
44.6487678627
 21
17.7571345349
 31
0.0
 11
44.6492376754
 21
17.7588507979
 31
0.0
  0
SPLINE
  5
3E5
100
AcDbEntity
  8
0
100
AcDbSpline
 62
7
  6
CONTINUOUS
 70
0
 71
3
 72
12
 73
8
 74
6
 42
0.0000001
 43
0.0000001
 44
0.0000000001
 12
-0.0123519121
 22
0.0210602316
 32
0.0
 13
-0.0018138911
 23
0.0243477491
 33
0.0
 40
0.0
 40
0.0
 40
0.0
 40
0.0
 40
0.0420886578
 40
0.1075341124
 40
0.3098820244
 40
0.6076059317
 40
1.0
 40
1.0
 40
1.0
 40
1.0
 10
3.536670632
 20
16.8199539346
 30
0.0
 10
3.5364973402
 20
16.8202494002
 30
0.0
 10
3.5362095034
 20
16.8210862329
 30
0.0
 10
3.5356247963
 20
16.823534974
 30
0.0
 10
3.5349692466
 20
16.828101756
 30
0.0
 10
3.5341960364
 20
16.8353197004
 30
0.0
 10
3.5337430069
 20
16.8409198859
 30
0.0
 10
3.5335057535
 20
16.8441045233
 30
0.0
 11
3.536670632
 21
16.8199539346
 31
0.0
 11
3.5362850338
 21
16.8209064491
 31
0.0
 11
3.5358947518
 21
16.8224559179
 31
0.0
 11
3.5351037829
 21
16.8273325578
 31
0.0
 11
3.534305019
 21
16.8345575333
 31
0.0
 11
3.5335057535
 21
16.8441045233
 31
0.0
  0
SPLINE
  5
3E6
100
AcDbEntity
  8
0
100
AcDbSpline
 62
7
  6
CONTINUOUS
 70
0
 71
3
 72
18
 73
14
 74
12
 42
0.0000001
 43
0.0000001
 44
0.0000000001
 12
-0.0569238813
 22
0.9339480897
 32
0.0
 13
-0.0690002412
 23
0.9331336074
 33
0.0
 40
0.0
 40
0.0
 40
0.0
 40
0.0
 40
0.0361230845
 40
0.0828301953
 40
0.2035073275
 40
0.3509423164
 40
0.5115625766
 40
0.6705678254
 40
0.8132985824
 40
0.8743438058
 40
0.9265881165
 40
0.9687829766
 40
1.0
 40
1.0
 40
1.0
 40
1.0
 10
3.5327033221
 20
16.8560771938
 30
0.0
 10
3.5320179
 20
16.867322889
 30
0.0
 10
3.5307630137
 20
16.8931280477
 30
0.0
 10
3.5283212296
 20
16.9565538199
 30
0.0
 10
3.5254618232
 20
17.0547040633
 30
0.0
 10
3.5221738018
 20
17.1883822947
 30
0.0
 10
3.5188711723
 20
17.3340182779
 30
0.0
 10
3.515555782
 20
17.4781860287
 30
0.0
 10
3.5127190789
 20
17.5913002155
 30
0.0
 10
3.5103105239
 20
17.6711150727
 30
0.0
 10
3.5086193551
 20
17.7195807719
 30
0.0
 10
3.5069596977
 20
17.758736682
 30
0.0
 10
3.5056984607
 20
17.7816012974
 30
0.0
 10
3.5049804666
 20
17.7913111819
 30
0.0
 11
3.5327033221
 21
16.8560771938
 31
0.0
 11
3.530973012
 21
16.8898325669
 31
0.0
 11
3.5292467619
 21
16.9335014273
 31
0.0
 11
3.5257816345
 21
17.0463635735
 31
0.0
 11
3.5223171233
 21
17.1842722147
 31
0.0
 11
3.5188517176
 21
17.3345216188
 31
0.0
 11
3.51538473
 21
17.4832594442
 31
0.0
 11
3.5119215615
 21
17.6167650242
 31
0.0
 11
3.5101794035
 21
17.6738573193
 31
0.0
 11
3.508442675
 21
17.7227104795
 31
0.0
 11
3.5067183644
 21
17.762153746
 31
0.0
 11
3.5049804666
 21
17.7913111819
 31
0.0
  0
SPLINE
  5
3E7
100
AcDbEntity
  8
0
100
AcDbSpline
 62
7
  6
CONTINUOUS
 70
0
 71
3
 72
13
 73
9
 74
7
 42
0.0000001
 43
0.0000001
 44
0.0000000001
 12
-0.0018501445
 22
0.0250206665
 32
0.0
 13
-0.0161621528
 23
0.0191896222
 33
0.0
 40
0.0
 40
0.0
 40
0.0
 40
0.0
 40
0.4034240898
 40
0.7047812154
 40
0.8169250836
 40
0.9033155327
 40
0.9640857789
 40
1.0
 40
1.0
 40
1.0
 40
1.0
 10
3.5049804666
 20
17.7913111819
 30
0.0
 10
3.504731669
 20
17.7946758285
 30
0.0
 10
3.5042524276
 20
17.8005496423
 30
0.0
 10
3.5035331372
 20
17.807348036
 30
0.0
 10
3.5029255224
 20
17.8114814872
 30
0.0
 10
3.5025292204
 20
17.8136206754
 30
0.0
 10
3.5021403045
 20
17.8150899427
 30
0.0
 10
3.5018414928
 20
17.8158657631
 30
0.0
 10
3.5016480091
 20
17.8160954899
 30
0.0
 11
3.5049804666
 21
17.7913111819
 31
0.0
 11
3.5041367234
 21
17.8013974506
 31
0.0
 11
3.5032929607
 21
17.8089109642
 31
0.0
 11
3.5028744027
 21
17.8116932318
 31
0.0
 11
3.5024598366
 21
17.8138206636
 31
0.0
 11
3.5020505947
 21
17.8152893771
 31
0.0
 11
3.5016480091
 21
17.8160954899
 31
0.0
  0
SPLINE
  5
3E8
100
AcDbEntity
  8
0
100
AcDbSpline
 62
7
  6
CONTINUOUS
 70
0
 71
3
 72
10
 73
6
 74
4
 42
0.0000001
 43
0.0000001
 44
0.0000000001
 12
-0.0035826052
 22
0.0061873178
 32
0.0
 13
-0.0009847042
 23
0.0070815478
 33
0.0
 40
0.0
 40
0.0
 40
0.0
 40
0.0
 40
0.1423201945
 40
0.3557734039
 40
1.0
 40
1.0
 40
1.0
 40
1.0
 10
3.5142992021
 20
16.8586996969
 30
0.0
 10
3.5141292431
 20
16.8589932237
 30
0.0
 10
3.5138389507
 20
16.8597984872
 30
0.0
 10
3.5132612884
 20
16.8621078033
 30
0.0
 10
3.5129560816
 20
16.8641351527
 30
0.0
 10
3.5127446241
 20
16.8656558598
 30
0.0
 11
3.5142992021
 21
16.8586996969
 31
0.0
 11
3.5139105576
 21
16.8596400967
 31
0.0
 11
3.5135219131
 21
16.8611159036
 31
0.0
 11
3.5127446241
 21
16.8656558598
 31
0.0
  0
SPLINE
  5
3E9
100
AcDbEntity
  8
0
100
AcDbSpline
 62
7
  6
CONTINUOUS
 70
0
 71
3
 72
21
 73
17
 74
15
 42
0.0000001
 43
0.0000001
 44
0.0000000001
 12
-0.122923387
 22
0.8840095099
 32
0.0
 13
-0.0750688159
 23
0.8893523742
 33
0.0
 40
0.0
 40
0.0
 40
0.0
 40
0.0
 40
0.0094254636
 40
0.0222415626
 40
0.0577782277
 40
0.1059482629
 40
0.165289395
 40
0.2339781488
 40
0.3101874009
 40
0.4769407514
 40
0.6469077911
 40
0.801486855
 40
0.8676510692
 40
0.923655885
 40
0.9681173575
 40
1.0
 40
1.0
 40
1.0
 40
1.0
 10
3.5127446241
 20
16.8656558598
 30
0.0
 10
3.5123584208
 20
16.8684332596
 30
0.0
 10
3.5116601337
 20
16.875015753
 30
0.0
 10
3.5102819388
 20
16.8921497981
 30
0.0
 10
3.5086871339
 20
16.9208251338
 30
0.0
 10
3.5068650547
 20
16.963343098
 30
0.0
 10
3.5050272711
 20
17.0157319292
 30
0.0
 10
3.5031684763
 20
17.0764656347
 30
0.0
 10
3.5006056125
 20
17.1691481813
 30
0.0
 10
3.4975462029
 20
17.2919588197
 30
0.0
 10
3.4939537811
 20
17.4380785365
 30
0.0
 10
3.4908559233
 20
17.5542761196
 30
0.0
 10
3.4882521143
 20
17.6365688485
 30
0.0
 10
3.486416335
 20
17.6861092089
 30
0.0
 10
3.4845932593
 20
17.7254408385
 30
0.0
 10
3.4832092126
 20
17.7481153034
 30
0.0
 10
3.4824114151
 20
17.757566938
 30
0.0
 11
3.5127446241
 21
16.8656558598
 31
0.0
 11
3.5117967113
 21
16.8740146507
 31
0.0
 11
3.5108487985
 21
16.8854138666
 31
0.0
 11
3.508952973
 21
16.9170741617
 31
0.0
 11
3.5070571474
 21
16.9600248192
 31
0.0
 11
3.5051613219
 21
17.0129537262
 31
0.0
 11
3.5032654963
 21
17.0742301469
 31
0.0
 11
3.5013696707
 21
17.1422216195
 31
0.0
 11
3.4975780196
 21
17.2910031745
 31
0.0
 11
3.4937863685
 21
17.4426539089
 31
0.0
 11
3.4899947174
 21
17.5805659249
 31
0.0
 11
3.4880988918
 21
17.639588037
 31
0.0
 11
3.4862030663
 21
17.6895372083
 31
0.0
 11
3.4843072407
 21
17.7291744259
 31
0.0
 11
3.4824114151
 21
17.757566938
 31
0.0
  0
SPLINE
  5
3EA
100
AcDbEntity
  8
0
100
AcDbSpline
 62
7
  6
CONTINUOUS
 70
0
 71
3
 72
13
 73
9
 74
7
 42
0.0000001
 43
0.0000001
 44
0.0000000001
 12
-0.0017188724
 22
0.0203637584
 32
0.0
 13
-0.0204361732
 23
0.0000000002
 33
0.0
 40
0.0
 40
0.0
 40
0.0
 40
0.0
 40
0.4276445918
 40
0.7365533927
 40
0.845598828
 40
0.9245630849
 40
0.9745541303
 40
1.0
 40
1.0
 40
1.0
 40
1.0
 10
3.4824114151
 20
17.757566938
 30
0.0
 10
3.482166393
 20
17.760469755
 30
0.0
 10
3.4817052143
 20
17.7654627252
 30
0.0
 10
3.4809898593
 20
17.7711906332
 30
0.0
 10
3.4803961764
 20
17.7745116631
 30
0.0
 10
3.4799739204
 20
17.7761026257
 30
0.0
 10
3.4796473212
 20
17.7770557471
 30
0.0
 10
3.4792442328
 20
17.777513885
 30
0.0
 10
3.4790708941
 20
17.777513885
 30
0.0
 11
3.4824114151
 21
17.757566938
 31
0.0
 11
3.4815762849
 21
17.7662663633
 31
0.0
 11
3.4807411546
 21
17.7725237939
 31
0.0
 11
3.4803235895
 21
17.7747127946
 31
0.0
 11
3.4799060243
 21
17.7762715618
 31
0.0
 11
3.4794884592
 21
17.7772039557
 31
0.0
 11
3.4790708941
 21
17.777513885
 31
0.0
  0
SPLINE
  5
3EB
100
AcDbEntity
  8
0
100
AcDbSpline
 62
7
  6
CONTINUOUS
 70
0
 71
3
 72
11
 73
7
 74
5
 42
0.0000001
 43
0.0000001
 44
0.0000000001
 12
-0.0097524827
 22
-0.0168727482
 32
0.0
 13
-0.0016508294
 23
-0.0194184272
 33
0.0
 40
0.0
 40
0.0
 40
0.0
 40
0.0
 40
0.1147442828
 40
0.3195179565
 40
0.615241856
 40
1.0
 40
1.0
 40
1.0
 40
1.0
 10
44.0869535015
 20
17.7770940715
 30
0.0
 10
44.0865804876
 20
17.776448721
 30
0.0
 10
44.086090682
 20
17.7743886398
 30
0.0
 10
44.0854069532
 20
17.7704760836
 30
0.0
 10
44.084746529
 20
17.7647485446
 30
0.0
 10
44.0843354863
 20
17.7603511492
 30
0.0
 10
44.084123763
 20
17.7578606832
 30
0.0
 11
44.0869535015
 21
17.7770940715
 31
0.0
 11
44.0862460668
 21
17.774972731
 31
0.0
 11
44.0855386322
 21
17.7710452088
 31
0.0
 11
44.0848311976
 21
17.7653255854
 31
0.0
 11
44.084123763
 21
17.7578606832
 31
0.0
  0
SPLINE
  5
3EC
100
AcDbEntity
  8
0
100
AcDbSpline
 62
7
  6
CONTINUOUS
 70
0
 71
3
 72
21
 73
17
 74
15
 42
0.0000001
 43
0.0000001
 44
0.0000000001
 12
-0.0756117761
 22
-0.8894085283
 32
0.0
 13
-0.1214252221
 23
-0.8843192785
 33
0.0
 40
0.0
 40
0.0
 40
0.0
 40
0.0
 40
0.031705185
 40
0.0760000134
 40
0.1318498481
 40
0.197880928
 40
0.352273475
 40
0.5221691246
 40
0.6889819716
 40
0.7652686712
 40
0.8340615469
 40
0.8935338917
 40
0.9418623402
 40
0.9775735546
 40
0.9904808611
 40
1.0
 40
1.0
 40
1.0
 40
1.0
 10
44.084123763
 20
17.7578606832
 30
0.0
 10
44.0833246678
 20
17.7484610625
 30
0.0
 10
44.0819407875
 20
17.7258864836
 30
0.0
 10
44.0801181353
 20
17.6866990282
 30
0.0
 10
44.0782826878
 20
17.6372883785
 30
0.0
 10
44.0756784614
 20
17.5551275665
 30
0.0
 10
44.0725806317
 20
17.4390331026
 30
0.0
 10
44.0689883377
 20
17.292955764
 30
0.0
 10
44.0659295021
 20
17.1701115862
 30
0.0
 10
44.0633672906
 20
17.0773466934
 30
0.0
 10
44.061508464
 20
17.0165129436
 30
0.0
 10
44.0596703436
 20
16.964000934
 30
0.0
 10
44.0578482073
 20
16.9213398474
 30
0.0
 10
44.0562529129
 20
16.8925349484
 30
0.0
 10
44.0548754622
 20
16.8752915628
 30
0.0
 10
44.0541773795
 20
16.8686530584
 30
0.0
 10
44.0537920917
 20
16.8658470724
 30
0.0
 11
44.084123763
 21
17.7578606832
 31
0.0
 11
44.0822280335
 21
17.7296236684
 31
0.0
 11
44.080332304
 21
17.6901308356
 31
0.0
 11
44.0784365746
 21
17.6403143946
 31
0.0
 11
44.0765408451
 21
17.5814044409
 31
0.0
 11
44.0727493862
 21
17.4436432309
 31
0.0
 11
44.0689579273
 21
17.2920389302
 31
0.0
 11
44.0651664684
 21
17.1431872671
 31
0.0
 11
44.063270739
 21
17.0751188742
 31
0.0
 11
44.0613750095
 21
17.0137424704
 31
0.0
 11
44.0594792801
 21
16.9606903185
 31
0.0
 11
44.0575835506
 21
16.9175932097
 31
0.0
 11
44.0556878211
 21
16.8857732019
 31
0.0
 11
44.0547399564
 21
16.8742909809
 31
0.0
 11
44.0537920917
 21
16.8658470724
 31
0.0
  0
SPLINE
  5
3ED
100
AcDbEntity
  8
0
100
AcDbSpline
 62
7
  6
CONTINUOUS
 70
0
 71
3
 72
11
 73
7
 74
5
 42
0.0000001
 43
0.0000001
 44
0.0000000001
 12
-0.0010847302
 22
-0.007899906
 32
0.0
 13
-0.00797403
 23
-0.0000000443
 33
0.0
 40
0.0
 40
0.0
 40
0.0
 40
0.0
 40
0.4180254856
 40
0.7216041674
 40
0.9118510935
 40
1.0
 40
1.0
 40
1.0
 40
1.0
 10
44.0537920917
 20
16.8658470724
 30
0.0
 10
44.0536409434
 20
16.864746285
 30
0.0
 10
44.0533678638
 20
16.8628670038
 30
0.0
 10
44.0528424537
 20
16.860435278
 30
0.0
 10
44.0524574716
 20
16.8590564502
 30
0.0
 10
44.0519646711
 20
16.8582838776
 30
0.0
 10
44.0517303704
 20
16.8582838763
 30
0.0
 11
44.0537920917
 21
16.8658470724
 31
0.0
 11
44.0532766614
 21
16.8625538158
 31
0.0
 11
44.0527612311
 21
16.86018858
 31
0.0
 11
44.0522458007
 21
16.8587617914
 31
0.0
 11
44.0517303704
 21
16.8582838763
 31
0.0
  0
SPLINE
  5
3EE
100
AcDbEntity
  8
0
100
AcDbSpline
 62
7
  6
CONTINUOUS
 70
0
 71
3
 72
14
 73
10
 74
8
 42
0.0000001
 43
0.0000001
 44
0.0000000001
 12
0.0242150385
 22
0.0007540038
 32
0.0
 13
0.001833529
 23
0.0241572926
 33
0.0
 40
0.0
 40
0.0
 40
0.0
 40
0.0
 40
0.0244406561
 40
0.0747932064
 40
0.1544382444
 40
0.2639204513
 40
0.403311303
 40
0.5725427455
 40
1.0
 40
1.0
 40
1.0
 40
1.0
 10
44.5017097981
 20
16.8345832891
 30
0.0
 10
44.5019070752
 20
16.8345894319
 30
0.0
 10
44.5023305944
 20
16.8351829896
 30
0.0
 10
44.502674837
 20
16.8363054533
 30
0.0
 10
44.5031254358
 20
16.8382272746
 30
0.0
 10
44.5035432219
 20
16.8408318721
 30
0.0
 10
44.5039842197
 20
16.8441857656
 30
0.0
 10
44.5046177552
 20
16.8500936813
 30
0.0
 10
44.5050167576
 20
16.8548976844
 30
0.0
 10
44.5052780093
 20
16.8583397543
 30
0.0
 11
44.5017097981
 21
16.8345832891
 31
0.0
 11
44.502156445
 21
16.8349720186
 31
0.0
 11
44.5026027681
 21
16.836107317
 31
0.0
 11
44.5030488408
 21
16.8379845898
 31
0.0
 11
44.5034947361
 21
16.8405992422
 31
0.0
 11
44.5039405275
 21
16.8439466795
 31
0.0
 11
44.5043862879
 21
16.8480223071
 31
0.0
 11
44.5052780093
 21
16.8583397543
 31
0.0
  0
SPLINE
  5
3EF
100
AcDbEntity
  8
0
100
AcDbSpline
 62
7
  6
CONTINUOUS
 70
0
 71
3
 72
18
 73
14
 74
12
 42
0.0000001
 43
0.0000001
 44
0.0000000001
 12
0.0531351877
 22
0.9012337581
 32
0.0
 13
0.0680266028
 23
0.9002322013
 33
0.0
 40
0.0
 40
0.0
 40
0.0
 40
0.0
 40
0.0376758378
 40
0.0856316096
 40
0.2078382509
 40
0.3556232352
 40
0.5156632735
 40
0.6735170138
 40
0.8149319451
 40
0.8753829719
 40
0.9271334388
 40
0.9689725804
 40
1.0
 40
1.0
 40
1.0
 40
1.0
 10
44.506360822
 20
16.8746718497
 30
0.0
 10
44.5070281262
 20
16.8859900954
 30
0.0
 10
44.5082726242
 20
16.9117305275
 30
0.0
 10
44.5106892436
 20
16.9742294148
 30
0.0
 10
44.5135152192
 20
17.0698700229
 30
0.0
 10
44.5167771239
 20
17.1992393602
 30
0.0
 10
44.5200484344
 20
17.3393394009
 30
0.0
 10
44.5233308194
 20
17.4775213891
 30
0.0
 10
44.5261422218
 20
17.5857369378
 30
0.0
 10
44.5285245251
 20
17.6620213569
 30
0.0
 10
44.5301989465
 20
17.7083475838
 30
0.0
 10
44.5318485397
 20
17.7458124315
 30
0.0
 10
44.5330978764
 20
17.767707278
 30
0.0
 10
44.5338014397
 20
17.7770179055
 30
0.0
 11
44.506360822
 21
16.8746718497
 31
0.0
 11
44.5080750571
 21
16.9086423253
 31
0.0
 11
44.509788878
 21
16.9519028031
 31
0.0
 11
44.5132158037
 21
17.0621775746
 31
0.0
 11
44.5166444021
 21
17.195553617
 31
0.0
 11
44.520073585
 21
17.3399968683
 31
0.0
 11
44.5235040143
 21
17.4824657385
 31
0.0
 11
44.5269313051
 21
17.6100889545
 31
0.0
 11
44.5286543464
 21
17.6646368611
 31
0.0
 11
44.5303744241
 21
17.711325445
 31
0.0
 11
44.5320855475
 21
17.7490589932
 31
0.0
 11
44.5338014397
 21
17.7770179055
 31
0.0
  0
SPLINE
  5
3F0
100
AcDbEntity
  8
0
100
AcDbSpline
 62
7
  6
CONTINUOUS
 70
0
 71
3
 72
10
 73
6
 74
4
 42
0.0000001
 43
0.0000001
 44
0.0000000001
 12
0.0016561171
 22
0.0219162781
 32
0.0
 13
0.0050017294
 23
0.0214020717
 33
0.0
 40
0.0
 40
0.0
 40
0.0
 40
0.0
 40
0.6263578351
 40
0.8449177731
 40
1.0
 40
1.0
 40
1.0
 40
1.0
 10
44.5338014397
 20
17.7770179055
 30
0.0
 10
44.5341472137
 20
17.7815937163
 30
0.0
 10
44.5346582034
 20
17.7877658358
 30
0.0
 10
44.5355742146
 20
17.7950342216
 30
0.0
 10
44.5360336625
 20
17.7977362264
 30
0.0
 10
44.5362922223
 20
17.7988425868
 30
0.0
 11
44.5338014397
 21
17.7770179055
 31
0.0
 11
44.5350493467
 21
17.7907277986
 31
0.0
 11
44.5356724578
 21
17.7954908904
 31
0.0
 11
44.5362922223
 21
17.7988425868
 31
0.0
  0
LINE
  5
3F1
100
AcDbEntity
  8
0
100
AcDbLine
 62
7
  6
CONTINUOUS
 10
44.5362922223
 20
17.7988425868
 11
44.5369644856
 21
17.8008787529
  0
LINE
  5
3F2
100
AcDbEntity
  8
0
100
AcDbLine
 62
7
  6
CONTINUOUS
 10
44.2579845708
 20
16.8663903171
 11
44.2589093497
 21
16.8706463055
  0
SPLINE
  5
3F3
100
AcDbEntity
  8
0
100
AcDbSpline
 62
7
  6
CONTINUOUS
 70
0
 71
3
 72
10
 73
6
 74
4
 42
0.0000001
 43
0.0000001
 44
0.0000000001
 12
0.0049623278
 22
0.0323907589
 32
0.0
 13
0.001944712
 23
0.0327109165
 33
0.0
 40
0.0
 40
0.0
 40
0.0
 40
0.0
 40
0.1685962698
 40
0.3934559851
 40
1.0
 40
1.0
 40
1.0
 40
1.0
 10
44.2589093497
 20
16.8706463055
 30
0.0
 10
44.2591882263
 20
16.8724666258
 30
0.0
 10
44.2596943716
 20
16.8767359469
 30
0.0
 10
44.2607553143
 20
16.8876072236
 30
0.0
 10
44.2613190709
 20
16.8966736567
 30
0.0
 10
44.2617122554
 20
16.9032871936
 30
0.0
 11
44.2589093497
 21
16.8706463055
 31
0.0
 11
44.2596057053
 21
16.8761269199
 31
0.0
 11
44.2603270852
 21
16.8834598771
 31
0.0
 11
44.2617122554
 21
16.9032871936
 31
0.0
  0
SPLINE
  5
3F4
100
AcDbEntity
  8
0
100
AcDbSpline
 62
7
  6
CONTINUOUS
 70
0
 71
3
 72
27
 73
23
 74
21
 42
0.0000001
 43
0.0000001
 44
0.0000000001
 12
0.0512717052
 22
0.8624127923
 32
0.0
 13
0.3662374406
 23
0.7824670914
 33
0.0
 40
0.0
 40
0.0
 40
0.0
 40
0.0
 40
0.0960829698
 40
0.2315690789
 40
0.3950248057
 40
0.4819478171
 40
0.5254510038
 40
0.5685737278
 40
0.652640581
 40
0.7322283536
 40
0.8054244354
 40
0.8389572888
 40
0.870037279
 40
0.8983183313
 40
0.9234307806
 40
0.945036084
 40
0.9630397146
 40
0.9774699712
 40
0.9883846714
 40
0.9958640277
 40
0.9983399449
 40
1.0
 40
1.0
 40
1.0
 40
1.0
 10
44.2617122554
 20
16.9032871936
 30
0.0
 10
44.263354368
 20
16.9309082543
 30
0.0
 10
44.2660929469
 20
16.9975456604
 30
0.0
 10
44.2696563283
 20
17.1112466396
 30
0.0
 10
44.2725805209
 20
17.2223300074
 30
0.0
 10
44.2746531011
 20
17.3069362014
 30
0.0
 10
44.2759918286
 20
17.3568966784
 30
0.0
 10
44.2771663126
 20
17.4060385354
 30
0.0
 10
44.2787614318
 20
17.4655646349
 30
0.0
 10
44.28061386
 20
17.5337474829
 30
0.0
 10
44.2822636615
 20
17.5873773133
 30
0.0
 10
44.2834771754
 20
17.6270448893
 30
0.0
 10
44.2844689302
 20
17.6537780621
 30
0.0
 10
44.2854023668
 20
17.6780866693
 30
0.0
 10
44.2863235517
 20
17.6996652654
 30
0.0
 10
44.2872862178
 20
17.7182789774
 30
0.0
 10
44.2881880278
 20
17.733814994
 30
0.0
 10
44.2891226844
 20
17.746265015
 30
0.0
 10
44.2900151195
 20
17.755674101
 30
0.0
 10
44.2908609055
 20
17.7616335632
 30
0.0
 10
44.2915553781
 20
17.7649024244
 30
0.0
 10
44.2918957525
 20
17.7660519946
 30
0.0
 10
44.2920984106
 20
17.7664849741
 30
0.0
 11
44.2617122554
 21
16.9032871936
 31
0.0
 11
44.2655151102
 21
16.9862095311
 31
0.0
 11
44.2693154555
 21
17.1031990857
 31
0.0
 11
44.2731043935
 21
17.2443634573
 31
0.0
 11
44.2749976317
 21
17.3194354668
 31
0.0
 11
44.2759765616
 21
17.3570066648
 31
0.0
 11
44.2768967748
 21
17.394250552
 31
0.0
 11
44.2788006002
 21
17.466853937
 31
0.0
 11
44.2807067075
 21
17.5355862167
 31
0.0
 11
44.28261241
 21
17.5987941912
 31
0.0
 11
44.2835313258
 21
17.6277498376
 31
0.0
 11
44.2845048957
 21
17.6545832899
 31
0.0
 11
44.2854558441
 21
17.6789977833
 31
0.0
 11
44.2864016089
 21
17.7006726966
 31
0.0
 11
44.2873611678
 21
17.7193136053
 31
0.0
 11
44.2882963626
 21
17.7348394414
 31
0.0
 11
44.2892447143
 21
17.74727013
 31
0.0
 11
44.2901949066
 21
17.7566517312
 31
0.0
 11
44.2911719193
 21
17.7630391232
 31
0.0
 11
44.2916375165
 21
17.7651268685
 31
0.0
 11
44.2920984106
 21
17.7664849741
 31
0.0
  0
LINE
  5
3F5
100
AcDbEntity
  8
0
100
AcDbLine
 62
7
  6
CONTINUOUS
 10
2.9705922093
 20
17.7609227178
 11
2.9714511162
 21
17.7575881425
  0
SPLINE
  5
3F6
100
AcDbEntity
  8
0
100
AcDbSpline
 62
7
  6
CONTINUOUS
 70
0
 71
3
 72
10
 73
6
 74
4
 42
0.0000001
 43
0.0000001
 44
0.0000000001
 12
0.0051931309
 22
-0.0280977682
 32
0.0
 13
0.0019386639
 23
-0.0285078019
 33
0.0
 40
0.0
 40
0.0
 40
0.0
 40
0.0
 40
0.1654985855
 40
0.3888276009
 40
1.0
 40
1.0
 40
1.0
 40
1.0
 10
2.9714511162
 20
17.7575881425
 30
0.0
 10
2.9717376015
 20
17.7560380955
 30
0.0
 10
2.9722503905
 20
17.7523681599
 30
0.0
 10
2.9733279351
 20
17.742904911
 30
0.0
 10
2.973896794
 20
17.73497367
 30
0.0
 10
2.9742917467
 20
17.7291659428
 30
0.0
 11
2.9714511162
 21
17.7575881425
 31
0.0
 11
2.9721571282
 21
17.7529122445
 31
0.0
 11
2.9728863566
 21
17.7465727239
 31
0.0
 11
2.9742917467
 21
17.7291659428
 31
0.0
  0
SPLINE
  5
3F7
100
AcDbEntity
  8
0
100
AcDbSpline
 62
7
  6
CONTINUOUS
 70
0
 71
3
 72
29
 73
25
 74
23
 42
0.0000001
 43
0.0000001
 44
0.0000000001
 12
0.0578822707
 22
-0.8511513081
 32
0.0
 13
0.6841127476
 23
-0.5097044782
 33
0.0
 40
0.0
 40
0.0
 40
0.0
 40
0.0
 40
0.0916915656
 40
0.2282135407
 40
0.3100554495
 40
0.3972753302
 40
0.4867313164
 40
0.5758929747
 40
0.6625094243
 40
0.7442281533
 40
0.8182669527
 40
0.8513691948
 40
0.8813385156
 40
0.9080171771
 40
0.9313471311
 40
0.9512965331
 40
0.9678576313
 40
0.9810194538
 40
0.9863207144
 40
0.9907652595
 40
0.9943506044
 40
0.9970750495
 40
0.9989441413
 40
1.0
 40
1.0
 40
1.0
 40
1.0
 10
2.9742917467
 20
17.7291659428
 30
0.0
 10
2.976060852
 20
17.7031514775
 30
0.0
 10
2.978933306
 20
17.6383067899
 30
0.0
 10
2.9817786415
 20
17.5501843788
 30
0.0
 10
2.984211284
 20
17.4633181349
 30
0.0
 10
2.9861101453
 20
17.3898274751
 30
0.0
 10
2.98807891
 20
17.3142562224
 30
0.0
 10
2.9900154655
 20
17.2388558559
 30
0.0
 10
2.9919302946
 20
17.1656558517
 30
0.0
 10
2.9939053389
 20
17.0967596658
 30
0.0
 10
2.995523594
 20
17.0430774373
 30
0.0
 10
2.9968708293
 20
17.0041101797
 30
0.0
 10
2.9978568511
 20
16.9786067977
 30
0.0
 10
2.9987970499
 20
16.9558823752
 30
0.0
 10
2.9998409522
 20
16.9360155906
 30
0.0
 10
3.0007512328
 20
16.9190225955
 30
0.0
 10
3.0017230633
 20
16.9049304357
 30
0.0
 10
3.0025691317
 20
16.8950049443
 30
0.0
 10
3.0032671224
 20
16.8885288388
 30
0.0
 10
3.0037508228
 20
16.8847662482
 30
0.0
 10
3.0042321025
 20
16.8817514057
 30
0.0
 10
3.0047042917
 20
16.8794579228
 30
0.0
 10
3.0051606282
 20
16.8779458833
 30
0.0
 10
3.0055353656
 20
16.8771476252
 30
0.0
 10
3.0057761411
 20
16.8769682333
 30
0.0
 11
2.9742917467
 21
17.7291659428
 31
0.0
 11
2.9782434217
 21
17.6510421723
 31
0.0
 11
2.9821766235
 21
17.5346393628
 31
0.0
 11
2.9841440881
 21
17.4648463511
 31
0.0
 11
2.9860963346
 21
17.3904631879
 31
0.0
 11
2.988076404
 21
17.3141724414
 31
0.0
 11
2.990040155
 21
17.2381324527
 31
0.0
 11
2.9919984672
 21
17.1642644261
 31
0.0
 11
2.9939859195
 21
17.0945771102
 31
0.0
 11
2.9959386927
 21
17.0314435324
 31
0.0
 11
2.9969217725
 21
17.0032205577
 31
0.0
 11
2.9979052028
 21
16.977672136
 31
0.0
 11
2.9988814783
 21
16.9549330598
 31
0.0
 11
2.9998950428
 21
16.9350556999
 31
0.0
 11
3.0008502248
 21
16.9180633479
 31
0.0
 11
3.0018319412
 21
16.903968939
 31
0.0
 11
3.0028182508
 21
16.8927837645
 31
0.0
 11
3.0033099909
 21
16.8882879809
 31
0.0
 11
3.003802831
 21
16.8845284288
 31
0.0
 11
3.0042970745
 21
16.8815099047
 31
0.0
 11
3.004790909
 21
16.8792387018
 31
0.0
 11
3.0052828617
 21
16.8777219336
 31
0.0
 11
3.0057761411
 21
16.8769682333
 31
0.0
  0
SPLINE
  5
3F8
100
AcDbEntity
  8
0
100
AcDbSpline
 62
7
  6
CONTINUOUS
 70
0
 71
3
 72
14
 73
10
 74
8
 42
0.0000001
 43
0.0000001
 44
0.0000000001
 12
-0.0240659561
 22
0.0007493582
 32
0.0
 13
-0.0018096238
 23
-0.0240095198
 33
0.0
 40
0.0
 40
0.0
 40
0.0
 40
0.0
 40
0.0235324061
 40
0.0731287594
 40
0.1523117253
 40
0.2616271453
 40
0.40114567
 40
0.5708002802
 40
1.0
 40
1.0
 40
1.0
 40
1.0
 10
44.1276501785
 20
17.8140391814
 30
0.0
 10
44.1274614019
 20
17.8140450595
 30
0.0
 10
44.1270342465
 20
17.8134642513
 30
0.0
 10
44.1267083394
 20
17.812368214
 30
0.0
 10
44.126258108
 20
17.8104666678
 30
0.0
 10
44.1258470452
 20
17.8078829737
 30
0.0
 10
44.1254081916
 20
17.8045461453
 30
0.0
 10
44.1247784985
 20
17.7986563574
 30
0.0
 10
44.1243820679
 20
17.79386435
 30
0.0
 10
44.1241231712
 20
17.7904293903
 30
0.0
 11
44.1276501785
 21
17.8140391814
 31
0.0
 11
44.1272145189
 21
17.8136769092
 31
0.0
 11
44.1267763985
 21
17.8125660205
 31
0.0
 11
44.1263363026
 21
17.8107109732
 31
0.0
 11
44.1258947164
 21
17.8081162255
 31
0.0
 11
44.1254521249
 21
17.8047862353
 31
0.0
 11
44.1250090135
 21
17.8007254607
 31
0.0
 11
44.1241231712
 21
17.7904293903
 31
0.0
  0
SPLINE
  5
3F9
100
AcDbEntity
  8
0
100
AcDbSpline
 62
7
  6
CONTINUOUS
 70
0
 71
3
 72
18
 73
14
 74
12
 42
0.0000001
 43
0.0000001
 44
0.0000000001
 12
-0.0587904702
 22
-0.9324420315
 32
0.0
 13
-0.0695305318
 23
-0.9317027244
 33
0.0
 40
0.0
 40
0.0
 40
0.0
 40
0.0
 40
0.0353432188
 40
0.0814628176
 40
0.2015210821
 40
0.3489576708
 40
0.5100098354
 40
0.669639148
 40
0.8129537198
 40
0.8742139862
 40
0.926595967
 40
0.9688361806
 40
1.0
 40
1.0
 40
1.0
 40
1.0
 10
44.1234189137
 20
17.7801683623
 30
0.0
 10
44.1227262989
 20
17.7691831948
 30
0.0
 10
44.1214595088
 20
17.7438432186
 30
0.0
 10
44.1189852044
 20
17.6811319827
 30
0.0
 10
44.1160973274
 20
17.5835034082
 30
0.0
 10
44.1128029755
 20
17.4500814915
 30
0.0
 10
44.1094717019
 20
17.304332809
 30
0.0
 10
44.1061474735
 20
17.1598683527
 30
0.0
 10
44.1032807473
 20
17.0464795193
 30
0.0
 10
44.1008716943
 20
16.9664913802
 30
0.0
 10
44.0991801471
 20
16.9179735838
 30
0.0
 10
44.0975075992
 20
16.8788358937
 30
0.0
 10
44.0962349454
 20
16.8560083376
 30
0.0
 10
44.0955126665
 20
16.8463298658
 30
0.0
 11
44.1234189137
 21
17.7801683623
 31
0.0
 11
44.1216772658
 21
17.747193383
 31
0.0
 11
44.1199323258
 21
17.7041394848
 31
0.0
 11
44.1164314021
 21
17.592024468
 31
0.0
 11
44.1129478736
 21
17.4543194667
 31
0.0
 11
44.1094576911
 21
17.3038899492
 31
0.0
 11
44.1059711329
 21
17.1547900694
 31
0.0
 11
44.1024838695
 21
17.0209376067
 31
0.0
 11
44.1007397119
 21
16.9637291157
 31
0.0
 11
44.0989991839
 21
16.9148199284
 31
0.0
 11
44.097262097
 21
16.8753934173
 31
0.0
 11
44.0955126665
 21
16.8463298658
 31
0.0
  0
SPLINE
  5
3FA
100
AcDbEntity
  8
0
100
AcDbSpline
 62
7
  6
CONTINUOUS
 70
0
 71
3
 72
9
 73
5
 74
3
 42
0.0000001
 43
0.0000001
 44
0.0000000001
 12
-0.0015005115
 22
-0.0201067166
 32
0.0
 13
-0.0034142102
 23
-0.0198714558
 33
0.0
 40
0.0
 40
0.0
 40
0.0
 40
0.0
 40
0.5982081
 40
1.0
 40
1.0
 40
1.0
 40
1.0
 10
44.0955126665
 20
16.8463298658
 30
0.0
 10
44.0952134604
 20
16.8423205322
 30
0.0
 10
44.0946503421
 20
16.8356244637
 30
0.0
 10
44.0938808808
 20
16.8289414714
 30
0.0
 10
44.0934236135
 20
16.8262800748
 30
0.0
 11
44.0955126665
 21
16.8463298658
 31
0.0
 11
44.0944658961
 21
16.8343139267
 31
0.0
 11
44.0934236135
 21
16.8262800748
 31
0.0
  0
SPLINE
  5
3FB
100
AcDbEntity
  8
0
100
AcDbSpline
 62
7
  6
CONTINUOUS
 70
0
 71
3
 72
9
 73
5
 74
3
 42
0.0000001
 43
0.0000001
 44
0.0000000001
 12
-0.0007163672
 22
-0.0041694148
 32
0.0
 13
-0.0021045014
 23
-0.003669915
 33
0.0
 40
0.0
 40
0.0
 40
0.0
 40
0.0
 40
0.6279032296
 40
1.0
 40
1.0
 40
1.0
 40
1.0
 10
44.0934236135
 20
16.8262800748
 30
0.0
 10
44.0932736771
 20
16.8254074118
 30
0.0
 10
44.0929971376
 20
16.8240330276
 30
0.0
 10
44.0926135104
 20
16.822652615
 30
0.0
 10
44.0923524844
 20
16.8221974272
 30
0.0
 11
44.0934236135
 21
16.8262800748
 31
0.0
 11
44.0928841764
 21
16.8236790745
 31
0.0
 11
44.0923524844
 21
16.8221974272
 31
0.0
  0
LINE
  5
3FC
100
AcDbEntity
  8
0
100
AcDbLine
 62
7
  6
CONTINUOUS
 10
44.3290251472
 20
16.8676622507
 11
44.3298729182
 21
16.8707852191
  0
SPLINE
  5
3FD
100
AcDbEntity
  8
0
100
AcDbSpline
 62
7
  6
CONTINUOUS
 70
0
 71
3
 72
9
 73
5
 74
3
 42
0.0000001
 43
0.0000001
 44
0.0000000001
 12
0.0052675912
 22
0.0279328506
 32
0.0
 13
0.001934289
 23
0.0283593051
 33
0.0
 40
0.0
 40
0.0
 40
0.0
 40
0.0
 40
0.3846440655
 40
1.0
 40
1.0
 40
1.0
 40
1.0
 10
44.3298729182
 20
16.8707852191
 30
0.0
 10
44.3305483007
 20
16.8743666208
 30
0.0
 10
44.3315110889
 20
16.88380981
 30
0.0
 10
44.3322924755
 20
16.8932464616
 30
0.0
 10
44.3326892342
 20
16.8990634839
 30
0.0
 11
44.3298729182
 21
16.8707852191
 31
0.0
 11
44.3312621237
 21
16.8816301869
 31
0.0
 11
44.3326892342
 21
16.8990634839
 31
0.0
  0
SPLINE
  5
3FE
100
AcDbEntity
  8
0
100
AcDbSpline
 62
7
  6
CONTINUOUS
 70
0
 71
3
 72
33
 73
29
 74
27
 42
0.0000001
 43
0.0000001
 44
0.0000000001
 12
0.0589886568
 22
0.8648538542
 32
0.0
 13
0.7490087143
 23
0.4363917927
 33
0.0
 40
0.0
 40
0.0
 40
0.0
 40
0.0
 40
0.0183871167
 40
0.0399910711
 40
0.092131982
 40
0.1551751639
 40
0.2279621018
 40
0.2675749301
 40
0.3090165516
 40
0.3958813566
 40
0.4852373253
 40
0.5742984997
 40
0.6607668001
 40
0.7424418631
 40
0.8168603333
 40
0.8504392973
 40
0.8810373543
 40
0.9082594721
 40
0.9319472174
 40
0.9520747429
 40
0.9686437601
 40
0.9816833383
 40
0.9868881688
 40
0.9912204045
 40
0.9946845615
 40
0.9972862657
 40
0.9990393905
 40
1.0
 40
1.0
 40
1.0
 40
1.0
 10
44.3326892342
 20
16.8990634839
 30
0.0
 10
44.333050778
 20
16.9043642068
 30
0.0
 10
44.3337066775
 20
16.9159015614
 30
0.0
 10
44.3351236292
 20
16.9424857461
 30
0.0
 10
44.336751977
 20
16.981978766
 30
0.0
 10
44.3387409179
 20
17.0362574037
 30
0.0
 10
44.3402278065
 20
17.0869309241
 30
0.0
 10
44.3415584755
 20
17.1313641403
 30
0.0
 10
44.3428467272
 20
17.1798681016
 30
0.0
 10
44.3445251253
 20
17.242740206
 30
0.0
 10
44.346407891
 20
17.3193715097
 30
0.0
 10
44.3483898546
 20
17.3958856711
 30
0.0
 10
44.3503319937
 20
17.4701806581
 30
0.0
 10
44.352232004
 20
17.5402442991
 30
0.0
 10
44.3539215366
 20
17.5950250724
 30
0.0
 10
44.355240815
 20
17.6350511328
 30
0.0
 10
44.3562165166
 20
17.6614434333
 30
0.0
 10
44.3572028038
 20
17.6849747998
 30
0.0
 10
44.3581404582
 20
17.7054803576
 30
0.0
 10
44.3591820516
 20
17.7228979111
 30
0.0
 10
44.3600889102
 20
17.7372405858
 30
0.0
 10
44.3609397737
 20
17.7472663032
 30
0.0
 10
44.3616456627
 20
17.7537505543
 30
0.0
 10
44.3621288376
 20
17.7574794439
 30
0.0
 10
44.3626091398
 20
17.7604382174
 30
0.0
 10
44.3630842615
 20
17.7626679376
 30
0.0
 10
44.3635359295
 20
17.764098612
 30
0.0
 10
44.363920745
 20
17.7648535627
 30
0.0
 10
44.36416058
 20
17.7649932967
 30
0.0
 11
44.3326892342
 21
16.8990634839
 31
0.0
 11
44.3336452813
 21
16.9149739009
 31
0.0
 11
44.3346319875
 21
16.9336755631
 31
0.0
 11
44.3365909664
 21
16.9788321291
 31
0.0
 11
44.3385761944
 21
17.0334458751
 31
0.0
 11
44.3405171868
 21
17.096512333
 31
0.0
 11
44.3415237281
 21
17.130836482
 31
0.0
 11
44.3424987715
 21
17.1667474651
 31
0.0
 11
44.3444796344
 21
17.2420213111
 31
0.0
 11
44.3464272179
 21
17.319456226
 31
0.0
 11
44.3484123557
 21
17.3966345568
 31
0.0
 11
44.3503807332
 21
17.4715648969
 31
0.0
 11
44.3523347669
 21
17.5423390357
 31
0.0
 11
44.3543166664
 21
17.6068192196
 31
0.0
 11
44.3552895047
 21
17.6359113273
 31
0.0
 11
44.3562756348
 21
17.66241732
 31
0.0
 11
44.3572615677
 21
17.6859945674
 31
0.0
 11
44.358239316
 21
17.7065053113
 31
0.0
 11
44.3592542967
 21
17.723923576
 31
0.0
 11
44.360210818
 21
17.738254762
 31
0.0
 11
44.3611948727
 21
17.7495153769
 31
0.0
 11
44.3616896974
 21
17.7540000368
 31
0.0
 11
44.3621828307
 21
17.7577229749
 31
0.0
 11
44.3626778097
 21
17.7606848503
 31
0.0
 11
44.3631734525
 21
17.7628850354
 31
0.0
 11
44.3636676348
 21
17.7643221613
 31
0.0
 11
44.36416058
 21
17.7649932967
 31
0.0
  0
SPLINE
  5
3FF
100
AcDbEntity
  8
0
100
AcDbSpline
 62
7
  6
CONTINUOUS
 70
0
 71
3
 72
14
 73
10
 74
8
 42
0.0000001
 43
0.0000001
 44
0.0000000001
 12
0.0248822109
 22
0.0007747781
 32
0.0
 13
0.0018168213
 23
0.0248278847
 33
0.0
 40
0.0
 40
0.0
 40
0.0
 40
0.0
 40
0.0244424071
 40
0.0747358887
 40
0.1543280309
 40
0.2637772256
 40
0.4031600846
 40
0.5724113648
 40
1.0
 40
1.0
 40
1.0
 40
1.0
 10
44.0731297903
 20
16.8212382376
 30
0.0
 10
44.0733325173
 20
16.8212445501
 30
0.0
 10
44.0737677057
 20
16.8218541665
 30
0.0
 10
44.0741141357
 20
16.8230095628
 30
0.0
 10
44.074567415
 20
16.8249849377
 30
0.0
 10
44.0749828485
 20
16.8276628754
 30
0.0
 10
44.0754201748
 20
16.8311109536
 30
0.0
 10
44.0760461565
 20
16.8371854864
 30
0.0
 10
44.0764402635
 20
16.8421243231
 30
0.0
 10
44.0766992142
 20
16.8456630302
 30
0.0
 11
44.0731297903
 21
16.8212382376
 31
0.0
 11
44.0735885703
 21
16.8216379423
 31
0.0
 11
44.0740415345
 21
16.8228051511
 31
0.0
 11
44.0744897907
 21
16.8247351682
 31
0.0
 11
44.0749344462
 21
16.827423298
 31
0.0
 11
44.0753766088
 21
16.8308648448
 31
0.0
 11
44.0758173859
 21
16.8350551129
 31
0.0
 11
44.0766992142
 21
16.8456630302
 31
0.0
  0
SPLINE
  5
400
100
AcDbEntity
  8
0
100
AcDbSpline
 62
7
  6
CONTINUOUS
 70
0
 71
3
 72
17
 73
13
 74
11
 42
0.0000001
 43
0.0000001
 44
0.0000000001
 12
0.0556218812
 22
0.9297668076
 32
0.0
 13
0.0671357819
 23
0.9290064031
 33
0.0
 40
0.0
 40
0.0
 40
0.0
 40
0.0
 40
0.036513921
 40
0.0835370301
 40
0.2046041842
 40
0.3521343511
 40
0.5126148222
 40
0.6713334322
 40
0.8137314621
 40
0.9267392959
 40
0.9688387304
 40
1.0
 40
1.0
 40
1.0
 40
1.0
 10
44.0775615761
 20
16.8587730909
 30
0.0
 10
44.0782385671
 20
16.8700895682
 30
0.0
 10
44.0795001264
 20
16.8959963831
 30
0.0
 10
44.0819483079
 20
16.9594741994
 30
0.0
 10
44.0847865867
 20
17.0574274394
 30
0.0
 10
44.0880743027
 20
17.1906051039
 30
0.0
 10
44.0913692364
 20
17.3354761067
 30
0.0
 10
44.0946685425
 20
17.4787533585
 30
0.0
 10
44.0979348605
 20
17.6072871568
 30
0.0
 10
44.1007842281
 20
17.6996143489
 30
0.0
 10
44.1032663316
 20
17.7573930073
 30
0.0
 10
44.1045271965
 20
17.7801059383
 30
0.0
 10
44.1052245419
 20
17.7897556113
 30
0.0
 11
44.0775615761
 21
16.8587730909
 31
0.0
 11
44.0792913621
 21
16.8927392006
 31
0.0
 11
44.0810232318
 21
16.9365036375
 31
0.0
 11
44.0844760127
 21
17.0492162312
 31
0.0
 11
44.0879324877
 21
17.1865866385
 31
0.0
 11
44.0913887716
 21
17.3360228498
 31
0.0
 11
44.0948470788
 21
17.4838175213
 31
0.0
 11
44.0983008618
 21
17.6164062098
 31
0.0
 11
44.1017719369
 21
17.7216077435
 31
0.0
 11
44.1035060812
 21
17.7607820163
 31
0.0
 11
44.1052245419
 21
17.7897556113
 31
0.0
  0
SPLINE
  5
401
100
AcDbEntity
  8
0
100
AcDbSpline
 62
7
  6
CONTINUOUS
 70
0
 71
3
 72
10
 73
6
 74
4
 42
0.0000001
 43
0.0000001
 44
0.0000000001
 12
0.0016366986
 22
0.0226481837
 32
0.0
 13
0.0052786708
 23
0.0220851679
 33
0.0
 40
0.0
 40
0.0
 40
0.0
 40
0.0
 40
0.6298067199
 40
0.847493088
 40
1.0
 40
1.0
 40
1.0
 40
1.0
 10
44.1052245419
 20
17.7897556113
 30
0.0
 10
44.1055681432
 20
17.7945102708
 30
0.0
 10
44.1060679751
 20
17.8009089615
 30
0.0
 10
44.1069823688
 20
17.8084217906
 30
0.0
 10
44.1074460569
 20
17.8111894645
 30
0.0
 10
44.1077144015
 20
17.812312178
 30
0.0
 11
44.1052245419
 21
17.7897556113
 31
0.0
 11
44.1064629662
 21
17.8040030651
 31
0.0
 11
44.1070852557
 21
17.808906796
 31
0.0
 11
44.1077144015
 21
17.812312178
 31
0.0
  0
LINE
  5
402
100
AcDbEntity
  8
0
100
AcDbLine
 62
7
  6
CONTINUOUS
 10
44.1077144015
 20
17.812312178
 11
44.1083455373
 21
17.8141904655
  0
SPLINE
  5
403
100
AcDbEntity
  8
0
100
AcDbSpline
 62
7
  6
CONTINUOUS
 70
0
 71
3
 72
10
 73
6
 74
4
 42
0.0000001
 43
0.0000001
 44
0.0000000001
 12
-0.0031780495
 22
-0.0000053703
 32
0.0
 13
-0.0006943883
 23
0.0031012662
 33
0.0
 40
0.0
 40
0.0
 40
0.0
 40
0.0
 40
0.1133428447
 40
0.307652245
 40
1.0
 40
1.0
 40
1.0
 40
1.0
 10
3.1488487964
 20
16.8699968713
 30
0.0
 10
3.1487287267
 20
16.8699966684
 30
0.0
 10
3.1484384886
 20
16.8702273862
 30
0.0
 10
3.1479931399
 20
16.8711750265
 30
0.0
 10
3.1477565398
 20
16.872100768
 30
0.0
 10
3.1475962871
 20
16.8728164863
 30
0.0
 11
3.1488487964
 21
16.8699968713
 31
0.0
 11
3.1485356691
 21
16.8701749226
 31
0.0
 11
3.1482225418
 21
16.870707172
 31
0.0
 11
3.1475962871
 21
16.8728164863
 31
0.0
  0
SPLINE
  5
404
100
AcDbEntity
  8
0
100
AcDbSpline
 62
7
  6
CONTINUOUS
 70
0
 71
3
 72
11
 73
7
 74
5
 42
0.0000001
 43
0.0000001
 44
0.0000000001
 12
-0.0087311866
 22
0.0389950922
 32
0.0
 13
-0.0024236607
 23
0.0398870493
 33
0.0
 40
0.0
 40
0.0
 40
0.0
 40
0.0
 40
0.1439748952
 40
0.3604192457
 40
0.6467055871
 40
1.0
 40
1.0
 40
1.0
 40
1.0
 10
3.1475962871
 20
16.8728164863
 30
0.0
 10
3.1471772632
 20
16.8746879244
 30
0.0
 10
3.1464947455
 20
16.8794484605
 30
0.0
 10
3.1455981104
 20
16.8880133583
 30
0.0
 10
3.1446966709
 20
16.8993823842
 30
0.0
 10
3.1441411624
 20
16.9078833157
 30
0.0
 10
3.1438557405
 20
16.9125806063
 30
0.0
 11
3.1475962871
 21
16.8728164863
 31
0.0
 11
3.1466611505
 21
16.8784933053
 31
0.0
 11
3.1457260138
 21
16.8870918539
 31
0.0
 11
3.1447908772
 21
16.8984937487
 31
0.0
 11
3.1438557405
 21
16.9125806063
 31
0.0
  0
SPLINE
  5
405
100
AcDbEntity
  8
0
100
AcDbSpline
 62
7
  6
CONTINUOUS
 70
0
 71
3
 72
16
 73
12
 74
10
 42
0.0000001
 43
0.0000001
 44
0.0000000001
 12
-0.0496842979
 22
0.8176722307
 32
0.0
 13
-0.0580341541
 23
0.8171220492
 33
0.0
 40
0.0
 40
0.0
 40
0.0
 40
0.0
 40
0.0856091581
 40
0.204300406
 40
0.348983866
 40
0.5076173547
 40
0.6657554844
 40
0.8089370888
 40
0.9230581684
 40
0.9663814589
 40
1.0
 40
1.0
 40
1.0
 40
1.0
 10
3.1438557405
 20
16.9125806063
 30
0.0
 10
3.1424379302
 20
16.9359140167
 30
0.0
 10
3.1400509701
 20
16.9916546164
 30
0.0
 10
3.1368835701
 20
17.0868942103
 30
0.0
 10
3.1337385135
 20
17.2020859831
 30
0.0
 10
3.1305610727
 20
17.3280505597
 30
0.0
 10
3.1273894965
 20
17.4536056622
 30
0.0
 10
3.1242535986
 20
17.5670022327
 30
0.0
 10
3.1215060262
 20
17.6490475332
 30
0.0
 10
3.1191217971
 20
17.7011650253
 30
0.0
 10
3.1179083779
 20
17.722141111
 30
0.0
 10
3.1172580367
 20
17.7312979281
 30
0.0
 11
3.1438557405
 21
16.9125806063
 31
0.0
 11
3.1405310275
 21
16.9826310904
 31
0.0
 11
3.1372063145
 21
17.0798037656
 31
0.0
 11
3.1338816016
 21
17.1982789688
 31
0.0
 11
3.1305568886
 21
17.328185864
 31
0.0
 11
3.1272321756
 21
17.4576868374
 31
0.0
 11
3.1239074626
 21
17.5749312607
 31
0.0
 11
3.1205827497
 21
17.6683578654
 31
0.0
 11
3.1189203932
 21
17.7038084982
 31
0.0
 11
3.1172580367
 21
17.7312979281
 31
0.0
  0
SPLINE
  5
406
100
AcDbEntity
  8
0
100
AcDbSpline
 62
7
  6
CONTINUOUS
 70
0
 71
3
 72
10
 73
6
 74
4
 42
0.0000001
 43
0.0000001
 44
0.0000000001
 12
-0.0020726906
 22
0.0291835255
 32
0.0
 13
-0.0065105213
 23
0.0285234521
 33
0.0
 40
0.0
 40
0.0
 40
0.0
 40
0.0
 40
0.6288829998
 40
0.84707217
 40
1.0
 40
1.0
 40
1.0
 40
1.0
 10
3.1172580367
 20
17.7312979281
 30
0.0
 10
3.1168235434
 20
17.7374156024
 30
0.0
 10
3.1161872823
 20
17.7456560634
 30
0.0
 10
3.1150371641
 20
17.7553394588
 30
0.0
 10
3.1144588676
 20
17.7589170541
 30
0.0
 10
3.1141269877
 20
17.760371064
 30
0.0
 11
3.1172580367
 21
17.7312979281
 31
0.0
 11
3.1156925122
 21
17.7496304578
 31
0.0
 11
3.1149097499
 21
17.7559658529
 31
0.0
 11
3.1141269877
 21
17.760371064
 31
0.0
  0
LINE
  5
407
100
AcDbEntity
  8
0
100
AcDbLine
 62
7
  6
CONTINUOUS
 10
3.1141269877
 20
17.760371064
 11
3.1135164798
 21
17.7624463661
  0
SPLINE
  5
408
100
AcDbEntity
  8
0
100
AcDbSpline
 62
7
  6
CONTINUOUS
 70
0
 71
3
 72
12
 73
8
 74
6
 42
0.0000001
 43
0.0000001
 44
0.0000000001
 12
0.0113602675
 22
-0.0196422869
 32
0.0
 13
0.0017551022
 23
-0.0226228807
 33
0.0
 40
0.0
 40
0.0
 40
0.0
 40
0.0
 40
0.0443479386
 40
0.1111908117
 40
0.3141927061
 40
0.6104348153
 40
1.0
 40
1.0
 40
1.0
 40
1.0
 10
3.0206240193
 20
17.8006889208
 30
0.0
 10
3.0207919541
 20
17.8003985558
 30
0.0
 10
3.0210781437
 20
17.7995990783
 30
0.0
 10
3.0216479056
 20
17.7972947136
 30
0.0
 10
3.0222838913
 20
17.7930508394
 30
0.0
 10
3.0230238166
 20
17.7863721586
 30
0.0
 10
3.0234583093
 20
17.7812015043
 30
0.0
 10
3.0236862182
 20
17.7782638088
 30
0.0
 11
3.0206240193
 21
17.8006889208
 31
0.0
 11
3.0210067942
 21
17.7997582712
 31
0.0
 11
3.021389569
 21
17.7982906439
 31
0.0
 11
3.0221551187
 21
17.7937484178
 31
0.0
 11
3.0229206684
 21
17.7870701652
 31
0.0
 11
3.0236862182
 21
17.7782638088
 31
0.0
  0
LINE
  5
409
100
AcDbEntity
  8
0
100
AcDbLine
 62
7
  6
CONTINUOUS
 10
3.0244404942
 20
17.7675136656
 11
3.0245640855
 21
17.7655570737
  0
SPLINE
  5
40A
100
AcDbEntity
  8
0
100
AcDbSpline
 62
7
  6
CONTINUOUS
 70
0
 71
3
 72
17
 73
13
 74
11
 42
0.0000001
 43
0.0000001
 44
0.0000000001
 12
0.0554196232
 22
-0.889533648
 32
0.0
 13
0.0522607466
 23
-0.8897248226
 33
0.0
 40
0.0
 40
0.0
 40
0.0
 40
0.0
 40
0.0353931525
 40
0.0807486307
 40
0.1970750791
 40
0.3396590504
 40
0.4960299318
 40
0.6529238686
 40
0.797171731
 40
0.9160584969
 40
0.9629080623
 40
1.0
 40
1.0
 40
1.0
 40
1.0
 10
3.0245640855
 20
17.7655570737
 30
0.0
 10
3.0252179106
 20
17.755062607
 30
0.0
 10
3.0264255345
 20
17.7311024555
 30
0.0
 10
3.0287802211
 20
17.6726014045
 30
0.0
 10
3.0315416549
 20
17.5822487292
 30
0.0
 10
3.0347065003
 20
17.4589152391
 30
0.0
 10
3.0378956303
 20
17.3235263367
 30
0.0
 10
3.0410880572
 20
17.1876430925
 30
0.0
 10
3.0442546013
 20
17.0628987982
 30
0.0
 10
3.04701484
 20
16.9708467021
 30
0.0
 10
3.049365804
 20
16.9106349248
 30
0.0
 10
3.0505708587
 20
16.8857251658
 30
0.0
 10
3.0512170094
 20
16.8747246265
 30
0.0
 11
3.0245640855
 21
17.7655570737
 31
0.0
 11
3.0262298933
 21
17.7340566459
 31
0.0
 11
3.027895701
 21
17.6936675349
 31
0.0
 11
3.0312273165
 21
17.5900441604
 31
0.0
 11
3.034558932
 21
17.4630086852
 31
0.0
 11
3.0378905475
 21
17.323681659
 31
0.0
 11
3.041222163
 21
17.1838883224
 31
0.0
 11
3.0445537785
 21
17.0553693864
 31
0.0
 11
3.047885394
 21
16.9494629539
 31
0.0
 11
3.0495512017
 21
16.9077411293
 31
0.0
 11
3.0512170094
 21
16.8747246265
 31
0.0
  0
LINE
  5
40B
100
AcDbEntity
  8
0
100
AcDbLine
 62
7
  6
CONTINUOUS
 10
3.0512170094
 20
16.8747246265
 11
3.052292165
 21
16.8584643595
  0
SPLINE
  5
40C
100
AcDbEntity
  8
0
100
AcDbSpline
 62
7
  6
CONTINUOUS
 70
0
 71
3
 72
12
 73
8
 74
6
 42
0.0000001
 43
0.0000001
 44
0.0000000001
 12
0.001775509
 22
-0.0234103291
 32
0.0
 13
0.0111256568
 23
-0.0206740345
 33
0.0
 40
0.0
 40
0.0
 40
0.0
 40
0.0
 40
0.3881216916
 40
0.6837704596
 40
0.887232684
 40
0.9547376048
 40
1.0
 40
1.0
 40
1.0
 40
1.0
 10
3.052292165
 20
16.8584643595
 30
0.0
 10
3.0525218695
 20
16.855435674
 30
0.0
 10
3.0529602165
 20
16.8501010407
 30
0.0
 10
3.0537059174
 20
16.8432004666
 30
0.0
 10
3.0543481059
 20
16.8388042248
 30
0.0
 10
3.0549212859
 20
16.836398886
 30
0.0
 10
3.055209362
 20
16.8355571468
 30
0.0
 10
3.05537722
 20
16.835245228
 30
0.0
 11
3.052292165
 21
16.8584643595
 31
0.0
 11
3.0530634287
 21
16.8493849073
 31
0.0
 11
3.0538346925
 21
16.8424867775
 31
0.0
 11
3.0546059562
 21
16.8377726559
 31
0.0
 11
3.0549915881
 21
16.8362354374
 31
0.0
 11
3.05537722
 21
16.835245228
 31
0.0
  0
SPLINE
  5
40D
100
AcDbEntity
  8
0
100
AcDbSpline
 62
7
  6
CONTINUOUS
 70
0
 71
3
 72
14
 73
10
 74
8
 42
0.0000001
 43
0.0000001
 44
0.0000000001
 12
0.0254747369
 22
0.000793228
 32
0.0
 13
0.0018917245
 23
0.025416782
 33
0.0
 40
0.0
 40
0.0
 40
0.0
 40
0.0
 40
0.0242779702
 40
0.0745867366
 40
0.1542466497
 40
0.2637743301
 40
0.4032223704
 40
0.5725068339
 40
1.0
 40
1.0
 40
1.0
 40
1.0
 10
44.7159998053
 20
16.841255815
 30
0.0
 10
44.7162059636
 20
16.8412622343
 30
0.0
 10
44.716645545
 20
16.8418908184
 30
0.0
 10
44.71700092
 20
16.8430695719
 30
0.0
 10
44.7174673032
 20
16.8450945635
 30
0.0
 10
44.7178985329
 20
16.8478363814
 30
0.0
 10
44.7183536605
 20
16.8513674393
 30
0.0
 10
44.719006897
 20
16.8575852287
 30
0.0
 10
44.7194183574
 20
16.8626406
 30
0.0
 10
44.7196879238
 20
16.8662624335
 30
0.0
 11
44.7159998053
 21
16.841255815
 31
0.0
 11
44.7164637641
 21
16.8416652345
 31
0.0
 11
44.7169263526
 21
16.8428611064
 31
0.0
 11
44.7173878355
 21
16.8448382627
 31
0.0
 11
44.7178484772
 21
16.8475915355
 31
0.0
 11
44.7183085424
 21
16.8511157569
 31
0.0
 11
44.7187682955
 21
16.855405759
 31
0.0
 11
44.7196879238
 21
16.8662624335
 31
0.0
  0
SPLINE
  5
40E
100
AcDbEntity
  8
0
100
AcDbSpline
 62
7
  6
CONTINUOUS
 70
0
 71
3
 72
12
 73
8
 74
6
 42
0.0000001
 43
0.0000001
 44
0.0000000001
 12
0.0276628627
 22
0.4609630088
 32
0.0
 13
0.0110254167
 23
0.461660665
 33
0.0
 40
0.0
 40
0.0
 40
0.0
 40
0.0
 40
0.0728390126
 40
0.1657185219
 40
0.4027679524
 40
0.689577151
 40
1.0
 40
1.0
 40
1.0
 40
1.0
 10
44.7206270759
 20
16.8804074687
 30
0.0
 10
44.7212987211
 20
16.8915994989
 30
0.0
 10
44.7225507859
 20
16.917079101
 30
0.0
 10
44.7249835877
 20
16.9790299546
 30
0.0
 10
44.7278227877
 20
17.0739240341
 30
0.0
 10
44.7311021341
 20
17.2023034907
 30
0.0
 10
44.7332770459
 20
17.2942102551
 30
0.0
 10
44.7344178929
 20
17.3419802614
 30
0.0
 11
44.7206270759
 21
16.8804074687
 31
0.0
 11
44.7223508642
 21
16.913999765
 31
0.0
 11
44.7240752081
 21
16.9568561315
 31
0.0
 11
44.7275215427
 21
17.0662694701
 31
0.0
 11
44.7309694971
 21
17.1986708623
 31
0.0
 11
44.7344178929
 21
17.3419802614
 31
0.0
  0
LINE
  5
40F
100
AcDbEntity
  8
0
100
AcDbLine
 62
7
  6
CONTINUOUS
 10
44.7344178929
 20
17.3419802614
 11
44.7373955488
 21
17.4644190693
  0
LINE
  5
410
100
AcDbEntity
  8
0
100
AcDbLine
 62
7
  6
CONTINUOUS
 10
44.7373955488
 20
17.4644190693
 11
44.7381014269
 21
17.4922827419
  0
SPLINE
  5
411
100
AcDbEntity
  8
0
100
AcDbSpline
 62
7
  6
CONTINUOUS
 70
0
 71
3
 72
9
 73
5
 74
3
 42
0.0000001
 43
0.0000001
 44
0.0000000001
 12
0.0031469877
 22
0.1010278138
 32
0.0
 13
0.0046402127
 23
0.1009702487
 33
0.0
 40
0.0
 40
0.0
 40
0.0
 40
0.0
 40
0.2847915666
 40
1.0
 40
1.0
 40
1.0
 40
1.0
 10
44.7417818296
 20
17.6243470099
 30
0.0
 10
44.7420805748
 20
17.633937633
 30
0.0
 10
44.743168093
 20
17.6676122021
 30
0.0
 10
44.7443933296
 20
17.701283432
 30
0.0
 10
44.7454995694
 20
17.7253550232
 30
0.0
 11
44.7417818296
 21
17.6243470099
 31
0.0
 11
44.7427111767
 21
17.6531178287
 31
0.0
 11
44.7454995694
 21
17.7253550232
 31
0.0
  0
SPLINE
  5
412
100
AcDbEntity
  8
0
100
AcDbSpline
 62
7
  6
CONTINUOUS
 70
0
 71
3
 72
10
 73
6
 74
4
 42
0.0000001
 43
0.0000001
 44
0.0000000001
 12
0.0028180904
 22
0.0613211725
 32
0.0
 13
0.0079634099
 23
0.0608671663
 33
0.0
 40
0.0
 40
0.0
 40
0.0
 40
0.0
 40
0.6180654071
 40
0.8395799339
 40
1.0
 40
1.0
 40
1.0
 40
1.0
 10
44.7454995694
 20
17.7253550232
 30
0.0
 10
44.7460801574
 20
17.7379885217
 30
0.0
 10
44.7469366431
 20
17.7551491611
 30
0.0
 10
44.7484327949
 20
17.7755561174
 30
0.0
 10
44.7491907264
 20
17.7833372991
 30
0.0
 10
44.7496165567
 20
17.7865920707
 30
0.0
 11
44.7454995694
 21
17.7253550232
 31
0.0
 11
44.7475577638
 21
17.7632396524
 31
0.0
 11
44.7485869356
 21
17.7767985164
 31
0.0
 11
44.7496165567
 21
17.7865920707
 31
0.0
  0
SPLINE
  5
413
100
AcDbEntity
  8
0
100
AcDbSpline
 62
7
  6
CONTINUOUS
 70
0
 71
3
 72
10
 73
6
 74
4
 42
0.0000001
 43
0.0000001
 44
0.0000000001
 12
0.0010106925
 22
0.0077250813
 32
0.0
 13
0.0039045852
 23
0.006741854
 33
0.0
 40
0.0
 40
0.0
 40
0.0
 40
0.0
 40
0.6496472614
 40
0.8615046035
 40
1.0
 40
1.0
 40
1.0
 40
1.0
 10
44.7496165567
 20
17.7865920707
 30
0.0
 10
44.7498354212
 20
17.7882649301
 30
0.0
 10
44.7501491788
 20
17.7904873045
 30
0.0
 10
44.7507544779
 20
17.793008788
 30
0.0
 10
44.7510568604
 20
17.7938770061
 30
0.0
 10
44.7512371161
 20
17.7941882447
 30
0.0
 11
44.7496165567
 21
17.7865920707
 31
0.0
 11
44.7504267338
 21
17.7915881545
 31
0.0
 11
44.7508319081
 21
17.7931882144
 31
0.0
 11
44.7512371161
 21
17.7941882447
 31
0.0
  0
LINE
  5
414
100
AcDbEntity
  8
0
100
AcDbLine
 62
7
  6
CONTINUOUS
 10
44.4004655636
 20
16.870815793
 11
44.4009228551
 21
16.8722606879
  0
SPLINE
  5
415
100
AcDbEntity
  8
0
100
AcDbSpline
 62
7
  6
CONTINUOUS
 70
0
 71
3
 72
11
 73
7
 74
5
 42
0.0000001
 43
0.0000001
 44
0.0000000001
 12
0.0095023038
 22
0.0382200079
 32
0.0
 13
0.0024534205
 23
0.0393070415
 33
0.0
 40
0.0
 40
0.0
 40
0.0
 40
0.0
 40
0.1392091732
 40
0.3545851973
 40
0.6425908892
 40
1.0
 40
1.0
 40
1.0
 40
1.0
 10
44.4009228551
 20
16.8722606879
 30
0.0
 10
44.4013637911
 20
16.8740342131
 30
0.0
 10
44.4020031973
 20
16.8786582157
 30
0.0
 10
44.4029485928
 20
16.8870346171
 30
0.0
 10
44.403851429
 20
16.8983032411
 30
0.0
 10
44.4044324087
 20
16.9067552614
 30
0.0
 10
44.4047247003
 20
16.9114381597
 30
0.0
 11
44.4009228551
 21
16.8722606879
 31
0.0
 11
44.401847703
 21
16.8776646681
 31
0.0
 11
44.4028028158
 21
16.8860929923
 31
0.0
 11
44.4037595275
 21
16.8973952549
 31
0.0
 11
44.4047247003
 21
16.9114381597
 31
0.0
  0
SPLINE
  5
416
100
AcDbEntity
  8
0
100
AcDbSpline
 62
7
  6
CONTINUOUS
 70
0
 71
3
 72
34
 73
30
 74
28
 42
0.0000001
 43
0.0000001
 44
0.0000000001
 12
0.0530884416
 22
0.8505470585
 32
0.0
 13
0.4212739764
 23
0.7407947882
 33
0.0
 40
0.0
 40
0.0
 40
0.0
 40
0.0
 40
0.0422085969
 40
0.0958982938
 40
0.1602934783
 40
0.2343586893
 40
0.3160777154
 40
0.3588201026
 40
0.4023262586
 40
0.4462780361
 40
0.4903856968
 40
0.5780048818
 40
0.6630871931
 40
0.7039808093
 40
0.7433545941
 40
0.7808480328
 40
0.816062613
 40
0.8485766255
 40
0.8781073853
 40
0.9045443016
 40
0.9278295379
 40
0.9479330425
 40
0.9648383595
 40
0.9785225176
 40
0.9889653167
 40
0.9929605986
 40
0.996130684
 40
0.9984726984
 40
1.0
 40
1.0
 40
1.0
 40
1.0
 10
44.4047247003
 20
16.9114381597
 30
0.0
 10
44.4054716298
 20
16.923404959
 30
0.0
 10
44.4068625991
 20
16.9506124729
 30
0.0
 10
44.4086732386
 20
16.996110711
 30
0.0
 10
44.4106102959
 20
17.0506601936
 30
0.0
 10
44.4124582437
 20
17.1131789136
 30
0.0
 10
44.413995359
 20
17.1695529098
 30
0.0
 10
44.4152284338
 20
17.217251091
 30
0.0
 10
44.4162406726
 20
17.2542229429
 30
0.0
 10
44.4171313245
 20
17.2915858719
 30
0.0
 10
44.4184311399
 20
17.3414735244
 30
0.0
 10
44.4199752684
 20
17.4030425846
 30
0.0
 10
44.4215909751
 20
17.4636965249
 30
0.0
 10
44.4228979602
 20
17.5106487844
 30
0.0
 10
44.4237862686
 20
17.544089078
 30
0.0
 10
44.4247943351
 20
17.575911979
 30
0.0
 10
44.425728703
 20
17.6057874898
 30
0.0
 10
44.4266665787
 20
17.6333999128
 30
0.0
 10
44.4276581277
 20
17.6585151196
 30
0.0
 10
44.4285601787
 20
17.6810103625
 30
0.0
 10
44.4295237752
 20
17.7008222429
 30
0.0
 10
44.4304523049
 20
17.7179250032
 30
0.0
 10
44.4314480944
 20
17.7322912235
 30
0.0
 10
44.4323363649
 20
17.7439130321
 30
0.0
 10
44.4331629619
 20
17.7518619074
 30
0.0
 10
44.4338626385
 20
17.7568139406
 30
0.0
 10
44.4343253434
 20
17.7594779233
 30
0.0
 10
44.4347692424
 20
17.7614231606
 30
0.0
 10
44.4351151753
 20
17.7624795445
 30
0.0
 10
44.4353296461
 20
17.7628566835
 30
0.0
 11
44.4047247003
 21
16.9114381597
 31
0.0
 11
44.4066364571
 21
16.9473575819
 31
0.0
 11
44.4085226567
 21
16.9930731673
 31
0.0
 11
44.4104622577
 21
17.0479166013
 31
0.0
 11
44.4123711067
 21
17.1110062705
 31
0.0
 11
44.4142755993
 21
17.1806213625
 31
0.0
 11
44.4152320055
 21
17.217033963
 31
0.0
 11
44.4162154613
 21
17.2540969617
 31
0.0
 11
44.4171440716
 21
17.2915412526
 31
0.0
 11
44.4181051182
 21
17.3291176126
 31
0.0
 11
44.4200129969
 21
17.4037625014
 31
0.0
 11
44.4219447726
 21
17.4762441007
 31
0.0
 11
44.4229024516
 21
17.5110805714
 31
0.0
 11
44.4238297111
 21
17.5446221849
 31
0.0
 11
44.4248126259
 21
17.576559056
 31
0.0
 11
44.4257666554
 21
17.6065538322
 31
0.0
 11
44.4267219816
 21
17.6342458734
 31
0.0
 11
44.4276955353
 21
17.6593932154
 31
0.0
 11
44.4286300406
 21
17.6819034255
 31
0.0
 11
44.4295876773
 21
17.7017240357
 31
0.0
 11
44.4305478979
 21
17.7188293575
 31
0.0
 11
44.4315300974
 21
17.7332025863
 31
0.0
 11
44.4324666446
 21
17.7448265888
 31
0.0
 11
44.4334305947
 21
17.7536736059
 31
0.0
 11
44.4339153264
 21
17.7570437124
 31
0.0
 11
44.4343918815
 21
17.7597029019
 31
0.0
 11
44.4348579634
 21
17.7616435885
 31
0.0
 11
44.4353296461
 21
17.7628566835
 31
0.0
  0
SPLINE
  5
417
100
AcDbEntity
  8
0
100
AcDbSpline
 62
7
  6
CONTINUOUS
 70
0
 71
3
 72
9
 73
5
 74
3
 42
0.0000001
 43
0.0000001
 44
0.0000000001
 12
0.0026298535
 22
-0.1160607769
 32
0.0
 13
0.0045227921
 23
-0.1160024328
 33
0.0
 40
0.0
 40
0.0
 40
0.0
 40
0.0
 40
0.270161969
 40
1.0
 40
1.0
 40
1.0
 40
1.0
 10
2.7787901475
 20
17.1275337492
 30
0.0
 10
2.7790269763
 20
17.1170820132
 30
0.0
 10
2.7800218439
 20
17.0783977058
 30
0.0
 10
2.7814034971
 20
17.0397244712
 30
0.0
 10
2.782503799
 20
17.0115034755
 30
0.0
 11
2.7787901475
 21
17.1275337492
 31
0.0
 11
2.7795927576
 21
17.0961807641
 31
0.0
 11
2.782503799
 21
17.0115034755
 31
0.0
  0
SPLINE
  5
418
100
AcDbEntity
  8
0
100
AcDbSpline
 62
7
  6
CONTINUOUS
 70
0
 71
3
 72
18
 73
14
 74
12
 42
0.0000001
 43
0.0000001
 44
0.0000000001
 12
0.0050694225
 22
-0.1300226328
 32
0.0
 13
0.1300392201
 23
-0.0046244272
 33
0.0
 40
0.0
 40
0.0
 40
0.0
 40
0.0
 40
0.2278583302
 40
0.4274634395
 40
0.5981189593
 40
0.7391584873
 40
0.8501112618
 40
0.8941955506
 40
0.9306336778
 40
0.9594000961
 40
0.9804704006
 40
0.9938079352
 40
1.0
 40
1.0
 40
1.0
 40
1.0
 10
2.782503799
 20
17.0115034755
 30
0.0
 10
2.7828888357
 20
17.0016278955
 30
0.0
 10
2.7836287675
 20
16.9831018695
 30
0.0
 10
2.784761176
 20
16.9571840128
 30
0.0
 10
2.785866006
 20
16.9350337017
 30
0.0
 10
2.7869716457
 20
16.9167363502
 30
0.0
 10
2.7879510102
 20
16.9039272206
 30
0.0
 10
2.7887650785
 20
16.8956669937
 30
0.0
 10
2.7893330153
 20
16.8909492346
 30
0.0
 10
2.7898721245
 20
16.8872752873
 30
0.0
 10
2.790449681
 20
16.8845224023
 30
0.0
 10
2.790888291
 20
16.8829565237
 30
0.0
 10
2.7914200615
 20
16.8820554454
 30
0.0
 10
2.7916884652
 20
16.8820459005
 30
0.0
 11
2.782503799
 21
17.0115034755
 31
0.0
 11
2.7836973862
 21
16.9818782607
 31
0.0
 11
2.7848447748
 21
16.9559307164
 31
0.0
 11
2.7859725288
 21
16.9337534334
 31
0.0
 11
2.7871049645
 21
16.9154361417
 31
0.0
 11
2.7882471357
 21
16.9010440599
 31
0.0
 11
2.7888203968
 21
16.8953364661
 31
0.0
 11
2.7893943057
 21
16.8906299471
 31
0.0
 11
2.7899682608
 21
16.8869310855
 31
0.0
 11
2.7905418071
 21
16.8842500498
 31
0.0
 11
2.7911151026
 21
16.8826119751
 31
0.0
 11
2.7916884652
 21
16.8820459005
 31
0.0
  0
SPLINE
  5
419
100
AcDbEntity
  8
0
100
AcDbSpline
 62
7
  6
CONTINUOUS
 70
0
 71
3
 72
13
 73
9
 74
7
 42
0.0000001
 43
0.0000001
 44
0.0000000001
 12
-0.0150907325
 22
0.0300996433
 32
0.0
 13
-0.0022125949
 23
0.0335979636
 33
0.0
 40
0.0
 40
0.0
 40
0.0
 40
0.0
 40
0.0430974773
 40
0.1102746614
 40
0.2014218065
 40
0.3161263224
 40
0.6141504082
 40
1.0
 40
1.0
 40
1.0
 40
1.0
 10
3.2196171713
 20
16.8676761287
 30
0.0
 10
3.2194003805
 20
16.8681085349
 30
0.0
 10
3.2190519432
 20
16.8693079832
 30
0.0
 10
3.2185992472
 20
16.8715187006
 30
0.0
 10
3.2181436199
 20
16.8745521781
 30
0.0
 10
3.2174638754
 20
16.8801656868
 30
0.0
 10
3.2166591063
 20
16.8890947924
 30
0.0
 10
3.2161115225
 20
16.89675052
 30
0.0
 10
3.2158269462
 20
16.9010717735
 30
0.0
 11
3.2196171713
 21
16.8676761287
 31
0.0
 11
3.2191433932
 21
16.8690477318
 31
0.0
 11
3.2186696151
 21
16.871259462
 31
0.0
 11
3.2181958369
 21
16.8742916634
 31
0.0
 11
3.2177220588
 21
16.8781246798
 31
0.0
 11
3.2167745025
 21
16.8881145332
 31
0.0
 11
3.2158269462
 21
16.9010717735
 31
0.0
  0
SPLINE
  5
41A
100
AcDbEntity
  8
0
100
AcDbSpline
 62
7
  6
CONTINUOUS
 70
0
 71
3
 72
17
 73
13
 74
11
 42
0.0000001
 43
0.0000001
 44
0.0000000001
 12
-0.0541837929
 22
0.8227737768
 32
0.0
 13
-0.0519382878
 23
0.8229185777
 33
0.0
 40
0.0
 40
0.0
 40
0.0
 40
0.0
 40
0.035608747
 40
0.0806059013
 40
0.194703954
 40
0.334154277
 40
0.4894670804
 40
0.6474179771
 40
0.7941369512
 40
0.9157566526
 40
0.9629659634
 40
1.0
 40
1.0
 40
1.0
 40
1.0
 10
3.2158269462
 20
16.9010717735
 30
0.0
 10
3.2151838072
 20
16.9108377546
 30
0.0
 10
3.2139854348
 20
16.9329611799
 30
0.0
 10
3.2116489082
 20
16.9864251217
 30
0.0
 10
3.2088901147
 20
17.0684362015
 30
0.0
 10
3.2057107401
 20
17.1807674067
 30
0.0
 10
3.2025459629
 20
17.3051566373
 30
0.0
 10
3.1993771313
 20
17.431544168
 30
0.0
 10
3.1962259305
 20
17.5486680266
 30
0.0
 10
3.1935176355
 20
17.6353563443
 30
0.0
 10
3.1911685168
 20
17.6918897844
 30
0.0
 10
3.1899586802
 20
17.7150137132
 30
0.0
 10
3.1893175187
 20
17.7251723787
 30
0.0
 11
3.2158269462
 21
16.9010717735
 31
0.0
 11
3.214170107
 21
16.9303863946
 31
0.0
 11
3.2125132678
 21
16.9674520556
 31
0.0
 11
3.2091995894
 21
17.0614739127
 31
0.0
 11
3.2058859109
 21
17.1764107535
 31
0.0
 11
3.2025722325
 21
17.3044319769
 31
0.0
 11
3.199258554
 21
17.4346291723
 31
0.0
 11
3.1959448756
 21
17.5555617898
 31
0.0
 11
3.1926311972
 21
17.6557892796
 31
0.0
 11
3.1909743579
 21
17.6946807233
 31
0.0
 11
3.1893175187
 21
17.7251723787
 31
0.0
  0
SPLINE
  5
41B
100
AcDbEntity
  8
0
100
AcDbSpline
 62
7
  6
CONTINUOUS
 70
0
 71
3
 72
11
 73
7
 74
5
 42
0.0000001
 43
0.0000001
 44
0.0000000001
 12
-0.0023775333
 22
0.0376700203
 32
0.0
 13
-0.0094105399
 23
0.0365530414
 33
0.0
 40
0.0
 40
0.0
 40
0.0
 40
0.0
 40
0.3617874036
 40
0.6492924084
 40
0.8620840663
 40
1.0
 40
1.0
 40
1.0
 40
1.0
 10
3.1893175187
 20
17.7251723787
 30
0.0
 10
3.1890307982
 20
17.729715225
 30
0.0
 10
3.1884735421
 20
17.7378649126
 30
0.0
 10
3.1875611337
 20
17.7486761008
 30
0.0
 10
3.186651252
 20
17.7566504026
 30
0.0
 10
3.1859578506
 20
17.7610192806
 30
0.0
 10
3.1855252294
 20
17.7626996962
 30
0.0
 11
3.1893175187
 21
17.7251723787
 31
0.0
 11
3.1883694464
 21
17.7387950844
 31
0.0
 11
3.1874213741
 21
17.74960546
 31
0.0
 11
3.1864733018
 21
17.7575811243
 31
0.0
 11
3.1855252294
 21
17.7626996962
 31
0.0
  0
LINE
  5
41C
100
AcDbEntity
  8
0
100
AcDbLine
 62
7
  6
CONTINUOUS
 10
3.1855252294
 20
17.7626996962
 11
3.1849138429
 21
17.7644747526
  0
SPLINE
  5
41D
100
AcDbEntity
  8
0
100
AcDbSpline
 62
7
  6
CONTINUOUS
 70
0
 71
3
 72
11
 73
7
 74
5
 42
0.0000001
 43
0.0000001
 44
0.0000000001
 12
0.0093446154
 22
-0.0370554363
 32
0.0
 13
0.0024319923
 23
-0.038138073
 33
0.0
 40
0.0
 40
0.0
 40
0.0
 40
0.0
 40
0.1387758364
 40
0.3533016206
 40
0.6411376198
 40
1.0
 40
1.0
 40
1.0
 40
1.0
 10
3.042437738
 20
17.7605679312
 30
0.0
 10
3.042870007
 20
17.7588537982
 30
0.0
 10
3.0435841541
 20
17.7543999288
 30
0.0
 10
3.0444943618
 20
17.7462866297
 30
0.0
 10
3.0454334147
 20
17.7353535541
 30
0.0
 10
3.0459953538
 20
17.7271350067
 30
0.0
 10
3.0462862707
 20
17.7225729001
 30
0.0
 11
3.042437738
 21
17.7605679312
 31
0.0
 11
3.0433982389
 21
17.7553522419
 31
0.0
 11
3.0443601173
 21
17.7472106471
 31
0.0
 11
3.0453276014
 21
17.73625347
 31
0.0
 11
3.0462862707
 21
17.7225729001
 31
0.0
  0
SPLINE
  5
41E
100
AcDbEntity
  8
0
100
AcDbSpline
 62
7
  6
CONTINUOUS
 70
0
 71
3
 72
29
 73
25
 74
23
 42
0.0000001
 43
0.0000001
 44
0.0000000001
 12
0.0540083889
 22
-0.8469499845
 32
0.0
 13
0.3303196229
 23
-0.7817481238
 33
0.0
 40
0.0
 40
0.0
 40
0.0
 40
0.0
 40
0.0413202479
 40
0.0664257095
 40
0.0944092824
 40
0.1586548795
 40
0.2328693403
 40
0.400097716
 40
0.4876986349
 40
0.5750239423
 40
0.6599409867
 40
0.7007469778
 40
0.7399853259
 40
0.812146191
 40
0.8443676576
 40
0.8737822669
 40
0.9002990616
 40
0.9238558114
 40
0.9444047576
 40
0.9618946102
 40
0.976273367
 40
0.9874704136
 40
0.9953999969
 40
1.0
 40
1.0
 40
1.0
 40
1.0
 10
3.0462862707
 20
17.7225729001
 30
0.0
 10
3.0470301507
 20
17.7109075057
 30
0.0
 10
3.0480415623
 20
17.6921422823
 30
0.0
 10
3.0491553699
 20
17.6654581126
 30
0.0
 10
3.0505608774
 20
17.632294964
 30
0.0
 10
3.0521305659
 20
17.5852352332
 30
0.0
 10
3.0547244594
 20
17.4987980406
 30
0.0
 10
3.0571401141
 20
17.405745843
 30
0.0
 10
3.0596334662
 20
17.3089858852
 30
0.0
 10
3.0615108831
 20
17.2355027432
 30
0.0
 10
3.0631356699
 20
17.1752554162
 30
0.0
 10
3.064339368
 20
17.1286049156
 30
0.0
 10
3.0656401359
 20
17.085567215
 30
0.0
 10
3.0668254482
 20
17.0449553605
 30
0.0
 10
3.0681967066
 20
17.0071303411
 30
0.0
 10
3.0690935555
 20
16.9822087861
 30
0.0
 10
3.070055064
 20
16.9597429322
 30
0.0
 10
3.0709831669
 20
16.9397856737
 30
0.0
 10
3.0719770167
 20
16.922389663
 30
0.0
 10
3.0728694152
 20
16.907586427
 30
0.0
 10
3.0738115559
 20
16.895443304
 30
0.0
 10
3.0747338286
 20
16.8859989047
 30
0.0
 10
3.0756005488
 20
16.8793638375
 30
0.0
 10
3.0762851514
 20
16.8758469467
 30
0.0
 10
3.0767916418
 20
16.8746482654
 30
0.0
 11
3.0462862707
 21
17.7225729001
 31
0.0
 11
3.0482003266
 21
17.6875579112
 31
0.0
 11
3.0491235635
 21
17.666271665
 31
0.0
 11
3.0501048753
 21
17.6425431222
 31
0.0
 11
3.0520083715
 21
17.5880530329
 31
0.0
 11
3.0539091013
 21
17.5250981151
 31
0.0
 11
3.0577187429
 21
17.3832275096
 31
0.0
 11
3.0596327538
 21
17.3089078588
 31
0.0
 11
3.061546045
 21
17.2348221706
 31
0.0
 11
3.0634531771
 21
17.1627808409
 31
0.0
 11
3.0643767955
 21
17.1281623293
 31
0.0
 11
3.0653547248
 21
17.0948762733
 31
0.0
 11
3.0672546294
 21
17.0336649723
 31
0.0
 11
3.06822421
 21
17.006336767
 31
0.0
 11
3.0691527763
 21
16.9813907393
 31
0.0
 11
3.0701055505
 21
16.9589069031
 31
0.0
 11
3.0710603558
 21
16.938937804
 31
0.0
 11
3.0720362519
 21
16.9215258516
 31
0.0
 11
3.0729689539
 21
16.9067120674
 31
0.0
 11
3.0739268289
 21
16.8945468973
 31
0.0
 11
3.0748827853
 21
16.8850925036
 31
0.0
 11
3.0758130567
 21
16.8784275107
 31
0.0
 11
3.0767916418
 21
16.8746482654
 31
0.0
  0
SPLINE
  5
41F
100
AcDbEntity
  8
0
100
AcDbSpline
 62
7
  6
CONTINUOUS
 70
0
 71
3
 72
14
 73
10
 74
8
 42
0.0000001
 43
0.0000001
 44
0.0000000001
 12
-0.0259903855
 22
-0.000006426
 32
0.0
 13
-0.0018945213
 23
0.0259212455
 33
0.0
 40
0.0
 40
0.0
 40
0.0
 40
0.0
 40
0.0232452772
 40
0.0724238274
 40
0.151638902
 40
0.2617870418
 40
0.4024257694
 40
0.5728512864
 40
1.0
 40
1.0
 40
1.0
 40
1.0
 10
3.2913860867
 20
16.8654326846
 30
0.0
 10
3.2911847022
 20
16.8654326348
 30
0.0
 10
3.2907405737
 20
16.8660566842
 30
0.0
 10
3.2903968434
 20
16.8672388635
 30
0.0
 10
3.2899305408
 20
16.8692991176
 30
0.0
 10
3.2895060955
 20
16.8721085518
 30
0.0
 10
3.2890532523
 20
16.8757368487
 30
0.0
 10
3.2884059808
 20
16.8820965126
 30
0.0
 10
3.2879947099
 20
16.8872592751
 30
0.0
 10
3.2877249624
 20
16.8909500173
 30
0.0
 11
3.2913860867
 21
16.8654326846
 31
0.0
 11
3.2909284462
 21
16.8658271042
 31
0.0
 11
3.2904708057
 21
16.8670205373
 31
0.0
 11
3.2900131651
 21
16.8690278608
 31
0.0
 11
3.2895555246
 21
16.871853838
 31
0.0
 11
3.2890978841
 21
16.8754803313
 31
0.0
 11
3.2886402435
 21
16.8798860516
 31
0.0
 11
3.2877249624
 21
16.8909500173
 31
0.0
  0
SPLINE
  5
420
100
AcDbEntity
  8
0
100
AcDbSpline
 62
7
  6
CONTINUOUS
 70
0
 71
3
 72
24
 73
20
 74
18
 42
0.0000001
 43
0.0000001
 44
0.0000000001
 12
-0.0637391895
 22
0.872093206
 32
0.0
 13
-0.2113673534
 23
0.8484887072
 33
0.0
 40
0.0
 40
0.0
 40
0.0
 40
0.0
 40
0.0368472111
 40
0.0861936049
 40
0.1462689351
 40
0.215298643
 40
0.373115788
 40
0.5446612631
 40
0.6299060748
 40
0.7115880351
 40
0.7872992175
 40
0.8546322322
 40
0.9111809144
 40
0.9346612198
 40
0.9546534978
 40
0.9711585114
 40
0.9841987134
 40
0.9938001062
 40
1.0
 40
1.0
 40
1.0
 40
1.0
 10
3.2877249624
 20
16.8909500173
 30
0.0
 10
3.286942092
 20
16.9016614181
 30
0.0
 10
3.2855557846
 20
16.9267488999
 30
0.0
 10
3.2837161429
 20
16.9693423655
 30
0.0
 10
3.281857116
 20
17.0213235195
 30
0.0
 10
3.2792358625
 20
17.1049125588
 30
0.0
 10
3.2760953444
 20
17.2209911752
 30
0.0
 10
3.2730678807
 20
17.3418000844
 30
0.0
 10
3.2705489904
 20
17.4404235086
 30
0.0
 10
3.2686668748
 20
17.511120912
 30
0.0
 10
3.2667927269
 20
17.5765958456
 30
0.0
 10
3.2649293931
 20
17.6347419983
 30
0.0
 10
3.2633173863
 20
17.6776644693
 30
0.0
 10
3.2619766151
 20
17.7067871895
 30
0.0
 10
3.2610345683
 20
17.7242442332
 30
0.0
 10
3.2600955405
 20
17.7386519826
 30
0.0
 10
3.2591747133
 20
17.7500280764
 30
0.0
 10
3.2582561868
 20
17.7583806163
 30
0.0
 10
3.2575552085
 20
17.7629436269
 30
0.0
 10
3.2571183901
 20
17.7646971402
 30
0.0
 11
3.2877249624
 21
16.8909500173
 31
0.0
 11
3.2858120517
 21
16.9231130973
 31
0.0
 11
3.2838991409
 21
16.9662201175
 31
0.0
 11
3.2819862301
 21
17.0187163095
 31
0.0
 11
3.2800733194
 21
17.0790469047
 31
0.0
 11
3.2762474978
 21
17.216992231
 31
0.0
 11
3.2724216763
 21
17.3669461214
 31
0.0
 11
3.2705087655
 21
17.4414612869
 31
0.0
 11
3.2685958547
 21
17.5128599549
 31
0.0
 11
3.266682944
 21
17.5790356377
 31
0.0
 11
3.2647700332
 21
17.6378818471
 31
0.0
 11
3.2628571224
 21
17.6872920953
 31
0.0
 11
3.261900667
 21
17.7078014392
 31
0.0
 11
3.2609442117
 21
17.72525689
 31
0.0
 11
3.2599877563
 21
17.7396574659
 31
0.0
 11
3.2590313009
 21
17.7510198864
 31
0.0
 11
3.2580748455
 21
17.7593608713
 31
0.0
 11
3.2571183901
 21
17.7646971402
 31
0.0
  0
LINE
  5
421
100
AcDbEntity
  8
0
100
AcDbLine
 62
7
  6
CONTINUOUS
 10
3.2568842898
 20
17.7655474259
 11
3.2562899044
 21
17.7669037672
  0
SPLINE
  5
422
100
AcDbEntity
  8
0
100
AcDbSpline
 62
7
  6
CONTINUOUS
 70
0
 71
3
 72
13
 73
9
 74
7
 42
0.0000001
 43
0.0000001
 44
0.0000000001
 12
-0.0233416079
 22
0.000726803
 32
0.0
 13
-0.0017859266
 23
-0.0232845306
 33
0.0
 40
0.0
 40
0.0
 40
0.0
 40
0.0
 40
0.0247247585
 40
0.0746414174
 40
0.1538467202
 40
0.2630324208
 40
0.5716378672
 40
1.0
 40
1.0
 40
1.0
 40
1.0
 10
44.6990901299
 20
17.7962457812
 30
0.0
 10
44.6988977581
 20
17.7962517712
 30
0.0
 10
44.6984469609
 20
17.7957131527
 30
0.0
 10
44.698108978
 20
17.7946269047
 30
0.0
 10
44.6976546538
 20
17.7927944711
 30
0.0
 10
44.6970341409
 20
17.7889918174
 30
0.0
 10
44.6962856835
 20
17.782432292
 30
0.0
 10
44.6958085666
 20
17.7767197916
 30
0.0
 10
44.6955535588
 20
17.7733950545
 30
0.0
 11
44.6990901299
 21
17.7962457812
 31
0.0
 11
44.6986305786
 21
17.795896213
 31
0.0
 11
44.6981789259
 21
17.7948215662
 31
0.0
 11
44.6977337197
 21
17.7930262697
 31
0.0
 11
44.6972935078
 21
17.7905147524
 31
0.0
 11
44.6964222579
 21
17.7833607714
 31
0.0
 11
44.6955535588
 21
17.7733950545
 31
0.0
  0
SPLINE
  5
423
100
AcDbEntity
  8
0
100
AcDbSpline
 62
7
  6
CONTINUOUS
 70
0
 71
3
 72
18
 73
14
 74
12
 42
0.0000001
 43
0.0000001
 44
0.0000000001
 12
-0.0556947529
 22
-0.8958318895
 32
0.0
 13
-0.0691142066
 23
-0.8948965897
 33
0.0
 40
0.0
 40
0.0
 40
0.0
 40
0.0
 40
0.0364842991
 40
0.0835250438
 40
0.2047203768
 40
0.3524283302
 40
0.5130635326
 40
0.6718491398
 40
0.8141907987
 40
0.875007977
 40
0.9270186285
 40
0.9689871556
 40
1.0
 40
1.0
 40
1.0
 40
1.0
 10
44.6946590153
 20
17.760357232
 30
0.0
 10
44.6939816873
 20
17.7494626325
 30
0.0
 10
44.6927177485
 20
17.7245037173
 30
0.0
 10
44.6902562977
 20
17.6633032369
 30
0.0
 10
44.6874007789
 20
17.5688181824
 30
0.0
 10
44.68412055
 20
17.440347948
 30
0.0
 10
44.6808131634
 20
17.3006279809
 30
0.0
 10
44.6775115764
 20
17.1625141689
 30
0.0
 10
44.6746640505
 20
17.0542619274
 30
0.0
 10
44.6722728199
 20
16.9779558995
 30
0.0
 10
44.6705934832
 20
16.9316726485
 30
0.0
 10
44.6689315293
 20
16.8943138352
 30
0.0
 10
44.6676681073
 20
16.87251262
 30
0.0
 10
44.6669536312
 20
16.8632615238
 30
0.0
 11
44.6946590153
 21
17.760357232
 31
0.0
 11
44.6929270399
 21
17.7276561631
 31
0.0
 11
44.6911871614
 21
17.6854700644
 31
0.0
 11
44.687716951
 21
17.5767451632
 31
0.0
 11
44.6842586395
 21
17.4442133014
 31
0.0
 11
44.6807944355
 21
17.3000749483
 31
0.0
 11
44.6773339417
 21
17.1575971155
 31
0.0
 11
44.6738726935
 21
17.0298836142
 31
0.0
 11
44.6721418559
 21
16.9753239026
 31
0.0
 11
44.6704140817
 21
16.9286731275
 31
0.0
 11
44.6686889558
 21
16.8910433158
 31
0.0
 11
44.6669536312
 21
16.8632615238
 31
0.0
  0
SPLINE
  5
424
100
AcDbEntity
  8
0
100
AcDbSpline
 62
7
  6
CONTINUOUS
 70
0
 71
3
 72
9
 73
5
 74
3
 42
0.0000001
 43
0.0000001
 44
0.0000000001
 12
-0.001465981
 22
-0.0189816465
 32
0.0
 13
-0.0031951017
 23
-0.0187681467
 33
0.0
 40
0.0
 40
0.0
 40
0.0
 40
0.0
 40
0.5933661995
 40
1.0
 40
1.0
 40
1.0
 40
1.0
 10
44.6669536312
 20
16.8632615238
 30
0.0
 10
44.6666636767
 20
16.859507168
 30
0.0
 10
44.6661167728
 20
16.8531855191
 30
0.0
 10
44.6653737275
 20
16.8468778415
 30
0.0
 10
44.6649406487
 20
16.8443339205
 30
0.0
 11
44.6669536312
 21
16.8632615238
 31
0.0
 11
44.66594559
 21
16.8520099815
 31
0.0
 11
44.6649406487
 21
16.8443339205
 31
0.0
  0
SPLINE
  5
425
100
AcDbEntity
  8
0
100
AcDbSpline
 62
7
  6
CONTINUOUS
 70
0
 71
3
 72
9
 73
5
 74
3
 42
0.0000001
 43
0.0000001
 44
0.0000000001
 12
-0.0007568416
 22
-0.0044457156
 32
0.0
 13
-0.0023003231
 23
-0.0038788799
 33
0.0
 40
0.0
 40
0.0
 40
0.0
 40
0.0
 40
0.6309238864
 40
1.0
 40
1.0
 40
1.0
 40
1.0
 10
44.6649406487
 20
16.8443339205
 30
0.0
 10
44.6647814789
 20
16.8433989511
 30
0.0
 10
44.6644874875
 20
16.841935192
 30
0.0
 10
44.6640807791
 20
16.8404600172
 30
0.0
 10
44.663797781
 20
16.8399828166
 30
0.0
 11
44.6649406487
 21
16.8443339205
 31
0.0
 11
44.6643656378
 21
16.8415473657
 31
0.0
 11
44.663797781
 21
16.8399828166
 31
0.0
  0
SPLINE
  5
426
100
AcDbEntity
  8
0
100
AcDbSpline
 62
7
  6
CONTINUOUS
 70
0
 71
3
 72
9
 73
5
 74
3
 42
0.0000001
 43
0.0000001
 44
0.0000000001
 12
0.0015182287
 22
-0.0000000559
 32
0.0
 13
0.000470045
 23
-0.001443633
 33
0.0
 40
0.0
 40
0.0
 40
0.0
 40
0.0
 40
0.3340728397
 40
1.0
 40
1.0
 40
1.0
 40
1.0
 10
2.907652856
 20
17.7597822665
 30
0.0
 10
2.9078219223
 20
17.7597822603
 30
0.0
 10
2.9082115673
 20
17.7593159572
 30
0.0
 10
2.9083516174
 20
17.758864998
 30
0.0
 10
2.908455956
 20
17.7585445465
 30
0.0
 11
2.907652856
 21
17.7597822665
 31
0.0
 11
2.908054406
 21
17.7594724143
 31
0.0
 11
2.908455956
 21
17.7585445465
 31
0.0
  0
SPLINE
  5
427
100
AcDbEntity
  8
0
100
AcDbSpline
 62
7
  6
CONTINUOUS
 70
0
 71
3
 72
11
 73
7
 74
5
 42
0.0000001
 43
0.0000001
 44
0.0000000001
 12
0.0115672004
 22
-0.0355259402
 32
0.0
 13
0.0023306502
 23
-0.0372888807
 33
0.0
 40
0.0
 40
0.0
 40
0.0
 40
0.0
 40
0.1255259222
 40
0.3366083597
 40
0.6294955136
 40
1.0
 40
1.0
 40
1.0
 40
1.0
 10
2.908455956
 20
17.7585445465
 30
0.0
 10
2.9089399505
 20
17.757058071
 30
0.0
 10
2.9095964396
 20
17.752891518
 30
0.0
 10
2.9105151105
 20
17.7451199024
 30
0.0
 10
2.9114106145
 20
17.7342577937
 30
0.0
 10
2.9119706841
 20
17.7260170507
 30
0.0
 10
2.9122585228
 20
17.7214118182
 30
0.0
 11
2.908455956
 21
17.7585445465
 31
0.0
 11
2.9094065977
 21
17.7539520504
 31
0.0
 11
2.9103572394
 21
17.746123169
 31
0.0
 11
2.9113078811
 21
17.7352217943
 31
0.0
 11
2.9122585228
 21
17.7214118182
 31
0.0
  0
SPLINE
  5
428
100
AcDbEntity
  8
0
100
AcDbSpline
 62
7
  6
CONTINUOUS
 70
0
 71
3
 72
17
 73
13
 74
11
 42
0.0000001
 43
0.0000001
 44
0.0000000001
 12
0.0504641482
 22
-0.8073933989
 32
0.0
 13
0.0560822608
 23
-0.807022621
 33
0.0
 40
0.0
 40
0.0
 40
0.0
 40
0.0
 40
0.0378115617
 40
0.0848513026
 40
0.2023359179
 40
0.3438809106
 40
0.4997697953
 40
0.6569016362
 40
0.8015473367
 40
0.9199809996
 40
0.9652064417
 40
1.0
 40
1.0
 40
1.0
 40
1.0
 10
2.9122585228
 20
17.7214118182
 30
0.0
 10
2.9128945656
 20
17.7112355498
 30
0.0
 10
2.914089148
 20
17.6883851138
 30
0.0
 10
2.9164173826
 20
17.6338734391
 30
0.0
 10
2.9191764101
 20
17.5513846611
 30
0.0
 10
2.9223598449
 20
17.4395446486
 30
0.0
 10
2.9255300702
 20
17.3170090592
 30
0.0
 10
2.9286989428
 20
17.1936369575
 30
0.0
 10
2.9318491116
 20
17.0803685467
 30
0.0
 10
2.9345533767
 20
16.9972742239
 30
0.0
 10
2.9369105297
 20
16.9438117958
 30
0.0
 10
2.9381260511
 20
16.9222669817
 30
0.0
 10
2.9387764849
 20
16.9129072522
 30
0.0
 11
2.9122585228
 21
17.7214118182
 31
0.0
 11
2.9139158955
 21
17.6908683733
 31
0.0
 11
2.9155732681
 21
17.6528507938
 31
0.0
 11
2.9188880134
 21
17.5578672118
 31
0.0
 11
2.9222027586
 21
17.4434096986
 31
0.0
 11
2.9255175039
 21
17.3173440053
 31
0.0
 11
2.9288322491
 21
17.1902724543
 31
0.0
 11
2.9321469944
 21
17.0733055358
 31
0.0
 11
2.9354617396
 21
16.9775537401
 31
0.0
 11
2.9371191123
 21
16.9410053219
 31
0.0
 11
2.9387764849
 21
16.9129072522
 31
0.0
  0
SPLINE
  5
429
100
AcDbEntity
  8
0
100
AcDbSpline
 62
7
  6
CONTINUOUS
 70
0
 71
3
 72
11
 73
7
 74
5
 42
0.0000001
 43
0.0000001
 44
0.0000000001
 12
0.0022486295
 22
-0.0323577333
 32
0.0
 13
0.0120885022
 23
-0.0300989593
 33
0.0
 40
0.0
 40
0.0
 40
0.0
 40
0.0
 40
0.3796794477
 40
0.6728678714
 40
0.8794667693
 40
1.0
 40
1.0
 40
1.0
 40
1.0
 10
2.9387764849
 20
16.9129072522
 30
0.0
 10
2.939061071
 20
16.9088120634
 30
0.0
 10
2.9396139745
 20
16.9015608836
 30
0.0
 10
2.940510163
 20
16.892083312
 30
0.0
 10
2.9414299008
 20
16.885457932
 30
0.0
 10
2.9420941185
 20
16.8819503887
 30
0.0
 10
2.9425798073
 20
16.8807410804
 30
0.0
 11
2.9387764849
 21
16.9129072522
 31
0.0
 11
2.9397273155
 21
16.9006288172
 31
0.0
 11
2.9406781461
 21
16.8911666782
 31
0.0
 11
2.9416289767
 21
16.8845332832
 31
0.0
 11
2.9425798073
 21
16.8807410804
 31
0.0
  0
SPLINE
  5
42A
100
AcDbEntity
  8
0
100
AcDbSpline
 62
7
  6
CONTINUOUS
 70
0
 71
3
 72
10
 73
6
 74
4
 42
0.0000001
 43
0.0000001
 44
0.0000000001
 12
0.0035826052
 22
0.0061873178
 32
0.0
 13
0.0009847042
 23
0.0070815478
 33
0.0
 40
0.0
 40
0.0
 40
0.0
 40
0.0
 40
0.1423201947
 40
0.3557734042
 40
1.0
 40
1.0
 40
1.0
 40
1.0
 10
44.0432810928
 20
16.858699697
 30
0.0
 10
44.0434510519
 20
16.8589932237
 30
0.0
 10
44.0437413443
 20
16.8597984872
 30
0.0
 10
44.0443190065
 20
16.8621078033
 30
0.0
 10
44.0446242133
 20
16.8641351527
 30
0.0
 10
44.0448356709
 20
16.8656558598
 30
0.0
 11
44.0432810928
 21
16.858699697
 31
0.0
 11
44.0436697374
 21
16.8596400967
 31
0.0
 11
44.0440583819
 21
16.8611159036
 31
0.0
 11
44.0448356709
 21
16.8656558598
 31
0.0
  0
SPLINE
  5
42B
100
AcDbEntity
  8
0
100
AcDbSpline
 62
7
  6
CONTINUOUS
 70
0
 71
3
 72
21
 73
17
 74
15
 42
0.0000001
 43
0.0000001
 44
0.0000000001
 12
0.122923387
 22
0.8840095099
 32
0.0
 13
0.0750688159
 23
0.8893523742
 33
0.0
 40
0.0
 40
0.0
 40
0.0
 40
0.0
 40
0.0094254636
 40
0.0222415626
 40
0.0577782277
 40
0.1059482629
 40
0.165289395
 40
0.2339781488
 40
0.3101874009
 40
0.4769407514
 40
0.6469077911
 40
0.801486855
 40
0.8676510692
 40
0.923655885
 40
0.9681173575
 40
1.0
 40
1.0
 40
1.0
 40
1.0
 10
44.0448356709
 20
16.8656558598
 30
0.0
 10
44.0452218742
 20
16.8684332596
 30
0.0
 10
44.0459201613
 20
16.875015753
 30
0.0
 10
44.0472983561
 20
16.8921497981
 30
0.0
 10
44.0488931611
 20
16.9208251338
 30
0.0
 10
44.0507152403
 20
16.963343098
 30
0.0
 10
44.0525530239
 20
17.0157319292
 30
0.0
 10
44.0544118187
 20
17.0764656347
 30
0.0
 10
44.0569746824
 20
17.1691481813
 30
0.0
 10
44.0600340921
 20
17.2919588197
 30
0.0
 10
44.0636265139
 20
17.4380785365
 30
0.0
 10
44.0667243717
 20
17.5542761196
 30
0.0
 10
44.0693281807
 20
17.6365688485
 30
0.0
 10
44.07116396
 20
17.6861092089
 30
0.0
 10
44.0729870357
 20
17.7254408385
 30
0.0
 10
44.0743710824
 20
17.7481153034
 30
0.0
 10
44.0751688798
 20
17.757566938
 30
0.0
 11
44.0448356709
 21
16.8656558598
 31
0.0
 11
44.0457835837
 21
16.8740146507
 31
0.0
 11
44.0467314964
 21
16.8854138666
 31
0.0
 11
44.048627322
 21
16.9170741617
 31
0.0
 11
44.0505231476
 21
16.9600248192
 31
0.0
 11
44.0524189731
 21
17.0129537262
 31
0.0
 11
44.0543147987
 21
17.0742301469
 31
0.0
 11
44.0562106242
 21
17.1422216195
 31
0.0
 11
44.0600022754
 21
17.2910031745
 31
0.0
 11
44.0637939265
 21
17.4426539089
 31
0.0
 11
44.0675855776
 21
17.5805659249
 31
0.0
 11
44.0694814032
 21
17.639588037
 31
0.0
 11
44.0713772287
 21
17.6895372083
 31
0.0
 11
44.0732730543
 21
17.7291744259
 31
0.0
 11
44.0751688798
 21
17.757566938
 31
0.0
  0
SPLINE
  5
42C
100
AcDbEntity
  8
0
100
AcDbSpline
 62
7
  6
CONTINUOUS
 70
0
 71
3
 72
13
 73
9
 74
7
 42
0.0000001
 43
0.0000001
 44
0.0000000001
 12
0.0017188724
 22
0.0203637584
 32
0.0
 13
0.0204361732
 23
0.0000000002
 33
0.0
 40
0.0
 40
0.0
 40
0.0
 40
0.0
 40
0.4276445918
 40
0.7365533927
 40
0.845598828
 40
0.9245630849
 40
0.9745541303
 40
1.0
 40
1.0
 40
1.0
 40
1.0
 10
44.0751688798
 20
17.757566938
 30
0.0
 10
44.075413902
 20
17.760469755
 30
0.0
 10
44.0758750807
 20
17.7654627252
 30
0.0
 10
44.0765904356
 20
17.7711906332
 30
0.0
 10
44.0771841186
 20
17.7745116631
 30
0.0
 10
44.0776063746
 20
17.7761026257
 30
0.0
 10
44.0779329738
 20
17.7770557471
 30
0.0
 10
44.0783360622
 20
17.777513885
 30
0.0
 10
44.0785094009
 20
17.777513885
 30
0.0
 11
44.0751688798
 21
17.757566938
 31
0.0
 11
44.0760040101
 21
17.7662663633
 31
0.0
 11
44.0768391404
 21
17.7725237939
 31
0.0
 11
44.0772567055
 21
17.7747127946
 31
0.0
 11
44.0776742706
 21
17.7762715618
 31
0.0
 11
44.0780918358
 21
17.7772039557
 31
0.0
 11
44.0785094009
 21
17.777513885
 31
0.0
  0
SPLINE
  5
42D
100
AcDbEntity
  8
0
100
AcDbSpline
 62
7
  6
CONTINUOUS
 70
0
 71
3
 72
13
 73
9
 74
7
 42
0.0000001
 43
0.0000001
 44
0.0000000001
 12
-0.0234682333
 22
0.0015200998
 32
0.0
 13
-0.0018182669
 23
-0.0234470165
 33
0.0
 40
0.0
 40
0.0
 40
0.0
 40
0.0
 40
0.0237679292
 40
0.0735919839
 40
0.1532056567
 40
0.263011571
 40
0.5725547689
 40
1.0
 40
1.0
 40
1.0
 40
1.0
 10
44.6276604188
 20
17.7984645444
 30
0.0
 10
44.6274744883
 20
17.7984765876
 30
0.0
 10
44.6270326185
 20
17.7979211358
 30
0.0
 10
44.6267115279
 20
17.7968395284
 30
0.0
 10
44.6262570373
 20
17.7949792534
 30
0.0
 10
44.6256369276
 20
17.7911374633
 30
0.0
 10
44.6248750942
 20
17.7845249603
 30
0.0
 10
44.624388704
 20
17.7787734625
 30
0.0
 10
44.6241296342
 20
17.7754326907
 30
0.0
 11
44.6276604188
 21
17.7984645444
 31
0.0
 11
44.6272190707
 21
17.7981215453
 31
0.0
 11
44.6267777226
 21
17.7970361101
 31
0.0
 11
44.6263363745
 21
17.7952165641
 31
0.0
 11
44.6258950265
 21
17.792672208
 31
0.0
 11
44.6250123303
 21
17.7854462669
 31
0.0
 11
44.6241296342
 21
17.7754326907
 31
0.0
  0
LINE
  5
42E
100
AcDbEntity
  8
0
100
AcDbLine
 62
7
  6
CONTINUOUS
 10
44.6233982437
 20
17.7650768848
 11
44.6232576941
 21
17.7628769982
  0
SPLINE
  5
42F
100
AcDbEntity
  8
0
100
AcDbSpline
 62
7
  6
CONTINUOUS
 70
0
 71
3
 72
17
 73
13
 74
11
 42
0.0000001
 43
0.0000001
 44
0.0000000001
 12
-0.0566532371
 22
-0.9002468338
 32
0.0
 13
-0.068369276
 23
-0.8994329286
 33
0.0
 40
0.0
 40
0.0
 40
0.0
 40
0.0
 40
0.0361254898
 40
0.0828940646
 40
0.2039434429
 40
0.3514409538
 40
0.5122170712
 40
0.671229454
 40
0.8138008474
 40
0.9270192646
 40
0.9689706705
 40
1.0
 40
1.0
 40
1.0
 40
1.0
 10
44.6232576941
 20
17.7628769982
 30
0.0
 10
44.6225754854
 20
17.752036379
 30
0.0
 10
44.6213112149
 20
17.7271428195
 30
0.0
 10
44.6188584835
 20
17.6658707927
 30
0.0
 10
44.6160125129
 20
17.5711039765
 30
0.0
 10
44.6127114994
 20
17.4420594023
 30
0.0
 10
44.6094087319
 20
17.3015965156
 30
0.0
 10
44.6061086925
 20
17.1626149174
 30
0.0
 10
44.6028143779
 20
17.037938082
 30
0.0
 10
44.5999846884
 20
16.9484562558
 30
0.0
 10
44.597500566
 20
16.89252584
 30
0.0
 10
44.5962307686
 20
16.8706166095
 30
0.0
 10
44.5955236176
 20
16.861313676
 30
0.0
 11
44.6232576941
 21
17.7628769982
 31
0.0
 11
44.6215243143
 21
17.7303369413
 31
0.0
 11
44.6197909345
 21
17.6881860178
 31
0.0
 11
44.616324175
 21
17.5790511752
 31
0.0
 11
44.6128574154
 21
17.4460495103
 31
0.0
 11
44.6093906559
 21
17.3010664424
 31
0.0
 11
44.6059238963
 21
17.1576747718
 31
0.0
 11
44.6024571368
 21
17.0291181626
 31
0.0
 11
44.5989903772
 21
16.9270508734
 31
0.0
 11
44.5972569974
 21
16.8892492646
 31
0.0
 11
44.5955236176
 21
16.861313676
 31
0.0
  0
SPLINE
  5
430
100
AcDbEntity
  8
0
100
AcDbSpline
 62
7
  6
CONTINUOUS
 70
0
 71
3
 72
9
 73
5
 74
3
 42
0.0000001
 43
0.0000001
 44
0.0000000001
 12
-0.0014642179
 22
-0.0192625387
 32
0.0
 13
-0.0032014083
 23
-0.0190509925
 33
0.0
 40
0.0
 40
0.0
 40
0.0
 40
0.0
 40
0.5928485916
 40
1.0
 40
1.0
 40
1.0
 40
1.0
 10
44.5955236176
 20
16.861313676
 30
0.0
 10
44.5952342645
 20
16.8575070863
 30
0.0
 10
44.5946904374
 20
16.8510916836
 30
0.0
 10
44.593955264
 20
16.8446889898
 30
0.0
 10
44.593520778
 20
16.8421034437
 30
0.0
 11
44.5955236176
 21
16.861313676
 31
0.0
 11
44.5945221978
 21
16.8499048282
 31
0.0
 11
44.593520778
 21
16.8421034437
 31
0.0
  0
SPLINE
  5
431
100
AcDbEntity
  8
0
100
AcDbSpline
 62
7
  6
CONTINUOUS
 70
0
 71
3
 72
9
 73
5
 74
3
 42
0.0000001
 43
0.0000001
 44
0.0000000001
 12
-0.0007389295
 22
-0.0043972334
 32
0.0
 13
-0.0022307089
 23
-0.0038607793
 33
0.0
 40
0.0
 40
0.0
 40
0.0
 40
0.0
 40
0.6276743592
 40
1.0
 40
1.0
 40
1.0
 40
1.0
 10
44.593520778
 20
16.8421034437
 30
0.0
 10
44.5933661756
 20
16.8411834335
 30
0.0
 10
44.5930797598
 20
16.8397343954
 30
0.0
 10
44.5926800492
 20
16.8382769295
 30
0.0
 10
44.5924031991
 20
16.8377977738
 30
0.0
 11
44.593520778
 21
16.8421034437
 31
0.0
 11
44.5929619886
 21
16.839361065
 31
0.0
 11
44.5924031991
 21
16.8377977738
 31
0.0
  0
SPLINE
  5
432
100
AcDbEntity
  8
0
100
AcDbSpline
 62
7
  6
CONTINUOUS
 70
0
 71
3
 72
11
 73
7
 74
5
 42
0.0000001
 43
0.0000001
 44
0.0000000001
 12
0.0089927548
 22
0.0110518687
 32
0.0
 13
0.0014549871
 23
0.0141737946
 33
0.0
 40
0.0
 40
0.0
 40
0.0
 40
0.0
 40
0.1115683921
 40
0.3134247621
 40
0.6090580032
 40
1.0
 40
1.0
 40
1.0
 40
1.0
 10
44.6861444731
 20
16.8801084956
 30
0.0
 10
44.6864789088
 20
16.8805195087
 30
0.0
 10
44.6869305594
 20
16.8819932593
 30
0.0
 10
44.6875434326
 20
16.8847877232
 30
0.0
 10
44.6881427314
 20
16.8889835652
 30
0.0
 10
44.6885097228
 20
16.8922185058
 30
0.0
 10
44.688699328
 20
16.8940655496
 30
0.0
 11
44.6861444731
 21
16.8801084956
 31
0.0
 11
44.6867831868
 21
16.8815641933
 31
0.0
 11
44.6874219005
 21
16.884368481
 31
0.0
 11
44.6880606143
 21
16.8885320395
 31
0.0
 11
44.688699328
 21
16.8940655496
 31
0.0
  0
SPLINE
  5
433
100
AcDbEntity
  8
0
100
AcDbSpline
 62
7
  6
CONTINUOUS
 70
0
 71
3
 72
21
 73
17
 74
15
 42
0.0000001
 43
0.0000001
 44
0.0000000001
 12
0.0868840662
 22
0.8463833957
 32
0.0
 13
0.1004221766
 23
0.844884063
 33
0.0
 40
0.0
 40
0.0
 40
0.0
 40
0.0
 40
0.028659004
 40
0.0710295333
 40
0.1253540797
 40
0.1896457669
 40
0.2619147781
 40
0.3401701286
 40
0.5066713054
 40
0.6728427488
 40
0.7504701938
 40
0.8215940759
 40
0.8840666153
 40
0.9357415667
 40
0.9746076756
 40
1.0
 40
1.0
 40
1.0
 40
1.0
 10
44.688699328
 20
16.8940655496
 30
0.0
 10
44.6895293316
 20
16.9021510514
 30
0.0
 10
44.6909020047
 20
16.9222559006
 30
0.0
 10
44.6926809476
 20
16.9577611823
 30
0.0
 10
44.6944859156
 20
17.003384594
 30
0.0
 10
44.6963203747
 20
17.0574902979
 30
0.0
 10
44.6981643482
 20
17.1183866632
 30
0.0
 10
44.7006848018
 20
17.2082630635
 30
0.0
 10
44.7037232856
 20
17.3247669335
 30
0.0
 10
44.7067583114
 20
17.4410927945
 30
0.0
 10
44.7092806347
 20
17.5303725058
 30
0.0
 10
44.7111195854
 20
17.5902498905
 30
0.0
 10
44.7129497249
 20
17.6427623968
 30
0.0
 10
44.7147352234
 20
17.6861243384
 30
0.0
 10
44.7165253646
 20
17.7189525475
 30
0.0
 10
44.7179026166
 20
17.7371343393
 30
0.0
 10
44.7187526007
 20
17.7442855294
 30
0.0
 11
44.688699328
 21
16.8940655496
 31
0.0
 11
44.6905776575
 21
16.9183770711
 31
0.0
 11
44.6924559871
 21
16.9543782717
 31
0.0
 11
44.6943343166
 21
17.0005611079
 31
0.0
 11
44.6962126462
 21
17.0552302214
 31
0.0
 11
44.6980909757
 21
17.1166902535
 31
0.0
 11
44.6999693053
 21
17.1832458457
 31
0.0
 11
44.7037259644
 21
17.3248604198
 31
0.0
 11
44.7074826234
 21
17.4661943475
 31
0.0
 11
44.709360953
 21
17.5322154837
 31
0.0
 11
44.7112392825
 21
17.592700742
 31
0.0
 11
44.7131176121
 21
17.6458211279
 31
0.0
 11
44.7149959416
 21
17.6897476467
 31
0.0
 11
44.7168742712
 21
17.7227627551
 31
0.0
 11
44.7187526007
 21
17.7442855294
 31
0.0
  0
SPLINE
  5
434
100
AcDbEntity
  8
0
100
AcDbSpline
 62
7
  6
CONTINUOUS
 70
0
 71
3
 72
11
 73
7
 74
5
 42
0.0000001
 43
0.0000001
 44
0.0000000001
 12
0.0012748521
 22
0.0100672088
 32
0.0
 13
0.0101475869
 23
-0.0000204827
 33
0.0
 40
0.0
 40
0.0
 40
0.0
 40
0.0
 40
0.4223710782
 40
0.7266073444
 40
0.9151983914
 40
1.0
 40
1.0
 40
1.0
 40
1.0
 10
44.718912395
 20
17.7455886537
 30
0.0
 10
44.7190918819
 20
17.7470060197
 30
0.0
 10
44.7194149907
 20
17.7494143874
 30
0.0
 10
44.7200425421
 20
17.7525392055
 30
0.0
 10
44.7204975533
 20
17.7542713459
 30
0.0
 10
44.7210827635
 20
17.7552716668
 30
0.0
 10
44.7213696074
 20
17.7552710878
 30
0.0
 11
44.718912395
 21
17.7455886537
 31
0.0
 11
44.7195266981
 21
17.7498304585
 31
0.0
 11
44.7201410012
 21
17.7528559947
 31
0.0
 11
44.7207553043
 21
17.7546684689
 31
0.0
 11
44.7213696074
 21
17.7552710878
 31
0.0
  0
SPLINE
  5
435
100
AcDbEntity
  8
0
100
AcDbSpline
 62
7
  6
CONTINUOUS
 70
0
 71
3
 72
11
 73
7
 74
5
 42
0.0000001
 43
0.0000001
 44
0.0000000001
 12
0.0057624676
 22
0.0099688354
 32
0.0
 13
0.0012729982
 23
0.0114439149
 33
0.0
 40
0.0
 40
0.0
 40
0.0
 40
0.0
 40
0.1289902947
 40
0.3378837574
 40
0.628141147
 40
1.0
 40
1.0
 40
1.0
 40
1.0
 10
44.1147244966
 20
16.8610609034
 30
0.0
 10
44.1149722641
 20
16.8614895311
 30
0.0
 10
44.1153578604
 20
16.8627462407
 30
0.0
 10
44.1158593908
 20
16.865096747
 30
0.0
 10
44.1163622059
 20
16.8684071555
 30
0.0
 10
44.1166678975
 20
16.8709289569
 30
0.0
 10
44.1168256894
 20
16.8723474639
 30
0.0
 11
44.1147244966
 21
16.8610609034
 31
0.0
 11
44.1152497948
 21
16.8624501678
 31
0.0
 11
44.115775093
 21
16.8647974104
 31
0.0
 11
44.1163003912
 21
16.8680980397
 31
0.0
 11
44.1168256894
 21
16.8723474639
 31
0.0
  0
SPLINE
  5
436
100
AcDbEntity
  8
0
100
AcDbSpline
 62
7
  6
CONTINUOUS
 70
0
 71
3
 72
21
 73
17
 74
15
 42
0.0000001
 43
0.0000001
 44
0.0000000001
 12
0.0983829472
 22
0.8844365235
 32
0.0
 13
0.0909243514
 23
0.8852343931
 33
0.0
 40
0.0
 40
0.0
 40
0.0
 40
0.0
 40
0.0261184107
 40
0.0656142539
 40
0.1171913232
 40
0.1792665164
 40
0.2502516151
 40
0.3283194063
 40
0.496458879
 40
0.6649806308
 40
0.7436591152
 40
0.8156081014
 40
0.8786766822
 40
0.931316455
 40
0.972197396
 40
1.0
 40
1.0
 40
1.0
 40
1.0
 10
44.1168256894
 20
16.8723474639
 30
0.0
 10
44.1176822248
 20
16.8800474894
 30
0.0
 10
44.1190622377
 20
16.8994705317
 30
0.0
 10
44.1208643255
 20
16.9341834761
 30
0.0
 10
44.1226823103
 20
16.9795776814
 30
0.0
 10
44.1245364535
 20
17.034314968
 30
0.0
 10
44.1263963925
 20
17.0969147008
 30
0.0
 10
44.1289438249
 20
17.1909691401
 30
0.0
 10
44.1320005262
 20
17.3139525375
 30
0.0
 10
44.1350576397
 20
17.4371171089
 30
0.0
 10
44.1376032786
 20
17.5317522786
 30
0.0
 10
44.1394592275
 20
17.5951141443
 30
0.0
 10
44.1413147857
 20
17.6507478331
 30
0.0
 10
44.1431408756
 20
17.6971629015
 30
0.0
 10
44.1449540132
 20
17.7331032112
 30
0.0
 10
44.14632543
 20
17.753437852
 30
0.0
 10
44.1471680746
 20
17.7616417924
 30
0.0
 11
44.1168256894
 21
16.8723474639
 31
0.0
 11
44.1187220885
 21
16.8955125254
 31
0.0
 11
44.1206184876
 21
16.9306083484
 31
0.0
 11
44.1225148866
 21
16.9764671581
 31
0.0
 11
44.1244112857
 21
17.0316747936
 31
0.0
 11
44.1263076848
 21
17.0948153687
 31
0.0
 11
44.1282040838
 21
17.1642613568
 31
0.0
 11
44.131996882
 21
17.3138391928
 31
0.0
 11
44.1357896801
 21
17.4637573249
 31
0.0
 11
44.1376860792
 21
17.5337469649
 31
0.0
 11
44.1395824783
 21
17.597745677
 31
0.0
 11
44.1414788774
 21
17.653837833
 31
0.0
 11
44.1433752764
 21
17.7006431256
 31
0.0
 11
44.1452716755
 21
17.7369732727
 31
0.0
 11
44.1471680746
 21
17.7616417924
 31
0.0
  0
LINE
  5
437
100
AcDbEntity
  8
0
100
AcDbLine
 62
7
  6
CONTINUOUS
 10
44.1471680746
 20
17.7616417924
 11
44.147770415
 21
17.7668705912
  0
SPLINE
  5
438
100
AcDbEntity
  8
0
100
AcDbSpline
 62
7
  6
CONTINUOUS
 70
0
 71
3
 72
11
 73
7
 74
5
 42
0.0000001
 43
0.0000001
 44
0.0000000001
 12
0.0011378146
 22
0.0086772525
 32
0.0
 13
0.0087515096
 23
-0.0000202936
 33
0.0
 40
0.0
 40
0.0
 40
0.0
 40
0.0
 40
0.4212668619
 40
0.7250720441
 40
0.9139004082
 40
1.0
 40
1.0
 40
1.0
 40
1.0
 10
44.147770415
 20
17.7668705912
 30
0.0
 10
44.1479301895
 20
17.7680890708
 30
0.0
 10
44.1482179272
 20
17.7701620706
 30
0.0
 10
44.1487765408
 20
17.7728446862
 30
0.0
 10
44.1491821776
 20
17.774346893
 30
0.0
 10
44.1497056545
 20
17.7751972951
 30
0.0
 10
44.1499568217
 20
17.7751967127
 30
0.0
 11
44.147770415
 21
17.7668705912
 31
0.0
 11
44.1483170167
 21
17.7705165768
 31
0.0
 11
44.1488636183
 21
17.7731185448
 31
0.0
 11
44.14941022
 21
17.7746780663
 31
0.0
 11
44.1499568217
 21
17.7751967127
 31
0.0
  0
SPLINE
  5
439
100
AcDbEntity
  8
0
100
AcDbSpline
 62
7
  6
CONTINUOUS
 70
0
 71
3
 72
11
 73
7
 74
5
 42
0.0000001
 43
0.0000001
 44
0.0000000001
 12
0.0053321272
 22
-0.0092070905
 32
0.0
 13
0.0011893698
 23
-0.0105729606
 33
0.0
 40
0.0
 40
0.0
 40
0.0
 40
0.0
 40
0.1295529831
 40
0.3384770611
 40
0.6284687858
 40
1.0
 40
1.0
 40
1.0
 40
1.0
 10
2.806343226
 20
17.7941887696
 30
0.0
 10
2.8065734903
 20
17.7937911676
 30
0.0
 10
2.8069346306
 20
17.7926295179
 30
0.0
 10
2.8074031295
 20
17.790457196
 30
0.0
 10
2.8078732077
 20
17.7874012762
 30
0.0
 10
2.8081585876
 20
17.785073502
 30
0.0
 10
2.8083058836
 20
17.783764107
 30
0.0
 11
2.806343226
 21
17.7941887696
 31
0.0
 11
2.8068340032
 21
17.7929007017
 31
0.0
 11
2.807324725
 21
17.7907326655
 31
0.0
 11
2.8078153617
 21
17.7876865157
 31
0.0
 11
2.8083058836
 21
17.783764107
 31
0.0
  0
SPLINE
  5
43A
100
AcDbEntity
  8
0
100
AcDbSpline
 62
7
  6
CONTINUOUS
 70
0
 71
3
 72
9
 73
5
 74
3
 42
0.0000001
 43
0.0000001
 44
0.0000000001
 12
0.006535097
 22
-0.0580940602
 32
0.0
 13
0.0026851337
 23
-0.058398779
 33
0.0
 40
0.0
 40
0.0
 40
0.0
 40
0.0
 40
0.3965309634
 40
1.0
 40
1.0
 40
1.0
 40
1.0
 10
2.8083058836
 20
17.783764107
 30
0.0
 10
2.8091696731
 20
17.7760854091
 30
0.0
 10
2.8105274203
 20
17.7566361121
 30
0.0
 10
2.8115371629
 20
17.7371781762
 30
0.0
 10
2.8120772946
 20
17.7254308912
 30
0.0
 11
2.8083058836
 21
17.783764107
 31
0.0
 11
2.8101917316
 21
17.7606595538
 31
0.0
 11
2.8120772946
 21
17.7254308912
 31
0.0
  0
SPLINE
  5
43B
100
AcDbEntity
  8
0
100
AcDbSpline
 62
7
  6
CONTINUOUS
 70
0
 71
3
 72
9
 73
5
 74
3
 42
0.0000001
 43
0.0000001
 44
0.0000000001
 12
0.0046591945
 22
-0.1013324858
 32
0.0
 13
0.0031561874
 23
-0.1013904298
 33
0.0
 40
0.0
 40
0.0
 40
0.0
 40
0.0
 40
0.2134200164
 40
1.0
 40
1.0
 40
1.0
 40
1.0
 10
2.8120772946
 20
17.7254308912
 30
0.0
 10
2.8124087497
 20
17.7182220976
 30
0.0
 10
2.8138499605
 20
17.684439468
 30
0.0
 10
2.8149799007
 20
17.6506443957
 30
0.0
 10
2.815807432
 20
17.6240605015
 30
0.0
 11
2.8120772946
 21
17.7254308912
 31
0.0
 11
2.8130097384
 21
17.7038017522
 31
0.0
 11
2.815807432
 21
17.6240605015
 31
0.0
  0
LINE
  5
43C
100
AcDbEntity
  8
0
100
AcDbLine
 62
7
  6
CONTINUOUS
 10
2.8194837077
 20
17.4920935341
 11
2.8201849106
 21
17.4644120014
  0
LINE
  5
43D
100
AcDbEntity
  8
0
100
AcDbLine
 62
7
  6
CONTINUOUS
 10
2.8201849106
 20
17.4644120014
 11
2.8231648789
 21
17.3418766288
  0
SPLINE
  5
43E
100
AcDbEntity
  8
0
100
AcDbSpline
 62
7
  6
CONTINUOUS
 70
0
 71
3
 72
12
 73
8
 74
6
 42
0.0000001
 43
0.0000001
 44
0.0000000001
 12
0.0110271951
 22
-0.4617379797
 32
0.0
 13
0.0277281519
 23
-0.4610365609
 33
0.0
 40
0.0
 40
0.0
 40
0.0
 40
0.0
 40
0.3105496769
 40
0.5974234935
 40
0.8344382874
 40
0.9272551124
 40
1.0
 40
1.0
 40
1.0
 40
1.0
 10
2.8231648789
 20
17.3418766288
 30
0.0
 10
2.8243063762
 20
17.294079102
 30
0.0
 10
2.8264823572
 20
17.2021274793
 30
0.0
 10
2.8297634887
 20
17.0737024082
 30
0.0
 10
2.8326042041
 20
16.9787974949
 30
0.0
 10
2.8350387665
 20
16.9168658179
 30
0.0
 10
2.8362917081
 20
16.8914061428
 30
0.0
 10
2.8369640685
 20
16.8802267918
 30
0.0
 11
2.8231648789
 21
17.3418766288
 31
0.0
 11
2.8266153842
 21
17.1984846721
 31
0.0
 11
2.8300654395
 21
17.0660312914
 31
0.0
 11
2.833513877
 21
16.9566156833
 31
0.0
 11
2.8352392626
 21
16.9137811454
 31
0.0
 11
2.8369640685
 21
16.8802267918
 31
0.0
  0
SPLINE
  5
43F
100
AcDbEntity
  8
0
100
AcDbSpline
 62
7
  6
CONTINUOUS
 70
0
 71
3
 72
12
 73
8
 74
6
 42
0.0000001
 43
0.0000001
 44
0.0000000001
 12
0.0018431625
 22
-0.02476874
 32
0.0
 13
0.0120200776
 23
-0.0217348904
 33
0.0
 40
0.0
 40
0.0
 40
0.0
 40
0.0
 40
0.388513735
 40
0.6849409774
 40
0.8885837781
 40
0.9556538907
 40
1.0
 40
1.0
 40
1.0
 40
1.0
 10
2.8378916573
 20
16.8662720419
 30
0.0
 10
2.8381303552
 20
16.8630643767
 30
0.0
 10
2.8385850745
 20
16.8574102339
 30
0.0
 10
2.8393579087
 20
16.8500975542
 30
0.0
 10
2.8400216605
 20
16.8454393318
 30
0.0
 10
2.8406189098
 20
16.8429033012
 30
0.0
 10
2.8409188303
 20
16.8420219938
 30
0.0
 10
2.8410965115
 20
16.8417007079
 30
0.0
 11
2.8378916573
 21
16.8662720419
 31
0.0
 11
2.8386915742
 21
16.8566556513
 31
0.0
 11
2.8394914283
 21
16.8493367983
 31
0.0
 11
2.8402926105
 21
16.8443427336
 31
0.0
 11
2.8406941342
 21
16.8427260127
 31
0.0
 11
2.8410965115
 21
16.8417007079
 31
0.0
  0
SPLINE
  5
440
100
AcDbEntity
  8
0
100
AcDbSpline
 62
7
  6
CONTINUOUS
 70
0
 71
3
 72
11
 73
7
 74
5
 42
0.0000001
 43
0.0000001
 44
0.0000000001
 12
0.009168034
 22
0.0158589258
 32
0.0
 13
0.0016051183
 23
0.0182477935
 33
0.0
 40
0.0
 40
0.0
 40
0.0
 40
0.0
 40
0.1166349373
 40
0.3211174191
 40
0.615338491
 40
1.0
 40
1.0
 40
1.0
 40
1.0
 10
44.1861823198
 20
16.8633197136
 30
0.0
 10
44.1865387575
 20
16.8639362819
 30
0.0
 10
44.1870227516
 20
16.8658746753
 30
0.0
 10
44.1876885801
 20
16.8695510373
 30
0.0
 10
44.1883375286
 20
16.874918703
 30
0.0
 10
44.1887365697
 20
16.8790414124
 30
0.0
 10
44.1889423787
 20
16.8813811537
 30
0.0
 11
44.1861823198
 21
16.8633197136
 31
0.0
 11
44.1868723346
 21
16.8653417715
 31
0.0
 11
44.1875623493
 21
16.8690234302
 31
0.0
 11
44.188252364
 21
16.8743686934
 31
0.0
 11
44.1889423787
 21
16.8813811537
 31
0.0
  0
SPLINE
  5
441
100
AcDbEntity
  8
0
100
AcDbSpline
 62
7
  6
CONTINUOUS
 70
0
 71
3
 72
21
 73
17
 74
15
 42
0.0000001
 43
0.0000001
 44
0.0000000001
 12
0.0772902676
 22
0.8786746851
 32
0.0
 13
0.1237893504
 23
0.8733379555
 33
0.0
 40
0.0
 40
0.0
 40
0.0
 40
0.0
 40
0.0312168035
 40
0.0751362011
 40
0.1304651209
 40
0.1958918802
 40
0.3496408764
 40
0.518982678
 40
0.685864818
 40
0.7627277797
 40
0.8322605166
 40
0.8925324397
 40
0.9416731213
 40
0.9778308811
 40
0.9906527545
 40
1.0
 40
1.0
 40
1.0
 40
1.0
 10
44.1889423787
 20
16.8813811537
 30
0.0
 10
44.1897466304
 20
16.890524292
 30
0.0
 10
44.19112079
 20
16.9125777084
 30
0.0
 10
44.1929328757
 20
16.9508936698
 30
0.0
 10
44.194762952
 20
16.9992783203
 30
0.0
 10
44.1973669461
 20
17.0799467904
 30
0.0
 10
44.2004439794
 20
17.1941389158
 30
0.0
 10
44.2040305562
 20
17.3381571325
 30
0.0
 10
44.2070838598
 20
17.4595756751
 30
0.0
 10
44.2096283687
 20
17.5516513893
 30
0.0
 10
44.2114803473
 20
17.6123880371
 30
0.0
 10
44.2133119263
 20
17.6649708648
 30
0.0
 10
44.2151262247
 20
17.7077326561
 30
0.0
 10
44.2166986065
 20
17.7365433038
 30
0.0
 10
44.2180819882
 20
17.7536369929
 30
0.0
 10
44.2187812399
 20
17.7601201775
 30
0.0
 10
44.2191669364
 20
17.7628412789
 30
0.0
 11
44.1889423787
 21
16.8813811537
 31
0.0
 11
44.1908314136
 21
16.9088516058
 31
0.0
 11
44.1927204485
 21
16.9475453929
 31
0.0
 11
44.1946094833
 21
16.9963126593
 31
0.0
 11
44.1964985182
 21
17.0539925491
 31
0.0
 11
44.2002765879
 21
17.1895568986
 31
0.0
 11
44.2040546576
 21
17.3388800025
 31
0.0
 11
44.2078327273
 21
17.4860328143
 31
0.0
 11
44.2097217622
 21
17.5538048092
 31
0.0
 11
44.211610797
 21
17.6151082753
 31
0.0
 11
44.2134998319
 21
17.6682386054
 31
0.0
 11
44.2153888667
 21
17.7115428186
 31
0.0
 11
44.2172779016
 21
17.7433804093
 31
0.0
 11
44.218222419
 21
17.7546506575
 31
0.0
 11
44.2191669364
 21
17.7628412789
 31
0.0
  0
SPLINE
  5
442
100
AcDbEntity
  8
0
100
AcDbSpline
 62
7
  6
CONTINUOUS
 70
0
 71
3
 72
11
 73
7
 74
5
 42
0.0000001
 43
0.0000001
 44
0.0000000001
 12
0.0010955663
 22
0.0077292564
 32
0.0
 13
0.0078064726
 23
-0.0000255833
 33
0.0
 40
0.0
 40
0.0
 40
0.0
 40
0.0
 40
0.4198303121
 40
0.7222993768
 40
0.9109262852
 40
1.0
 40
1.0
 40
1.0
 40
1.0
 10
44.2191669364
 20
17.7628412789
 30
0.0
 10
44.2193202537
 20
17.7639229376
 30
0.0
 10
44.2195966416
 20
17.7657658726
 30
0.0
 10
44.2201332336
 20
17.7681313459
 30
0.0
 10
44.220526712
 20
17.7694869701
 30
0.0
 10
44.2210350833
 20
17.7702109887
 30
0.0
 10
44.2212668672
 20
17.7702102292
 30
0.0
 11
44.2191669364
 21
17.7628412789
 31
0.0
 11
44.2196919191
 21
17.7660763707
 31
0.0
 11
44.2202169018
 21
17.7683784994
 31
0.0
 11
44.2207418845
 21
17.7697542554
 31
0.0
 11
44.2212668672
 21
17.7702102292
 31
0.0
  0
SPLINE
  5
443
100
AcDbEntity
  8
0
100
AcDbSpline
 62
7
  6
CONTINUOUS
 70
0
 71
3
 72
12
 73
8
 74
6
 42
0.0000001
 43
0.0000001
 44
0.0000000001
 12
0.0111527159
 22
-0.0164323714
 32
0.0
 13
0.0017299426
 23
-0.0197841654
 33
0.0
 40
0.0
 40
0.0
 40
0.0
 40
0.0
 40
0.0441137334
 40
0.110046838
 40
0.3108891321
 40
0.6067240797
 40
1.0
 40
1.0
 40
1.0
 40
1.0
 10
2.827752447
 20
17.7549311819
 30
0.0
 10
2.827916443
 20
17.7546895508
 30
0.0
 10
2.8282026634
 20
17.7540101954
 30
0.0
 10
2.8287692555
 20
17.7520340775
 30
0.0
 10
2.8294046745
 20
17.7483535453
 30
0.0
 10
2.8301418372
 20
17.7425117038
 30
0.0
 10
2.8305733237
 20
17.7379684173
 30
0.0
 10
2.8308001053
 20
17.735374872
 30
0.0
 11
2.827752447
 21
17.7549311819
 31
0.0
 11
2.8281321484
 21
17.7541416572
 31
0.0
 11
2.8285120911
 21
17.7528885831
 31
0.0
 11
2.8292729352
 21
17.748973163
 31
0.0
 11
2.8300354497
 21
17.7431476749
 31
0.0
 11
2.8308001053
 21
17.735374872
 31
0.0
  0
SPLINE
  5
444
100
AcDbEntity
  8
0
100
AcDbSpline
 62
7
  6
CONTINUOUS
 70
0
 71
3
 72
20
 73
16
 74
14
 42
0.0000001
 43
0.0000001
 44
0.0000000001
 12
0.0735031122
 22
-0.8406046215
 32
0.0
 13
0.0915406556
 23
-0.8388320127
 33
0.0
 40
0.0
 40
0.0
 40
0.0
 40
0.0
 40
0.0316524127
 40
0.0759461719
 40
0.1317288604
 40
0.1968563112
 40
0.34685234
 40
0.5120968927
 40
0.675458788
 40
0.750895406
 40
0.8200109947
 40
0.8813864949
 40
0.9330434174
 40
0.9730147461
 40
1.0
 40
1.0
 40
1.0
 40
1.0
 10
2.8308001053
 20
17.735374872
 30
0.0
 10
2.8315756222
 20
17.7265058172
 30
0.0
 10
2.8329279393
 20
17.7051833102
 30
0.0
 10
2.8347016129
 20
17.6681748506
 30
0.0
 10
2.8364674263
 20
17.6217404548
 30
0.0
 10
2.8389673091
 20
17.5455835788
 30
0.0
 10
2.841964224
 20
17.4386386359
 30
0.0
 10
2.8454611066
 20
17.3040673747
 30
0.0
 10
2.8484441966
 20
17.1904609237
 30
0.0
 10
2.8509120377
 20
17.1038888951
 30
0.0
 10
2.8527027945
 20
17.0459948943
 30
0.0
 10
2.8544819915
 20
16.9947932602
 30
0.0
 10
2.8562318744
 20
16.9517914356
 30
0.0
 10
2.8579946035
 20
16.9184778466
 30
0.0
 10
2.8593325651
 20
16.8996848284
 30
0.0
 10
2.860155981
 20
16.8921394635
 30
0.0
 11
2.8308001053
 21
17.735374872
 31
0.0
 11
2.8326455692
 21
17.708730017
 31
0.0
 11
2.8344924998
 21
17.6714000689
 31
0.0
 11
2.8363299474
 21
17.6243658394
 31
0.0
 11
2.8381575586
 21
17.5694409075
 31
0.0
 11
2.8418032186
 21
17.442924961
 31
0.0
 11
2.8454812318
 21
17.3035381277
 31
0.0
 11
2.8491639434
 21
17.1657405884
 31
0.0
 11
2.8509895216
 21
17.1021124422
 31
0.0
 11
2.8528093393
 21
17.0438202725
 31
0.0
 11
2.8546325428
 21
16.9920629859
 31
0.0
 11
2.8564652435
 21
16.9485127955
 31
0.0
 11
2.8583097973
 21
16.9148349811
 31
0.0
 11
2.860155981
 21
16.8921394635
 31
0.0
  0
SPLINE
  5
445
100
AcDbEntity
  8
0
100
AcDbSpline
 62
7
  6
CONTINUOUS
 70
0
 71
3
 72
11
 73
7
 74
5
 42
0.0000001
 43
0.0000001
 44
0.0000000001
 12
0.0013845228
 22
-0.0126870631
 32
0.0
 13
0.0127495162
 23
0.0005729829
 33
0.0
 40
0.0
 40
0.0
 40
0.0
 40
0.0
 40
0.4308009656
 40
0.7365966455
 40
0.9220258622
 40
1.0
 40
1.0
 40
1.0
 40
1.0
 10
2.860155981
 20
16.8921394635
 30
0.0
 10
2.8603547989
 20
16.8903175971
 30
0.0
 10
2.8607083527
 20
16.8872511931
 30
0.0
 10
2.8614125274
 20
16.8832419892
 30
0.0
 10
2.8619001843
 20
16.8811345457
 30
0.0
 10
2.8625511957
 20
16.8798331922
 30
0.0
 10
2.8628825732
 20
16.8798480848
 30
0.0
 11
2.860155981
 21
16.8921394635
 31
0.0
 11
2.8608398436
 21
16.8866841118
 31
0.0
 11
2.8615221613
 21
16.8828415383
 31
0.0
 11
2.8622030369
 21
16.8805750827
 31
0.0
 11
2.8628825732
 21
16.8798480848
 31
0.0
  0
SPLINE
  5
446
100
AcDbEntity
  8
0
100
AcDbSpline
 62
7
  6
CONTINUOUS
 70
0
 71
3
 72
11
 73
7
 74
5
 42
0.0000001
 43
0.0000001
 44
0.0000000001
 12
0.0071178812
 22
0.0154346006
 32
0.0
 13
0.0016160963
 23
0.016919792
 33
0.0
 40
0.0
 40
0.0
 40
0.0
 40
0.0
 40
0.1311103364
 40
0.3416363058
 40
0.6315506805
 40
1.0
 40
1.0
 40
1.0
 40
1.0
 10
44.7576254417
 20
16.8828389677
 30
0.0
 10
44.7579365176
 20
16.883513513
 30
0.0
 10
44.7584154724
 20
16.8854069408
 30
0.0
 10
44.759045491
 20
16.8889216465
 30
0.0
 10
44.7596752692
 20
16.8938092389
 30
0.0
 10
44.7600603508
 20
16.8975183073
 30
0.0
 10
44.760258834
 20
16.8995963359
 30
0.0
 11
44.7576254417
 21
16.8828389677
 31
0.0
 11
44.7582837898
 21
16.8849679565
 31
0.0
 11
44.7589421378
 21
16.8884851393
 31
0.0
 11
44.7596004859
 21
16.8933685783
 31
0.0
 11
44.760258834
 21
16.8995963359
 31
0.0
  0
SPLINE
  5
447
100
AcDbEntity
  8
0
100
AcDbSpline
 62
7
  6
CONTINUOUS
 70
0
 71
3
 72
9
 73
5
 74
3
 42
0.0000001
 43
0.0000001
 44
0.0000000001
 12
0.0056483831
 22
0.0591359977
 32
0.0
 13
0.0027894592
 23
0.0593396105
 33
0.0
 40
0.0
 40
0.0
 40
0.0
 40
0.0
 40
0.4157263888
 40
1.0
 40
1.0
 40
1.0
 40
1.0
 10
44.760258834
 20
16.8995963359
 30
0.0
 10
44.7610415613
 20
16.9077911342
 30
0.0
 10
44.7624038517
 20
16.9275504106
 30
0.0
 10
44.7634302902
 20
16.9473249427
 30
0.0
 10
44.7639735593
 20
16.9588817989
 30
0.0
 11
44.760258834
 21
16.8995963359
 31
0.0
 11
44.7621161967
 21
16.924222676
 31
0.0
 11
44.7639735593
 21
16.9588817989
 31
0.0
  0
SPLINE
  5
448
100
AcDbEntity
  8
0
100
AcDbSpline
 62
7
  6
CONTINUOUS
 70
0
 71
3
 72
9
 73
5
 74
3
 42
0.0000001
 43
0.0000001
 44
0.0000000001
 12
0.0045988935
 22
0.0978313445
 32
0.0
 13
0.0031789342
 23
0.0978877733
 33
0.0
 40
0.0
 40
0.0
 40
0.0
 40
0.0
 40
0.2150941306
 40
1.0
 40
1.0
 40
1.0
 40
1.0
 10
44.7639735593
 20
16.9588817989
 30
0.0
 10
44.764303291
 20
16.9658961149
 30
0.0
 10
44.7657381877
 20
16.9985111787
 30
0.0
 10
44.766874636
 20
17.0311386059
 30
0.0
 10
44.7677063574
 20
17.0567495018
 30
0.0
 11
44.7639735593
 21
16.9588817989
 31
0.0
 11
44.7649067589
 21
16.9799273045
 31
0.0
 11
44.7677063574
 21
17.0567495018
 31
0.0
  0
SPLINE
  5
449
100
AcDbEntity
  8
0
100
AcDbSpline
 62
7
  6
CONTINUOUS
 70
0
 71
3
 72
9
 73
5
 74
3
 42
0.0000001
 43
0.0000001
 44
0.0000000001
 12
0.0085017904
 22
0.2617925602
 32
0.0
 13
0.0067984459
 23
0.2618423307
 33
0.0
 40
0.0
 40
0.0
 40
0.0
 40
0.0
 40
0.4731767759
 40
1.0
 40
1.0
 40
1.0
 40
1.0
 10
44.7677063574
 20
17.0567495018
 30
0.0
 10
44.7690473073
 20
17.0980408883
 30
0.0
 10
44.7715283578
 20
17.1853163238
 30
0.0
 10
44.7737937124
 20
17.2725970198
 30
0.0
 10
44.7749875721
 20
17.3185785601
 30
0.0
 11
44.7677063574
 21
17.0567495018
 31
0.0
 11
44.7713469648
 21
17.1806354845
 31
0.0
 11
44.7749875721
 21
17.3185785601
 31
0.0
  0
LINE
  5
44A
100
AcDbEntity
  8
0
100
AcDbLine
 62
7
  6
CONTINUOUS
 10
44.7749875721
 20
17.3185785601
 11
44.7751472017
 21
17.3247263014
  0
LINE
  5
44B
100
AcDbEntity
  8
0
100
AcDbLine
 62
7
  6
CONTINUOUS
 10
44.7751472017
 20
17.3247263014
 11
44.7787901475
 21
17.4622155458
  0
SPLINE
  5
44C
100
AcDbEntity
  8
0
100
AcDbSpline
 62
7
  6
CONTINUOUS
 70
0
 71
3
 72
10
 73
6
 74
4
 42
0.0000001
 43
0.0000001
 44
0.0000000001
 12
0.0049836775
 22
0.0000016756
 32
0.0
 13
0.0008629695
 23
-0.0049083936
 33
0.0
 40
0.0
 40
0.0
 40
0.0
 40
0.0
 40
0.0994066886
 40
0.2917033465
 40
1.0
 40
1.0
 40
1.0
 40
1.0
 10
2.9789033464
 20
17.7616733444
 30
0.0
 10
2.9790684833
 20
17.7616733999
 30
0.0
 10
2.9794516093
 20
17.761246491
 30
0.0
 10
2.9799874915
 20
17.7597390915
 30
0.0
 10
2.9802992842
 20
17.7582307926
 30
0.0
 10
2.9805030303
 20
17.7570719264
 30
0.0
 11
2.9789033464
 21
17.7616733444
 31
0.0
 11
2.9793032674
 21
17.7613809488
 31
0.0
 11
2.9797031883
 21
17.7605100369
 31
0.0
 11
2.9805030303
 21
17.7570719264
 31
0.0
  0
SPLINE
  5
44D
100
AcDbEntity
  8
0
100
AcDbSpline
 62
7
  6
CONTINUOUS
 70
0
 71
3
 72
9
 73
5
 74
3
 42
0.0000001
 43
0.0000001
 44
0.0000000001
 12
0.0029171185
 22
-0.0165919718
 32
0.0
 13
0.0014095848
 23
-0.0167873816
 33
0.0
 40
0.0
 40
0.0
 40
0.0
 40
0.0
 40
0.4132124371
 40
1.0
 40
1.0
 40
1.0
 40
1.0
 10
2.9805030303
 20
17.7570719264
 30
0.0
 10
2.9809048269
 20
17.75478659
 30
0.0
 10
2.981599642
 20
17.749209722
 30
0.0
 10
2.9821196421
 20
17.743618997
 30
0.0
 10
2.982395351
 20
17.7403354548
 30
0.0
 11
2.9805030303
 21
17.7570719264
 31
0.0
 11
2.9814491907
 21
17.7501753616
 31
0.0
 11
2.982395351
 21
17.7403354548
 31
0.0
  0
SPLINE
  5
44E
100
AcDbEntity
  8
0
100
AcDbSpline
 62
7
  6
CONTINUOUS
 70
0
 71
3
 72
25
 73
21
 74
19
 42
0.0000001
 43
0.0000001
 44
0.0000000001
 12
0.0721741924
 22
-0.8595550022
 32
0.0
 13
0.2549652651
 23
-0.8240367889
 33
0.0
 40
0.0
 40
0.0
 40
0.0
 40
0.0
 40
0.0341165828
 40
0.0809901245
 40
0.1392706368
 40
0.2076024973
 40
0.3684986695
 40
0.4565174292
 40
0.5458732894
 40
0.6337598096
 40
0.7173706475
 40
0.7938998006
 40
0.8605441213
 40
0.9151120237
 40
0.9376257412
 40
0.9568737379
 40
0.9727928638
 40
0.9853218188
 40
0.9944040587
 40
1.0
 40
1.0
 40
1.0
 40
1.0
 10
2.982395351
 20
17.7403354548
 30
0.0
 10
2.98321613
 20
17.7305604283
 30
0.0
 10
2.9846501601
 20
17.707314105
 30
0.0
 10
2.9865439606
 20
17.6673154213
 30
0.0
 10
2.9884570041
 20
17.6174694291
 30
0.0
 10
2.9911864188
 20
17.5348481184
 30
0.0
 10
2.9936878699
 20
17.4436649362
 30
0.0
 10
2.9961995965
 20
17.3464356109
 30
0.0
 10
2.9981383215
 20
17.2701906035
 30
0.0
 10
3.000076165
 20
17.1952133961
 30
0.0
 10
3.0020092193
 20
17.1239253618
 30
0.0
 10
3.003931737
 20
17.0587470303
 30
0.0
 10
3.0058430229
 20
17.0019231703
 30
0.0
 10
3.0075235913
 20
16.960631361
 30
0.0
 10
3.0089131057
 20
16.9329690091
 30
0.0
 10
3.0098813093
 20
16.9164115358
 30
0.0
 10
3.0108477357
 20
16.9027332901
 30
0.0
 10
3.0117865191
 20
16.8919773381
 30
0.0
 10
3.0127329007
 20
16.8842209014
 30
0.0
 10
3.0134380026
 20
16.8800401706
 30
0.0
 10
3.0139135928
 20
16.8785030835
 30
0.0
 11
2.982395351
 21
17.7403354548
 31
0.0
 11
2.9843652411
 21
17.7109731845
 31
0.0
 11
2.9863351312
 21
17.67058903
 31
0.0
 11
2.9883050214
 21
17.620356047
 31
0.0
 11
2.9902749115
 21
17.5614472914
 31
0.0
 11
2.9942146917
 21
17.4227174344
 31
0.0
 11
2.9961845818
 21
17.3468197895
 31
0.0
 11
2.9981544719
 21
17.2697684062
 31
0.0
 11
3.000124362
 21
17.193984867
 31
0.0
 11
3.0020942522
 21
17.1218907544
 31
0.0
 11
3.0040641423
 21
17.0559076511
 31
0.0
 11
3.0060340324
 21
16.9984553674
 31
0.0
 11
3.0080039225
 21
16.9514274359
 31
0.0
 11
3.0089888675
 21
16.9320325514
 31
0.0
 11
3.0099738126
 21
16.9154588592
 31
0.0
 11
3.0109587577
 21
16.9017627127
 31
0.0
 11
3.0119437027
 21
16.8910004656
 31
0.0
 11
3.0129286478
 21
16.8832284713
 31
0.0
 11
3.0139135928
 21
16.8785030835
 31
0.0
  0
SPLINE
  5
44F
100
AcDbEntity
  8
0
100
AcDbSpline
 62
7
  6
CONTINUOUS
 70
0
 71
3
 72
12
 73
8
 74
6
 42
0.0000001
 43
0.0000001
 44
0.0000000001
 12
0.0114259799
 22
-0.0197740903
 32
0.0
 13
0.0017712104
 23
-0.0227690685
 33
0.0
 40
0.0
 40
0.0
 40
0.0
 40
0.0
 40
0.0443978412
 40
0.111715861
 40
0.3160767891
 40
0.6127357133
 40
1.0
 40
1.0
 40
1.0
 40
1.0
 10
2.8777669464
 20
17.7964333095
 30
0.0
 10
2.8779360427
 20
17.7961406672
 30
0.0
 10
2.8782213064
 20
17.7953304087
 30
0.0
 10
2.8787899668
 20
17.7929956086
 30
0.0
 10
2.8794234992
 20
17.7887058175
 30
0.0
 10
2.8801624801
 20
17.7819874151
 30
0.0
 10
2.8805984935
 20
17.7767975569
 30
0.0
 10
2.8808271357
 20
17.7738583412
 30
0.0
 11
2.8777669464
 21
17.7964333095
 31
0.0
 11
2.8781494701
 21
17.7954942817
 31
0.0
 11
2.8785319938
 21
17.7940052309
 31
0.0
 11
2.8792970411
 21
17.7894011962
 31
0.0
 11
2.8800620884
 21
17.782669476
 31
0.0
 11
2.8808271357
 21
17.7738583412
 31
0.0
  0
SPLINE
  5
450
100
AcDbEntity
  8
0
100
AcDbSpline
 62
7
  6
CONTINUOUS
 70
0
 71
3
 72
17
 73
13
 74
11
 42
0.0000001
 43
0.0000001
 44
0.0000000001
 12
0.0562960723
 22
-0.8822801957
 32
0.0
 13
0.0528982691
 23
-0.8824904331
 33
0.0
 40
0.0
 40
0.0
 40
0.0
 40
0.0
 40
0.0349177048
 40
0.0799329645
 40
0.196416672
 40
0.3389037353
 40
0.4955847282
 40
0.6528888803
 40
0.7971877512
 40
0.916492619
 40
0.9632290465
 40
1.0
 40
1.0
 40
1.0
 40
1.0
 10
2.8816494038
 20
17.7621248289
 30
0.0
 10
2.882304647
 20
17.7518557625
 30
0.0
 10
2.8835228318
 20
17.7283304104
 30
0.0
 10
2.8858906356
 20
17.6704962997
 30
0.0
 10
2.888640255
 20
17.5809546575
 30
0.0
 10
2.8918301837
 20
17.4585074441
 30
0.0
 10
2.8950232772
 20
17.3240267414
 30
0.0
 10
2.898218168
 20
17.1890120564
 30
0.0
 10
2.9014097474
 20
17.0650153658
 30
0.0
 10
2.9041622021
 20
16.9736006986
 30
0.0
 10
2.9065216521
 20
16.9138799927
 30
0.0
 10
2.907736348
 20
16.8892999955
 30
0.0
 10
2.9083847213
 20
16.8784833239
 30
0.0
 11
2.8816494038
 21
17.7621248289
 31
0.0
 11
2.8833203612
 21
17.731300236
 31
0.0
 11
2.8849913185
 21
17.691538491
 31
0.0
 11
2.8883332332
 21
17.5886124642
 31
0.0
 11
2.8916751479
 21
17.4626876331
 31
0.0
 11
2.8950170625
 21
17.3242102941
 31
0.0
 11
2.8983589772
 21
17.1851818761
 31
0.0
 11
2.9017008919
 21
17.0576547153
 31
0.0
 11
2.9050428066
 21
16.9522332897
 31
0.0
 11
2.9067137639
 21
16.9109486107
 31
0.0
 11
2.9083847213
 21
16.8784833239
 31
0.0
  0
LINE
  5
451
100
AcDbEntity
  8
0
100
AcDbLine
 62
7
  6
CONTINUOUS
 10
2.9083847213
 20
16.8784833239
 11
2.9094319229
 21
16.8628722794
  0
SPLINE
  5
452
100
AcDbEntity
  8
0
100
AcDbSpline
 62
7
  6
CONTINUOUS
 70
0
 71
3
 72
11
 73
7
 74
5
 42
0.0000001
 43
0.0000001
 44
0.0000000001
 12
0.0017848078
 22
-0.0234008096
 32
0.0
 13
0.0099741932
 23
-0.0212437967
 33
0.0
 40
0.0
 40
0.0
 40
0.0
 40
0.0
 40
0.3800394381
 40
0.6744041864
 40
0.8813617449
 40
1.0
 40
1.0
 40
1.0
 40
1.0
 10
2.9094319229
 20
16.8628722794
 30
0.0
 10
2.909658022
 20
16.8599078692
 30
0.0
 10
2.9100977691
 20
16.8546535124
 30
0.0
 10
2.9108038067
 20
16.8477830381
 30
0.0
 10
2.9115348301
 20
16.8430086947
 30
0.0
 10
2.9120519838
 20
16.8404794926
 30
0.0
 10
2.9124464241
 20
16.8396393836
 30
0.0
 11
2.9094319229
 21
16.8628722794
 31
0.0
 11
2.9101855482
 21
16.8539851153
 31
0.0
 11
2.9109391735
 21
16.847117964
 31
0.0
 11
2.9116927988
 21
16.8423197465
 31
0.0
 11
2.9124464241
 21
16.8396393836
 31
0.0
  0
SPLINE
  5
453
100
AcDbEntity
  8
0
100
AcDbSpline
 62
7
  6
CONTINUOUS
 70
0
 71
3
 72
13
 73
9
 74
7
 42
0.0000001
 43
0.0000001
 44
0.0000000001
 12
-0.0239780307
 22
0.0007466206
 32
0.0
 13
-0.0017849214
 23
-0.0239231572
 33
0.0
 40
0.0
 40
0.0
 40
0.0
 40
0.0
 40
0.0241714945
 40
0.073902915
 40
0.1530670661
 40
0.2622950926
 40
0.5711665252
 40
1.0
 40
1.0
 40
1.0
 40
1.0
 10
44.1990801719
 20
17.8118150064
 30
0.0
 10
44.1988869769
 20
17.8118210221
 30
0.0
 10
44.1984406807
 20
17.8112565021
 30
0.0
 10
44.1981081303
 20
17.810150103
 30
0.0
 10
44.1976547366
 20
17.8082621561
 30
0.0
 10
44.197035702
 20
17.8043531965
 30
0.0
 10
44.1962858394
 20
17.7976047721
 30
0.0
 10
44.1958082291
 20
17.7917302045
 30
0.0
 10
44.1955530844
 20
17.7883105209
 30
0.0
 11
44.1990801719
 21
17.8118150064
 31
0.0
 11
44.1986256026
 21
17.811454991
 31
0.0
 11
44.1981772281
 21
17.8103494127
 31
0.0
 11
44.1977339058
 21
17.8085027607
 31
0.0
 11
44.197294493
 21
17.8059195243
 31
0.0
 11
44.1964228254
 21
17.7985612555
 31
0.0
 11
44.1955530844
 21
17.7883105209
 31
0.0
  0
SPLINE
  5
454
100
AcDbEntity
  8
0
100
AcDbSpline
 62
7
  6
CONTINUOUS
 70
0
 71
3
 72
17
 73
13
 74
11
 42
0.0000001
 43
0.0000001
 44
0.0000000001
 12
-0.0565712539
 22
-0.9261107525
 32
0.0
 13
-0.0683586435
 23
-0.9253153671
 33
0.0
 40
0.0
 40
0.0
 40
0.0
 40
0.0
 40
0.0361260067
 40
0.0828780126
 40
0.2037191874
 40
0.351346649
 40
0.5121180255
 40
0.6711719554
 40
0.8138191023
 40
0.9268974766
 40
0.9689471921
 40
1.0
 40
1.0
 40
1.0
 40
1.0
 10
44.1947153131
 20
17.7758287471
 30
0.0
 10
44.1940340819
 20
17.7646765194
 30
0.0
 10
44.1927677047
 20
17.7390740815
 30
0.0
 10
44.1902988426
 20
17.6761161905
 30
0.0
 10
44.18743433
 20
17.578665355
 30
0.0
 10
44.1841495537
 20
17.4459513621
 30
0.0
 10
44.1808324148
 20
17.3014160454
 30
0.0
 10
44.1775322205
 20
17.1584208274
 30
0.0
 10
44.1742403804
 20
17.0301811388
 30
0.0
 10
44.1714020095
 20
16.9381263895
 30
0.0
 10
44.1689185156
 20
16.8805982213
 30
0.0
 10
44.1676502448
 20
16.8580223426
 30
0.0
 10
44.1669426689
 20
16.8484444625
 30
0.0
 11
44.1947153131
 21
17.7758287471
 31
0.0
 11
44.1929798477
 21
17.7423546602
 31
0.0
 11
44.1912362637
 21
17.6990114767
 31
0.0
 11
44.1877557868
 21
17.5869446017
 31
0.0
 11
44.1842894532
 21
17.4500142532
 31
0.0
 11
44.1808170126
 21
17.3008850493
 31
0.0
 11
44.1773480286
 21
17.1533497111
 31
0.0
 11
44.1738787523
 21
17.0210418919
 31
0.0
 11
44.1704111526
 21
16.9161809148
 31
0.0
 11
44.1686748322
 21
16.8772042899
 31
0.0
 11
44.1669426689
 21
16.8484444625
 31
0.0
  0
SPLINE
  5
455
100
AcDbEntity
  8
0
100
AcDbSpline
 62
7
  6
CONTINUOUS
 70
0
 71
3
 72
9
 73
5
 74
3
 42
0.0000001
 43
0.0000001
 44
0.0000000001
 12
-0.001472716
 22
-0.0199349593
 32
0.0
 13
-0.0033577237
 23
-0.0197052578
 33
0.0
 40
0.0
 40
0.0
 40
0.0
 40
0.0
 40
0.5973204896
 40
1.0
 40
1.0
 40
1.0
 40
1.0
 10
44.1669426689
 20
16.8484444625
 30
0.0
 10
44.166649441
 20
16.844475276
 30
0.0
 10
44.1661002211
 20
16.837836149
 30
0.0
 10
44.1653508641
 20
16.8312089698
 30
0.0
 10
44.1649001686
 20
16.828564002
 30
0.0
 11
44.1669426689
 21
16.8484444625
 31
0.0
 11
44.1659219132
 21
16.8365481657
 31
0.0
 11
44.1649001686
 21
16.828564002
 31
0.0
  0
SPLINE
  5
456
100
AcDbEntity
  8
0
100
AcDbSpline
 62
7
  6
CONTINUOUS
 70
0
 71
3
 72
9
 73
5
 74
3
 42
0.0000001
 43
0.0000001
 44
0.0000000001
 12
-0.0007122886
 22
-0.0041801626
 32
0.0
 13
-0.0020692574
 23
-0.0037012549
 33
0.0
 40
0.0
 40
0.0
 40
0.0
 40
0.0
 40
0.6231575095
 40
1.0
 40
1.0
 40
1.0
 40
1.0
 10
44.1649001686
 20
16.828564002
 30
0.0
 10
44.1647522126
 20
16.8276957021
 30
0.0
 10
44.1644781362
 20
16.8263162915
 30
0.0
 10
44.1640903271
 20
16.8249355745
 30
0.0
 10
44.1638303991
 20
16.8244706444
 30
0.0
 11
44.1649001686
 21
16.828564002
 31
0.0
 11
44.1643664618
 21
16.8259760146
 31
0.0
 11
44.1638303991
 21
16.8244706444
 31
0.0
  0
SPLINE
  5
457
100
AcDbEntity
  8
0
100
AcDbSpline
 62
7
  6
CONTINUOUS
 70
0
 71
3
 72
12
 73
8
 74
6
 42
0.0000001
 43
0.0000001
 44
0.0000000001
 12
0.0134094212
 22
0.0048473536
 32
0.0
 13
0.0014683828
 23
0.0141828512
 33
0.0
 40
0.0
 40
0.0
 40
0.0
 40
0.0
 40
0.0332836606
 40
0.0898519638
 40
0.2828573983
 40
0.5859776593
 40
1.0
 40
1.0
 40
1.0
 40
1.0
 10
44.6947240825
 20
16.8783429613
 30
0.0
 10
44.694872854
 20
16.8783967405
 30
0.0
 10
44.6951606842
 20
16.8787597693
 30
0.0
 10
44.6956673659
 20
16.879984622
 30
0.0
 10
44.6962406533
 20
16.8825814531
 30
0.0
 10
44.6968953497
 20
16.8868424738
 30
0.0
 10
44.6972786317
 20
16.8902352554
 30
0.0
 10
44.6974812795
 20
16.8921925944
 30
0.0
 11
44.6947240825
 21
16.8783429613
 31
0.0
 11
44.6950686847
 21
16.8786692677
 31
0.0
 11
44.6954132984
 21
16.8793985317
 31
0.0
 11
44.6961025641
 21
16.8820628162
 31
0.0
 11
44.6967918883
 21
16.8863295814
 31
0.0
 11
44.6974812795
 21
16.8921925944
 31
0.0
  0
SPLINE
  5
458
100
AcDbEntity
  8
0
100
AcDbSpline
 62
7
  6
CONTINUOUS
 70
0
 71
3
 72
20
 73
16
 74
14
 42
0.0000001
 43
0.0000001
 44
0.0000000001
 12
0.0873264375
 22
0.8434706851
 32
0.0
 13
0.0771318286
 23
0.8444639627
 33
0.0
 40
0.0
 40
0.0
 40
0.0
 40
0.0
 40
0.0276863416
 40
0.0678307051
 40
0.1193948418
 40
0.1810152007
 40
0.2511550003
 40
0.3279233393
 40
0.4931448486
 40
0.6593658964
 40
0.8091271731
 40
0.8728001069
 40
0.9267484248
 40
0.969520562
 40
1.0
 40
1.0
 40
1.0
 40
1.0
 10
44.6974812795
 20
16.8921925944
 30
0.0
 10
44.698287196
 20
16.8999768003
 30
0.0
 10
44.6996316932
 20
16.9191088488
 30
0.0
 10
44.7014015915
 20
16.9528089464
 30
0.0
 10
44.7031814195
 20
16.9961138298
 30
0.0
 10
44.7049895613
 20
17.0479004809
 30
0.0
 10
44.7068010282
 20
17.1068154821
 30
0.0
 10
44.7092880846
 20
17.1950069035
 30
0.0
 10
44.7122742872
 20
17.3103531731
 30
0.0
 10
44.7157852416
 20
17.4463245963
 30
0.0
 10
44.718810115
 20
17.55359593
 30
0.0
 10
44.7213652514
 20
17.6291309507
 30
0.0
 10
44.7231549196
 20
17.6744334104
 30
0.0
 10
44.7249316877
 20
17.7103430048
 30
0.0
 10
44.7262819059
 20
17.7310085638
 30
0.0
 10
44.7270655508
 20
17.7395881595
 30
0.0
 11
44.6974812795
 21
16.8921925944
 31
0.0
 11
44.6993282835
 21
16.9155972699
 31
0.0
 11
44.701175792
 21
16.9495886836
 31
0.0
 11
44.7030236992
 21
16.9932749331
 31
0.0
 11
44.7048716383
 21
17.0454950282
 31
0.0
 11
44.7067193732
 21
17.1049434105
 31
0.0
 11
44.7085673924
 21
17.1700151279
 31
0.0
 11
44.7122653978
 21
17.3100707169
 31
0.0
 11
44.7159640276
 21
17.450974171
 31
0.0
 11
44.7196629621
 21
17.5779147365
 31
0.0
 11
44.7215133956
 21
17.6318763413
 31
0.0
 11
44.7233641889
 21
17.6775859379
 31
0.0
 11
44.7252148918
 21
17.7138085724
 31
0.0
 11
44.7270655508
 21
17.7395881595
 31
0.0
  0
SPLINE
  5
459
100
AcDbEntity
  8
0
100
AcDbSpline
 62
7
  6
CONTINUOUS
 70
0
 71
3
 72
10
 73
6
 74
4
 42
0.0000001
 43
0.0000001
 44
0.0000000001
 12
0.001485798
 22
0.0162669925
 32
0.0
 13
0.0045288106
 23
0.0156943466
 33
0.0
 40
0.0
 40
0.0
 40
0.0
 40
0.0
 40
0.6268156407
 40
0.8450532755
 40
1.0
 40
1.0
 40
1.0
 40
1.0
 10
44.7270655508
 20
17.7395881595
 30
0.0
 10
44.7273759913
 20
17.7429869612
 30
0.0
 10
44.7278329657
 20
17.7475689509
 30
0.0
 10
44.7286561183
 20
17.7529508437
 30
0.0
 10
44.7290710738
 20
17.7549439198
 30
0.0
 10
44.729304982
 20
17.7557545157
 30
0.0
 11
44.7270655508
 21
17.7395881595
 31
0.0
 11
44.7281852033
 21
17.7497656061
 31
0.0
 11
44.7287450718
 21
17.7532862149
 31
0.0
 11
44.729304982
 21
17.7557545157
 31
0.0
  0
LINE
  5
45A
100
AcDbEntity
  8
0
100
AcDbLine
 62
7
  6
CONTINUOUS
 10
44.729304982
 20
17.7557545157
 11
44.729818906
 21
17.757089368
  0
LINE
  5
45B
100
AcDbEntity
  8
0
100
AcDbLine
 62
7
  6
CONTINUOUS
 10
2.899446545
 20
17.7587566682
 11
2.9003723022
 21
17.7544942959
  0
SPLINE
  5
45C
100
AcDbEntity
  8
0
100
AcDbSpline
 62
7
  6
CONTINUOUS
 70
0
 71
3
 72
9
 73
5
 74
3
 42
0.0000001
 43
0.0000001
 44
0.0000000001
 12
0.0050915262
 22
-0.0314428247
 32
0.0
 13
0.0020363507
 23
-0.0317872323
 33
0.0
 40
0.0
 40
0.0
 40
0.0
 40
0.0
 40
0.3960670446
 40
1.0
 40
1.0
 40
1.0
 40
1.0
 10
2.9003723022
 20
17.7544942959
 30
0.0
 10
2.9010444975
 20
17.7503431403
 30
0.0
 10
2.9020627699
 20
17.7397621546
 30
0.0
 10
2.9028020212
 20
17.7291742564
 30
0.0
 10
2.9032119609
 20
17.7227751373
 30
0.0
 11
2.9003723022
 21
17.7544942959
 31
0.0
 11
2.901807336
 21
17.7419604965
 31
0.0
 11
2.9032119609
 21
17.7227751373
 31
0.0
  0
SPLINE
  5
45D
100
AcDbEntity
  8
0
100
AcDbSpline
 62
7
  6
CONTINUOUS
 70
0
 71
3
 72
29
 73
25
 74
23
 42
0.0000001
 43
0.0000001
 44
0.0000000001
 12
0.0538889164
 22
-0.8412006271
 32
0.0
 13
0.3411491414
 23
-0.7708046274
 33
0.0
 40
0.0
 40
0.0
 40
0.0
 40
0.0
 40
0.041674411
 40
0.0946362523
 40
0.1576565735
 40
0.2296009613
 40
0.3939663429
 40
0.4812083945
 40
0.5681720854
 40
0.6527116428
 40
0.7328523032
 40
0.7706221522
 40
0.8064670658
 40
0.8400557819
 40
0.87102418
 40
0.8989817148
 40
0.9236032219
 40
0.9447995575
 40
0.9625671103
 40
0.9769299091
 40
0.9879278805
 40
0.9955932867
 40
0.9981971329
 40
1.0
 40
1.0
 40
1.0
 40
1.0
 10
2.9032119609
 20
17.7227751373
 30
0.0
 10
2.9039605572
 20
17.7110896238
 30
0.0
 10
2.9053612316
 20
17.6845347358
 30
0.0
 10
2.9072028808
 20
17.64027519
 30
0.0
 10
2.9090281965
 20
17.5875038398
 30
0.0
 10
2.911725668
 20
17.5034427068
 30
0.0
 10
2.9140692299
 20
17.4125624317
 30
0.0
 10
2.9166036853
 20
17.3174662579
 30
0.0
 10
2.9184259088
 20
17.2447880921
 30
0.0
 10
2.9203220616
 20
17.174107873
 30
0.0
 10
2.9219163469
 20
17.1172467365
 30
0.0
 10
2.9232325923
 20
17.0740653839
 30
0.0
 10
2.9241133393
 20
17.0439566742
 30
0.0
 10
2.9251126413
 20
17.0157638135
 30
0.0
 10
2.9260450501
 20
16.9897862879
 30
0.0
 10
2.9269729563
 20
16.9663296679
 30
0.0
 10
2.9279450867
 20
16.9456234922
 30
0.0
 10
2.928848302
 20
16.9277798807
 30
0.0
 10
2.929797659
 20
16.9128269916
 30
0.0
 10
2.9307005289
 20
16.9007400509
 30
0.0
 10
2.9316800947
 20
16.8915146918
 30
0.0
 10
2.9324393155
 20
16.885579945
 30
0.0
 10
2.9331390321
 20
16.8822616304
 30
0.0
 10
2.9334983455
 20
16.881070314
 30
0.0
 10
2.933703361
 20
16.8806070946
 30
0.0
 11
2.9032119609
 21
17.7227751373
 31
0.0
 11
2.9051369272
 21
17.6876995174
 31
0.0
 11
2.9070377773
 21
17.6430971452
 31
0.0
 11
2.908920883
 21
17.5900091303
 31
0.0
 11
2.9108540628
 21
17.5293962297
 31
0.0
 11
2.9146538909
 21
17.3909006619
 31
0.0
 11
2.9165864052
 21
17.3173875545
 31
0.0
 11
2.9184646995
 21
17.2441077558
 31
0.0
 11
2.9203699585
 21
17.1728727262
 31
0.0
 11
2.9222873642
 21
17.1053473794
 31
0.0
 11
2.9232423855
 21
17.0735245576
 31
0.0
 11
2.9241640248
 21
17.0433240445
 31
0.0
 11
2.9251409144
 21
17.015028135
 31
0.0
 11
2.9260921236
 21
16.9889414352
 31
0.0
 11
2.9270407876
 21
16.9653944331
 31
0.0
 11
2.9280038195
 21
16.9446627053
 31
0.0
 11
2.9289384937
 21
16.9268202492
 31
0.0
 11
2.9298890435
 21
16.9118737308
 31
0.0
 11
2.9308419473
 21
16.899804528
 31
0.0
 11
2.9318180764
 21
16.890585597
 31
0.0
 11
2.9327473885
 21
16.8841914135
 31
0.0
 11
2.9332217317
 21
16.8820484362
 31
0.0
 11
2.933703361
 21
16.8806070946
 31
0.0
  0
SPLINE
  5
45E
100
AcDbEntity
  8
0
100
AcDbSpline
 62
7
  6
CONTINUOUS
 70
0
 71
3
 72
14
 73
10
 74
8
 42
0.0000001
 43
0.0000001
 44
0.0000000001
 12
0.024755955
 22
0.0007708467
 32
0.0
 13
0.0018180143
 23
0.0247011404
 33
0.0
 40
0.0
 40
0.0
 40
0.0
 40
0.0
 40
0.0244697096
 40
0.0747794542
 40
0.1543796036
 40
0.263830048
 40
0.4032080759
 40
0.5724488147
 40
1.0
 40
1.0
 40
1.0
 40
1.0
 10
44.1445598136
 20
16.8234624135
 30
0.0
 10
44.1447617373
 20
16.823468701
 30
0.0
 10
44.1451956198
 20
16.824074723
 30
0.0
 10
44.1455418422
 20
16.8252245226
 30
0.0
 10
44.1459946643
 20
16.8271895199
 30
0.0
 10
44.1464102214
 20
16.8298536309
 30
0.0
 10
44.1468477687
 20
16.8332837619
 30
0.0
 10
44.1474743142
 20
16.8393266624
 30
0.0
 10
44.1478687879
 20
16.8442398547
 30
0.0
 10
44.148127886
 20
16.8477601887
 30
0.0
 11
44.1445598136
 21
16.8234624135
 31
0.0
 11
44.1450171905
 21
16.8238600575
 31
0.0
 11
44.1454693175
 21
16.8250212079
 31
0.0
 11
44.1459171955
 21
16.826941194
 31
0.0
 11
44.1463618255
 21
16.8296153453
 31
0.0
 11
44.1468042086
 21
16.8330389911
 31
0.0
 11
44.1472453457
 21
16.8372074606
 31
0.0
 11
44.148127886
 21
16.8477601887
 31
0.0
  0
SPLINE
  5
45F
100
AcDbEntity
  8
0
100
AcDbSpline
 62
7
  6
CONTINUOUS
 70
0
 71
3
 72
18
 73
14
 74
12
 42
0.0000001
 43
0.0000001
 44
0.0000000001
 12
0.0554867795
 22
0.9253285067
 32
0.0
 13
0.0676714183
 23
0.9245172834
 33
0.0
 40
0.0
 40
0.0
 40
0.0
 40
0.0
 40
0.0365721493
 40
0.0836377905
 40
0.2047433414
 40
0.3522600034
 40
0.5126933749
 40
0.6713540775
 40
0.8137066569
 40
0.8745883041
 40
0.9267032503
 40
0.9688141226
 40
1.0
 40
1.0
 40
1.0
 40
1.0
 10
44.1490036906
 20
16.8610230233
 30
0.0
 10
44.1496801142
 20
16.8723034408
 30
0.0
 10
44.1509403034
 20
16.8981177554
 30
0.0
 10
44.1533859039
 20
16.9613357654
 30
0.0
 10
44.1562232644
 20
17.0588427226
 30
0.0
 10
44.1595092765
 20
17.1913785374
 30
0.0
 10
44.1628004273
 20
17.3355224095
 30
0.0
 10
44.1661055718
 20
17.4780695235
 30
0.0
 10
44.1689368548
 20
17.5898586145
 30
0.0
 10
44.1713329169
 20
17.6687243987
 30
0.0
 10
44.1730200041
 20
17.7166229861
 30
0.0
 10
44.1746882402
 20
17.7553387269
 30
0.0
 10
44.1759473703
 20
17.7779545151
 30
0.0
 10
44.1766508345
 20
17.7875651427
 30
0.0
 11
44.1490036906
 21
16.8610230233
 31
0.0
 11
44.1507322609
 21
16.8948809669
 31
0.0
 11
44.1524625704
 21
16.9384760504
 31
0.0
 11
44.1559133139
 21
17.0506867146
 31
0.0
 11
44.159367571
 21
17.1873896433
 31
0.0
 11
44.1628217436
 21
17.3360697568
 31
0.0
 11
44.1662776518
 21
17.4831061336
 31
0.0
 11
44.1697297859
 21
17.6150204783
 31
0.0
 11
44.171464167
 21
17.6714305385
 31
0.0
 11
44.1731987209
 21
17.719709456
 31
0.0
 11
44.1749273513
 21
17.7587075472
 31
0.0
 11
44.1766508345
 21
17.7875651427
 31
0.0
  0
SPLINE
  5
460
100
AcDbEntity
  8
0
100
AcDbSpline
 62
7
  6
CONTINUOUS
 70
0
 71
3
 72
10
 73
6
 74
4
 42
0.0000001
 43
0.0000001
 44
0.0000000001
 12
0.0016539963
 22
0.0225966625
 32
0.0
 13
0.005228467
 23
0.022045589
 33
0.0
 40
0.0
 40
0.0
 40
0.0
 40
0.0
 40
0.629399348
 40
0.8471974927
 40
1.0
 40
1.0
 40
1.0
 40
1.0
 10
44.1766508345
 20
17.7875651427
 30
0.0
 10
44.1769978426
 20
17.7923059176
 30
0.0
 10
44.1775060219
 20
17.7986874636
 30
0.0
 10
44.1784291456
 20
17.8061825208
 30
0.0
 10
44.1788940359
 20
17.8089465714
 30
0.0
 10
44.1791603435
 20
17.8100694451
 30
0.0
 11
44.1766508345
 21
17.7875651427
 31
0.0
 11
44.1779040822
 21
17.8017703396
 31
0.0
 11
44.1785315503
 21
17.8066649619
 31
0.0
 11
44.1791603435
 21
17.8100694451
 31
0.0
  0
LINE
  5
461
100
AcDbEntity
  8
0
100
AcDbLine
 62
7
  6
CONTINUOUS
 10
44.1791603435
 20
17.8100694451
 11
44.1797969521
 21
17.8119808253
  0
SPLINE
  5
462
100
AcDbEntity
  8
0
100
AcDbSpline
 62
7
  6
CONTINUOUS
 70
0
 71
3
 72
14
 73
10
 74
8
 42
0.0000001
 43
0.0000001
 44
0.0000000001
 12
0.0240974304
 22
0.0007503417
 32
0.0
 13
0.0018560057
 23
0.0240375624
 33
0.0
 40
0.0
 40
0.0
 40
0.0
 40
0.0
 40
0.0239771711
 40
0.0742331889
 40
0.1538989641
 40
0.2634548249
 40
0.4029472501
 40
0.5722952432
 40
1.0
 40
1.0
 40
1.0
 40
1.0
 10
44.5731398028
 20
16.8368074645
 30
0.0
 10
44.5733323989
 20
16.8368134615
 30
0.0
 10
44.5737388467
 20
16.8374131831
 30
0.0
 10
44.5740783208
 20
16.8385195929
 30
0.0
 10
44.5745256726
 20
16.8404360368
 30
0.0
 10
44.574946667
 20
16.8430269873
 30
0.0
 10
44.5753931376
 20
16.8463666067
 30
0.0
 10
44.5760376096
 20
16.852247755
 30
0.0
 10
44.5764436904
 20
16.8570307973
 30
0.0
 10
44.5767082979
 20
16.8604577905
 30
0.0
 11
44.5731398028
 21
16.8368074645
 31
0.0
 11
44.573569642
 21
16.837193989
 31
0.0
 11
44.5740068814
 21
16.8383239729
 31
0.0
 11
44.5744501385
 21
16.840192796
 31
0.0
 11
44.5748980307
 21
16.8427958381
 31
0.0
 11
44.5753491753
 21
16.8461284788
 31
0.0
 11
44.5758021898
 21
16.850186098
 31
0.0
 11
44.5767082979
 21
16.8604577905
 31
0.0
  0
SPLINE
  5
463
100
AcDbEntity
  8
0
100
AcDbSpline
 62
7
  6
CONTINUOUS
 70
0
 71
3
 72
18
 73
14
 74
12
 42
0.0000001
 43
0.0000001
 44
0.0000000001
 12
0.0526139486
 22
0.8962269813
 32
0.0
 13
0.0683968638
 23
0.8951608228
 33
0.0
 40
0.0
 40
0.0
 40
0.0
 40
0.0
 40
0.0379554048
 40
0.0861364706
 40
0.2086220164
 40
0.3564746494
 40
0.5164150737
 40
0.6740646013
 40
0.8152423163
 40
0.8755843881
 40
0.9272425663
 40
0.9690127991
 40
1.0
 40
1.0
 40
1.0
 40
1.0
 10
44.5778503201
 20
16.87759312
 30
0.0
 10
44.5785159814
 20
16.8889320059
 30
0.0
 10
44.5797501621
 20
16.9146804937
 30
0.0
 10
44.5821547213
 20
16.9770658561
 30
0.0
 10
44.5849841421
 20
17.0723443391
 30
0.0
 10
44.588236408
 20
17.2010667946
 30
0.0
 10
44.5915039736
 20
17.3403154082
 30
0.0
 10
44.5947800565
 20
17.4775654551
 30
0.0
 10
44.5975860798
 20
17.5850132093
 30
0.0
 10
44.599966241
 20
17.6607410826
 30
0.0
 10
44.6016370701
 20
17.7067281681
 30
0.0
 10
44.6032786615
 20
17.7439238898
 30
0.0
 10
44.6045252263
 20
17.7656639624
 30
0.0
 10
44.6052317021
 20
17.7749101384
 30
0.0
 11
44.5778503201
 21
16.87759312
 31
0.0
 11
44.5795567791
 21
16.9116255891
 31
0.0
 11
44.5812623459
 21
16.9548474677
 31
0.0
 11
44.5846852987
 21
17.0647580323
 31
0.0
 11
44.5881068198
 21
17.1974515904
 31
0.0
 11
44.5915297793
 21
17.3410005054
 31
0.0
 11
44.5949535299
 21
17.4824921096
 31
0.0
 11
44.5983747306
 21
17.609191049
 31
0.0
 11
44.600095494
 21
17.6633370166
 31
0.0
 11
44.6018110233
 21
17.7096824407
 31
0.0
 11
44.60351539
 21
17.7471437524
 31
0.0
 11
44.6052317021
 21
17.7749101384
 31
0.0
  0
SPLINE
  5
464
100
AcDbEntity
  8
0
100
AcDbSpline
 62
7
  6
CONTINUOUS
 70
0
 71
3
 72
10
 73
6
 74
4
 42
0.0000001
 43
0.0000001
 44
0.0000000001
 12
0.0016663824
 22
0.021809191
 32
0.0
 13
0.0049830773
 23
0.0212975722
 33
0.0
 40
0.0
 40
0.0
 40
0.0
 40
0.0
 40
0.6262838722
 40
0.8448671383
 40
1.0
 40
1.0
 40
1.0
 40
1.0
 10
44.6052317021
 20
17.7749101384
 30
0.0
 10
44.6055795782
 20
17.7794630533
 30
0.0
 10
44.6060957416
 20
17.7856044304
 30
0.0
 10
44.6070179109
 20
17.7928364715
 30
0.0
 10
44.607478447
 20
17.7955253367
 30
0.0
 10
44.6077361267
 20
17.7966266545
 30
0.0
 11
44.6052317021
 21
17.7749101384
 31
0.0
 11
44.6064893111
 21
17.7885508453
 31
0.0
 11
44.6071160743
 21
17.7932906042
 31
0.0
 11
44.6077361267
 21
17.7966266545
 31
0.0
  0
LINE
  5
465
100
AcDbEntity
  8
0
100
AcDbLine
 62
7
  6
CONTINUOUS
 10
44.6077361267
 20
17.7966266545
 11
44.6084203244
 21
17.7986857072
  0
SPLINE
  5
466
100
AcDbEntity
  8
0
100
AcDbSpline
 62
7
  6
CONTINUOUS
 70
0
 71
3
 72
11
 73
7
 74
5
 42
0.0000001
 43
0.0000001
 44
0.0000000001
 12
0.0049613464
 22
-0.0030063366
 32
0.0
 13
0.0009546465
 23
0.0057220336
 33
0.0
 40
0.0
 40
0.0
 40
0.0
 40
0.0
 40
0.2443316552
 40
0.3823905145
 40
0.5540777941
 40
1.0
 40
1.0
 40
1.0
 40
1.0
 10
44.7658720791
 20
16.8806133053
 30
0.0
 10
44.7662761504
 20
16.8803684576
 30
0.0
 10
44.7668549433
 20
16.8815376416
 30
0.0
 10
44.767109152
 20
16.88243557
 30
0.0
 10
44.767486442
 20
16.8839013718
 30
0.0
 10
44.7676906913
 20
16.8850552955
 30
0.0
 10
44.7678325907
 20
16.8859058227
 30
0.0
 11
44.7658720791
 21
16.8806133053
 31
0.0
 11
44.7668511233
 21
16.8816382389
 31
0.0
 11
44.7670962146
 21
16.882400712
 31
0.0
 11
44.7673414767
 21
16.8833660204
 31
0.0
 11
44.7678325907
 21
16.8859058227
 31
0.0
  0
SPLINE
  5
467
100
AcDbEntity
  8
0
100
AcDbSpline
 62
7
  6
CONTINUOUS
 70
0
 71
3
 72
12
 73
8
 74
6
 42
0.0000001
 43
0.0000001
 44
0.0000000001
 12
0.0210466621
 22
0.1261511024
 32
0.0
 13
0.0048934512
 23
0.1278010827
 33
0.0
 40
0.0
 40
0.0
 40
0.0
 40
0.0
 40
0.0544909056
 40
0.1304332515
 40
0.3444908241
 40
0.6369779546
 40
1.0
 40
1.0
 40
1.0
 40
1.0
 10
44.7678325907
 20
16.8859058227
 30
0.0
 10
44.7682148746
 20
16.8881971853
 30
0.0
 10
44.7688928877
 20
16.8937197523
 30
0.0
 10
44.770232482
 20
16.9083444755
 30
0.0
 10
44.7717526744
 20
16.9331351547
 30
0.0
 10
44.7734646382
 20
16.9701656508
 30
0.0
 10
44.7745575812
 20
16.9980901809
 30
0.0
 10
44.7751497247
 20
17.013555051
 30
0.0
 11
44.7678325907
 21
16.8859058227
 31
0.0
 11
44.7687515685
 21
16.8928140665
 31
0.0
 11
44.7696699729
 21
16.9024831739
 31
0.0
 11
44.7714899966
 21
16.9297994449
 31
0.0
 11
44.7732864327
 21
16.9671638479
 31
0.0
 11
44.7751497247
 21
17.013555051
 31
0.0
  0
SPLINE
  5
468
100
AcDbEntity
  8
0
100
AcDbSpline
 62
7
  6
CONTINUOUS
 70
0
 71
3
 72
9
 73
5
 74
3
 42
0.0000001
 43
0.0000001
 44
0.0000000001
 12
0.0043775097
 22
0.1143263636
 32
0.0
 13
0.0025917859
 23
0.1143807792
 33
0.0
 40
0.0
 40
0.0
 40
0.0
 40
0.0
 40
0.2281973361
 40
1.0
 40
1.0
 40
1.0
 40
1.0
 10
44.7751497247
 20
17.013555051
 30
0.0
 10
44.7754827034
 20
17.0222513749
 30
0.0
 10
44.7769182477
 20
17.0603609376
 30
0.0
 10
44.7781233651
 20
17.0984802694
 30
0.0
 10
44.7787901475
 20
17.1279067328
 30
0.0
 11
44.7751497247
 21
17.013555051
 31
0.0
 11
44.7761258789
 21
17.039644885
 31
0.0
 11
44.7787901475
 21
17.1279067328
 31
0.0
  0
SPLINE
  5
469
100
AcDbEntity
  8
0
100
AcDbSpline
 62
7
  6
CONTINUOUS
 70
0
 71
3
 72
13
 73
9
 74
7
 42
0.0000001
 43
0.0000001
 44
0.0000000001
 12
-0.023871583
 22
0.0007433061
 32
0.0
 13
-0.0017879639
 23
-0.0238161324
 33
0.0
 40
0.0
 40
0.0
 40
0.0
 40
0.0
 40
0.0241680236
 40
0.0739088681
 40
0.1530815497
 40
0.2623147633
 40
0.5711844081
 40
1.0
 40
1.0
 40
1.0
 40
1.0
 10
44.270510132
 20
17.8095908324
 30
0.0
 10
44.2703178223
 20
17.8095968205
 30
0.0
 10
44.2698736309
 20
17.8090346599
 30
0.0
 10
44.2695414051
 20
17.8079336077
 30
0.0
 10
44.269088467
 20
17.806054115
 30
0.0
 10
44.2684687553
 20
17.8021630239
 30
0.0
 10
44.2677172741
 20
17.795445153
 30
0.0
 10
44.2672385388
 20
17.7895970971
 30
0.0
 10
44.2669829698
 20
17.7861928542
 30
0.0
 11
44.270510132
 21
17.8095908324
 31
0.0
 11
44.2700576683
 21
17.8092324384
 31
0.0
 11
44.2696104295
 21
17.8081318722
 31
0.0
 11
44.2691674558
 21
17.8062935981
 31
0.0
 11
44.2687277874
 21
17.8037220803
 31
0.0
 11
44.2678545271
 21
17.7963971699
 31
0.0
 11
44.2669829698
 21
17.7861928542
 31
0.0
  0
SPLINE
  5
46A
100
AcDbEntity
  8
0
100
AcDbSpline
 62
7
  6
CONTINUOUS
 70
0
 71
3
 72
17
 73
13
 74
11
 42
0.0000001
 43
0.0000001
 44
0.0000000001
 12
-0.0558785492
 22
-0.9210452207
 32
0.0
 13
-0.0676845761
 23
-0.9202529593
 33
0.0
 40
0.0
 40
0.0
 40
0.0
 40
0.0
 40
0.0364365866
 40
0.0834392586
 40
0.2045899847
 40
0.3522920581
 40
0.5129513568
 40
0.6717767882
 40
0.8141596373
 40
0.927015517
 40
0.9689905244
 40
1.0
 40
1.0
 40
1.0
 40
1.0
 10
44.2660880682
 20
17.7728456302
 30
0.0
 10
44.2654093937
 20
17.7616590489
 30
0.0
 10
44.2641468246
 20
17.7360246407
 30
0.0
 10
44.2616857243
 20
17.6731448725
 30
0.0
 10
44.2588251709
 20
17.5760345531
 30
0.0
 10
44.2555465408
 20
17.4439663599
 30
0.0
 10
44.2522352124
 20
17.3003073555
 30
0.0
 10
44.2489417656
 20
17.1582842132
 30
0.0
 10
44.2456540311
 20
17.0309696359
 30
0.0
 10
44.2428269893
 20
16.9395935959
 30
0.0
 10
44.2403386245
 20
16.8824870672
 30
0.0
 10
44.2390722645
 20
16.8600720336
 30
0.0
 10
44.2383726434
 20
16.8505598464
 30
0.0
 11
44.2660880682
 21
17.7728456302
 31
0.0
 11
44.2643560658
 21
17.7392688231
 31
0.0
 11
44.2626167418
 21
17.6959325289
 31
0.0
 11
44.2591433277
 21
17.5841960391
 31
0.0
 11
44.2556840468
 21
17.4479495279
 31
0.0
 11
44.2522187474
 21
17.299743482
 31
0.0
 11
44.2487567294
 21
17.1532300065
 31
0.0
 11
44.2452947501
 21
17.0218934616
 31
0.0
 11
44.2418337792
 21
16.9178145022
 31
0.0
 11
44.2400961697
 21
16.8791215347
 31
0.0
 11
44.2383726434
 21
16.8505598464
 31
0.0
  0
SPLINE
  5
46B
100
AcDbEntity
  8
0
100
AcDbSpline
 62
7
  6
CONTINUOUS
 70
0
 71
3
 72
9
 73
5
 74
3
 42
0.0000001
 43
0.0000001
 44
0.0000000001
 12
-0.001456944
 22
-0.0198089001
 32
0.0
 13
-0.0033294532
 23
-0.0195813674
 33
0.0
 40
0.0
 40
0.0
 40
0.0
 40
0.0
 40
0.596919708
 40
1.0
 40
1.0
 40
1.0
 40
1.0
 10
44.2383726434
 20
16.8505598464
 30
0.0
 10
44.2380827506
 20
16.8466184055
 30
0.0
 10
44.2375414387
 20
16.8400211461
 30
0.0
 10
44.2368034406
 20
16.833435174
 30
0.0
 10
44.236356095
 20
16.8308042196
 30
0.0
 11
44.2383726434
 21
16.8505598464
 31
0.0
 11
44.2373664292
 21
16.838746359
 31
0.0
 11
44.236356095
 21
16.8308042196
 31
0.0
  0
SPLINE
  5
46C
100
AcDbEntity
  8
0
100
AcDbSpline
 62
7
  6
CONTINUOUS
 70
0
 71
3
 72
9
 73
5
 74
3
 42
0.0000001
 43
0.0000001
 44
0.0000000001
 12
-0.0007115118
 22
-0.0041845829
 32
0.0
 13
-0.0020803352
 23
-0.0036998904
 33
0.0
 40
0.0
 40
0.0
 40
0.0
 40
0.0
 40
0.6217397287
 40
1.0
 40
1.0
 40
1.0
 40
1.0
 10
44.236356095
 20
16.8308042196
 30
0.0
 10
44.2362086366
 20
16.8299369791
 30
0.0
 10
44.2359347671
 20
16.8285560059
 30
0.0
 10
44.2355431215
 20
16.827174735
 30
0.0
 10
44.2352808187
 20
16.8267082278
 30
0.0
 11
44.236356095
 21
16.8308042196
 31
0.0
 11
44.2358225579
 21
16.8282196522
 31
0.0
 11
44.2352808187
 21
16.8267082278
 31
0.0
  0
SPLINE
  5
46D
100
AcDbEntity
  8
0
100
AcDbSpline
 62
7
  6
CONTINUOUS
 70
0
 71
3
 72
14
 73
10
 74
8
 42
0.0000001
 43
0.0000001
 44
0.0000000001
 12
0.0186371958
 22
-0.0199268246
 32
0.0
 13
0.0020759872
 23
-0.0272050305
 33
0.0
 40
0.0
 40
0.0
 40
0.0
 40
0.0
 40
0.0361886522
 40
0.0974902728
 40
0.1846060178
 40
0.2974618275
 40
0.4357868564
 40
0.5992384881
 40
1.0
 40
1.0
 40
1.0
 40
1.0
 10
3.0505699667
 20
17.762619785
 30
0.0
 10
3.050794785
 20
17.76237941
 30
0.0
 10
3.0511411899
 20
17.7615306383
 30
0.0
 10
3.0515813662
 20
17.7599257807
 30
0.0
 10
3.0520261624
 20
17.7575822644
 30
0.0
 10
3.0524817009
 20
17.7545422465
 30
0.0
 10
3.052939633
 20
17.7507976953
 30
0.0
 10
3.0535995779
 20
17.7444428083
 30
0.0
 10
3.0540229623
 20
17.7393281561
 30
0.0
 10
3.0543002875
 20
17.7356939131
 30
0.0
 11
3.0505699667
 21
17.762619785
 31
0.0
 11
3.0510362568
 21
17.7617494493
 31
0.0
 11
3.0515025469
 21
17.7601432009
 31
0.0
 11
3.051968837
 21
17.7578125107
 31
0.0
 11
3.0524351271
 21
17.7547688496
 31
0.0
 11
3.0529014172
 21
17.7510236884
 31
0.0
 11
3.0533677073
 21
17.746588498
 31
0.0
 11
3.0543002875
 21
17.7356939131
 31
0.0
  0
SPLINE
  5
46E
100
AcDbEntity
  8
0
100
AcDbSpline
 62
7
  6
CONTINUOUS
 70
0
 71
3
 72
23
 73
19
 74
17
 42
0.0000001
 43
0.0000001
 44
0.0000000001
 12
0.0653455808
 22
-0.8563292398
 32
0.0
 13
0.1688095498
 23
-0.8420648121
 33
0.0
 40
0.0
 40
0.0
 40
0.0
 40
0.0
 40
0.0355352688
 40
0.0829819848
 40
0.1414252758
 40
0.2099437472
 40
0.3704832132
 40
0.5451815754
 40
0.631253329
 40
0.7129604222
 40
0.7876684351
 40
0.8529673
 40
0.9076489088
 40
0.9509086678
 40
0.9680056877
 40
0.9819491369
 40
0.9926432659
 40
1.0
 40
1.0
 40
1.0
 40
1.0
 10
3.0543002875
 20
17.7356939131
 30
0.0
 10
3.0550743118
 20
17.7255506165
 30
0.0
 10
3.05647109
 20
17.7018337207
 30
0.0
 10
3.0583208941
 20
17.6613898412
 30
0.0
 10
3.0601888775
 20
17.6114957395
 30
0.0
 10
3.0628291588
 20
17.5292341467
 30
0.0
 10
3.0659266725
 20
17.4136906075
 30
0.0
 10
3.0689475771
 20
17.2931190411
 30
0.0
 10
3.0714700836
 20
17.1951095124
 30
0.0
 10
3.0733487563
 20
17.1257174658
 30
0.0
 10
3.0752187997
 20
17.0622742493
 30
0.0
 10
3.0770921093
 20
17.0065713135
 30
0.0
 10
3.0789587961
 20
16.9598772983
 30
0.0
 10
3.080585154
 20
16.9269834553
 30
0.0
 10
3.0819472864
 20
16.9057570373
 30
0.0
 10
3.0828746443
 20
16.893844022
 30
0.0
 10
3.0837942295
 20
16.8847324517
 30
0.0
 10
3.0844975491
 20
16.8796070386
 30
0.0
 10
3.0849115115
 20
16.8775420897
 30
0.0
 11
3.0543002875
 21
17.7356939131
 31
0.0
 11
3.056213489
 21
17.705235583
 31
0.0
 11
3.0581266905
 21
17.664532388
 31
0.0
 11
3.060039892
 21
17.6143766648
 31
0.0
 11
3.0619530935
 21
17.55556282
 31
0.0
 11
3.0657794965
 21
17.4177416078
 31
0.0
 11
3.0696058995
 21
17.2677561632
 31
0.0
 11
3.071519101
 21
17.193860882
 31
0.0
 11
3.0734323025
 21
17.1237153766
 31
0.0
 11
3.075345504
 21
17.0595832583
 31
0.0
 11
3.0772587055
 21
17.0035360069
 31
0.0
 11
3.079171907
 21
16.9566133985
 31
0.0
 11
3.0810851085
 21
16.9195103961
 31
0.0
 11
3.0820417092
 21
16.9048583473
 31
0.0
 11
3.08299831
 21
16.8929217199
 31
0.0
 11
3.0839549107
 21
16.883787354
 31
0.0
 11
3.0849115115
 21
16.8775420897
 31
0.0
  0
LINE
  5
46F
100
AcDbEntity
  8
0
100
AcDbLine
 62
7
  6
CONTINUOUS
 10
3.0849115115
 20
16.8775420897
 11
3.0853783978
 21
16.8755692752
  0
SPLINE
  5
470
100
AcDbEntity
  8
0
100
AcDbSpline
 62
7
  6
CONTINUOUS
 70
0
 71
3
 72
14
 73
10
 74
8
 42
0.0000001
 43
0.0000001
 44
0.0000000001
 12
0.0239858046
 22
0.0007468659
 32
0.0
 13
0.0018486934
 23
0.0239261147
 33
0.0
 40
0.0
 40
0.0
 40
0.0
 40
0.0
 40
0.0242099534
 40
0.0745299204
 40
0.1541992065
 40
0.263726782
 40
0.4031702823
 40
0.5724544492
 40
1.0
 40
1.0
 40
1.0
 40
1.0
 10
44.6445698399
 20
16.8390316408
 30
0.0
 10
44.6447634049
 20
16.839037668
 30
0.0
 10
44.645175574
 20
16.8396301191
 30
0.0
 10
44.6455168094
 20
16.8407362617
 30
0.0
 10
44.6459651162
 20
16.8426416509
 30
0.0
 10
44.646385023
 20
16.8452207047
 30
0.0
 10
44.6468296098
 20
16.8485433779
 30
0.0
 10
44.6474703834
 20
16.8543953305
 30
0.0
 10
44.6478740804
 20
16.8591543913
 30
0.0
 10
44.6481375473
 20
16.862564226
 30
0.0
 11
44.6445698399
 21
16.8390316408
 31
0.0
 11
44.6450050911
 21
16.8394164658
 31
0.0
 11
44.6454452137
 21
16.8405409518
 31
0.0
 11
44.6458893023
 21
16.8424005181
 31
0.0
 11
44.6463364516
 21
16.8449905838
 31
0.0
 11
44.6467857561
 21
16.8483065682
 31
0.0
 11
44.6472363105
 21
16.8523438906
 31
0.0
 11
44.6481375473
 21
16.862564226
 31
0.0
  0
SPLINE
  5
471
100
AcDbEntity
  8
0
100
AcDbSpline
 62
7
  6
CONTINUOUS
 70
0
 71
3
 72
17
 73
13
 74
11
 42
0.0000001
 43
0.0000001
 44
0.0000000001
 12
0.0539845714
 22
0.8939333392
 32
0.0
 13
0.0673414166
 23
0.8930264736
 33
0.0
 40
0.0
 40
0.0
 40
0.0
 40
0.0
 40
0.0373250005
 40
0.0849966479
 40
0.2068493712
 40
0.3545431965
 40
0.5147028021
 40
0.6728098284
 40
0.8145236576
 40
0.9269838815
 40
0.9689150437
 40
1.0
 40
1.0
 40
1.0
 40
1.0
 10
44.6491609634
 20
16.8776709471
 30
0.0
 10
44.6498326214
 20
16.8887929679
 30
0.0
 10
44.6510760274
 20
16.9141369696
 30
0.0
 10
44.6534952676
 20
16.9758385314
 30
0.0
 10
44.6563323555
 20
17.0704937808
 30
0.0
 10
44.6595974574
 20
17.1987281602
 30
0.0
 10
44.662878536
 20
17.3377883176
 30
0.0
 10
44.666159705
 20
17.4750630253
 30
0.0
 10
44.6694081236
 20
17.5980940042
 30
0.0
 10
44.6722478298
 20
17.6864447486
 30
0.0
 10
44.6747090396
 20
17.7417584425
 30
0.0
 10
44.6759629613
 20
17.7635215137
 30
0.0
 10
44.6766607297
 20
17.7727747433
 30
0.0
 11
44.6491609634
 21
16.8776709471
 31
0.0
 11
44.6508765899
 21
16.91105374
 31
0.0
 11
44.6525907783
 21
16.9537122245
 31
0.0
 11
44.6560271411
 21
17.0627847646
 31
0.0
 11
44.6594632757
 21
17.1950090899
 31
0.0
 11
44.6629003833
 21
17.3384007455
 31
0.0
 11
44.6663388287
 21
17.479953622
 31
0.0
 11
44.6697738108
 21
17.6068206374
 31
0.0
 11
44.6732256293
 21
17.7074765615
 31
0.0
 11
44.6749469623
 21
17.7449890409
 31
0.0
 11
44.6766607297
 21
17.7727747433
 31
0.0
  0
SPLINE
  5
472
100
AcDbEntity
  8
0
100
AcDbSpline
 62
7
  6
CONTINUOUS
 70
0
 71
3
 72
10
 73
6
 74
4
 42
0.0000001
 43
0.0000001
 44
0.0000000001
 12
0.001636461
 22
0.0217013997
 32
0.0
 13
0.0049880384
 23
0.0211836783
 33
0.0
 40
0.0
 40
0.0
 40
0.0
 40
0.0
 40
0.6257871515
 40
0.8444770128
 40
1.0
 40
1.0
 40
1.0
 40
1.0
 10
44.6766607297
 20
17.7727747433
 30
0.0
 10
44.6770020884
 20
17.7773015624
 30
0.0
 10
44.6775034258
 20
17.7834102541
 30
0.0
 10
44.6784055537
 20
17.7906078556
 30
0.0
 10
44.6788616376
 20
17.7932875138
 30
0.0
 10
44.6791202225
 20
17.7943856968
 30
0.0
 11
44.6766607297
 21
17.7727747433
 31
0.0
 11
44.6778881487
 21
17.7863383339
 31
0.0
 11
44.6785030075
 21
17.7910578005
 31
0.0
 11
44.6791202225
 21
17.7943856968
 31
0.0
  0
LINE
  5
473
100
AcDbEntity
  8
0
100
AcDbLine
 62
7
  6
CONTINUOUS
 10
44.6791202225
 20
17.7943856968
 11
44.6798064579
 21
17.7964296086
  0
SPLINE
  5
474
100
AcDbEntity
  8
0
100
AcDbSpline
 62
7
  6
CONTINUOUS
 70
0
 71
3
 72
14
 73
10
 74
8
 42
0.0000001
 43
0.0000001
 44
0.0000000001
 12
-0.0242180985
 22
0.0007540946
 32
0.0
 13
-0.0018295963
 23
-0.0241606608
 33
0.0
 40
0.0
 40
0.0
 40
0.0
 40
0.0
 40
0.0230676253
 40
0.0725674473
 40
0.1517674389
 40
0.2611513702
 40
0.4007672506
 40
0.5705372889
 40
1.0
 40
1.0
 40
1.0
 40
1.0
 10
44.0562201355
 20
17.816263358
 30
0.0
 10
44.0560339175
 20
17.8162691564
 30
0.0
 10
44.0556202048
 20
17.8156737709
 30
0.0
 10
44.0552977944
 20
17.8145818057
 30
0.0
 10
44.0548493073
 20
17.8126629193
 30
0.0
 10
44.0544349952
 20
17.8100635315
 30
0.0
 10
44.0539910124
 20
17.8067028621
 30
0.0
 10
44.0533515583
 20
17.8007729743
 30
0.0
 10
44.0529489112
 20
17.7959477163
 30
0.0
 10
44.0526869967
 20
17.7924890153
 30
0.0
 11
44.0562201355
 21
17.816263358
 31
0.0
 11
44.0557971237
 21
17.815898039
 31
0.0
 11
44.0553654699
 21
17.8147790352
 31
0.0
 11
44.0549268334
 21
17.8129108356
 31
0.0
 11
44.054482874
 21
17.8102979292
 31
0.0
 11
44.054035251
 21
17.8069448049
 31
0.0
 11
44.0535856242
 21
17.8028559518
 31
0.0
 11
44.0526869967
 21
17.7924890153
 31
0.0
  0
SPLINE
  5
475
100
AcDbEntity
  8
0
100
AcDbSpline
 62
7
  6
CONTINUOUS
 70
0
 71
3
 72
18
 73
14
 74
12
 42
0.0000001
 43
0.0000001
 44
0.0000000001
 12
-0.0585475355
 22
-0.9361182861
 32
0.0
 13
-0.0695192866
 23
-0.935367483
 33
0.0
 40
0.0
 40
0.0
 40
0.0
 40
0.0
 40
0.0355219605
 40
0.0817860836
 40
0.2020227346
 40
0.3495008992
 40
0.5104859266
 40
0.6699816801
 40
0.813143542
 40
0.8743348442
 40
0.9266595085
 40
0.9688583481
 40
1.0
 40
1.0
 40
1.0
 40
1.0
 10
44.0519494658
 20
17.7817200037
 30
0.0
 10
44.0512562247
 20
17.7706357514
 30
0.0
 10
44.0499968211
 20
17.7450948479
 30
0.0
 10
44.0475348032
 20
17.6819806107
 30
0.0
 10
44.0446424363
 20
17.583856085
 30
0.0
 10
44.0413554792
 20
17.4498640622
 30
0.0
 10
44.0380260332
 20
17.3035948276
 30
0.0
 10
44.0347060296
 20
17.1586755259
 30
0.0
 10
44.0318423339
 20
17.0449539991
 30
0.0
 10
44.0294358568
 20
16.9647399504
 30
0.0
 10
44.0277463051
 20
16.916084568
 30
0.0
 10
44.0260761006
 20
16.8768312607
 30
0.0
 10
44.024804981
 20
16.8539339877
 30
0.0
 10
44.0240833325
 20
16.8442243582
 30
0.0
 11
44.0519494658
 21
17.7817200037
 31
0.0
 11
44.050211791
 21
17.7484476192
 31
0.0
 11
44.0484745361
 21
17.7050890964
 31
0.0
 11
44.0449768002
 21
17.5923677005
 31
0.0
 11
44.0414979929
 21
17.4540846962
 31
0.0
 11
44.038011728
 21
17.3031294657
 31
0.0
 11
44.034529402
 21
17.1535713799
 31
0.0
 11
44.0310462461
 21
17.0193382726
 31
0.0
 11
44.0293040802
 21
16.9619704992
 31
0.0
 11
44.0275657445
 21
16.9129235138
 31
0.0
 11
44.0258310268
 21
16.8733812561
 31
0.0
 11
44.0240833325
 21
16.8442243582
 31
0.0
  0
SPLINE
  5
476
100
AcDbEntity
  8
0
100
AcDbSpline
 62
7
  6
CONTINUOUS
 70
0
 71
3
 72
9
 73
5
 74
3
 42
0.0000001
 43
0.0000001
 44
0.0000000001
 12
-0.0015091296
 22
-0.0203050232
 32
0.0
 13
-0.0034693116
 23
-0.0200632828
 33
0.0
 40
0.0
 40
0.0
 40
0.0
 40
0.0
 40
0.5993696976
 40
1.0
 40
1.0
 40
1.0
 40
1.0
 10
44.0240833325
 20
16.8442243582
 30
0.0
 10
44.0237818236
 20
16.8401676196
 30
0.0
 10
44.0232145976
 20
16.8334056384
 30
0.0
 10
44.0224386857
 20
16.8266565193
 30
0.0
 10
44.021975382
 20
16.8239771996
 30
0.0
 11
44.0240833325
 21
16.8442243582
 31
0.0
 11
44.0230268983
 21
16.832066387
 31
0.0
 11
44.021975382
 21
16.8239771996
 31
0.0
  0
SPLINE
  5
477
100
AcDbEntity
  8
0
100
AcDbSpline
 62
7
  6
CONTINUOUS
 70
0
 71
3
 72
9
 73
5
 74
3
 42
0.0000001
 43
0.0000001
 44
0.0000000001
 12
-0.0007108519
 22
-0.0041109086
 32
0.0
 13
-0.0021104341
 23
-0.0035987426
 33
0.0
 40
0.0
 40
0.0
 40
0.0
 40
0.0
 40
0.6291578662
 40
1.0
 40
1.0
 40
1.0
 40
1.0
 10
44.021975382
 20
16.8239771996
 30
0.0
 10
44.0218263026
 20
16.8231150628
 30
0.0
 10
44.0215514171
 20
16.8217607849
 30
0.0
 10
44.0211705343
 20
16.8203988189
 30
0.0
 10
44.020909655
 20
16.8199539638
 30
0.0
 11
44.021975382
 21
16.8239771996
 31
0.0
 11
44.0214384519
 21
16.8214079103
 31
0.0
 11
44.020909655
 21
16.8199539638
 31
0.0
  0
SPLINE
  5
478
100
AcDbEntity
  8
0
100
AcDbSpline
 62
7
  6
CONTINUOUS
 70
0
 71
3
 72
14
 73
10
 74
8
 42
0.0000001
 43
0.0000001
 44
0.0000000001
 12
0.0246339457
 22
0.0007670476
 32
0.0
 13
0.0018430326
 23
0.0245768768
 33
0.0
 40
0.0
 40
0.0
 40
0.0
 40
0.0
 40
0.0239560935
 40
0.0741584831
 40
0.1537806132
 40
0.2633114588
 40
0.4028011369
 40
0.5721709128
 40
1.0
 40
1.0
 40
1.0
 40
1.0
 10
44.2159898417
 20
16.8256865896
 30
0.0
 10
44.2161865527
 20
16.8256927148
 30
0.0
 10
44.2166012797
 20
16.8263060035
 30
0.0
 10
44.216942078
 20
16.8274381525
 30
0.0
 10
44.2173912527
 20
16.8293979736
 30
0.0
 10
44.2178103448
 20
16.8320478773
 30
0.0
 10
44.2182539768
 20
16.8354634491
 30
0.0
 10
44.2188927012
 20
16.8414788876
 30
0.0
 10
44.219295062
 20
16.8463706351
 30
0.0
 10
44.2195578963
 20
16.849875536
 30
0.0
 11
44.2159898417
 21
16.8256865896
 31
0.0
 11
44.2164283704
 21
16.8260819215
 31
0.0
 11
44.2168702887
 21
16.8272375927
 31
0.0
 11
44.21731497
 21
16.8291489029
 31
0.0
 11
44.2177617879
 21
16.8318111521
 31
0.0
 11
44.218210116
 21
16.8352196402
 31
0.0
 11
44.2186593278
 21
16.8393696669
 31
0.0
 11
44.2195578963
 21
16.849875536
 31
0.0
  0
SPLINE
  5
479
100
AcDbEntity
  8
0
100
AcDbSpline
 62
7
  6
CONTINUOUS
 70
0
 71
3
 72
18
 73
14
 74
12
 42
0.0000001
 43
0.0000001
 44
0.0000000001
 12
0.0554993701
 22
0.9208908129
 32
0.0
 13
0.0685743862
 23
0.9200095776
 33
0.0
 40
0.0
 40
0.0
 40
0.0
 40
0.0
 40
0.0366590131
 40
0.0837944411
 40
0.2049871124
 40
0.3525250009
 40
0.5129273501
 40
0.6715243631
 40
0.8138029971
 40
0.8746506793
 40
0.926736879
 40
0.9688262691
 40
1.0
 40
1.0
 40
1.0
 40
1.0
 10
44.220457313
 20
16.8633422555
 30
0.0
 10
44.221135497
 20
16.8745952383
 30
0.0
 10
44.2223874043
 20
16.9003346305
 30
0.0
 10
44.2248218462
 20
16.9633255144
 30
0.0
 10
44.2276678865
 20
17.0604207557
 30
0.0
 10
44.2309471609
 20
17.1923469307
 30
0.0
 10
44.2342383868
 20
17.3357791445
 30
0.0
 10
44.2375418413
 20
17.4775929884
 30
0.0
 10
44.2403696767
 20
17.5887949571
 30
0.0
 10
44.2427687526
 20
17.667241446
 30
0.0
 10
44.244454106
 20
17.7148850724
 30
0.0
 10
44.2461109118
 20
17.7533966702
 30
0.0
 10
44.2473683138
 20
17.7758940768
 30
0.0
 10
44.2480808869
 20
17.7854541205
 30
0.0
 11
44.220457313
 21
16.8633422555
 31
0.0
 11
44.222181742
 21
16.8971184652
 31
0.0
 11
44.2239045116
 21
16.9405696662
 31
0.0
 11
44.2273557043
 21
17.0523241046
 31
0.0
 11
44.2308073589
 21
17.1883931363
 31
0.0
 11
44.2342597482
 21
17.3363339209
 31
0.0
 11
44.2377135594
 21
17.4826086794
 31
0.0
 11
44.2411639997
 21
17.6138241376
 31
0.0
 11
44.2428993488
 21
17.6699330489
 31
0.0
 11
44.244630367
 21
17.7179545927
 31
0.0
 11
44.2463505881
 21
17.7567465288
 31
0.0
 11
44.2480808869
 21
17.7854541205
 31
0.0
  0
SPLINE
  5
47A
100
AcDbEntity
  8
0
100
AcDbSpline
 62
7
  6
CONTINUOUS
 70
0
 71
3
 72
10
 73
6
 74
4
 42
0.0000001
 43
0.0000001
 44
0.0000000001
 12
0.0016763231
 22
0.0224899327
 32
0.0
 13
0.005184698
 23
0.0219482582
 33
0.0
 40
0.0
 40
0.0
 40
0.0
 40
0.0
 40
0.6292867089
 40
0.847125155
 40
1.0
 40
1.0
 40
1.0
 40
1.0
 10
44.2480808869
 20
17.7854541205
 30
0.0
 10
44.2484325162
 20
17.7901716591
 30
0.0
 10
44.2489520114
 20
17.7965220636
 30
0.0
 10
44.2498884594
 20
17.803980398
 30
0.0
 10
44.2503555537
 20
17.8067315264
 30
0.0
 10
44.250619757
 20
17.8078499719
 30
0.0
 11
44.2480808869
 21
17.7854541205
 31
0.0
 11
44.2493554163
 21
17.799588649
 31
0.0
 11
44.2499907096
 21
17.8044601617
 31
0.0
 11
44.250619757
 21
17.8078499719
 31
0.0
  0
LINE
  5
47B
100
AcDbEntity
  8
0
100
AcDbLine
 62
7
  6
CONTINUOUS
 10
44.250619757
 20
17.8078499719
 11
44.2512701534
 21
17.8098010868
  0
SPLINE
  5
47C
100
AcDbEntity
  8
0
100
AcDbSpline
 62
7
  6
CONTINUOUS
 70
0
 71
3
 72
13
 73
9
 74
7
 42
0.0000001
 43
0.0000001
 44
0.0000000001
 12
-0.0234572464
 22
0.0007304047
 32
0.0
 13
-0.0017828705
 23
-0.0234007964
 33
0.0
 40
0.0
 40
0.0
 40
0.0
 40
0.0
 40
0.0245661531
 40
0.0744261875
 40
0.1536145318
 40
0.2628072361
 40
0.5714855502
 40
1.0
 40
1.0
 40
1.0
 40
1.0
 10
44.5562301668
 20
17.8006941305
 30
0.0
 10
44.556038082
 20
17.8007001116
 30
0.0
 10
44.5555896367
 20
17.800155838
 30
0.0
 10
44.5552539709
 20
17.799066874
 30
0.0
 10
44.554800892
 20
17.7972240132
 30
0.0
 10
44.5541820261
 20
17.7934019251
 30
0.0
 10
44.5534344839
 20
17.7868071106
 30
0.0
 10
44.5529579782
 20
17.781064464
 30
0.0
 10
44.5527033162
 20
17.7777219376
 30
0.0
 11
44.5562301668
 21
17.8006941305
 31
0.0
 11
44.555773181
 21
17.8003426267
 31
0.0
 11
44.5553235152
 21
17.7992623294
 31
0.0
 11
44.5548798138
 21
17.7974576324
 31
0.0
 11
44.5544407208
 21
17.7949329296
 31
0.0
 11
44.5535709367
 21
17.7877410821
 31
0.0
 11
44.5527033162
 21
17.7777219376
 31
0.0
  0
LINE
  5
47D
100
AcDbEntity
  8
0
100
AcDbLine
 62
7
  6
CONTINUOUS
 10
44.5519301143
 20
17.766533047
 11
44.5517802324
 21
17.7641277721
  0
SPLINE
  5
47E
100
AcDbEntity
  8
0
100
AcDbSpline
 62
7
  6
CONTINUOUS
 70
0
 71
3
 72
17
 73
13
 74
11
 42
0.0000001
 43
0.0000001
 44
0.0000000001
 12
-0.055454365
 22
-0.9038721726
 32
0.0
 13
-0.0677681326
 23
-0.9030324308
 33
0.0
 40
0.0
 40
0.0
 40
0.0
 40
0.0
 40
0.0366030212
 40
0.0837398047
 40
0.2050559632
 40
0.3527977253
 40
0.5133967215
 40
0.672099646
 40
0.8143406878
 40
0.9270774067
 40
0.9690124878
 40
1.0
 40
1.0
 40
1.0
 40
1.0
 10
44.5517802324
 20
17.7641277721
 30
0.0
 10
44.5511036333
 20
17.7530996214
 30
0.0
 10
44.5498406261
 20
17.7278524799
 30
0.0
 10
44.547380653
 20
17.6660035112
 30
0.0
 10
44.54452525
 20
17.5705988199
 30
0.0
 10
44.5412484044
 20
17.4409454391
 30
0.0
 10
44.5379405983
 20
17.3000036895
 30
0.0
 10
44.5346502503
 20
17.1607221708
 30
0.0
 10
44.5313663803
 20
17.0358935112
 30
0.0
 10
44.5285408421
 20
16.9463098371
 30
0.0
 10
44.5260572385
 20
16.8903222903
 30
0.0
 10
44.524792417
 20
16.8683441346
 30
0.0
 10
44.5240924284
 20
16.8590165585
 30
0.0
 11
44.5517802324
 21
17.7641277721
 31
0.0
 11
44.5500488745
 21
17.7310263604
 31
0.0
 11
44.548309675
 21
17.6883760695
 31
0.0
 11
44.5448406791
 21
17.5785703733
 31
0.0
 11
44.5413849879
 21
17.4448242517
 31
0.0
 11
44.5379234066
 21
17.2994315485
 31
0.0
 11
44.5344651731
 21
17.155756286
 31
0.0
 11
44.5310069383
 21
17.0269932561
 31
0.0
 11
44.5275498179
 21
16.9249606259
 31
0.0
 11
44.525815113
 21
16.8870250448
 31
0.0
 11
44.5240924284
 21
16.8590165585
 31
0.0
  0
SPLINE
  5
47F
100
AcDbEntity
  8
0
100
AcDbSpline
 62
7
  6
CONTINUOUS
 70
0
 71
3
 72
9
 73
5
 74
3
 42
0.0000001
 43
0.0000001
 44
0.0000000001
 12
-0.0014412906
 22
-0.0192056671
 32
0.0
 13
-0.0032021931
 23
-0.0189916014
 33
0.0
 40
0.0
 40
0.0
 40
0.0
 40
0.0
 40
0.5941281558
 40
1.0
 40
1.0
 40
1.0
 40
1.0
 10
44.5240924284
 20
16.8590165585
 30
0.0
 10
44.5238069913
 20
16.855213016
 30
0.0
 10
44.5232727487
 20
16.8488164838
 30
0.0
 10
44.5225467039
 20
16.8424320725
 30
0.0
 10
44.5221134772
 20
16.839862687
 30
0.0
 11
44.5240924284
 21
16.8590165585
 31
0.0
 11
44.5231044702
 21
16.8476165747
 31
0.0
 11
44.5221134772
 21
16.839862687
 31
0.0
  0
SPLINE
  5
480
100
AcDbEntity
  8
0
100
AcDbSpline
 62
7
  6
CONTINUOUS
 70
0
 71
3
 72
9
 73
5
 74
3
 42
0.0000001
 43
0.0000001
 44
0.0000000001
 12
-0.0007312145
 22
-0.0043366946
 32
0.0
 13
-0.0021427414
 23
-0.003840606
 33
0.0
 40
0.0
 40
0.0
 40
0.0
 40
0.0
 40
0.622322234
 40
1.0
 40
1.0
 40
1.0
 40
1.0
 10
44.5221134772
 20
16.839862687
 30
0.0
 10
44.5219617935
 20
16.8389630799
 30
0.0
 10
44.5216801665
 20
16.837531849
 30
0.0
 10
44.5212786939
 20
16.8360996247
 30
0.0
 10
44.5210089386
 20
16.8356161208
 30
0.0
 11
44.5221134772
 21
16.839862687
 31
0.0
 11
44.5215648536
 21
16.8371813215
 31
0.0
 11
44.5210089386
 21
16.8356161208
 31
0.0
  0
ENDSEC
  0
SECTION
  2
OBJECTS
  0
DICTIONARY
  5
C
100
AcDbDictionary
280
0
281
1
  3
ACAD_GROUP
350
D
  3
ACAD_MLINESTYLE
350
17
  3
ACAD_LAYOUT
350
1A
  3
ACAD_PLOTSETTINGS
350
19
  3
ACAD_PLOTSTYLENAME
350
E
  0
DICTIONARY
  5
D
102
{ACAD_REACTORS
330
C
102
}
100
AcDbDictionary
280
0
281
1
  0
ACDBDICTIONARYWDFLT
  5
E
102
{ACAD_REACTORS
330
C
102
}
100
AcDbDictionary
281
1
  3
Normal
350
F
100
AcDbDictionaryWithDefault
340
F
  0
DICTIONARY
  5
17
102
{ACAD_REACTORS
330
C
102
}
100
AcDbDictionary
280
0
281
1
  3
Standard
350
18
  0
DICTIONARY
  5
19
102
{ACAD_REACTORS
330
C
102
}
100
AcDbDictionary
281
1
  0
DICTIONARY
  5
1A
102
{ACAD_REACTORS
330
C
102
}
100
AcDbDictionary
281
1
  3
Model
350
481
  3
Layout1
350
482
  0
ACDBPLACEHOLDER
  5
F
102
{ACAD_REACTORS
330
E
102
}
  0
MLINESTYLE
  5
18
102
{ACAD_REACTORS
330
17
102
}
100
AcDbMlineStyle
  2
STANDARD
 70
0
  3

 62
256
 51
90.0
 52
90.0
 71
2
 49
0.5
 62
256
  6
BYLAYER
 49
-0.5
 62
256
  6
BYLAYER
  0
LAYOUT
  5
481
102
{ACAD_REACTORS
330
1A
102
}
100
AcDbPlotSettings
  1

  2
none_device
  4
ISO_A0_(1189.00_x_841.00_MM)
  6

 40
0.0
 41
0.0
 42
0.0
 43
0.0
 44
1189.0
 45
841.0
 46
0.0
 47
0.0
 48
0.0
 49
0.0
140
0.0
141
0.0
142
1.0
143
1.0
 70
1024
 72
0
 73
0
 74
0
  7

 75
0
147
1.0
148
0.0
149
0.0
100
AcDbLayout
  1
Model
 70
0
 71
0
 10
0.0
 20
0.0
 11
46.811023622
 21
33.1102362205
 12
0.0
 22
0.0
 32
0.0
 14
0.0
 24
0.0
 34
0.0
 15
0.0
 25
0.0
 35
0.0
146
0.0
 13
0.0
 23
0.0
 33
0.0
 16
1.0
 26
0.0
 36
0.0
 17
0.0
 27
1.0
 37
0.0
 76
0
330
20B
345
0
346
0
  0
LAYOUT
  5
482
102
{ACAD_REACTORS
330
1A
102
}
100
AcDbPlotSettings
  1

  2
none_device
  4
ISO_A0_(1189.00_x_841.00_MM)
  6

 40
0.0
 41
0.0
 42
0.0
 43
0.0
 44
1189.0
 45
841.0
 46
0.0
 47
0.0
 48
0.0
 49
0.0
140
0.0
141
0.0
142
1.0
143
1.0
 70
0
 72
0
 73
0
 74
0
  7

 75
0
147
1.0
148
0.0
149
0.0
100
AcDbLayout
  1
Layout1
 70
0
 71
1
 10
0.0
 20
0.0
 11
46.811023622
 21
33.1102362205
 12
0.0
 22
0.0
 32
0.0
 14
0.0
 24
0.0
 34
0.0
 15
0.0
 25
0.0
 35
0.0
146
0.0
 13
0.0
 23
0.0
 33
0.0
 16
1.0
 26
0.0
 36
0.0
 17
0.0
 27
1.0
 37
0.0
 76
0
330
20C
345
0
346
0
  0
ENDSEC
  0
EOF
