  0
SECTION
  2
HEADER
  9
$ACADVER
  1
AC1015
  9
$DWGCODEPAGE
  3
ANSI_1252
  9
$EXTMAX
 10
11.6929133858
 20
8.2677165354
 30
0.0
  9
$EXTMIN
 10
0.0
 20
-0.0
 30
0.0
  9
$LIMMIN
 10
0.0
 20
-0.0
  9
$LIMMAX
 10
11.6929133858
 20
8.2677165354
  9
$VIEWCTR
 10
5.8464566929
 20
4.1338582677
  9
$VIEWSIZE
 40
8.2677165354
  9
$CLAYER
  8
0
  9
$LTSCALE
 40
0.6431102362
  9
$CELTYPE
  6
BYLAYER
  9
$DIMSCALE
 40
1.0
  9
$DIMASZ
 40
0.1
  9
$DIMEXO
 40
0.0730807087
  9
$DIMDLI
 40
0.4443307087
  9
$DIMEXE
 40
0.2104724409
  9
$DIMCEN
 40
0.1052362205
  9
$DIMLFAC
 40
1.0
  9
$DIMBLK
  1
_FILLED
  9
$DIMTXT
 40
0.08
  9
$DIMTOL
 70
1
  9
$DIMLIM
 70
0
  9
$DIMTFAC
 40
1.0
  9
$DIMTP
 40
0.01
  9
$DIMTM
 40
0.01
  9
$PDMODE
 70
3
  9
$PDSIZE
 40
0.06
  9
$HANDSEED
  5
28B
  9
$TILEMODE
 70
1
  9
$MEASUREMENT
 70
0
  9
$INSUNITS
 70
1
  0
ENDSEC
  0
SECTION
  2
CLASSES
  0
CLASS
  1
ACDBDICTIONARYWDFLT
  2
AcDbDictionaryWithDefault
  3
AutoCAD 2000
 90
0
280
0
281
0
  0
CLASS
  1
ACDBPLACEHOLDER
  2
AcDbPlaceHolder
  3
AutoCAD 2000
 90
0
280
0
281
0
  0
CLASS
  1
LAYOUT
  2
AcDbLayout
  3
AutoCAD 2000
 90
0
280
0
281
0
  0
ENDSEC
  0
SECTION
  2
TABLES
  0
TABLE
  2
VPORT
  5
8
100
AcDbSymbolTable
 70
2
  0
VPORT
  5
1F4
100
AcDbSymbolTableRecord
100
AcDbViewportTableRecord
  2
*ACTIVE
 70
0
 10
0.0
 20
0.0
 11
1.0
 21
1.0
 12
5.8464566929
 22
4.1338582677
 13
0.0
 23
0.0
 14
1.0
 24
1.0
 15
0.0
 25
0.0
 16
0.0
 26
0.0
 36
1.0
 17
0.0
 27
0.0
 37
0.0
 40
8.2677165354
 41
1.4142857143
 42
50.0
 43
0.0
 44
0.0
 50
0.0
 51
0.0
 71
0
 72
100
 73
1
 74
1
 75
0
 76
0
 77
0
 78
0
  0
ENDTAB
  0
TABLE
  2
LTYPE
  5
5
100
AcDbSymbolTable
 70
6
  0
LTYPE
  5
14
100
AcDbSymbolTableRecord
100
AcDbLinetypeTableRecord
  2
BYBLOCK
 70
0
  3

 72
65
 73
0
 40
0.0
  0
LTYPE
  5
15
100
AcDbSymbolTableRecord
100
AcDbLinetypeTableRecord
  2
BYLAYER
 70
0
  3

 72
65
 73
0
 40
0.0
  0
LTYPE
  5
16
100
AcDbSymbolTableRecord
100
AcDbLinetypeTableRecord
  2
CONTINUOUS
 70
64
  3
Solid line
 72
65
 73
0
 40
0.0
  0
LTYPE
  5
1F5
100
AcDbSymbolTableRecord
100
AcDbLinetypeTableRecord
  2
CENTER
 70
64
  3
____ _ ____ _ ____ _ ____ _ ____ _ ____ _ ____
 72
65
 73
4
 40
0.6
 49
0.375
 74
0
 49
-0.075
 74
0
 49
0.075
 74
0
 49
-0.075
 74
0
  0
LTYPE
  5
1F6
100
AcDbSymbolTableRecord
100
AcDbLinetypeTableRecord
  2
HIDDEN
 70
64
  3
- - - - - - - - - - - - - - - - - - - -
 72
65
 73
2
 40
0.2
 49
0.1
 74
0
 49
-0.1
 74
0
  0
LTYPE
  5
1F7
100
AcDbSymbolTableRecord
100
AcDbLinetypeTableRecord
  2
PHANTOM
 70
64
  3
_____ _ _ _____ _ _ _____ _ _ _____
 72
65
 73
6
 40
0.8
 49
0.45
 74
0
 49
-0.05
 74
0
 49
0.1
 74
0
 49
-0.05
 74
0
 49
0.1
 74
0
 49
-0.05
 74
0
  0
LTYPE
  5
1F8
100
AcDbSymbolTableRecord
100
AcDbLinetypeTableRecord
  2
DOT
 70
64
  3
. . . . . . . . . . . . . . . . . . . .
 72
65
 73
2
 40
0.2
 49
0.1
 74
0
 49
-0.1
 74
0
  0
LTYPE
  5
1F9
100
AcDbSymbolTableRecord
100
AcDbLinetypeTableRecord
  2
DASHED
 70
64
  3
- - - - - - - - - - - - - - - - - - - -
 72
65
 73
2
 40
0.2
 49
0.1
 74
0
 49
-0.1
 74
0
  0
ENDTAB
  0
TABLE
  2
LAYER
  5
2
100
AcDbSymbolTable
 70
36
  0
LAYER
  5
10
100
AcDbSymbolTableRecord
100
AcDbLayerTableRecord
  2
0
 70
0
 62
7
  6
CONTINUOUS
370
-3
390
F
  0
LAYER
  5
1FA
100
AcDbSymbolTableRecord
100
AcDbLayerTableRecord
  2
DEFAULT_1
 70
0
 62
7
  6
CENTER
370
-3
390
F
  0
LAYER
  5
1FB
100
AcDbSymbolTableRecord
100
AcDbLayerTableRecord
  2
DEFAULT_2
 70
0
 62
8
  6
HIDDEN
370
-3
390
F
  0
LAYER
  5
1FC
100
AcDbSymbolTableRecord
100
AcDbLayerTableRecord
  2
DEFAULT_3
 70
0
 62
7
  6
PHANTOM
370
-3
390
F
  0
LAYER
  5
1FD
100
AcDbSymbolTableRecord
100
AcDbLayerTableRecord
  2
DEFAULT_COORDINATE_SYSTEM
 70
0
 62
7
  6
CONTINUOUS
370
-3
390
F
  0
LAYER
  5
1FE
100
AcDbSymbolTableRecord
100
AcDbLayerTableRecord
  2
DEFAULT_DATUM_AXES
 70
0
 62
7
  6
CONTINUOUS
370
-3
390
F
  0
LAYER
  5
1FF
100
AcDbSymbolTableRecord
100
AcDbLayerTableRecord
  2
DEFAULT_DATUM_CURVES
 70
0
 62
7
  6
CONTINUOUS
370
-3
390
F
  0
LAYER
  5
200
100
AcDbSymbolTableRecord
100
AcDbLayerTableRecord
  2
DEFAULT_DATUM_PLANES
 70
0
 62
7
  6
CONTINUOUS
370
-3
390
F
  0
ENDTAB
  0
TABLE
  2
STYLE
  5
3
100
AcDbSymbolTable
 70
1
  0
STYLE
  5
11
100
AcDbSymbolTableRecord
100
AcDbTextStyleTableRecord
  2
STANDARD
 70
0
 40
0.0
 41
0.8
 50
0.0
 71
0
 42
0.2
  3
txt
  4

  0
STYLE
  5
201
100
AcDbSymbolTableRecord
100
AcDbTextStyleTableRecord
  2
TEXTSTYLE_1
 70
0
 40
0.0
 41
0.8
 50
0.0
 71
0
 42
0.2
  3
gdt
  4

  0
ENDTAB
  0
TABLE
  2
VIEW
  5
6
100
AcDbSymbolTable
 70
0
  0
ENDTAB
  0
TABLE
  2
UCS
  5
7
100
AcDbSymbolTable
 70
0
  0
ENDTAB
  0
TABLE
  2
APPID
  5
9
100
AcDbSymbolTable
 70
1
  0
APPID
  5
202
100
AcDbSymbolTableRecord
100
AcDbRegAppTableRecord
  2
ACAD
 70
0
  0
ENDTAB
  0
TABLE
  2
BLOCK_RECORD
  5
1
100
AcDbSymbolTable
 70
0
  0
BLOCK_RECORD
  5
203
100
AcDbSymbolTableRecord
100
AcDbBlockTableRecord
  2
*Model_Space
  0
BLOCK_RECORD
  5
204
100
AcDbSymbolTableRecord
100
AcDbBlockTableRecord
  2
*Paper_Space
  0
ENDTAB
  0
TABLE
  2
DIMSTYLE
  5
A
100
AcDbSymbolTable
 70
1
100
AcDbDimStyleTable
 71
0
  0
DIMSTYLE
105
205
100
AcDbSymbolTableRecord
100
AcDbDimStyleTableRecord
  2
STANDARD
 70
0
  3

  4

 40
1.0
 41
0.1
 42
0.0625
 43
0.38
 44
0.18
 45
0.0
 46
0.0
 47
0.01
 48
0.01
140
0.08
141
0.09
142
0.0
143
25.4
144
1.0
145
0.0
146
1.0
147
0.09
 71
1.0
 72
0.0
 73
1
 74
1
 75
0
 76
0
 77
0
 78
4
170
0
171
2
172
0
173
0
174
0
175
0
176
0
177
0
178
0
270
2
271
2
272
2
273
2
274
2
275
0
280
0
281
0
282
0
283
1
284
4
285
0
286
0
287
3
288
0
340
11
  0
ENDTAB
  0
ENDSEC
  0
SECTION
  2
BLOCKS
  0
BLOCK
  5
20
100
AcDbEntity
  8
0
100
AcDbBlockBegin
  2
*Model_Space
 70
0
 10
0.0
 20
0.0
 30
0.0
  3
*Model_Space
  1

  0
ENDBLK
  5
21
100
AcDbEntity
  8
0
100
AcDbBlockEnd
  0
BLOCK
  5
1C
100
AcDbEntity
  8
0
100
AcDbBlockBegin
  2
*Paper_Space
 70
0
 10
0.0
 20
0.0
 30
0.0
  3
*Paper_Space
  1

  0
ENDBLK
  5
1D
100
AcDbEntity
  8
0
100
AcDbBlockEnd
  0
ENDSEC
  0
SECTION
  2
ENTITIES
  0
LINE
  5
206
100
AcDbEntity
  8
0
100
AcDbLine
 62
6
  6
CONTINUOUS
 10
5.78126445
 20
4.7760958886
 11
5.78126445
 21
4.7744572707
  0
CIRCLE
  5
207
100
AcDbEntity
  8
0
100
AcDbCircle
 62
6
  6
CONTINUOUS
 10
5.78126445
 20
4.2760958886
 40
1.18
  0
CIRCLE
  5
208
100
AcDbEntity
  8
0
100
AcDbCircle
 62
6
  6
CONTINUOUS
 10
5.78126445
 20
4.2760958886
 40
1.0
  0
CIRCLE
  5
209
100
AcDbEntity
  8
0
100
AcDbCircle
 62
9
  6
CONTINUOUS
 10
5.78126445
 20
4.2760958886
 40
0.8120018309
  0
CIRCLE
  5
20A
100
AcDbEntity
  8
0
100
AcDbCircle
 62
6
  6
CONTINUOUS
 10
5.78126445
 20
4.2760958886
 40
0.741
  0
CIRCLE
  5
20B
100
AcDbEntity
  8
0
100
AcDbCircle
 62
6
  6
CONTINUOUS
 10
5.78126445
 20
4.2760958886
 40
0.5225
  0
CIRCLE
  5
20C
100
AcDbEntity
  8
0
100
AcDbCircle
 62
6
  6
CONTINUOUS
 10
5.78126445
 20
4.2760958886
 40
0.5
  0
ARC
  5
20D
100
AcDbEntity
  8
0
100
AcDbCircle
 62
6
  6
CONTINUOUS
 10
5.78152754
 20
4.2763658408
 40
0.4997168646
100
AcDbArc
 50
90.0301641786
 51
180.0366966392
  0
ARC
  5
20E
100
AcDbEntity
  8
0
100
AcDbCircle
 62
6
  6
CONTINUOUS
 10
5.7810008582
 20
4.2763654289
 40
0.4991694272
100
AcDbArc
 50
180.0602320963
 51
270.0302563773
  0
ARC
  5
20F
100
AcDbEntity
  8
0
100
AcDbCircle
 62
6
  6
CONTINUOUS
 10
5.7815959558
 20
4.2762375389
 40
0.4976323025
100
AcDbArc
 50
90.0381683566
 51
136.4448237081
  0
ARC
  5
210
100
AcDbEntity
  8
0
100
AcDbCircle
 62
6
  6
CONTINUOUS
 10
5.7815996431
 20
4.2762288145
 40
0.4960029189
100
AcDbArc
 50
90.0612278905
 51
136.4485986497
  0
ARC
  5
211
100
AcDbEntity
  8
0
100
AcDbCircle
 62
6
  6
CONTINUOUS
 10
5.7815960518
 20
4.2762372623
 40
0.4954084174
100
AcDbArc
 50
90.0383508006
 51
136.4503695328
  0
ARC
  5
212
100
AcDbEntity
  8
0
100
AcDbCircle
 62
6
  6
CONTINUOUS
 10
5.7815997043
 20
4.2762286232
 40
0.4937789441
100
AcDbArc
 50
90.0615055451
 51
136.4542757861
  0
ARC
  5
213
100
AcDbEntity
  8
0
100
AcDbCircle
 62
6
  6
CONTINUOUS
 10
5.7816035013
 20
4.2762192148
 40
0.4932035265
100
AcDbArc
 50
90.0393877597
 51
136.4550038648
  0
ARC
  5
214
100
AcDbEntity
  8
0
100
AcDbCircle
 62
6
  6
CONTINUOUS
 10
5.7816034594
 20
4.2762193206
 40
0.4915648001
100
AcDbArc
 50
90.0605762717
 51
136.4551345491
  0
ARC
  5
215
100
AcDbEntity
  8
0
100
AcDbCircle
 62
6
  6
CONTINUOUS
 10
5.7815961169
 20
4.2762370619
 40
0.4909602816
100
AcDbArc
 50
90.0387058633
 51
136.4621595536
  0
ARC
  5
216
100
AcDbEntity
  8
0
100
AcDbCircle
 62
6
  6
CONTINUOUS
 10
5.7815211111
 20
4.2763740018
 40
0.4891719332
100
AcDbArc
 50
90.0528862478
 51
182.8803885332
  0
ARC
  5
217
100
AcDbEntity
  8
0
100
AcDbCircle
 62
6
  6
CONTINUOUS
 10
5.7809887352
 20
4.2763505694
 40
0.4886165916
100
AcDbArc
 50
182.8807813123
 51
270.0100064698
  0
ARC
  5
218
100
AcDbEntity
  8
0
100
AcDbCircle
 62
6
  6
CONTINUOUS
 10
5.7815217699
 20
4.276373452
 40
0.4885871546
100
AcDbArc
 50
90.0301745682
 51
182.8778265529
  0
ARC
  5
219
100
AcDbEntity
  8
0
100
AcDbCircle
 62
6
  6
CONTINUOUS
 10
5.7809887003
 20
4.2763506072
 40
0.4880310365
100
AcDbArc
 50
182.8782899921
 51
270.0323741526
  0
ARC
  5
21A
100
AcDbEntity
  8
0
100
AcDbCircle
 62
6
  6
CONTINUOUS
 10
5.7815212554
 20
4.2763738553
 40
0.4869479451
100
AcDbArc
 50
90.0531358962
 51
182.8700985296
  0
ARC
  5
21B
100
AcDbEntity
  8
0
100
AcDbCircle
 62
6
  6
CONTINUOUS
 10
5.780988808
 20
4.2763506687
 40
0.4863925322
100
AcDbArc
 50
182.8705111589
 51
270.0100175039
  0
ARC
  5
21C
100
AcDbEntity
  8
0
100
AcDbCircle
 62
6
  6
CONTINUOUS
 10
5.7815279299
 20
4.2763663706
 40
0.4863715693
100
AcDbArc
 50
90.0310377563
 51
182.8652334673
  0
ARC
  5
21D
100
AcDbEntity
  8
0
100
AcDbCircle
 62
6
  6
CONTINUOUS
 10
5.7809956453
 20
4.2763569728
 40
0.4858151942
100
AcDbArc
 50
182.8672644546
 51
270.0317028596
  0
ARC
  5
21E
100
AcDbEntity
  8
0
100
AcDbCircle
 62
6
  6
CONTINUOUS
 10
5.7815278563
 20
4.2763664276
 40
0.4847328684
100
AcDbArc
 50
90.0548172982
 51
182.8653430363
  0
ARC
  5
21F
100
AcDbEntity
  8
0
100
AcDbCircle
 62
6
  6
CONTINUOUS
 10
5.7809956946
 20
4.2763570059
 40
0.484176634
100
AcDbArc
 50
182.8673774576
 51
270.0098991837
  0
ARC
  5
220
100
AcDbEntity
  8
0
100
AcDbCircle
 62
6
  6
CONTINUOUS
 10
5.7815218569
 20
4.2763733703
 40
0.4841389287
100
AcDbArc
 50
90.0304621018
 51
182.8573033269
  0
ARC
  5
221
100
AcDbEntity
  8
0
100
AcDbCircle
 62
6
  6
CONTINUOUS
 10
5.7809862212
 20
4.2763496927
 40
0.4835802526
100
AcDbArc
 50
182.8576649952
 51
270.0329657543
  0
ARC
  5
222
100
AcDbEntity
  8
0
100
AcDbCircle
 62
6
  6
CONTINUOUS
 10
5.7815897818
 20
4.2759397786
 40
0.4823644049
100
AcDbArc
 50
42.7319656628
 51
90.0386434022
  0
ARC
  5
223
100
AcDbEntity
  8
0
100
AcDbCircle
 62
6
  6
CONTINUOUS
 10
5.7809363309
 20
4.2762435486
 40
0.4818291975
100
AcDbArc
 50
229.2588347741
 51
270.0162662043
  0
ARC
  5
224
100
AcDbEntity
  8
0
100
AcDbCircle
 62
6
  6
CONTINUOUS
 10
5.7810733195
 20
4.2763824255
 40
0.4814386032
100
AcDbArc
 50
226.4825497534
 51
229.260724999
  0
ARC
  5
225
100
AcDbEntity
  8
0
100
AcDbCircle
 62
6
  6
CONTINUOUS
 10
5.7809278857
 20
4.2762217374
 40
0.4812207439
100
AcDbArc
 50
229.2613590521
 51
270.0400725209
  0
ARC
  5
226
100
AcDbEntity
  8
0
100
AcDbCircle
 62
6
  6
CONTINUOUS
 10
5.7815897197
 20
4.2759396682
 40
0.480725914
100
AcDbArc
 50
42.7244789422
 51
90.0159502179
  0
ARC
  5
227
100
AcDbEntity
  8
0
100
AcDbCircle
 62
6
  6
CONTINUOUS
 10
5.781589712
 20
4.2759395834
 40
0.4801404301
100
AcDbArc
 50
42.7215539483
 51
90.0388140629
  0
ARC
  5
228
100
AcDbEntity
  8
0
100
AcDbCircle
 62
6
  6
CONTINUOUS
 10
5.7810703814
 20
4.2763793355
 40
0.4797957253
100
AcDbArc
 50
226.4880485636
 51
229.2756810205
  0
ARC
  5
229
100
AcDbEntity
  8
0
100
AcDbCircle
 62
6
  6
CONTINUOUS
 10
5.7809364695
 20
4.2762438772
 40
0.4796053645
100
AcDbArc
 50
229.2772472548
 51
270.0163003723
  0
ARC
  5
22A
100
AcDbEntity
  8
0
100
AcDbCircle
 62
6
  6
CONTINUOUS
 10
5.7809264657
 20
4.2762211448
 40
0.4789960983
100
AcDbArc
 50
229.2928228451
 51
270.0404284997
  0
ARC
  5
22B
100
AcDbEntity
  8
0
100
AcDbCircle
 62
6
  6
CONTINUOUS
 10
5.7815897119
 20
4.2759395795
 40
0.4785018184
100
AcDbArc
 50
42.7141572044
 51
90.0389469682
  0
ARC
  5
22C
100
AcDbEntity
  8
0
100
AcDbCircle
 62
6
  6
CONTINUOUS
 10
5.7815734132
 20
4.2756543332
 40
0.4781999041
100
AcDbArc
 50
83.5923474093
 51
90.0370185934
  0
ARC
  5
22D
100
AcDbEntity
  8
0
100
AcDbCircle
 62
6
  6
CONTINUOUS
 10
5.7803340045
 20
4.2755472009
 40
0.4780992012
100
AcDbArc
 50
226.4819166581
 51
229.2939703197
  0
ARC
  5
22E
100
AcDbEntity
  8
0
100
AcDbCircle
 62
6
  6
CONTINUOUS
 10
5.781569219
 20
4.275910794
 40
0.4779510662
100
AcDbArc
 50
42.712579312
 51
73.3003188814
  0
ARC
  5
22F
100
AcDbEntity
  8
0
100
AcDbCircle
 62
6
  6
CONTINUOUS
 10
5.7816459789
 20
4.276266831
 40
0.4775874589
100
AcDbArc
 50
90.0457717143
 51
93.719639169
  0
ARC
  5
230
100
AcDbEntity
  8
0
100
AcDbCircle
 62
6
  6
CONTINUOUS
 10
5.7817022495
 20
4.2764037808
 40
0.4774407343
100
AcDbArc
 50
73.4058400818
 51
83.5280601805
  0
ARC
  5
231
100
AcDbEntity
  8
0
100
AcDbCircle
 62
6
  6
CONTINUOUS
 10
5.7809264617
 20
4.2762211453
 40
0.4773574799
100
AcDbArc
 50
229.2929619531
 51
270.0405677545
  0
ARC
  5
232
100
AcDbEntity
  8
0
100
AcDbCircle
 62
6
  6
CONTINUOUS
 10
5.7810522134
 20
4.2763622212
 40
0.4769611918
100
AcDbArc
 50
226.4975973441
 51
229.3015506829
  0
ARC
  5
233
100
AcDbEntity
  8
0
100
AcDbCircle
 62
6
  6
CONTINUOUS
 10
5.7806456777
 20
4.2758921309
 40
0.47692533
100
AcDbArc
 50
226.490727184
 51
229.2927540063
  0
ARC
  5
234
100
AcDbEntity
  8
0
100
AcDbCircle
 62
6
  6
CONTINUOUS
 10
5.780925053
 20
4.2762152651
 40
0.4767656758
100
AcDbArc
 50
229.3016203968
 51
270.040787372
  0
ARC
  5
235
100
AcDbEntity
  8
0
100
AcDbCircle
 62
6
  6
CONTINUOUS
 10
5.7808262156
 20
4.2761818515
 40
0.4766746713
100
AcDbArc
 50
216.3404852315
 51
226.5023767716
  0
ARC
  5
236
100
AcDbEntity
  8
0
100
AcDbCircle
 62
6
  6
CONTINUOUS
 10
5.7815937998
 20
4.2759467421
 40
0.4762695179
100
AcDbArc
 50
42.7104923657
 51
91.4181964785
  0
ARC
  5
237
100
AcDbEntity
  8
0
100
AcDbCircle
 62
6
  6
CONTINUOUS
 10
5.7816031262
 20
4.2762150427
 40
0.4759992868
100
AcDbArc
 50
91.4201180493
 51
131.7243950448
  0
ARC
  5
238
100
AcDbEntity
  8
0
100
AcDbCircle
 62
6
  6
CONTINUOUS
 10
5.7815928921
 20
4.2759454241
 40
0.4756855151
100
AcDbArc
 50
42.6991817221
 51
91.4137297657
  0
ARC
  5
239
100
AcDbEntity
  8
0
100
AcDbCircle
 62
6
  6
CONTINUOUS
 10
5.7812748761
 20
4.2764753146
 40
0.4755728432
100
AcDbArc
 50
131.7157488893
 51
226.4876319709
  0
ARC
  5
23A
100
AcDbEntity
  8
0
100
AcDbCircle
 62
6
  6
CONTINUOUS
 10
5.7815967849
 20
4.2762334479
 40
0.4753949421
100
AcDbArc
 50
91.4150552313
 51
131.7208791719
  0
ARC
  5
23B
100
AcDbEntity
  8
0
100
AcDbCircle
 62
6
  6
CONTINUOUS
 10
5.78126445
 20
4.2760958886
 40
0.4752765628
100
AcDbArc
 50
131.6799396072
 51
226.4570504866
  0
ARC
  5
23C
100
AcDbEntity
  8
0
100
AcDbCircle
 62
6
  6
CONTINUOUS
 10
5.7812276565
 20
4.2757369702
 40
0.4374659622
100
AcDbArc
 50
334.2257707157
 51
19.230441945
  0
CIRCLE
  5
23D
100
AcDbEntity
  8
0
100
AcDbCircle
 62
6
  6
CONTINUOUS
 10
5.78126445
 20
4.2760958886
 40
0.375
  0
SPLINE
  5
23E
100
AcDbEntity
  8
0
100
AcDbSpline
 62
6
  6
CONTINUOUS
 70
0
 71
3
 72
39
 73
35
 74
33
 42
0.0000001
 43
0.0000001
 44
0.0000000001
 12
0.6469319196
 22
-0.5649104898
 32
0.0
 13
0.3382857644
 23
0.7894349319
 33
0.0
 40
0.0
 40
0.0
 40
0.0
 40
0.0
 40
0.0312290114
 40
0.0624702082
 40
0.0937091588
 40
0.1249455509
 40
0.1561836742
 40
0.1874244685
 40
0.2186669993
 40
0.2499112051
 40
0.2811572804
 40
0.3124060293
 40
0.3436571908
 40
0.3749100194
 40
0.4061645742
 40
0.4374200219
 40
0.468675505
 40
0.4999311087
 40
0.5311864557
 40
0.5624413555
 40
0.5936963516
 40
0.6249510202
 40
0.6562051933
 40
0.6874594
 40
0.7187134214
 40
0.7499675788
 40
0.7812219595
 40
0.8124749354
 40
0.843725727
 40
0.8749771271
 40
0.9062342513
 40
0.9375010251
 40
0.9687636023
 40
1.0
 40
1.0
 40
1.0
 40
1.0
 10
5.4538473144
 20
3.9315877893
 30
0.0
 10
5.4605816625
 20
3.9257072572
 30
0.0
 10
5.4743890957
 20
3.9143225734
 30
0.0
 10
5.4960305547
 20
3.8984446033
 30
0.0
 10
5.5185415796
 20
3.8838198826
 30
0.0
 10
5.5418468242
 20
3.8704993216
 30
0.0
 10
5.5658748362
 20
3.8585300948
 30
0.0
 10
5.5905489899
 20
3.8479523168
 30
0.0
 10
5.6157904513
 20
3.8388050398
 30
0.0
 10
5.6415176513
 20
3.8311240271
 30
0.0
 10
5.6676458703
 20
3.8249350414
 30
0.0
 10
5.6940903712
 20
3.820267194
 30
0.0
 10
5.7207625474
 20
3.8171369277
 30
0.0
 10
5.747573166
 20
3.815558176
 30
0.0
 10
5.7744315309
 20
3.8155456981
 30
0.0
 10
5.8012457253
 20
3.8170983159
 30
0.0
 10
5.8279238555
 20
3.8202152309
 30
0.0
 10
5.8543727191
 20
3.8248946967
 30
0.0
 10
5.880501035
 20
3.8311189496
 30
0.0
 10
5.9062173461
 20
3.8388715293
 30
0.0
 10
5.9314292754
 20
3.8481333862
 30
0.0
 10
5.9560489753
 20
3.8588703769
 30
0.0
 10
5.9799874901
 20
3.8710506241
 30
0.0
 10
6.0031564625
 20
3.8846374286
 30
0.0
 10
6.0254742601
 20
3.8995813488
 30
0.0
 10
6.0468566777
 20
3.9158358869
 30
0.0
 10
6.0672230183
 20
3.93334627
 30
0.0
 10
6.086500086
 20
3.9520478306
 30
0.0
 10
6.1046117366
 20
3.9718792488
 30
0.0
 10
6.1214899541
 20
3.9927720257
 30
0.0
 10
6.13707279
 20
4.0146537275
 30
0.0
 10
6.151292642
 20
4.0374489396
 30
0.0
 10
6.1640937105
 20
4.0610620614
 30
0.0
 10
6.1716503353
 20
4.0772953877
 30
0.0
 10
6.1751726115
 20
4.0855150889
 30
0.0
 11
5.4538473144
 21
3.9315877893
 31
0.0
 11
5.4745412455
 21
3.9145246673
 31
0.0
 11
5.4961757331
 21
3.8986533293
 31
0.0
 11
5.5186746974
 21
3.8840367801
 31
0.0
 11
5.5419667673
 21
3.8707248127
 31
0.0
 11
5.5659815666
 21
3.8587624473
 31
0.0
 11
5.5906428094
 21
3.8481910243
 31
0.0
 11
5.6158707129
 21
3.8390496464
 31
0.0
 11
5.6415836836
 21
3.8313729119
 31
0.0
 11
5.6676975091
 21
3.8251887857
 31
0.0
 11
5.6941273149
 21
3.820523606
 31
0.0
 11
5.7207848698
 21
3.8173955806
 31
0.0
 11
5.7475804253
 21
3.8158192434
 31
0.0
 11
5.7744237868
 21
3.8158065387
 31
0.0
 11
5.8012229879
 21
3.8173590279
 31
0.0
 11
5.8278856149
 21
3.8204756521
 31
0.0
 11
5.8543193936
 21
3.8251521826
 31
0.0
 11
5.8804325193
 21
3.8313737111
 31
0.0
 11
5.9061332871
 21
3.8391230768
 31
0.0
 11
5.9313306895
 21
3.8483792904
 31
0.0
 11
5.955935607
 21
3.8591109958
 31
0.0
 11
5.9798592519
 21
3.8712850601
 31
0.0
 11
6.0030146457
 21
3.884863643
 31
0.0
 11
6.0253183253
 21
3.8997997572
 31
0.0
 11
6.0466873192
 21
3.9160451873
 31
0.0
 11
6.0670418861
 21
3.9335451817
 31
0.0
 11
6.0863063865
 21
3.9522366891
 31
0.0
 11
6.1044059305
 21
3.9720558521
 31
0.0
 11
6.1212726157
 21
3.9929349255
 31
0.0
 11
6.1368437847
 21
4.014803245
 31
0.0
 11
6.1510572353
 21
4.0375871773
 31
0.0
 11
6.1638531182
 21
4.0611922945
 31
0.0
 11
6.1751726115
 21
4.0855150889
 31
0.0
  0
LINE
  5
23F
100
AcDbEntity
  8
0
100
AcDbLine
 62
6
  6
CONTINUOUS
 10
5.78126445
 20
4.7722330961
 11
5.7810695989
 21
4.7722329186
  0
SPLINE
  5
240
100
AcDbEntity
  8
0
100
AcDbSpline
 62
6
  6
CONTINUOUS
 70
0
 71
3
 72
48
 73
44
 74
42
 42
0.0000001
 43
0.0000001
 44
0.0000000001
 12
-0.7956118267
 22
-0.8369371935
 32
0.0
 13
1.1547562079
 23
0.0003807048
 33
0.0
 40
0.0
 40
0.0
 40
0.0
 40
0.0
 40
0.0312482008
 40
0.0624961978
 40
0.093744131
 40
0.1093706435
 40
0.1249972423
 40
0.1562454463
 40
0.171872071
 40
0.1874986589
 40
0.2187469092
 40
0.2499954691
 40
0.2812446611
 40
0.3124943956
 40
0.3281218233
 40
0.3437492562
 40
0.3749989624
 40
0.4062480763
 40
0.4374966397
 40
0.4687447938
 40
0.4843712833
 40
0.4999977915
 40
0.5312458259
 40
0.5468724926
 40
0.5624992733
 40
0.5937481868
 40
0.6249972649
 40
0.656246303
 40
0.6874951508
 40
0.7031218602
 40
0.7187484107
 40
0.7499963916
 40
0.7812449388
 40
0.812494511
 40
0.84374309
 40
0.8593688044
 40
0.8749940811
 40
0.9062417611
 40
0.9218711606
 40
0.9375035663
 40
0.9531369253
 40
0.9687675217
 40
1.0
 40
1.0
 40
1.0
 40
1.0
 10
5.4221199816
 20
4.6179757154
 30
0.0
 10
5.4138328355
 20
4.6092581215
 30
0.0
 10
5.3978863938
 20
4.5912131516
 30
0.0
 10
5.3760081117
 20
4.5624812439
 30
0.0
 10
5.3595595012
 20
4.5372731141
 30
0.0
 10
5.3475307734
 20
4.5164329457
 30
0.0
 10
5.3362695884
 20
4.4951685695
 30
0.0
 10
5.3261756277
 20
4.4733027684
 30
0.0
 10
5.3172968936
 20
4.4509385618
 30
0.0
 10
5.3092393579
 20
4.4282650235
 30
0.0
 10
5.3007240759
 20
4.3993947465
 30
0.0
 10
5.2930499214
 20
4.3641034863
 30
0.0
 10
5.2879689691
 20
4.3283460961
 30
0.0
 10
5.2859106772
 20
4.2983154886
 30
0.0
 10
5.2855782307
 20
4.2742539747
 30
0.0
 10
5.2861240996
 20
4.2501963744
 30
0.0
 10
5.2884479527
 20
4.2201851845
 30
0.0
 10
5.2938463405
 20
4.1844743469
 30
0.0
 10
5.3018341008
 20
4.1492528148
 30
0.0
 10
5.3106061375
 20
4.120459551
 30
0.0
 10
5.3188664715
 20
4.0978592255
 30
0.0
 10
5.3279452055
 20
4.075575623
 30
0.0
 10
5.3382351098
 20
4.0538013946
 30
0.0
 10
5.349687969
 20
4.0326395633
 30
0.0
 10
5.3619057383
 20
4.011908999
 30
0.0
 10
5.3785830803
 20
3.9868510062
 30
0.0
 10
5.4007257227
 20
3.9583185616
 30
0.0
 10
5.4248908957
 20
3.9314775438
 30
0.0
 10
5.4466038735
 20
3.9106309205
 30
0.0
 10
5.4648459176
 20
3.8949386014
 30
0.0
 10
5.4836484202
 20
3.8799229274
 30
0.0
 10
5.5081588806
 20
3.8624518543
 30
0.0
 10
5.5390158814
 20
3.8436843132
 30
0.0
 10
5.5711600508
 20
3.8272180278
 30
0.0
 10
5.59887602
 20
3.8154774215
 30
0.0
 10
5.6215122134
 20
3.8073176632
 30
0.0
 10
5.6444301713
 20
3.7999892756
 30
0.0
 10
5.66773606
 20
3.7939177442
 30
0.0
 10
5.6913206658
 20
3.7891327334
 30
0.0
 10
5.7091345543
 20
3.7861918089
 30
0.0
 10
5.727044382
 20
3.7839023661
 30
0.0
 10
5.751004896
 20
3.7817213037
 30
0.0
 10
5.7690526324
 20
3.7810667067
 30
0.0
 10
5.7810745985
 20
3.7810706702
 30
0.0
 11
5.4221199816
 21
4.6179757154
 31
0.0
 11
5.3982265676
 21
4.5909356736
 31
0.0
 11
5.3763648531
 21
4.5622284004
 31
0.0
 11
5.3566473104
 21
4.5320082864
 31
0.0
 11
5.3476267463
 21
4.5163799559
 31
0.0
 11
5.3391815022
 21
4.5004332718
 31
0.0
 11
5.3240577683
 21
4.4676715255
 31
0.0
 11
5.3173995474
 21
4.4508998811
 31
0.0
 11
5.3113570344
 21
4.43389675
 31
0.0
 11
5.3011480948
 21
4.3992869138
 31
0.0
 11
5.2934821811
 21
4.3640261313
 31
0.0
 11
5.2884041803
 21
4.3283000121
 31
0.0
 11
5.2859371302
 21
4.2922986154
 31
0.0
 11
5.2856880291
 21
4.2742544646
 31
0.0
 11
5.2860971305
 21
4.2562132263
 31
0.0
 11
5.2888829636
 21
4.2202351263
 31
0.0
 11
5.2942779599
 21
4.1845555916
 31
0.0
 11
5.302257214
 21
4.1493643881
 31
0.0
 11
5.3127742953
 21
4.1148470562
 31
0.0
 11
5.318968779
 21
4.0978988203
 31
0.0
 11
5.3257770113
 21
4.081187654
 31
0.0
 11
5.3411945193
 21
4.048563343
 31
0.0
 11
5.349783548
 21
4.032693551
 31
0.0
 11
5.3589457089
 21
4.0171474495
 31
0.0
 11
5.3789381111
 21
3.9871071045
 31
0.0
 11
5.4010628244
 21
3.9586004515
 31
0.0
 11
5.4252058948
 21
3.9317817825
 31
0.0
 11
5.4512359903
 21
3.9067908414
 31
0.0
 11
5.4649160595
 21
3.895023123
 31
0.0
 11
5.4790162026
 21
3.8837624463
 31
0.0
 11
5.5083995199
 21
3.8628182009
 31
0.0
 11
5.5392300334
 21
3.8440680703
 31
0.0
 11
5.5713461158
 21
3.8276141764
 31
0.0
 11
5.6045729423
 21
3.8135404915
 31
0.0
 11
5.621547636
 21
3.8074215211
 31
0.0
 11
5.6387337285
 21
3.8019258853
 31
0.0
 11
5.6736517948
 21
3.7928294945
 31
0.0
 11
5.6913396117
 21
3.7892410758
 31
0.0
 11
5.7091501061
 21
3.7863004602
 31
0.0
 11
5.7270570678
 21
3.7840110507
 31
0.0
 11
5.7450322886
 21
3.7823749135
 31
0.0
 11
5.7810745985
 21
3.7810706702
 31
0.0
  0
LINE
  5
241
100
AcDbEntity
  8
0
100
AcDbLine
 62
6
  6
CONTINUOUS
 10
5.7810745985
 20
3.7810706702
 11
5.78126445
 21
3.7810707693
  0
LINE
  5
242
100
AcDbEntity
  8
0
100
AcDbLine
 62
6
  6
CONTINUOUS
 10
5.78126445
 20
4.7700089196
 11
5.7810696439
 21
4.7700087414
  0
SPLINE
  5
243
100
AcDbEntity
  8
0
100
AcDbSpline
 62
6
  6
CONTINUOUS
 70
0
 71
3
 72
48
 73
44
 74
42
 42
0.0000001
 43
0.0000001
 44
0.0000000001
 12
-0.7919239545
 22
-0.8332237045
 32
0.0
 13
1.1495238781
 23
0.0003809521
 33
0.0
 40
0.0
 40
0.0
 40
0.0
 40
0.0
 40
0.0312480064
 40
0.0624960098
 40
0.0937440663
 40
0.1093706557
 40
0.1249973302
 40
0.1562456558
 40
0.171872315
 40
0.1874989146
 40
0.2187471336
 40
0.2499956302
 40
0.2812447716
 40
0.3124944684
 40
0.3281218828
 40
0.3437493065
 40
0.3749989846
 40
0.4062480188
 40
0.4374964618
 40
0.4687446003
 40
0.4843711794
 40
0.4999978517
 40
0.531246348
 40
0.5468732663
 40
0.562500285
 40
0.5937496204
 40
0.6249990416
 40
0.6562483153
 40
0.687497317
 40
0.7031240701
 40
0.7187506333
 40
0.749998562
 40
0.7812469687
 40
0.8124963324
 40
0.8437446207
 40
0.8593701234
 40
0.8749951215
 40
0.906242197
 40
0.9218713537
 40
0.9375036083
 40
0.953136906
 40
0.9687674973
 40
1.0
 40
1.0
 40
1.0
 40
1.0
 10
5.4236981577
 20
4.6164077495
 30
0.0
 10
5.4154494761
 20
4.6077288896
 30
0.0
 10
5.3995771491
 20
4.5897641384
 30
0.0
 10
5.3778007196
 20
4.5611603874
 30
0.0
 10
5.3614288292
 20
4.5360649562
 30
0.0
 10
5.3494564254
 20
4.5153180443
 30
0.0
 10
5.3382480703
 20
4.494148946
 30
0.0
 10
5.3282016464
 20
4.4723812949
 30
0.0
 10
5.3193649589
 20
4.4501176329
 30
0.0
 10
5.3113457774
 20
4.4275461701
 30
0.0
 10
5.3028713313
 20
4.3988060794
 30
0.0
 10
5.2952346326
 20
4.3636742032
 30
0.0
 10
5.2901792904
 20
4.3280785292
 30
0.0
 10
5.2881323572
 20
4.2981838955
 30
0.0
 10
5.2878030342
 20
4.2742314078
 30
0.0
 10
5.2883480036
 20
4.2502828712
 30
0.0
 10
5.2906631665
 20
4.2204078555
 30
0.0
 10
5.2960391971
 20
4.184859237
 30
0.0
 10
5.3039926649
 20
4.1497978178
 30
0.0
 10
5.3127264476
 20
4.1211354929
 30
0.0
 10
5.3209505835
 20
4.0986379248
 30
0.0
 10
5.3299894085
 20
4.0764554966
 30
0.0
 10
5.340233855
 20
4.054780112
 30
0.0
 10
5.3516359295
 20
4.0337143536
 30
0.0
 10
5.3637994175
 20
4.0130779514
 30
0.0
 10
5.3804025654
 20
3.9881339517
 30
0.0
 10
5.4024462557
 20
3.9597313828
 30
0.0
 10
5.4265031372
 20
3.9330126861
 30
0.0
 10
5.4481187006
 20
3.9122612967
 30
0.0
 10
5.466278634
 20
3.8966405956
 30
0.0
 10
5.4849964032
 20
3.8816935334
 30
0.0
 10
5.5093963631
 20
3.8643025324
 30
0.0
 10
5.5401138689
 20
3.8456208661
 30
0.0
 10
5.5721125959
 20
3.8292301243
 30
0.0
 10
5.599703012
 20
3.8175435061
 30
0.0
 10
5.6222364729
 20
3.8094211483
 30
0.0
 10
5.6450502945
 20
3.8021264277
 30
0.0
 10
5.6682502469
 20
3.7960828411
 30
0.0
 10
5.6917276691
 20
3.7913198662
 30
0.0
 10
5.7094606955
 20
3.788392461
 30
0.0
 10
5.727289305
 20
3.78611353
 30
0.0
 10
5.7511412454
 20
3.783942471
 30
0.0
 10
5.769107213
 20
3.7832908798
 30
0.0
 10
5.7810747155
 20
3.7832948458
 30
0.0
 11
5.4236981577
 21
4.6164077495
 31
0.0
 11
5.3999158272
 21
4.5894880361
 31
0.0
 11
5.3781558669
 21
4.5609087762
 31
0.0
 11
5.358530301
 21
4.530823705
 31
0.0
 11
5.3495519612
 21
4.5152653065
 31
0.0
 11
5.3411463341
 21
4.4993900649
 31
0.0
 11
5.3260938311
 21
4.4667753638
 31
0.0
 11
5.3194671455
 21
4.4500791286
 31
0.0
 11
5.3134533873
 21
4.4331525375
 31
0.0
 11
5.3032934219
 21
4.3986987587
 31
0.0
 11
5.2956649184
 21
4.3635972398
 31
0.0
 11
5.2906125055
 21
4.3280326919
 31
0.0
 11
5.288159094
 21
4.2921942965
 31
0.0
 11
5.2879123298
 21
4.2742319045
 31
0.0
 11
5.288320755
 21
4.2562724502
 31
0.0
 11
5.291096192
 21
4.220457576
 31
0.0
 11
5.2964688295
 21
4.1849401174
 31
0.0
 11
5.3044138295
 21
4.1499089422
 31
0.0
 11
5.3148850681
 21
4.1155485829
 31
0.0
 11
5.3210524086
 21
4.0986773697
 31
0.0
 11
5.3278307069
 21
4.0820420925
 31
0.0
 11
5.3431801217
 21
4.049565853
 31
0.0
 11
5.3517310751
 21
4.0337680959
 31
0.0
 11
5.3608525429
 21
4.0182926023
 31
0.0
 11
5.3807559681
 21
3.9883888628
 31
0.0
 11
5.4027818381
 21
3.960011969
 31
0.0
 11
5.4268167334
 21
3.933315552
 31
0.0
 11
5.4527299658
 21
3.9084387196
 31
0.0
 11
5.4663484645
 21
3.8967247277
 31
0.0
 11
5.4803850814
 21
3.885515506
 31
0.0
 11
5.509635892
 21
3.8646671517
 31
0.0
 11
5.5403270674
 21
3.8460028802
 31
0.0
 11
5.5722978306
 21
3.8296244613
 31
0.0
 11
5.6053741118
 21
3.8156154243
 31
0.0
 11
5.6222717576
 21
3.8095245267
 31
0.0
 11
5.6393797525
 21
3.8040541386
 31
0.0
 11
5.6741390525
 21
3.7949996142
 31
0.0
 11
5.6917464918
 21
3.7914277154
 31
0.0
 11
5.7094761408
 21
3.7885006179
 31
0.0
 11
5.7273019105
 21
3.7862217179
 31
0.0
 11
5.7451956858
 21
3.7845930849
 31
0.0
 11
5.7810747155
 21
3.7832948458
 31
0.0
  0
LINE
  5
244
100
AcDbEntity
  8
0
100
AcDbLine
 62
6
  6
CONTINUOUS
 10
5.7810747155
 20
3.7832948458
 11
5.78126445
 21
3.7832949454
  0
LINE
  5
245
100
AcDbEntity
  8
0
100
AcDbLine
 62
6
  6
CONTINUOUS
 10
5.78126445
 20
4.7744572707
 11
5.7810697079
 21
4.7744570941
  0
SPLINE
  5
246
100
AcDbEntity
  8
0
100
AcDbSpline
 62
6
  6
CONTINUOUS
 70
0
 71
3
 72
67
 73
63
 74
61
 42
0.0000001
 43
0.0000001
 44
0.0000000001
 12
-1.5632979744
 22
-0.0017243564
 32
0.0
 13
1.5632988419
 23
0.00051095
 33
0.0
 40
0.0
 40
0.0
 40
0.0
 40
0.0
 40
0.0312317404
 40
0.0468639688
 40
0.0624950658
 40
0.0781224077
 40
0.0937474729
 40
0.1093718382
 40
0.1249969683
 40
0.1406229777
 40
0.1562492467
 40
0.1718751953
 40
0.1875007008
 40
0.2031259765
 40
0.2187511438
 40
0.2343764231
 40
0.2500019408
 40
0.2656275199
 40
0.2812529763
 40
0.2968783626
 40
0.3125037323
 40
0.3281289975
 40
0.3437541777
 40
0.3593794211
 40
0.3750046821
 40
0.3906298846
 40
0.4062551546
 40
0.4218805905
 40
0.4375061362
 40
0.4531318313
 40
0.4687578024
 40
0.5000006355
 40
0.5312434584
 40
0.5468694358
 40
0.5624951452
 40
0.5781207033
 40
0.5937461405
 40
0.6093713842
 40
0.6249965164
 40
0.6406216988
 40
0.6562469057
 40
0.6718721368
 40
0.6874975505
 40
0.7031231224
 40
0.7187487083
 40
0.7343743091
 40
0.7499999854
 40
0.7656255733
 40
0.7812509039
 40
0.7968760929
 40
0.8125013603
 40
0.8281268225
 40
0.8437526905
 40
0.8593788764
 40
0.8750048075
 40
0.8906298597
 40
0.9062540765
 40
0.9218788926
 40
0.9375058935
 40
0.9531365963
 40
0.9687685409
 40
1.0
 40
1.0
 40
1.0
 40
1.0
 10
5.7810697079
 20
4.7744570941
 30
0.0
 10
5.7647948691
 20
4.7744391426
 30
0.0
 10
5.7403533378
 20
4.7732091457
 30
0.0
 10
5.7080268803
 20
4.7691946358
 30
0.0
 10
5.6839446858
 20
4.764996195
 30
0.0
 10
5.6601026282
 20
4.7596206043
 30
0.0
 10
5.6365555828
 20
4.753084717
 30
0.0
 10
5.6133580673
 20
4.7454036528
 30
0.0
 10
5.5905652414
 20
4.7365925354
 30
0.0
 10
5.5682305408
 20
4.7266751164
 30
0.0
 10
5.5464073535
 20
4.7156767525
 30
0.0
 10
5.5251497856
 20
4.7036218117
 30
0.0
 10
5.5045105719
 20
4.6905373778
 30
0.0
 10
5.4845372132
 20
4.6764582522
 30
0.0
 10
5.4652772312
 20
4.6614180815
 30
0.0
 10
5.4467790658
 20
4.6454500268
 30
0.0
 10
5.429086039
 20
4.6285940043
 30
0.0
 10
5.412239155
 20
4.6108921564
 30
0.0
 10
5.3962803275
 20
4.5923857118
 30
0.0
 10
5.3812502334
 20
4.5731175275
 30
0.0
 10
5.3671820184
 20
4.5531364325
 30
0.0
 10
5.3541090916
 20
4.5324905005
 30
0.0
 10
5.3420659843
 20
4.5112274388
 30
0.0
 10
5.3310807264
 20
4.4893991137
 30
0.0
 10
5.3211773479
 20
4.4670591383
 30
0.0
 10
5.3123810431
 20
4.4442604466
 30
0.0
 10
5.3047159122
 20
4.4210568993
 30
0.0
 10
5.2981968476
 20
4.397505502
 30
0.0
 10
5.2928389812
 20
4.3736629885
 30
0.0
 10
5.2886586594
 20
4.3495851998
 30
0.0
 10
5.2846684613
 20
4.3172537849
 30
0.0
 10
5.2826571226
 20
4.2765297589
 30
0.0
 10
5.2846553705
 20
4.2358050622
 30
0.0
 10
5.2886356888
 20
4.2034724228
 30
0.0
 10
5.2928086158
 20
4.1793933302
 30
0.0
 10
5.2981597207
 20
4.1555492726
 30
0.0
 10
5.3046725578
 20
4.1319961529
 30
0.0
 10
5.3123318694
 20
4.1087907305
 30
0.0
 10
5.3211228779
 20
4.0859900815
 30
0.0
 10
5.3310218876
 20
4.0636482592
 30
0.0
 10
5.342003577
 20
4.0418181651
 30
0.0
 10
5.3540438241
 20
4.0205533698
 30
0.0
 10
5.3671149808
 20
3.9999060469
 30
0.0
 10
5.381182399
 20
3.9799240206
 30
0.0
 10
5.3962124782
 20
3.9606554444
 30
0.0
 10
5.4121720843
 20
3.9421493383
 30
0.0
 10
5.4290208297
 20
3.924449002
 30
0.0
 10
5.44671653
 20
3.9075955946
 30
0.0
 10
5.4652179443
 20
3.8916311553
 30
0.0
 10
5.484482009
 20
3.8765961115
 30
0.0
 10
5.504460133
 20
3.8625237297
 30
0.0
 10
5.525104555
 20
3.8494475996
 30
0.0
 10
5.5463676527
 20
3.8374025716
 30
0.0
 10
5.5681968387
 20
3.8264163203
 30
0.0
 10
5.5905377192
 20
3.8165130672
 30
0.0
 10
5.6133366373
 20
3.8077180791
 30
0.0
 10
5.6365400297
 20
3.8000554604
 30
0.0
 10
5.6600925125
 20
3.7935404995
 30
0.0
 10
5.6839393292
 20
3.7881882489
 30
0.0
 10
5.7080254937
 20
3.7840155046
 30
0.0
 10
5.7403561608
 20
3.7800388262
 30
0.0
 10
5.7647992239
 20
3.7788411752
 30
0.0
 10
5.7810739252
 20
3.7788464944
 30
0.0
 11
5.7810697079
 21
4.7744570941
 31
0.0
 11
5.732306576
 21
4.7720089761
 31
0.0
 11
5.7080550776
 21
4.7689968115
 31
0.0
 11
5.6839821799
 21
4.7647994957
 31
0.0
 11
5.6601500775
 21
4.7594267961
 31
0.0
 11
5.6366133031
 21
4.7528936983
 31
0.0
 11
5.6134259668
 21
4.745215476
 31
0.0
 11
5.590642172
 21
4.7364083899
 31
0.0
 11
5.5683159807
 21
4.726495045
 31
0.0
 11
5.5465014383
 21
4.7155005556
 31
0.0
 11
5.5252525726
 21
4.7034500665
 31
0.0
 11
5.5046213914
 21
4.6903714921
 31
0.0
 11
5.4846560478
 21
4.6762980333
 31
0.0
 11
5.4654042614
 21
4.6612634851
 31
0.0
 11
5.4469133742
 21
4.6453021396
 31
0.0
 11
5.4292270968
 21
4.6284530664
 31
0.0
 11
5.412387114
 21
4.6107580009
 31
0.0
 11
5.3964350815
 21
4.592258713
 31
0.0
 11
5.3814105316
 21
4.5729986887
 31
0.0
 11
5.3673478597
 21
4.553025566
 31
0.0
 11
5.3542806994
 21
4.5323875983
 31
0.0
 11
5.3422423077
 21
4.5111332571
 31
0.0
 11
5.3312610446
 21
4.4893138486
 31
0.0
 11
5.3213618493
 21
4.4669826596
 31
0.0
 11
5.3125695886
 21
4.4441930182
 31
0.0
 11
5.3049069569
 21
4.4209990356
 31
0.0
 11
5.2983904036
 21
4.397457074
 31
0.0
 11
5.2930352626
 21
4.3736238979
 31
0.0
 11
5.2888565599
 21
4.3495563333
 31
0.0
 11
5.2858640635
 21
4.3253122564
 31
0.0
 11
5.2834589931
 21
4.2765296202
 31
0.0
 11
5.2858485522
 21
4.2277462375
 31
0.0
 11
5.2888335909
 21
4.2035012312
 31
0.0
 11
5.293005003
 21
4.1794323793
 31
0.0
 11
5.2983533679
 21
4.1555976619
 31
0.0
 11
5.3048636768
 21
4.1320539705
 31
0.0
 11
5.3125205121
 21
4.1088581171
 31
0.0
 11
5.3213075357
 21
4.0860665737
 31
0.0
 11
5.3312023251
 21
4.0637335666
 31
0.0
 11
5.3421799876
 21
4.0419124102
 31
0.0
 11
5.3542155769
 21
4.0206563905
 31
0.0
 11
5.3672809618
 21
4.000017024
 31
0.0
 11
5.3813428287
 21
3.980042948
 31
0.0
 11
5.3963673886
 21
3.9607825357
 31
0.0
 11
5.4123202479
 21
3.9422836626
 31
0.0
 11
5.4291620385
 21
3.9245901081
 31
0.0
 11
5.4468509464
 21
3.9077436376
 31
0.0
 11
5.4653451308
 21
3.8917859896
 31
0.0
 11
5.4846009764
 21
3.8767565857
 31
0.0
 11
5.5045710489
 21
3.8626898602
 31
0.0
 11
5.5252074177
 21
3.8496195994
 31
0.0
 11
5.5464618193
 21
3.8375791329
 31
0.0
 11
5.5682823063
 21
3.8265967353
 31
0.0
 11
5.5906146405
 21
3.8166975384
 31
0.0
 11
5.6134045497
 21
3.8079066251
 31
0.0
 11
5.6365977487
 21
3.8002468702
 31
0.0
 11
5.6601399155
 21
3.7937346915
 31
0.0
 11
5.6839767213
 21
3.788385332
 31
0.0
 11
5.708053473
 21
3.784213788
 31
0.0
 11
5.7323080331
 21
3.7812300092
 31
0.0
 11
5.7810739252
 21
3.7788464944
 31
0.0
  0
LINE
  5
247
100
AcDbEntity
  8
0
100
AcDbLine
 62
6
  6
CONTINUOUS
 10
5.7810739252
 20
3.7788464944
 11
5.78126445
 21
3.7788465934
  0
LINE
  5
248
100
AcDbEntity
  8
0
100
AcDbLine
 62
6
  6
CONTINUOUS
 10
5.78126445
 20
4.7677847447
 11
5.7810837492
 21
4.7677845813
  0
SPLINE
  5
249
100
AcDbEntity
  8
0
100
AcDbSpline
 62
6
  6
CONTINUOUS
 70
0
 71
3
 72
53
 73
49
 74
47
 42
0.0000001
 43
0.0000001
 44
0.0000000001
 12
-0.78831804
 22
-0.8295168745
 32
0.0
 13
1.1443528487
 23
0.0003674946
 33
0.0
 40
0.0
 40
0.0
 40
0.0
 40
0.0
 40
0.0312301767
 40
0.0468603775
 40
0.0624938299
 40
0.0781267811
 40
0.0937566352
 40
0.125004161
 40
0.1562482765
 40
0.1874945746
 40
0.2187426146
 40
0.2343693065
 40
0.249995993
 40
0.2812443351
 40
0.312492651
 40
0.3281195003
 40
0.3437464277
 40
0.3749948571
 40
0.390621335
 40
0.4062476637
 40
0.437494974
 40
0.4531211226
 40
0.4687472751
 40
0.4999948505
 40
0.5312428756
 40
0.5468695948
 40
0.5624964952
 40
0.5937454911
 40
0.6093725537
 40
0.6249995564
 40
0.6406265681
 40
0.6562535557
 40
0.6718804029
 40
0.6875069947
 40
0.7031333044
 40
0.7187594704
 40
0.7500066139
 40
0.765632891
 40
0.7812594142
 40
0.8125076859
 40
0.8437543031
 40
0.8749979824
 40
0.9062444333
 40
0.9218737239
 40
0.9375062487
 40
0.9531394916
 40
0.9687696467
 40
1.0
 40
1.0
 40
1.0
 40
1.0
 10
5.4253015722
 20
4.614867834
 30
0.0
 10
5.417095135
 20
4.6062325144
 30
0.0
 10
5.4052491809
 20
4.5928185907
 30
0.0
 10
5.3904629195
 20
4.5741156946
 30
0.0
 10
5.3798827424
 20
4.5596858936
 30
0.0
 10
5.3698347603
 20
4.5448809515
 30
0.0
 10
5.3571713061
 20
4.5246717547
 30
0.0
 10
5.3427364522
 20
4.4985690127
 30
0.0
 10
5.3277398636
 20
4.4660751885
 30
0.0
 10
5.3151501972
 20
4.432575064
 30
0.0
 10
5.3067115906
 20
4.4039658001
 30
0.0
 10
5.3012244559
 20
4.3807599152
 30
0.0
 10
5.2965875944
 20
4.3573690973
 30
0.0
 10
5.2923918659
 20
4.3278375309
 30
0.0
 10
5.2903539511
 20
4.2980789465
 30
0.0
 10
5.2900289921
 20
4.2742349399
 30
0.0
 10
5.2905713647
 20
4.2503954297
 30
0.0
 10
5.2924137837
 20
4.2266002254
 30
0.0
 10
5.2955508726
 20
4.2029620201
 30
0.0
 10
5.299548026
 20
4.1794544107
 30
0.0
 10
5.3048262917
 20
4.1561797982
 30
0.0
 10
5.3113603951
 20
4.1332478116
 30
0.0
 10
5.3187263404
 20
4.1105686302
 30
0.0
 10
5.3294775346
 20
4.0827460745
 30
0.0
 10
5.3422216973
 20
4.0557779101
 30
0.0
 10
5.3535737995
 20
4.0348073409
 30
0.0
 10
5.3656830403
 20
4.014264932
 30
0.0
 10
5.3789066777
 20
3.9943961606
 30
0.0
 10
5.3931820242
 20
3.9752954491
 30
0.0
 10
5.4044057388
 20
3.9613679377
 30
0.0
 10
5.4161298963
 20
3.9478594992
 30
0.0
 10
5.4283378158
 20
3.934786595
 30
0.0
 10
5.4410130317
 20
3.9221664802
 30
0.0
 10
5.4541388302
 20
3.9100161664
 30
0.0
 10
5.467699324
 20
3.8983528522
 30
0.0
 10
5.4863320849
 20
3.8834740018
 30
0.0
 10
5.5057663032
 20
3.869621817
 30
0.0
 10
5.5259101886
 20
3.8568624698
 30
0.0
 10
5.5465072387
 20
3.8448465339
 30
0.0
 10
5.5730547439
 20
3.8312473045
 30
0.0
 10
5.6060078393
 20
3.8172880868
 30
0.0
 10
5.6398905644
 20
3.8057693966
 30
0.0
 10
5.6687546545
 20
3.7982500875
 30
0.0
 10
5.6921267484
 20
3.7935084829
 30
0.0
 10
5.7097801072
 20
3.7905945107
 30
0.0
 10
5.7275284314
 20
3.7883257106
 30
0.0
 10
5.7512720344
 20
3.7861641788
 30
0.0
 10
5.7691561883
 20
3.7855151916
 30
0.0
 10
5.7810690362
 20
3.7855190172
 30
0.0
 11
5.4253015722
 21
4.614867834
 31
0.0
 11
5.4016425716
 21
4.5880820003
 31
0.0
 11
5.3905496232
 21
4.5740508867
 31
0.0
 11
5.3799713246
 21
4.5596231916
 31
0.0
 11
5.3699253866
 21
4.5448205774
 31
0.0
 11
5.3604279614
 21
4.5296643781
 31
0.0
 11
5.3431231598
 21
4.4983723264
 31
0.0
 11
5.3281413401
 21
4.4659082749
 31
0.0
 11
5.3155611001
 21
4.432437605
 31
0.0
 11
5.3054455336
 21
4.3981394119
 31
0.0
 11
5.3013307515
 21
4.3807368087
 31
0.0
 11
5.297853226
 21
4.3631957533
 31
0.0
 11
5.2928234145
 21
4.3277921312
 31
0.0
 11
5.2903815423
 21
4.2921165011
 31
0.0
 11
5.2901374177
 21
4.2742355372
 31
0.0
 11
5.2905441669
 21
4.2563574438
 31
0.0
 11
5.2933057965
 21
4.2207050104
 31
0.0
 11
5.2956584056
 21
4.2029782368
 31
0.0
 11
5.2986557792
 21
4.1853492007
 31
0.0
 11
5.3065641003
 21
4.1504767262
 31
0.0
 11
5.3114643793
 21
4.1332794282
 31
0.0
 11
5.3169882361
 21
4.1162721662
 31
0.0
 11
5.3298760307
 21
4.0829171447
 31
0.0
 11
5.3451553425
 21
4.0505870945
 31
0.0
 11
5.3536683927
 21
4.0348609658
 31
0.0
 11
5.3627492967
 21
4.0194555205
 31
0.0
 11
5.3825622966
 21
3.9896861738
 31
0.0
 11
5.3932680951
 21
3.9753619607
 31
0.0
 11
5.4044891468
 21
3.9614377822
 31
0.0
 11
5.4162105362
 21
3.9479320741
 31
0.0
 11
5.4284157545
 21
3.9348620024
 31
0.0
 11
5.4410882303
 21
3.9222446832
 31
0.0
 11
5.454211392
 21
3.9100972324
 31
0.0
 11
5.4677685948
 21
3.8984366733
 31
0.0
 11
5.4817418672
 21
3.8872783507
 31
0.0
 11
5.5108600882
 21
3.8665239156
 31
0.0
 11
5.5259667126
 21
3.8569554805
 31
0.0
 11
5.5414126703
 21
3.847944514
 31
0.0
 11
5.5732384083
 21
3.8316401559
 31
0.0
 11
5.6061639295
 21
3.8176943913
 31
0.0
 11
5.6400148428
 21
3.8061857185
 31
0.0
 11
5.6746169931
 21
3.7971717361
 31
0.0
 11
5.6921453851
 21
3.7936159145
 31
0.0
 11
5.7097956104
 21
3.7907020943
 31
0.0
 11
5.7275411201
 21
3.7884333748
 31
0.0
 11
5.7453538832
 21
3.7868118763
 31
0.0
 11
5.7810690362
 21
3.7855190172
 31
0.0
  0
LINE
  5
24A
100
AcDbEntity
  8
0
100
AcDbLine
 62
6
  6
CONTINUOUS
 10
5.7810690362
 20
3.7855190172
 11
5.78126445
 21
3.7855191191
  0
LINE
  5
24B
100
AcDbEntity
  8
0
100
AcDbLine
 62
6
  6
CONTINUOUS
 10
5.78126445
 20
4.7633363941
 11
5.7810696481
 21
4.7633362135
  0
LINE
  5
24C
100
AcDbEntity
  8
0
100
AcDbLine
 62
6
  6
CONTINUOUS
 10
5.7810738465
 20
3.7899673698
 11
5.78126445
 21
3.7899674711
  0
LINE
  5
24D
100
AcDbEntity
  8
0
100
AcDbLine
 62
6
  6
CONTINUOUS
 10
5.78126445
 20
4.7655605705
 11
5.7810695728
 21
4.7655603906
  0
LINE
  5
24E
100
AcDbEntity
  8
0
100
AcDbLine
 62
6
  6
CONTINUOUS
 10
5.7810740684
 20
3.7877431941
 11
5.78126445
 21
3.7877432948
  0
LINE
  5
24F
100
AcDbEntity
  8
0
100
AcDbLine
 62
6
  6
CONTINUOUS
 10
5.78126445
 20
4.7611122188
 11
5.7810640795
 21
4.761112031
  0
LINE
  5
250
100
AcDbEntity
  8
0
100
AcDbLine
 62
6
  6
CONTINUOUS
 10
5.7810793454
 20
3.7921915451
 11
5.78126445
 21
3.7921916449
  0
LINE
  5
251
100
AcDbEntity
  8
0
100
AcDbLine
 62
6
  6
CONTINUOUS
 10
5.78126445
 20
4.7566638687
 11
5.7810706291
 21
4.7566636866
  0
SPLINE
  5
252
100
AcDbEntity
  8
0
100
AcDbSpline
 62
6
  6
CONTINUOUS
 70
0
 71
3
 72
49
 73
45
 74
43
 42
0.0000001
 43
0.0000001
 44
0.0000000001
 12
-1.1430547429
 22
-0.0013052856
 32
0.0
 13
0.8289824028
 23
-0.7869968392
 33
0.0
 40
0.0
 40
0.0
 40
0.0
 40
0.0
 40
0.031232837
 40
0.0468638343
 40
0.0624974409
 40
0.0781297998
 40
0.0937590197
 40
0.1250060263
 40
0.1406310652
 40
0.1562565568
 40
0.1875041358
 40
0.2187524256
 40
0.250000107
 40
0.2812477067
 40
0.2968743376
 40
0.3125012285
 40
0.3437502395
 40
0.3593775369
 40
0.3750048528
 40
0.4062543073
 40
0.4375035622
 40
0.4687524378
 40
0.5000009795
 40
0.5156276715
 40
0.531254252
 40
0.5625018883
 40
0.5781282886
 40
0.5937546455
 40
0.6250022034
 40
0.6562499584
 40
0.6874980399
 40
0.7187463049
 40
0.7343729647
 40
0.7499995537
 40
0.7812473595
 40
0.7968739555
 40
0.8125006059
 40
0.8437490042
 40
0.8749977755
 40
0.906246904
 40
0.9374963376
 40
0.9531236613
 40
0.968750954
 40
1.0
 40
1.0
 40
1.0
 40
1.0
 10
5.7810706291
 20
4.7566636866
 30
0.0
 10
5.7691703483
 20
4.7566500974
 30
0.0
 10
5.7513058264
 20
4.7559629432
 30
0.0
 10
5.7275947529
 20
4.7537264897
 30
0.0
 10
5.7098751775
 20
4.7513895378
 30
0.0
 10
5.6922555661
 20
4.7483951192
 30
0.0
 10
5.6689362652
 20
4.7435315237
 30
0.0
 10
5.6459056925
 20
4.7373708193
 30
0.0
 10
5.6232762239
 20
4.7299438401
 30
0.0
 10
5.6009381997
 20
4.7216794523
 30
0.0
 10
5.5736138674
 20
4.7097991492
 30
0.0
 10
5.5419756642
 20
4.6931522629
 30
0.0
 10
5.5116647926
 20
4.6741957971
 30
0.0
 10
5.4876446538
 20
4.6565660292
 30
0.0
 10
5.4692588259
 20
4.6414232562
 30
0.0
 10
5.4514496609
 20
4.6256062373
 30
0.0
 10
5.4345336343
 20
4.6088062492
 30
0.0
 10
5.4185942309
 20
4.5911059728
 30
0.0
 10
5.4033248261
 20
4.5728237072
 30
0.0
 10
5.385530102
 20
4.5489235467
 30
0.0
 10
5.3663656978
 20
4.5187419039
 30
0.0
 10
5.349502735
 20
4.4872169309
 30
0.0
 10
5.3374378307
 20
4.4599724044
 30
0.0
 10
5.3290230145
 20
4.4376890984
 30
0.0
 10
5.3214448452
 20
4.415108425
 30
0.0
 10
5.3151314961
 20
4.392119571
 30
0.0
 10
5.31011355
 20
4.3688359757
 30
0.0
 10
5.305966274
 20
4.3453811676
 30
0.0
 10
5.3024247249
 20
4.3157968813
 30
0.0
 10
5.3008218711
 20
4.2800824014
 30
0.0
 10
5.3018844426
 20
4.2443474668
 30
0.0
 10
5.3049791224
 20
4.2147125981
 30
0.0
 10
5.3087712276
 20
4.1911972933
 30
0.0
 10
5.3134373147
 20
4.1678403705
 30
0.0
 10
5.3194040484
 20
4.1447589571
 30
0.0
 10
5.3266416274
 20
4.1220667727
 30
0.0
 10
5.3347200933
 20
4.0996593933
 30
0.0
 10
5.3463757335
 20
4.0722373449
 30
0.0
 10
5.3627653544
 20
4.040463863
 30
0.0
 10
5.3814780234
 20
4.0100000734
 30
0.0
 10
5.3989170271
 20
3.9858392143
 30
0.0
 10
5.4139143824
 20
3.9673329875
 30
0.0
 10
5.4295909496
 20
3.9494000661
 30
0.0
 10
5.4420932394
 20
3.9366143456
 30
0.0
 10
5.4507282092
 20
3.9284167122
 30
0.0
 11
5.7810706291
 21
4.7566636866
 31
0.0
 11
5.7453960278
 21
4.7552945149
 31
0.0
 11
5.7276078725
 21
4.7536168087
 31
0.0
 11
5.7098912575
 21
4.7512798655
 31
0.0
 11
5.6922752243
 21
4.7482858455
 31
0.0
 11
5.6747864436
 21
4.7446385011
 31
0.0
 11
5.6402825148
 21
4.7354087968
 31
0.0
 11
5.6233128449
 21
4.7298392244
 31
0.0
 11
5.6065616891
 21
4.7236418785
 31
0.0
 11
5.5738058233
 21
4.709400792
 31
0.0
 11
5.5421966872
 21
4.6927672165
 31
0.0
 11
5.5119126889
 21
4.673829342
 31
0.0
 11
5.4831187618
 21
4.6526948503
 31
0.0
 11
5.4693310412
 21
4.6413390766
 31
0.0
 11
5.455975408
 21
4.6294776889
 31
0.0
 11
5.4306312644
 21
4.6043073372
 31
0.0
 11
5.4186780064
 21
4.5910332392
 31
0.0
 11
5.4072273204
 21
4.577323221
 31
0.0
 11
5.3858947998
 21
4.5486730551
 31
0.0
 11
5.3667491695
 21
4.5185178405
 31
0.0
 11
5.3499002479
 21
4.4870222058
 31
0.0
 11
5.3354377555
 21
4.4543622884
 31
0.0
 11
5.3291275753
 21
4.4376518438
 31
0.0
 11
5.3234443025
 21
4.4207180554
 31
0.0
 11
5.3139852889
 21
4.3862755377
 31
0.0
 11
5.3102223888
 21
4.3688145525
 31
0.0
 11
5.3071123485
 21
4.3512255986
 31
0.0
 11
5.3028658768
 21
4.3157612356
 31
0.0
 11
5.30126611
 21
4.2800791616
 31
0.0
 11
5.3023262575
 21
4.2443766071
 31
0.0
 11
5.3060366271
 21
4.208851342
 31
0.0
 11
5.3088804931
 21
4.1912170447
 31
0.0
 11
5.3123795044
 21
4.1737010506
 31
0.0
 11
5.3213188983
 21
4.1391198268
 31
0.0
 11
5.3267467312
 21
4.1221024226
 31
0.0
 11
5.3328048388
 21
4.1052990014
 31
0.0
 11
5.346776203
 21
4.0724261681
 31
0.0
 11
5.3631524301
 21
4.0406823209
 31
0.0
 11
5.3818468447
 21
4.0102454902
 31
0.0
 11
5.4027525637
 21
3.9812824509
 31
0.0
 11
5.4139993107
 21
3.9674046337
 31
0.0
 11
5.4257556733
 21
3.9539558493
 31
0.0
 11
5.4507282092
 21
3.9284167122
 31
0.0
  0
LINE
  5
253
100
AcDbEntity
  8
0
100
AcDbLine
 62
6
  6
CONTINUOUS
 10
5.7810729145
 20
3.7966398937
 11
5.78126445
 21
3.7966399966
  0
LINE
  5
254
100
AcDbEntity
  8
0
100
AcDbLine
 62
6
  6
CONTINUOUS
 10
5.78126445
 20
4.7588880449
 11
5.7810702412
 21
4.7588878633
  0
SPLINE
  5
255
100
AcDbEntity
  8
0
100
AcDbSpline
 62
6
  6
CONTINUOUS
 70
0
 71
3
 72
54
 73
50
 74
48
 42
0.0000001
 43
0.0000001
 44
0.0000000001
 12
-1.1716692822
 22
-0.0013327485
 32
0.0
 13
0.8877227167
 23
-0.7646954043
 33
0.0
 40
0.0
 40
0.0
 40
0.0
 40
0.0
 40
0.0312322234
 40
0.0468631082
 40
0.0624964602
 40
0.0781283198
 40
0.0937570342
 40
0.109383507
 40
0.1250087007
 40
0.140633564
 40
0.15625901
 40
0.1875061778
 40
0.2187536708
 40
0.2500003243
 40
0.2812468539
 40
0.296873145
 40
0.3124997383
 40
0.3437478701
 40
0.3593748002
 40
0.3750017729
 40
0.3906288237
 40
0.4062558741
 40
0.4218828181
 40
0.4375096198
 40
0.4531363608
 40
0.4687630561
 40
0.4843896311
 40
0.5000160187
 40
0.5312628177
 40
0.5625094518
 40
0.5781354746
 40
0.5937615425
 40
0.6250082749
 40
0.6406344427
 40
0.6562606176
 40
0.6875075758
 40
0.7187543643
 40
0.7500010051
 40
0.7812477775
 40
0.7968740435
 40
0.8125004871
 40
0.8281271012
 40
0.8437538062
 40
0.8593805484
 40
0.8750073847
 40
0.9062558045
 40
0.9375041451
 40
0.9687523694
 40
1.0
 40
1.0
 40
1.0
 40
1.0
 10
5.7810702412
 20
4.7588878633
 30
0.0
 10
5.7688722957
 20
4.7588739884
 30
0.0
 10
5.7505604621
 20
4.7581558372
 30
0.0
 10
5.7262604214
 20
4.755817805
 30
0.0
 10
5.7081037043
 20
4.75337457
 30
0.0
 10
5.6900541441
 20
4.7502439298
 30
0.0
 10
5.6721391936
 20
4.7464297577
 30
0.0
 10
5.6543843127
 20
4.7419396716
 30
0.0
 10
5.6368138583
 20
4.7367803683
 30
0.0
 10
5.6194517492
 20
4.730958678
 30
0.0
 10
5.5966163229
 20
4.7223233847
 30
0.0
 10
5.5687088766
 20
4.7099138908
 30
0.0
 10
5.5364472759
 20
4.6925326231
 30
0.0
 10
5.5055993829
 20
4.672751042
 30
0.0
 10
5.4812111274
 20
4.6543659295
 30
0.0
 10
5.4625843936
 20
4.6385822229
 30
0.0
 10
5.4445701664
 20
4.622102809
 30
0.0
 10
5.427504761
 20
4.6046097417
 30
0.0
 10
5.4114773896
 20
4.5861919321
 30
0.0
 10
5.3999889493
 20
4.5719289733
 30
0.0
 10
5.3890500769
 20
4.557240728
 30
0.0
 10
5.3786755937
 20
4.5421484558
 30
0.0
 10
5.3688806234
 20
4.5266739257
 30
0.0
 10
5.3596806148
 20
4.51083856
 30
0.0
 10
5.3510893398
 20
4.4946649566
 30
0.0
 10
5.3431174797
 20
4.4781774266
 30
0.0
 10
5.3357761836
 20
4.4613995095
 30
0.0
 10
5.3268443669
 20
4.4386773694
 30
0.0
 10
5.3173103282
 20
4.4096620719
 30
0.0
 10
5.3100020105
 20
4.3800083251
 30
0.0
 10
5.3055183626
 20
4.3560089829
 30
0.0
 10
5.3019507031
 20
4.3318570776
 30
0.0
 10
5.2997603256
 20
4.3075181742
 30
0.0
 10
5.2989583037
 20
4.2831172498
 30
0.0
 10
5.2990846626
 20
4.2587028604
 30
0.0
 10
5.3009819095
 20
4.2282198896
 30
0.0
 10
5.306022442
 20
4.1919225874
 30
0.0
 10
5.313807715
 20
4.1561136656
 30
0.0
 10
5.3225383789
 20
4.1268460483
 30
0.0
 10
5.3308395903
 20
4.1038862073
 30
0.0
 10
5.3377167429
 20
4.0869128666
 30
0.0
 10
5.3452327079
 20
4.0702126731
 30
0.0
 10
5.3533766213
 20
4.0538094037
 30
0.0
 10
5.3621375273
 20
4.0377267964
 30
0.0
 10
5.3746248554
 20
4.0167463527
 30
0.0
 10
5.3917152258
 20
3.991431804
 30
0.0
 10
5.4144650298
 20
3.9627003542
 30
0.0
 10
5.4393329791
 20
3.9357832867
 30
0.0
 10
5.4572273057
 20
3.919142874
 30
0.0
 10
5.4664737163
 20
3.9111779008
 30
0.0
 11
5.7810702412
 21
4.7588878633
 31
0.0
 11
5.7445043644
 21
4.7574570331
 31
0.0
 11
5.7262743034
 21
4.7557031111
 31
0.0
 11
5.7081208491
 21
4.7532598854
 31
0.0
 11
5.6900749334
 21
4.7501296891
 31
0.0
 11
5.672164596
 21
4.7463168107
 31
0.0
 11
5.6544143261
 21
4.74182794
 31
0.0
 11
5.636848395
 21
4.7366699139
 31
0.0
 11
5.6194910742
 21
4.7308495694
 31
0.0
 11
5.6023666328
 21
4.724374116
 31
0.0
 11
5.5689133804
 21
4.7094988901
 31
0.0
 11
5.536682576
 21
4.6921323824
 31
0.0
 11
5.5058631451
 21
4.6723710313
 31
0.0
 11
5.4766295913
 21
4.650331589
 31
0.0
 11
5.462661111
 21
4.6384953815
 31
0.0
 11
5.4491517506
 21
4.6261372103
 31
0.0
 11
5.4235855525
 21
4.599929489
 31
0.0
 11
5.4115662707
 21
4.5861172289
 31
0.0
 11
5.4000805674
 21
4.5718581224
 31
0.0
 11
5.3891441408
 21
4.5571733884
 31
0.0
 11
5.3787721475
 21
4.5420846978
 31
0.0
 11
5.3689797444
 21
4.5266137217
 31
0.0
 11
5.359782051
 21
4.5107821523
 31
0.0
 11
5.3511925609
 21
4.4946126063
 31
0.0
 11
5.3432225446
 21
4.4781289651
 31
0.0
 11
5.3358831121
 21
4.4613552011
 31
0.0
 11
5.3291853735
 21
4.4443152865
 31
0.0
 11
5.3177554305
 21
4.4095342974
 31
0.0
 11
5.3089950219
 21
4.373987119
 31
0.0
 11
5.3056328748
 21
4.3559899329
 31
0.0
 11
5.3029571845
 21
4.3378779106
 31
0.0
 11
5.2996755949
 21
4.3014144185
 31
0.0
 11
5.2990743617
 21
4.2831155804
 31
0.0
 11
5.2991690644
 21
4.2648071043
 31
0.0
 11
5.3014425708
 21
4.2282666387
 31
0.0
 11
5.3064799102
 21
4.1920039153
 31
0.0
 11
5.3142562255
 21
4.1562285585
 31
0.0
 11
5.3247228139
 21
4.1211456705
 31
0.0
 11
5.3309480013
 21
4.1039276503
 31
0.0
 11
5.3378231743
 21
4.0869584787
 31
0.0
 11
5.3453373426
 21
4.0702622102
 31
0.0
 11
5.35347944
 21
4.053862873
 31
0.0
 11
5.3622384003
 21
4.0377844958
 31
0.0
 11
5.3716026296
 21
4.0220508105
 31
0.0
 11
5.3920889261
 21
3.9917059344
 31
0.0
 11
5.4148181179
 21
3.9630026786
 31
0.0
 11
5.4396620846
 21
3.9361091774
 31
0.0
 11
5.4664737163
 21
3.9111779008
 31
0.0
  0
LINE
  5
256
100
AcDbEntity
  8
0
100
AcDbLine
 62
6
  6
CONTINUOUS
 10
5.7810731212
 20
3.7944157178
 11
5.78126445
 21
3.7944158203
  0
SPLINE
  5
257
100
AcDbEntity
  8
0
100
AcDbSpline
 62
6
  6
CONTINUOUS
 70
0
 71
3
 72
49
 73
45
 74
43
 42
0.0000001
 43
0.0000001
 44
0.0000000001
 12
-1.1380011918
 22
-0.000842154
 32
0.0
 13
0.8253584369
 23
-0.7834735939
 33
0.0
 40
0.0
 40
0.0
 40
0.0
 40
0.0
 40
0.0312323848
 40
0.0468631087
 40
0.0624963855
 40
0.0781283444
 40
0.0937571385
 40
0.1250033421
 40
0.1406280583
 40
0.1562533022
 40
0.1875004601
 40
0.2187483511
 40
0.249995679
 40
0.2812429416
 40
0.2968694102
 40
0.3124961342
 40
0.3437447645
 40
0.3593718594
 40
0.374998983
 40
0.4062480587
 40
0.4374969196
 40
0.4687454486
 40
0.4999935842
 40
0.5156200458
 40
0.5312463913
 40
0.5624935545
 40
0.5781197542
 40
0.593745976
 40
0.6249934102
 40
0.6562411311
 40
0.6874892499
 40
0.7187373781
 40
0.7343638652
 40
0.7499902359
 40
0.7812376483
 40
0.7968642083
 40
0.8124910259
 40
0.8437396584
 40
0.874986765
 40
0.9062319931
 40
0.9374815046
 40
0.9531129145
 40
0.9687465019
 40
1.0
 40
1.0
 40
1.0
 40
1.0
 10
5.78126445
 20
4.754439693
 30
0.0
 10
5.769416953
 20
4.7544309256
 30
0.0
 10
5.7516314167
 20
4.7537538201
 30
0.0
 10
5.7280247293
 20
4.7515363104
 30
0.0
 10
5.7103830057
 20
4.7492163487
 30
0.0
 10
5.6928406388
 20
4.7462416692
 30
0.0
 10
5.669623297
 20
4.741408106
 30
0.0
 10
5.6466929503
 20
4.7352828783
 30
0.0
 10
5.6241615235
 20
4.7278965381
 30
0.0
 10
5.6019199085
 20
4.7196761515
 30
0.0
 10
5.5747128562
 20
4.7078575012
 30
0.0
 10
5.5432098478
 20
4.691294052
 30
0.0
 10
5.5130278327
 20
4.6724304323
 30
0.0
 10
5.4891091434
 20
4.654885612
 30
0.0
 10
5.4708008902
 20
4.6398147003
 30
0.0
 10
5.4530665564
 20
4.6240724297
 30
0.0
 10
5.4362212248
 20
4.6073512382
 30
0.0
 10
5.4203483202
 20
4.5897331934
 30
0.0
 10
5.4051426069
 20
4.571535338
 30
0.0
 10
5.3874213028
 20
4.5477452188
 30
0.0
 10
5.3683357695
 20
4.5177012171
 30
0.0
 10
5.3515417398
 20
4.4863191378
 30
0.0
 10
5.3395252405
 20
4.4591976482
 30
0.0
 10
5.3311443677
 20
4.4370144475
 30
0.0
 10
5.323596324
 20
4.4145351282
 30
0.0
 10
5.317307385
 20
4.3916492293
 30
0.0
 10
5.3123085838
 20
4.3684695431
 30
0.0
 10
5.3081770715
 20
4.3451190731
 30
0.0
 10
5.3046473754
 20
4.3156661595
 30
0.0
 10
5.3030481629
 20
4.280109755
 30
0.0
 10
5.3041032905
 20
4.2445327955
 30
0.0
 10
5.3071818223
 20
4.2150287853
 30
0.0
 10
5.3109560507
 20
4.1916174716
 30
0.0
 10
5.3156002057
 20
4.1683638692
 30
0.0
 10
5.3215392814
 20
4.1453844179
 30
0.0
 10
5.3287443853
 20
4.1227925083
 30
0.0
 10
5.3367874394
 20
4.1004841648
 30
0.0
 10
5.3483911234
 20
4.0731837124
 30
0.0
 10
5.3647072847
 20
4.0415524838
 30
0.0
 10
5.383335522
 20
4.0112248052
 30
0.0
 10
5.4006980679
 20
3.9871710156
 30
0.0
 10
5.4156339145
 20
3.9687453798
 30
0.0
 10
5.4312470855
 20
3.9508894622
 30
0.0
 10
5.4436975139
 20
3.9381579525
 30
0.0
 10
5.45229596
 20
3.9299958557
 30
0.0
 11
5.78126445
 21
4.754439693
 31
0.0
 11
5.745747563
 21
4.7530905805
 31
0.0
 11
5.7280377305
 21
4.7514270872
 31
0.0
 11
5.7103989511
 21
4.7491071298
 31
0.0
 11
5.6928601629
 21
4.7461328596
 31
0.0
 11
5.6754478707
 21
4.7425080371
 31
0.0
 11
5.6410941527
 21
4.7333314615
 31
0.0
 11
5.6241979836
 21
4.7277923576
 31
0.0
 11
5.6075191145
 21
4.7216280344
 31
0.0
 11
5.5749039019
 21
4.707460726
 31
0.0
 11
5.5434298348
 21
4.6909105855
 31
0.0
 11
5.513274551
 21
4.6720654977
 31
0.0
 11
5.4846023434
 21
4.6510327207
 31
0.0
 11
5.4708727591
 21
4.6397308785
 31
0.0
 11
5.457573244
 21
4.6279255256
 31
0.0
 11
5.4323351207
 21
4.60287316
 31
0.0
 11
5.4204317472
 21
4.589660735
 31
0.0
 11
5.4090287711
 21
4.5760140588
 31
0.0
 11
5.3877844606
 21
4.5474956577
 31
0.0
 11
5.3687175936
 21
4.5174780439
 31
0.0
 11
5.3519374342
 21
4.4861251822
 31
0.0
 11
5.3375332436
 21
4.4536126747
 31
0.0
 11
5.3312484496
 21
4.4369773447
 31
0.0
 11
5.3255877754
 21
4.4201195599
 31
0.0
 11
5.3161655306
 21
4.3858312754
 31
0.0
 11
5.3124170079
 21
4.3684482142
 31
0.0
 11
5.3093186912
 21
4.3509375441
 31
0.0
 11
5.3050867677
 21
4.315630634
 31
0.0
 11
5.3034905551
 21
4.280106524
 31
0.0
 11
5.3045431222
 21
4.2445616989
 31
0.0
 11
5.308234456
 21
4.2091933896
 31
0.0
 11
5.3110648143
 21
4.1916371102
 31
0.0
 11
5.3145473968
 21
4.1741986247
 31
0.0
 11
5.3234455773
 21
4.1397703266
 31
0.0
 11
5.328849088
 21
4.1228281044
 31
0.0
 11
5.3348805437
 21
4.1060988249
 31
0.0
 11
5.3487901552
 21
4.0733710573
 31
0.0
 11
5.3650929415
 21
4.041769163
 31
0.0
 11
5.3837020713
 21
4.0114705025
 31
0.0
 11
5.4045164541
 21
3.9826362056
 31
0.0
 11
5.4157179445
 21
3.9688173865
 31
0.0
 11
5.4274285995
 21
3.9554240345
 31
0.0
 11
5.45229596
 21
3.9299958557
 31
0.0
  0
LINE
  5
258
100
AcDbEntity
  8
0
100
AcDbLine
 62
6
  6
CONTINUOUS
 10
5.78126445
 20
3.7788465934
 11
5.7814592793
 21
3.7788467705
  0
SPLINE
  5
259
100
AcDbEntity
  8
0
100
AcDbSpline
 62
6
  6
CONTINUOUS
 70
0
 71
3
 72
67
 73
63
 74
61
 42
0.0000001
 43
0.0000001
 44
0.0000000001
 12
1.5598050573
 22
0.0017246301
 32
0.0
 13
-1.5598059266
 23
-0.0005122566
 33
0.0
 40
0.0
 40
0.0
 40
0.0
 40
0.0
 40
0.0312317581
 40
0.0468640076
 40
0.0624951322
 40
0.0781224985
 40
0.0937475831
 40
0.109371962
 40
0.1249971015
 40
0.1406231211
 40
0.1562494025
 40
0.1718753657
 40
0.1875008846
 40
0.2031261675
 40
0.2187513307
 40
0.2343765882
 40
0.2500020675
 40
0.2656275941
 40
0.2812529849
 40
0.2968782971
 40
0.3125036009
 40
0.3281288283
 40
0.3437540177
 40
0.3593793097
 40
0.3750046331
 40
0.3906298865
 40
0.4062551801
 40
0.4218806203
 40
0.4375061631
 40
0.4531318586
 40
0.4687578367
 40
0.5000006924
 40
0.5312435344
 40
0.5468695205
 40
0.5624952383
 40
0.5781208046
 40
0.5937462501
 40
0.6093715015
 40
0.624996641
 40
0.6406218395
 40
0.6562470842
 40
0.6718723872
 40
0.6874979086
 40
0.7031236061
 40
0.7187493132
 40
0.7343750088
 40
0.7500007547
 40
0.7656263955
 40
0.7812517644
 40
0.7968769735
 40
0.8125022454
 40
0.8281276956
 40
0.8437535323
 40
0.8593796792
 40
0.8750055656
 40
0.890630562
 40
0.9062546865
 40
0.9218793734
 40
0.9375062237
 40
0.9531367746
 40
0.9687686146
 40
1.0
 40
1.0
 40
1.0
 40
1.0
 10
5.7814592793
 20
3.7788467705
 30
0.0
 10
5.7976977641
 20
3.7788647249
 30
0.0
 10
5.8220847019
 20
3.780092041
 30
0.0
 10
5.8543389559
 20
3.784097664
 30
0.0
 10
5.878367372
 20
3.7882867789
 30
0.0
 10
5.9021561826
 20
3.7936504226
 30
0.0
 10
5.9256506295
 20
3.8001717703
 30
0.0
 10
5.9487963193
 20
3.807835727
 30
0.0
 10
5.9715382182
 20
3.8166272066
 30
0.0
 10
5.9938230079
 20
3.8265225263
 30
0.0
 10
6.0155974274
 20
3.8374963739
 30
0.0
 10
6.0368075005
 20
3.8495244199
 30
0.0
 10
6.0574005903
 20
3.8625796683
 30
0.0
 10
6.077329299
 20
3.876627384
 30
0.0
 10
6.0965462155
 20
3.8916339755
 30
0.0
 10
6.1150030103
 20
3.9075663472
 30
0.0
 10
6.1326564351
 20
3.9243846968
 30
0.0
 10
6.1494655951
 20
3.9420469592
 30
0.0
 10
6.1653886846
 20
3.9605119914
 30
0.0
 10
6.1803851318
 20
3.9797370391
 30
0.0
 10
6.1944218611
 20
3.9996734141
 30
0.0
 10
6.2074655415
 20
4.0202731823
 30
0.0
 10
6.2194817149
 20
4.0414887619
 30
0.0
 10
6.2304424503
 20
4.0632683738
 30
0.0
 10
6.2403237424
 20
4.0855585083
 30
0.0
 10
6.2491004293
 20
4.1083063229
 30
0.0
 10
6.2567484454
 20
4.1314580655
 30
0.0
 10
6.2632529376
 20
4.1549568569
 30
0.0
 10
6.2685988177
 20
4.1787461029
 30
0.0
 10
6.2727697876
 20
4.2027700984
 30
0.0
 10
6.2767510582
 20
4.2350292916
 30
0.0
 10
6.278757901
 20
4.2756623523
 30
0.0
 10
6.2767641039
 20
4.316296083
 30
0.0
 10
6.2727926598
 20
4.3485564973
 30
0.0
 10
6.2686290504
 20
4.3725818017
 30
0.0
 10
6.2632898851
 20
4.3963725937
 30
0.0
 10
6.2567915809
 20
4.4198730959
 30
0.0
 10
6.2491493717
 20
4.4430266788
 30
0.0
 10
6.2403779997
 20
4.4657763992
 30
0.0
 10
6.2305010805
 20
4.4880683258
 30
0.0
 10
6.2195438773
 20
4.5098496922
 30
0.0
 10
6.2075304616
 20
4.5310670655
 30
0.0
 10
6.1944883808
 20
4.5516683623
 30
0.0
 10
6.1804522404
 20
4.5716058594
 30
0.0
 10
6.1654556149
 20
4.5908315077
 30
0.0
 10
6.1495315673
 20
4.6092963758
 30
0.0
 10
6.1327203157
 20
4.6269571773
 30
0.0
 10
6.1150640176
 20
4.6437729057
 30
0.0
 10
6.0966038849
 20
4.6597016977
 30
0.0
 10
6.0773827895
 20
4.6747031102
 30
0.0
 10
6.0574492278
 20
4.6887439546
 30
0.0
 10
6.036850905
 20
4.7017907849
 30
0.0
 10
6.0156353502
 20
4.7138088751
 30
0.0
 10
5.993854936
 20
4.7247704469
 30
0.0
 10
5.9715639873
 20
4.7346514255
 30
0.0
 10
5.9488160851
 20
4.7434266779
 30
0.0
 10
5.9256646591
 20
4.7510720884
 30
0.0
 10
5.9021649645
 20
4.7575723625
 30
0.0
 10
5.8783716339
 20
4.762912537
 30
0.0
 10
5.8543394917
 20
4.7670759054
 30
0.0
 10
5.8220812237
 20
4.771043615
 30
0.0
 10
5.7976928648
 20
4.7722385279
 30
0.0
 10
5.7814545648
 20
4.7722331951
 30
0.0
 11
5.7814592793
 21
3.7788467705
 31
0.0
 11
5.8301134798
 21
3.7812895479
 31
0.0
 11
5.854310818
 21
3.7842950443
 31
0.0
 11
5.8783299626
 21
3.7884830406
 31
0.0
 11
5.9021088412
 21
3.7938437987
 31
0.0
 11
5.9255930408
 21
3.8003623619
 31
0.0
 11
5.9487285734
 21
3.8080234835
 31
0.0
 11
5.9714614579
 21
3.8168109423
 31
0.0
 11
5.9937377576
 21
3.8267021944
 31
0.0
 11
6.0155035531
 21
3.8376721735
 31
0.0
 11
6.0367049424
 21
3.8496957836
 31
0.0
 11
6.0572900201
 21
3.8627451857
 31
0.0
 11
6.0772107356
 21
3.8767872467
 31
0.0
 11
6.0964194779
 21
3.8917882296
 31
0.0
 11
6.1148690065
 21
3.9077139116
 31
0.0
 11
6.1325156983
 21
3.9245253239
 31
0.0
 11
6.1493179736
 21
3.9421808174
 31
0.0
 11
6.1652342826
 21
3.960638707
 31
0.0
 11
6.1802251899
 21
3.9798556085
 31
0.0
 11
6.1942563809
 21
3.9997840216
 31
0.0
 11
6.2072943013
 21
4.0203758352
 31
0.0
 11
6.2193057796
 21
4.0415827128
 31
0.0
 11
6.2302625334
 21
4.0633534413
 31
0.0
 11
6.2401396554
 21
4.0856348218
 31
0.0
 11
6.2489123075
 21
4.1083736148
 31
0.0
 11
6.2565578288
 21
4.13151581
 31
0.0
 11
6.2630598142
 21
4.1550051805
 31
0.0
 11
6.2684029751
 21
4.1787851041
 31
0.0
 11
6.2725723291
 21
4.2027988967
 31
0.0
 11
6.2755581308
 21
4.2269888167
 31
0.0
 11
6.2779578197
 21
4.2756624926
 31
0.0
 11
6.2755735826
 21
4.3243369063
 31
0.0
 11
6.2725952011
 21
4.3485277535
 31
0.0
 11
6.2684331002
 21
4.3725428396
 31
0.0
 11
6.2630966701
 21
4.3963243122
 31
0.0
 11
6.2566008901
 21
4.419815408
 31
0.0
 11
6.2489611516
 21
4.4429594435
 31
0.0
 11
6.2401937537
 21
4.4657000726
 31
0.0
 11
6.2303210495
 21
4.4879831979
 31
0.0
 11
6.2193678697
 21
4.5097556421
 31
0.0
 11
6.2073590962
 21
4.5309642551
 31
0.0
 11
6.1943227742
 21
4.5515576234
 31
0.0
 11
6.1802921712
 21
4.5714872016
 31
0.0
 11
6.1653010435
 21
4.5907047124
 31
0.0
 11
6.1493837136
 21
4.6091623494
 31
0.0
 11
6.1325794155
 21
4.62681639
 31
0.0
 11
6.1149299059
 21
4.6436252091
 31
0.0
 11
6.0964769693
 21
4.659547208
 31
0.0
 11
6.0772640774
 21
4.6745429924
 31
0.0
 11
6.057338557
 21
4.6885782044
 31
0.0
 11
6.0367482705
 21
4.7016191861
 31
0.0
 11
6.0155413819
 21
4.7136326936
 31
0.0
 11
5.9937696575
 21
4.7245904348
 31
0.0
 11
5.9714872384
 21
4.7344673808
 31
0.0
 11
5.9487483074
 21
4.7432385615
 31
0.0
 11
5.9256070498
 21
4.750881107
 31
0.0
 11
5.9021176583
 21
4.7573786106
 31
0.0
 11
5.878334327
 21
4.7627159049
 31
0.0
 11
5.8543115989
 21
4.766878058
 31
0.0
 11
5.8301113879
 21
4.7698551079
 31
0.0
 11
5.7814545648
 21
4.7722331951
 31
0.0
  0
LINE
  5
25A
100
AcDbEntity
  8
0
100
AcDbLine
 62
6
  6
CONTINUOUS
 10
5.7814545648
 20
4.7722331951
 11
5.78126445
 21
4.7722330961
  0
LINE
  5
25B
100
AcDbEntity
  8
0
100
AcDbLine
 62
6
  6
CONTINUOUS
 10
5.78126445
 20
3.7810707693
 11
5.7814592934
 21
3.7810709472
  0
SPLINE
  5
25C
100
AcDbEntity
  8
0
100
AcDbSpline
 62
6
  6
CONTINUOUS
 70
0
 71
3
 72
67
 73
63
 74
61
 42
0.0000001
 43
0.0000001
 44
0.0000000001
 12
1.5528189443
 22
0.0017246651
 32
0.0
 13
-1.5528198172
 23
-0.0005134761
 33
0.0
 40
0.0
 40
0.0
 40
0.0
 40
0.0
 40
0.0312317605
 40
0.0468640119
 40
0.0624951391
 40
0.0781225081
 40
0.0937475946
 40
0.1093719743
 40
0.1249971128
 40
0.1406231317
 40
0.1562494149
 40
0.1718753848
 40
0.1875009121
 40
0.2031261917
 40
0.2187513237
 40
0.2343765084
 40
0.2500018829
 40
0.2656272966
 40
0.2812525918
 40
0.2968778444
 40
0.3125031255
 40
0.3281283691
 40
0.3437536183
 40
0.3593789991
 40
0.3750044124
 40
0.3906297313
 40
0.4062550512
 40
0.4218804898
 40
0.4375060189
 40
0.4531317045
 40
0.4687576811
 40
0.5000005479
 40
0.5312434062
 40
0.5468693896
 40
0.5624950905
 40
0.578120632
 40
0.5937460665
 40
0.6093713456
 40
0.6249965736
 40
0.6406219169
 40
0.6562473473
 40
0.6718728623
 40
0.68749861
 40
0.7031245341
 40
0.7187504475
 40
0.7343763058
 40
0.7500021746
 40
0.765627909
 40
0.7812533421
 40
0.7968785762
 40
0.812503841
 40
0.8281292538
 40
0.8437550197
 40
0.859381079
 40
0.8750068571
 40
0.8906317078
 40
0.906255606
 40
0.9218800099
 40
0.9375065797
 40
0.9531369133
 40
0.9687686467
 40
1.0
 40
1.0
 40
1.0
 40
1.0
 10
5.7814592934
 20
3.7810709472
 30
0.0
 10
5.7976250499
 20
3.781088902
 30
0.0
 10
5.8219027586
 20
3.7823108353
 30
0.0
 10
5.8540125375
 20
3.7862986563
 30
0.0
 10
5.8779333211
 20
3.7904691062
 30
0.0
 10
5.9016155688
 20
3.7958088186
 30
0.0
 10
5.9250047674
 20
3.8023010425
 30
0.0
 10
5.9480467673
 20
3.809930749
 30
0.0
 10
5.9706867829
 20
3.8186829193
 30
0.0
 10
5.9928717354
 20
3.8285339811
 30
0.0
 10
6.0145486054
 20
3.8394587384
 30
0.0
 10
6.0356636587
 20
3.8514329719
 30
0.0
 10
6.0561644869
 20
3.8644298044
 30
0.0
 10
6.0760038967
 20
3.8784146378
 30
0.0
 10
6.0951346767
 20
3.8933540126
 30
0.0
 10
6.1135087132
 20
3.9092149682
 30
0.0
 10
6.1310829567
 20
3.9259578933
 30
0.0
 10
6.147816712
 20
3.9435409395
 30
0.0
 10
6.1636683612
 20
3.961923193
 30
0.0
 10
6.1785975917
 20
3.9810620561
 30
0.0
 10
6.1925714681
 20
4.0009090866
 30
0.0
 10
6.205556765
 20
4.0214166023
 30
0.0
 10
6.2175191342
 20
4.0425372509
 30
0.0
 10
6.2284308491
 20
4.0642194173
 30
0.0
 10
6.2382679654
 20
4.0864098207
 30
0.0
 10
6.2470053961
 20
4.1090558322
 30
0.0
 10
6.2546191863
 20
4.132103922
 30
0.0
 10
6.2610945624
 20
4.1554974675
 30
0.0
 10
6.2664165025
 20
4.1791801517
 30
0.0
 10
6.2705687843
 20
4.2030965356
 30
0.0
 10
6.2745322547
 20
4.2352112408
 30
0.0
 10
6.2765301462
 20
4.2756623254
 30
0.0
 10
6.2745452965
 20
4.3161140776
 30
0.0
 10
6.2705916772
 20
4.3482300058
 30
0.0
 10
6.2664467377
 20
4.3721476854
 30
0.0
 10
6.2611315276
 20
4.3958319036
 30
0.0
 10
6.2546623608
 20
4.4192271559
 30
0.0
 10
6.2470543723
 20
4.4422770933
 30
0.0
 10
6.2383222266
 20
4.4649250435
 30
0.0
 10
6.2284894602
 20
4.4871173282
 30
0.0
 10
6.2175812099
 20
4.5088013919
 30
0.0
 10
6.2056214567
 20
4.5299240269
 30
0.0
 10
6.1926375438
 20
4.5504333076
 30
0.0
 10
6.1786639913
 20
4.5702817299
 30
0.0
 10
6.1637343066
 20
4.5894214821
 30
0.0
 10
6.1478814183
 20
4.6078038475
 30
0.0
 10
6.1311452018
 20
4.6253855768
 30
0.0
 10
6.1135677521
 20
4.6421259553
 30
0.0
 10
6.0951902158
 20
4.6579834516
 30
0.0
 10
6.0760551065
 20
4.6729176177
 30
0.0
 10
6.0562107151
 20
4.6868954047
 30
0.0
 10
6.0357046234
 20
4.6998836435
 30
0.0
 10
6.0145841795
 20
4.7118478608
 30
0.0
 10
5.9929013496
 20
4.7227601035
 30
0.0
 10
5.9707103176
 20
4.7325965649
 30
0.0
 10
5.9480645068
 20
4.7413323557
 30
0.0
 10
5.9250170829
 20
4.7489433853
 30
0.0
 10
5.9016230053
 20
4.7554143371
 30
0.0
 10
5.8779366133
 20
4.7607304031
 30
0.0
 10
5.854012407
 20
4.7648750204
 30
0.0
 10
5.8218987914
 20
4.7688248571
 30
0.0
 10
5.7976197334
 20
4.7700143645
 30
0.0
 10
5.7814541786
 20
4.770009019
 30
0.0
 11
5.7814592934
 21
3.7810709472
 31
0.0
 11
5.8298955722
 21
3.7835030122
 31
0.0
 11
5.8539845246
 21
3.7864951514
 31
0.0
 11
5.8778960786
 21
3.790664488
 31
0.0
 11
5.9015684393
 21
3.7960013276
 31
0.0
 11
5.924947437
 21
3.8024907792
 31
0.0
 11
5.9479793256
 21
3.8101176633
 31
0.0
 11
5.9706103661
 21
3.8188658312
 31
0.0
 11
5.9927868654
 21
3.8287128434
 31
0.0
 11
6.0144551489
 21
3.8396337489
 31
0.0
 11
6.0355615586
 21
3.8516035673
 31
0.0
 11
6.0560544176
 21
3.8645945822
 31
0.0
 11
6.0758858772
 21
3.8785737907
 31
0.0
 11
6.0950085258
 21
3.8935075863
 31
0.0
 11
6.1133753236
 21
3.9093618809
 31
0.0
 11
6.1309428538
 21
3.9260978929
 31
0.0
 11
6.1476697424
 21
3.9436741941
 31
0.0
 11
6.1635146462
 21
3.9620493203
 31
0.0
 11
6.1784383599
 21
3.9811800757
 31
0.0
 11
6.1924067158
 21
4.0010191839
 31
0.0
 11
6.2053862714
 21
4.021518781
 31
0.0
 11
6.2173439862
 21
4.0426307642
 31
0.0
 11
6.2282517391
 21
4.064304103
 31
0.0
 11
6.2380847051
 21
4.0864858054
 31
0.0
 11
6.2468181222
 21
4.1091228426
 31
0.0
 11
6.2544294277
 21
4.1321614218
 31
0.0
 11
6.2609023041
 21
4.1555455812
 31
0.0
 11
6.266221535
 21
4.1792189766
 31
0.0
 11
6.2703722143
 21
4.2031252001
 31
0.0
 11
6.2733446615
 21
4.2272067728
 31
0.0
 11
6.2757336443
 21
4.2756624626
 31
0.0
 11
6.2733601174
 21
4.3241188987
 31
0.0
 11
6.2703951003
 21
4.348201398
 31
0.0
 11
6.2662516676
 21
4.3721089026
 31
0.0
 11
6.2609391792
 21
4.3957838317
 31
0.0
 11
6.2544725261
 21
4.4191697063
 31
0.0
 11
6.2468670018
 21
4.4422101279
 31
0.0
 11
6.2381388179
 21
4.4648490322
 31
0.0
 11
6.2283102427
 21
4.4870325615
 31
0.0
 11
6.2174059967
 21
4.5087077512
 31
0.0
 11
6.2054508474
 21
4.5298216614
 31
0.0
 11
6.1924726732
 21
4.5503230597
 31
0.0
 11
6.1785046379
 21
4.5701636147
 31
0.0
 11
6.1635804182
 21
4.5892952768
 31
0.0
 11
6.1477341901
 21
4.6076704154
 31
0.0
 11
6.1310049207
 21
4.6252454263
 31
0.0
 11
6.1134342481
 21
4.6419789497
 31
0.0
 11
6.0950638432
 21
4.6578296548
 31
0.0
 11
6.0759369046
 21
4.6727582133
 31
0.0
 11
6.056100534
 21
4.6867304125
 31
0.0
 11
6.0356024471
 21
4.6997128443
 31
0.0
 11
6.0144906095
 21
4.7116724441
 31
0.0
 11
5.9928164453
 21
4.7225809002
 31
0.0
 11
5.9706339048
 21
4.7324133736
 31
0.0
 11
5.9479969964
 21
4.7411451044
 31
0.0
 11
5.9249597017
 21
4.7487532597
 31
0.0
 11
5.9015759141
 21
4.7552214557
 31
0.0
 11
5.8778995086
 21
4.760534657
 31
0.0
 11
5.8539846963
 21
4.7646780512
 31
0.0
 11
5.8298930315
 21
4.7676416915
 31
0.0
 11
5.7814541786
 21
4.770009019
 31
0.0
  0
LINE
  5
25D
100
AcDbEntity
  8
0
100
AcDbLine
 62
6
  6
CONTINUOUS
 10
5.7814541786
 20
4.770009019
 11
5.78126445
 21
4.7700089196
  0
LINE
  5
25E
100
AcDbEntity
  8
0
100
AcDbLine
 62
6
  6
CONTINUOUS
 10
5.78126445
 20
3.7832949454
 11
5.7814591883
 21
3.783295124
  0
SPLINE
  5
25F
100
AcDbEntity
  8
0
100
AcDbSpline
 62
6
  6
CONTINUOUS
 70
0
 71
3
 72
67
 73
63
 74
61
 42
0.0000001
 43
0.0000001
 44
0.0000000001
 12
1.54583254
 22
0.0017243182
 32
0.0
 13
-1.5458334165
 23
-0.0005133739
 33
0.0
 40
0.0
 40
0.0
 40
0.0
 40
0.0
 40
0.031231738
 40
0.046863961
 40
0.0624950513
 40
0.0781223875
 40
0.0937474468
 40
0.1093718038
 40
0.1249969214
 40
0.1406229166
 40
0.1562491768
 40
0.1718751299
 40
0.1875006463
 40
0.2031259004
 40
0.2187509695
 40
0.2343760359
 40
0.25000126
 40
0.2656265442
 40
0.2812517892
 40
0.2968771005
 40
0.312502505
 40
0.3281278873
 40
0.3437532491
 40
0.3593787033
 40
0.375004156
 40
0.3906294865
 40
0.406254797
 40
0.4218802115
 40
0.4375057094
 40
0.4531313653
 40
0.4687573157
 40
0.5000001407
 40
0.5312429731
 40
0.5468689255
 40
0.56249457
 40
0.5781200443
 40
0.5937454451
 40
0.6093707763
 40
0.6249961866
 40
0.6406218096
 40
0.656247555
 40
0.67187336
 40
0.6874993421
 40
0.7031254569
 40
0.7187515262
 40
0.7343775077
 40
0.7500034738
 40
0.7656292831
 40
0.7812547619
 40
0.7968799997
 40
0.8125052328
 40
0.8281305829
 40
0.8437562538
 40
0.8593821991
 40
0.87500784
 40
0.8906325145
 40
0.9062561676
 40
0.9218802969
 40
0.9375066361
 40
0.9531368518
 40
0.9687685779
 40
1.0
 40
1.0
 40
1.0
 40
1.0
 10
5.7814591883
 20
3.783295124
 30
0.0
 10
5.7975522006
 20
3.7833130751
 30
0.0
 10
5.8217206475
 20
3.7845296095
 30
0.0
 10
5.853685899
 20
3.7884996072
 30
0.0
 10
5.8774989921
 20
3.7926513818
 30
0.0
 10
5.9010746231
 20
3.7979671349
 30
0.0
 10
5.9243585312
 20
3.8044302004
 30
0.0
 10
5.9472968069
 20
3.8120256272
 30
0.0
 10
5.9698349095
 20
3.8207384569
 30
0.0
 10
5.9919200044
 20
3.8305452089
 30
0.0
 10
6.0134993047
 20
3.841420825
 30
0.0
 10
6.0345193049
 20
3.8533412251
 30
0.0
 10
6.0549278513
 20
3.8662796013
 30
0.0
 10
6.0746779524
 20
3.8802014931
 30
0.0
 10
6.0937225765
 20
3.8950735865
 30
0.0
 10
6.1120138247
 20
3.910863058
 30
0.0
 10
6.1295088941
 20
3.927530465
 30
0.0
 10
6.1461672786
 20
3.9450342481
 30
0.0
 10
6.1619475244
 20
3.9633337877
 30
0.0
 10
6.1768096299
 20
3.9823865914
 30
0.0
 10
6.190720793
 20
4.0021444172
 30
0.0
 10
6.2036478364
 20
4.0225597884
 30
0.0
 10
6.2155564796
 20
4.0435855509
 30
0.0
 10
6.2264191854
 20
4.0651702526
 30
0.0
 10
6.2362120987
 20
4.0872608634
 30
0.0
 10
6.2449102353
 20
4.1098050031
 30
0.0
 10
6.252489791
 20
4.1327493762
 30
0.0
 10
6.2589360673
 20
4.1560376261
 30
0.0
 10
6.2642340918
 20
4.179613707
 30
0.0
 10
6.2683676984
 20
4.20342244
 30
0.0
 10
6.2723134166
 20
4.2353925944
 30
0.0
 10
6.2743023889
 20
4.2756616328
 30
0.0
 10
6.2723265361
 20
4.3159313356
 30
0.0
 10
6.2683908203
 20
4.3479027245
 30
0.0
 10
6.2642645854
 20
4.371712723
 30
0.0
 10
6.2589734096
 20
4.395290325
 30
0.0
 10
6.2525334515
 20
4.4185803211
 30
0.0
 10
6.2449596923
 20
4.4415266632
 30
0.0
 10
6.2362667112
 20
4.464072953
 30
0.0
 10
6.2264780528
 20
4.4861657698
 30
0.0
 10
6.2156187227
 20
4.5077527038
 30
0.0
 10
6.2037126302
 20
4.5287807187
 30
0.0
 10
6.1907869024
 20
4.5491980164
 30
0.0
 10
6.1768759742
 20
4.5689573312
 30
0.0
 10
6.16201327
 20
4.5880111267
 30
0.0
 10
6.1462315927
 20
4.606310946
 30
0.0
 10
6.1295704685
 20
4.6238135887
 30
0.0
 10
6.11207192
 20
4.6404786174
 30
0.0
 10
6.0937770192
 20
4.6562648088
 30
0.0
 10
6.0747279525
 20
4.6711317383
 30
0.0
 10
6.0549727893
 20
4.6850464788
 30
0.0
 10
6.0345589785
 20
4.6979761267
 30
0.0
 10
6.0135336909
 20
4.7098864639
 30
0.0
 10
5.9919485106
 20
4.7207494073
 30
0.0
 10
5.9698574619
 20
4.7305413864
 30
0.0
 10
5.9473137918
 20
4.7392377258
 30
0.0
 10
5.9243704062
 20
4.7468144103
 30
0.0
 10
5.9010819431
 20
4.7532561043
 30
0.0
 10
5.87750242
 20
4.7585481215
 30
0.0
 10
5.8536860234
 20
4.7626740004
 30
0.0
 10
5.8217169179
 20
4.7666060261
 30
0.0
 10
5.7975470633
 20
4.767790189
 30
0.0
 10
5.7814542046
 20
4.7677848445
 30
0.0
 11
5.7814591883
 21
3.783295124
 31
0.0
 11
5.8296774987
 21
3.7857164527
 31
0.0
 11
5.8536580156
 21
3.7886952191
 31
0.0
 11
5.877461915
 21
3.7928458801
 31
0.0
 11
5.901027703
 21
3.7981587744
 31
0.0
 11
5.9243014562
 21
3.8046190819
 31
0.0
 11
5.947229668
 21
3.8122116985
 31
0.0
 11
5.9697588391
 21
3.8209205422
 31
0.0
 11
5.9918355159
 21
3.830723266
 31
0.0
 11
6.0134062631
 21
3.841595051
 31
0.0
 11
6.034417663
 21
3.8535110479
 31
0.0
 11
6.0548182862
 21
3.8664436375
 31
0.0
 11
6.0745604808
 21
3.8803599394
 31
0.0
 11
6.0935970174
 21
3.8952264848
 31
0.0
 11
6.1118810544
 21
3.9110093135
 31
0.0
 11
6.1293694136
 21
3.9276698285
 31
0.0
 11
6.1460209308
 21
3.9451668836
 31
0.0
 11
6.161794473
 21
3.9634592971
 31
0.0
 11
6.1766511037
 21
3.9825040471
 31
0.0
 11
6.1905567768
 21
4.0022540142
 31
0.0
 11
6.2034781065
 21
4.0226615255
 31
0.0
 11
6.2153821314
 21
4.0436786601
 31
0.0
 11
6.2262408877
 21
4.0652545741
 31
0.0
 11
6.2360296647
 21
4.0873365212
 31
0.0
 11
6.2447238101
 21
4.1098717212
 31
0.0
 11
6.2523008916
 21
4.132806624
 31
0.0
 11
6.2587446745
 21
4.1560855274
 31
0.0
 11
6.2640399977
 21
4.1796523573
 31
0.0
 11
6.2681720213
 21
4.2034509727
 31
0.0
 11
6.271131144
 21
4.2274241515
 31
0.0
 11
6.27350947
 21
4.2756617617
 31
0.0
 11
6.2711467214
 21
4.3239001489
 31
0.0
 11
6.2681951199
 21
4.3478742578
 31
0.0
 11
6.2640704027
 21
4.3716741229
 31
0.0
 11
6.2587819303
 21
4.3952424535
 31
0.0
 11
6.2523444729
 21
4.4185230852
 31
0.0
 11
6.244773176
 21
4.4414599316
 31
0.0
 11
6.2360841539
 21
4.4639972401
 31
0.0
 11
6.2262996487
 21
4.4860813682
 31
0.0
 11
6.2154442914
 21
4.5076594964
 31
0.0
 11
6.2035427544
 21
4.5286788271
 31
0.0
 11
6.1906227526
 21
4.5490882766
 31
0.0
 11
6.1767173305
 21
4.5688397633
 31
0.0
 11
6.161860071
 21
4.5878855089
 31
0.0
 11
6.1460849978
 21
4.6061781055
 31
0.0
 11
6.1294308096
 21
4.6236740736
 31
0.0
 11
6.111939022
 21
4.6403323008
 31
0.0
 11
6.093651191
 21
4.6561117092
 31
0.0
 11
6.0746102594
 21
4.6709730487
 31
0.0
 11
6.0548630961
 21
4.6848822431
 31
0.0
 11
6.0344572601
 21
4.6978061254
 31
0.0
 11
6.0134405216
 21
4.7097118187
 31
0.0
 11
5.9918639789
 21
4.7205710145
 31
0.0
 11
5.9697813824
 21
4.7303590443
 31
0.0
 11
5.9472465557
 21
4.7390513406
 31
0.0
 11
5.9243132669
 21
4.746625139
 31
0.0
 11
5.9010350863
 21
4.753064085
 31
0.0
 11
5.8774655401
 21
4.7583532472
 31
0.0
 11
5.8536584952
 21
4.7624779153
 31
0.0
 11
5.8296752306
 21
4.7654281922
 31
0.0
 11
5.7814542046
 21
4.7677848445
 31
0.0
  0
LINE
  5
260
100
AcDbEntity
  8
0
100
AcDbLine
 62
6
  6
CONTINUOUS
 10
5.7814542046
 20
4.7677848445
 11
5.78126445
 21
4.7677847447
  0
LINE
  5
261
100
AcDbEntity
  8
0
100
AcDbLine
 62
6
  6
CONTINUOUS
 10
5.78126445
 20
3.7855191191
 11
5.781459319
 21
3.7855192986
  0
SPLINE
  5
262
100
AcDbEntity
  8
0
100
AcDbSpline
 62
6
  6
CONTINUOUS
 70
0
 71
3
 72
67
 73
63
 74
61
 42
0.0000001
 43
0.0000001
 44
0.0000000001
 12
1.5388454541
 22
0.0017247223
 32
0.0
 13
-1.5388463355
 23
-0.0005118476
 33
0.0
 40
0.0
 40
0.0
 40
0.0
 40
0.0
 40
0.0312317649
 40
0.0468640193
 40
0.0624951506
 40
0.0781225236
 40
0.0937476132
 40
0.1093719943
 40
0.1249971324
 40
0.1406231508
 40
0.156249436
 40
0.1718754134
 40
0.1875009488
 40
0.2031262158
 40
0.2187512903
 40
0.2343763538
 40
0.2500015933
 40
0.2656269521
 40
0.2812523712
 40
0.2968779686
 40
0.3125037186
 40
0.3281294364
 40
0.3437550531
 40
0.3593806752
 40
0.3750062376
 40
0.3906316335
 40
0.4062569665
 40
0.4218823697
 40
0.4375078211
 40
0.4531333811
 40
0.4687591896
 40
0.5000016044
 40
0.5312438166
 40
0.5468694353
 40
0.5624947632
 40
0.5781199575
 40
0.5937451425
 40
0.6093703528
 40
0.6249957617
 40
0.6406214715
 40
0.6562473424
 40
0.6718732658
 40
0.6874993349
 40
0.7031255134
 40
0.7187516333
 40
0.7343776613
 40
0.7500036741
 40
0.7656295306
 40
0.7812550569
 40
0.7968803357
 40
0.8125055842
 40
0.8281309
 40
0.8437564625
 40
0.8593822404
 40
0.8750076969
 40
0.890632212
 40
0.9062557719
 40
0.9218798828
 40
0.9375062769
 40
0.9531366126
 40
0.9687684574
 40
1.0
 40
1.0
 40
1.0
 40
1.0
 10
5.781459319
 20
3.7855192986
 30
0.0
 10
5.7974796055
 20
3.785537254
 30
0.0
 10
5.8215388355
 20
3.7867484194
 30
0.0
 10
5.8533596373
 20
3.7907006294
 30
0.0
 10
5.8770651352
 20
3.7948337421
 30
0.0
 10
5.9005342369
 20
3.8001255824
 30
0.0
 10
5.9237129204
 20
3.8065595473
 30
0.0
 10
5.9465475244
 20
3.8141207409
 30
0.0
 10
5.9689837587
 20
3.8227942786
 30
0.0
 10
5.990969023
 20
3.8325568083
 30
0.0
 10
6.0124507779
 20
3.8433833651
 30
0.0
 10
6.0333757716
 20
3.8552499515
 30
0.0
 10
6.0536920556
 20
3.8681299283
 30
0.0
 10
6.073352854
 20
3.8819889742
 30
0.0
 10
6.092311366
 20
3.8967938985
 30
0.0
 10
6.1105199336
 20
3.9125120224
 30
0.0
 10
6.1279359229
 20
3.9291041631
 30
0.0
 10
6.1445190525
 20
3.9465289786
 30
0.0
 10
6.1602281098
 20
3.9647460499
 30
0.0
 10
6.1750231912
 20
3.9837131434
 30
0.0
 10
6.188871643
 20
4.0033821542
 30
0.0
 10
6.2017404527
 20
4.0237056906
 30
0.0
 10
6.2135954926
 20
4.0446367404
 30
0.0
 10
6.2244090293
 20
4.066124226
 30
0.0
 10
6.2341575157
 20
4.0881152505
 30
0.0
 10
6.2428163316
 20
4.110557601
 30
0.0
 10
6.2503615377
 20
4.1333983409
 30
0.0
 10
6.2567784275
 20
4.1565813809
 30
0.0
 10
6.2620522999
 20
4.1800508603
 30
0.0
 10
6.266167248
 20
4.203751827
 30
0.0
 10
6.2700948272
 20
4.2355771847
 30
0.0
 10
6.2720745675
 20
4.2756636065
 30
0.0
 10
6.2701077031
 20
4.3157505951
 30
0.0
 10
6.2661897304
 20
4.3475768128
 30
0.0
 10
6.2620822543
 20
4.3712787238
 30
0.0
 10
6.2568151449
 20
4.3947493629
 30
0.0
 10
6.2504044359
 20
4.4179338005
 30
0.0
 10
6.242864986
 20
4.4407762696
 30
0.0
 10
6.2342113091
 20
4.4632206361
 30
0.0
 10
6.2244669147
 20
4.4852137207
 30
0.0
 10
6.2136566691
 20
4.5067032736
 30
0.0
 10
6.201804364
 20
4.5276364233
 30
0.0
 10
6.1889370181
 20
4.5479615734
 30
0.0
 10
6.1750889292
 20
4.5676316772
 30
0.0
 10
6.1602933716
 20
4.5865994304
 30
0.0
 10
6.1445830011
 20
4.604816611
 30
0.0
 10
6.1279971421
 20
4.6222402026
 30
0.0
 10
6.1105776375
 20
4.6388299601
 30
0.0
 10
6.0923653916
 20
4.6545448625
 30
0.0
 10
6.0734023799
 20
4.6693446233
 30
0.0
 10
6.0537364869
 20
4.6831964583
 30
0.0
 10
6.0334150022
 20
4.6960676309
 30
0.0
 10
6.0124849152
 20
4.7079241066
 30
0.0
 10
5.9909975223
 20
4.7187378699
 30
0.0
 10
5.9690065677
 20
4.7284854934
 30
0.0
 10
5.9465649977
 20
4.7371424313
 30
0.0
 10
5.9237254552
 20
4.7446848485
 30
0.0
 10
5.9005422979
 20
4.7510974727
 30
0.0
 10
5.8770692828
 20
4.7563656288
 30
0.0
 10
5.8533603821
 20
4.760472861
 30
0.0
 10
5.8215355954
 20
4.7643871536
 30
0.0
 10
5.7974748645
 20
4.7655659995
 30
0.0
 10
5.7814546829
 20
4.7655606709
 30
0.0
 11
5.781459319
 21
3.7855192986
 31
0.0
 11
5.8294597143
 21
3.7879299341
 31
0.0
 11
5.8533318747
 21
3.7908953538
 31
0.0
 11
5.8770282268
 21
3.7950273635
 31
0.0
 11
5.9004875312
 21
3.8003163566
 31
0.0
 11
5.9236561062
 21
3.806747574
 31
0.0
 11
5.9464806903
 21
3.8143059706
 31
0.0
 11
5.9689080291
 21
3.8229755427
 31
0.0
 11
5.9908849151
 21
3.832734059
 31
0.0
 11
6.0123581593
 21
3.8435567987
 31
0.0
 11
6.0332745891
 21
3.8554190113
 31
0.0
 11
6.0535829869
 21
3.8682932255
 31
0.0
 11
6.0732359182
 21
3.882146703
 31
0.0
 11
6.0921863819
 21
3.8969461029
 31
0.0
 11
6.1103877525
 21
3.9126576147
 31
0.0
 11
6.127797048
 21
3.9292428776
 31
0.0
 11
6.1443733326
 21
3.9466609756
 31
0.0
 11
6.1600757013
 21
3.9648709569
 31
0.0
 11
6.1748653574
 21
3.9838300465
 31
0.0
 11
6.1887083771
 21
4.0034912544
 31
0.0
 11
6.2015715234
 21
4.0238069966
 31
0.0
 11
6.2134219137
 21
4.0447294889
 31
0.0
 11
6.2242315417
 21
4.066208194
 31
0.0
 11
6.2339759461
 21
4.0881905732
 31
0.0
 11
6.2426307459
 21
4.1106240423
 31
0.0
 11
6.2501734734
 21
4.1334553519
 31
0.0
 11
6.2565879139
 21
4.1566290779
 31
0.0
 11
6.2618591286
 21
4.1800893528
 31
0.0
 11
6.265972419
 21
4.2037802599
 31
0.0
 11
6.2689179903
 21
4.2276448829
 31
0.0
 11
6.2712852926
 21
4.2756638433
 31
0.0
 11
6.2689332
 21
4.323683239
 31
0.0
 11
6.2659949402
 21
4.3475484692
 31
0.0
 11
6.2618889621
 21
4.3712402822
 31
0.0
 11
6.2566245417
 21
4.3947016771
 31
0.0
 11
6.2502163219
 21
4.4178767758
 31
0.0
 11
6.2426793315
 21
4.4407097811
 31
0.0
 11
6.2340296034
 21
4.4631452276
 31
0.0
 11
6.2242893265
 21
4.485129684
 31
0.0
 11
6.2134830196
 21
4.5066104889
 31
0.0
 11
6.2016352426
 21
4.5275350034
 31
0.0
 11
6.1887736011
 21
4.5478523381
 31
0.0
 11
6.1749309974
 21
4.5675146455
 31
0.0
 11
6.160140864
 21
4.5864743824
 31
0.0
 11
6.1444370659
 21
4.6046843686
 31
0.0
 11
6.1278581137
 21
4.6221013168
 31
0.0
 11
6.1104453418
 21
4.6386843067
 31
0.0
 11
6.092240126
 21
4.654392453
 31
0.0
 11
6.0732852065
 21
4.6691866561
 31
0.0
 11
6.0536272708
 21
4.6830329824
 31
0.0
 11
6.033313716
 21
4.6958984266
 31
0.0
 11
6.0123921384
 21
4.7077502624
 31
0.0
 11
5.9909133643
 21
4.7185602865
 31
0.0
 11
5.9689308432
 21
4.7283039686
 31
0.0
 11
5.9464981003
 21
4.7369568846
 31
0.0
 11
5.9236686123
 21
4.7444964275
 31
0.0
 11
5.9004956882
 21
4.7509063098
 31
0.0
 11
5.8770326001
 21
4.7561716169
 31
0.0
 11
5.8533329784
 21
4.7602776668
 31
0.0
 11
5.8294579366
 21
4.763214639
 31
0.0
 11
5.7814546829
 21
4.7655606709
 31
0.0
  0
LINE
  5
263
100
AcDbEntity
  8
0
100
AcDbLine
 62
6
  6
CONTINUOUS
 10
5.7814546829
 20
4.7655606709
 11
5.78126445
 21
4.7655605705
  0
LINE
  5
264
100
AcDbEntity
  8
0
100
AcDbLine
 62
6
  6
CONTINUOUS
 10
5.78126445
 20
3.7877432948
 11
5.7814593048
 21
3.7877434751
  0
SPLINE
  5
265
100
AcDbEntity
  8
0
100
AcDbSpline
 62
6
  6
CONTINUOUS
 70
0
 71
3
 72
69
 73
65
 74
63
 42
0.0000001
 43
0.0000001
 44
0.0000000001
 12
1.531887515
 22
0.0017246998
 32
0.0
 13
-1.5318884006
 23
-0.0005109966
 33
0.0
 40
0.0
 40
0.0
 40
0.0
 40
0.0
 40
0.0312311753
 40
0.0468631304
 40
0.0624939593
 40
0.0781210301
 40
0.0937458201
 40
0.1093699066
 40
0.124994756
 40
0.1406204844
 40
0.1562464687
 40
0.1718721243
 40
0.1874973218
 40
0.2031222683
 40
0.2187470781
 40
0.2343719672
 40
0.249997111
 40
0.2656224143
 40
0.2812477786
 40
0.2968732962
 40
0.3124989421
 40
0.3281245284
 40
0.3437499754
 40
0.3593753915
 40
0.3750007203
 40
0.3906258536
 40
0.4062508867
 40
0.4218759616
 40
0.43750106
 40
0.4531262363
 40
0.4687516292
 40
0.4843771142
 40
0.5000024879
 40
0.5156277389
 40
0.5312529457
 40
0.5468780102
 40
0.5625028763
 40
0.5781277149
 40
0.5937526091
 40
0.6093775509
 40
0.6250026784
 40
0.6406280901
 40
0.6562536551
 40
0.6718792736
 40
0.6875050433
 40
0.7031309248
 40
0.7187567472
 40
0.7343824761
 40
0.7500081887
 40
0.7656337468
 40
0.7812589807
 40
0.7968839728
 40
0.8125089201
 40
0.8281338957
 40
0.8437590569
 40
0.8593843889
 40
0.8750094117
 40
0.8906335677
 40
0.9062569027
 40
0.9218808875
 40
0.9375071859
 40
0.953137389
 40
0.9687690192
 40
1.0
 40
1.0
 40
1.0
 40
1.0
 10
5.7814593048
 20
3.7877434751
 30
0.0
 10
5.7974068539
 20
3.7877614299
 30
0.0
 10
5.8213568388
 20
3.7889672096
 30
0.0
 10
5.8530331414
 20
3.7929016097
 30
0.0
 10
5.8766309829
 20
3.7970160487
 30
0.0
 10
5.8999934992
 20
3.8022839425
 30
0.0
 10
5.9230669172
 20
3.8086887694
 30
0.0
 10
5.9457978215
 20
3.8162157063
 30
0.0
 10
5.9681321659
 20
3.8248499374
 30
0.0
 10
5.9900175857
 20
3.8345682031
 30
0.0
 10
6.0114017702
 20
3.8453456439
 30
0.0
 10
6.0322317051
 20
3.8571583661
 30
0.0
 10
6.0524556954
 20
3.8699798535
 30
0.0
 10
6.0720271977
 20
3.8837759837
 30
0.0
 10
6.090899655
 20
3.8985137643
 30
0.0
 10
6.1090256379
 20
3.9141606948
 30
0.0
 10
6.1263627193
 20
3.9306777415
 30
0.0
 10
6.142870763
 20
3.9480237235
 30
0.0
 10
6.1585087386
 20
3.9661583434
 30
0.0
 10
6.173236784
 20
3.9850396331
 30
0.0
 10
6.1870224125
 20
4.0046196593
 30
0.0
 10
6.1998328359
 20
4.0248511811
 30
0.0
 10
6.211634155
 20
4.0456873603
 30
0.0
 10
6.222398514
 20
4.067077487
 30
0.0
 10
6.2321026101
 20
4.0889688232
 30
0.0
 10
6.2407220987
 20
4.1113093281
 30
0.0
 10
6.2482329962
 20
4.1340463879
 30
0.0
 10
6.2546205676
 20
4.1571241389
 30
0.0
 10
6.2598703449
 20
4.1804871142
 30
0.0
 10
6.2639665851
 20
4.2040798965
 30
0.0
 10
6.2668992987
 20
4.2278455291
 30
0.0
 10
6.2686645936
 20
4.2517263366
 30
0.0
 10
6.2692574039
 20
4.2756649543
 30
0.0
 10
6.2686724551
 20
4.2996036308
 30
0.0
 10
6.2669143757
 20
4.3234846061
 30
0.0
 10
6.263988766
 20
4.347250636
 30
0.0
 10
6.2598999752
 20
4.3708442475
 30
0.0
 10
6.2546568273
 20
4.3942083329
 30
0.0
 10
6.2482752869
 20
4.417287475
 30
0.0
 10
6.2407701228
 20
4.4400262824
 30
0.0
 10
6.2321557744
 20
4.4623687771
 30
0.0
 10
6.2224556682
 20
4.4842620266
 30
0.0
 10
6.2116945462
 20
4.5056540176
 30
0.0
 10
6.1998960787
 20
4.5264921231
 30
0.0
 10
6.1870871932
 20
4.5467250046
 30
0.0
 10
6.1733020235
 20
4.5663058256
 30
0.0
 10
6.1585736819
 20
4.5851874846
 30
0.0
 10
6.1429346706
 20
4.6033219705
 30
0.0
 10
6.1264241594
 20
4.6206664847
 30
0.0
 10
6.1090837796
 20
4.6371809519
 30
0.0
 10
6.0909542318
 20
4.6528245202
 30
0.0
 10
6.0720773256
 20
4.6675570982
 30
0.0
 10
6.0525007603
 20
4.681346057
 30
0.0
 10
6.0322716339
 20
4.6941587853
 30
0.0
 10
6.0114367364
 20
4.7059613972
 30
0.0
 10
5.9900471259
 20
4.7167260544
 30
0.0
 10
5.9681562105
 20
4.7264294138
 30
0.0
 10
5.9458165895
 20
4.7350470085
 30
0.0
 10
5.9230806582
 20
4.7425551971
 30
0.0
 10
5.9000025587
 20
4.7489388154
 30
0.0
 10
5.8766358667
 20
4.7541831707
 30
0.0
 10
5.8530343907
 20
4.7582718044
 30
0.0
 10
5.8213539613
 20
4.7621683422
 30
0.0
 10
5.7974024166
 20
4.7633418148
 30
0.0
 10
5.7814549575
 20
4.7633364951
 30
0.0
 11
5.7814593048
 21
3.7877434751
 31
0.0
 11
5.8292417515
 21
3.7901433924
 31
0.0
 11
5.8530055057
 21
3.7930954488
 31
0.0
 11
5.8765942416
 21
3.7972087891
 31
0.0
 11
5.8999470039
 21
3.802473849
 31
0.0
 11
5.9230103581
 21
3.8088759412
 31
0.0
 11
5.9457312874
 21
3.8164000937
 31
0.0
 11
5.9680567809
 21
3.8250303768
 31
0.0
 11
5.9899338653
 21
3.8347446492
 31
0.0
 11
6.0113095824
 21
3.8455182926
 31
0.0
 11
6.0321309908
 21
3.8573266593
 31
0.0
 11
6.0523471142
 21
3.8701424047
 31
0.0
 11
6.0719107678
 21
3.8839329822
 31
0.0
 11
6.0907751988
 21
3.8986652523
 31
0.0
 11
6.1088940269
 21
3.9143055984
 31
0.0
 11
6.1262244599
 21
3.9308158115
 31
0.0
 11
6.1427257094
 21
3.9481551165
 31
0.0
 11
6.1583570156
 21
3.9662827052
 31
0.0
 11
6.1730796639
 21
3.9851560216
 31
0.0
 11
6.1868598981
 21
4.0047282725
 31
0.0
 11
6.1996646985
 21
4.0249520351
 31
0.0
 11
6.2114613462
 21
4.0457797181
 31
0.0
 11
6.2222218337
 21
4.0671610864
 31
0.0
 11
6.2319218928
 21
4.089043807
 31
0.0
 11
6.2405373585
 21
4.1113754889
 31
0.0
 11
6.2480457701
 21
4.1341031522
 31
0.0
 11
6.2544309294
 21
4.1571716528
 31
0.0
 11
6.259678076
 21
4.1805253498
 31
0.0
 11
6.263772643
 21
4.2041085629
 31
0.0
 11
6.266704722
 21
4.2278646615
 31
0.0
 11
6.2684691825
 21
4.2517360405
 31
0.0
 11
6.2690611109
 21
4.2756650504
 31
0.0
 11
6.2684769309
 21
4.2995940628
 31
0.0
 11
6.2667197767
 21
4.3234655534
 31
0.0
 11
6.2637948833
 21
4.3472220308
 31
0.0
 11
6.2597075773
 21
4.3708060213
 31
0.0
 11
6.2544671038
 21
4.3941608086
 31
0.0
 11
6.2480880307
 21
4.4172307058
 31
0.0
 11
6.240585306
 21
4.4399600997
 31
0.0
 11
6.2319748905
 21
4.4622937198
 31
0.0
 11
6.2222788831
 21
4.4841783748
 31
0.0
 11
6.2115216825
 21
4.5055616524
 31
0.0
 11
6.1997277293
 21
4.5263911632
 31
0.0
 11
6.1869245201
 21
4.5466162657
 31
0.0
 11
6.1731448079
 21
4.5661893253
 31
0.0
 11
6.1584218643
 21
4.5850630038
 31
0.0
 11
6.1427893998
 21
4.6031903313
 31
0.0
 11
6.1262857619
 21
4.6205282287
 31
0.0
 11
6.1089520835
 21
4.6370359543
 31
0.0
 11
6.0908295368
 21
4.6526728002
 31
0.0
 11
6.07196068
 21
4.6673998555
 31
0.0
 11
6.0523920243
 21
4.6811833363
 31
0.0
 11
6.0321707816
 21
4.6939903673
 31
0.0
 11
6.0113443643
 21
4.7057883608
 31
0.0
 11
5.989963354
 21
4.7165492736
 31
0.0
 11
5.9680808598
 21
4.7262486865
 31
0.0
 11
5.9457500609
 21
4.7348622815
 31
0.0
 11
5.9230241242
 21
4.7423676258
 31
0.0
 11
5.8999561749
 21
4.7487485159
 31
0.0
 11
5.8765993298
 21
4.7539900331
 31
0.0
 11
5.8530070696
 21
4.7580774993
 31
0.0
 11
5.8292403055
 21
4.7610011502
 31
0.0
 11
5.7814549575
 21
4.7633364951
 31
0.0
  0
LINE
  5
266
100
AcDbEntity
  8
0
100
AcDbLine
 62
6
  6
CONTINUOUS
 10
5.7814549575
 20
4.7633364951
 11
5.78126445
 21
4.7633363941
  0
LINE
  5
267
100
AcDbEntity
  8
0
100
AcDbLine
 62
6
  6
CONTINUOUS
 10
5.78126445
 20
3.7899674711
 11
5.7814591686
 21
3.789967652
  0
SPLINE
  5
268
100
AcDbEntity
  8
0
100
AcDbSpline
 62
6
  6
CONTINUOUS
 70
0
 71
3
 72
69
 73
65
 74
63
 42
0.0000001
 43
0.0000001
 44
0.0000000001
 12
1.5249008755
 22
0.0017242546
 32
0.0
 13
-1.5249017649
 23
-0.0005104913
 33
0.0
 40
0.0
 40
0.0
 40
0.0
 40
0.0
 40
0.0312311469
 40
0.0468630657
 40
0.0624938464
 40
0.0781208736
 40
0.0937456281
 40
0.1093696883
 40
0.124994518
 40
0.1406202237
 40
0.1562461786
 40
0.1718717966
 40
0.1874969619
 40
0.2031219147
 40
0.2187468069
 40
0.2343718899
 40
0.2499973144
 40
0.2656229271
 40
0.28124857
 40
0.2968742981
 40
0.312500102
 40
0.3281258081
 40
0.3437513421
 40
0.3593768181
 40
0.3750021853
 40
0.3906273308
 40
0.4062523392
 40
0.4218773571
 40
0.4375023676
 40
0.4531274168
 40
0.4687526473
 40
0.4843779461
 40
0.5000031137
 40
0.5156281398
 40
0.5312531291
 40
0.5468780192
 40
0.5625027886
 40
0.5781276112
 40
0.5937525321
 40
0.6093775034
 40
0.6250026303
 40
0.6406280131
 40
0.6562535351
 40
0.6718791111
 40
0.6875048463
 40
0.7031306981
 40
0.7187564939
 40
0.7343821983
 40
0.7500078852
 40
0.7656334121
 40
0.7812586076
 40
0.796883555
 40
0.8125084518
 40
0.8281333732
 40
0.8437584807
 40
0.8593837652
 40
0.8750087658
 40
0.8906329505
 40
0.9062563962
 40
0.9218805457
 40
0.9375070122
 40
0.9531373367
 40
0.9687690169
 40
1.0
 40
1.0
 40
1.0
 40
1.0
 10
5.7814591686
 20
3.789967652
 30
0.0
 10
5.7973339696
 20
3.7899856022
 30
0.0
 10
5.8211746846
 20
3.7911859804
 30
0.0
 10
5.852706446
 20
3.7951025517
 30
0.0
 10
5.8761965814
 20
3.7991983098
 30
0.0
 10
5.8994524668
 20
3.8044422329
 30
0.0
 10
5.9224205841
 20
3.8108178913
 30
0.0
 10
5.9450477585
 20
3.8183105457
 30
0.0
 10
5.9672801854
 20
3.8269054422
 30
0.0
 10
5.9890657442
 20
3.8365793973
 30
0.0
 10
6.0103523502
 20
3.847307682
 30
0.0
 10
6.0310872207
 20
3.8590665376
 30
0.0
 10
6.0512189472
 20
3.8718295287
 30
0.0
 10
6.0707012171
 20
3.8855627464
 30
0.0
 10
6.0894877005
 20
3.9002334185
 30
0.0
 10
6.1075311753
 20
3.9158092341
 30
0.0
 10
6.1247894324
 20
3.9322512683
 30
0.0
 10
6.1412224624
 20
3.9495184842
 30
0.0
 10
6.1567894085
 20
3.9675706803
 30
0.0
 10
6.1714504297
 20
3.9863661611
 30
0.0
 10
6.1851732079
 20
4.0058571748
 30
0.0
 10
6.1979252017
 20
4.0259966443
 30
0.0
 10
6.2096727725
 20
4.0467379074
 30
0.0
 10
6.220387945
 20
4.0680306329
 30
0.0
 10
6.2300476485
 20
4.0898222462
 30
0.0
 10
6.2386277953
 20
4.1120608845
 30
0.0
 10
6.2461043903
 20
4.1346942251
 30
0.0
 10
6.2524626528
 20
4.1576666838
 30
0.0
 10
6.2576883304
 20
4.1809229961
 30
0.0
 10
6.2617658885
 20
4.2044079812
 30
0.0
 10
6.2646851181
 20
4.228064995
 30
0.0
 10
6.266442243
 20
4.2518366123
 30
0.0
 10
6.2670323126
 20
4.2756657361
 30
0.0
 10
6.2664500898
 20
4.2994949045
 30
0.0
 10
6.2647000579
 20
4.3232666518
 30
0.0
 10
6.2617878192
 20
4.3469240428
 30
0.0
 10
6.2577176921
 20
4.3704099029
 30
0.0
 10
6.2524984878
 20
4.393667391
 30
0.0
 10
6.2461460915
 20
4.4166413055
 30
0.0
 10
6.238675202
 20
4.4392764504
 30
0.0
 10
6.2301001862
 20
4.4615170627
 30
0.0
 10
6.220444373
 20
4.4833104447
 30
0.0
 10
6.2097323852
 20
4.5046048339
 30
0.0
 10
6.1979877725
 20
4.5253478558
 30
0.0
 10
6.1852373722
 20
4.5454884365
 30
0.0
 10
6.1715151464
 20
4.5649799478
 30
0.0
 10
6.1568540396
 20
4.583775488
 30
0.0
 10
6.1412863998
 20
4.6018272533
 30
0.0
 10
6.1248512615
 20
4.6190926732
 30
0.0
 10
6.1075900447
 20
4.6355318325
 30
0.0
 10
6.0895432422
 20
4.6511040346
 30
0.0
 10
6.0707525102
 20
4.665769412
 30
0.0
 10
6.051265331
 20
4.6794954938
 30
0.0
 10
6.0311285618
 20
4.6922497887
 30
0.0
 10
6.0103887644
 20
4.7039985449
 30
0.0
 10
5.9890968049
 20
4.7147141583
 30
0.0
 10
5.9673057829
 20
4.7243733336
 30
0.0
 10
5.9450679954
 20
4.732951656
 30
0.0
 10
5.9224356091
 20
4.7404256422
 30
0.0
 10
5.8994625562
 20
4.746780238
 30
0.0
 10
5.8762022171
 20
4.7520007607
 30
0.0
 10
5.8527082128
 20
4.7560707802
 30
0.0
 10
5.821172182
 20
4.7599495455
 30
0.0
 10
5.7973298468
 20
4.7611176347
 30
0.0
 10
5.7814551197
 20
4.7611123203
 30
0.0
 11
5.7814591686
 21
3.789967652
 31
0.0
 11
5.8290236355
 21
3.7923568284
 31
0.0
 11
5.8526789414
 21
3.7952955077
 31
0.0
 11
5.8761600056
 21
3.7993901657
 31
0.0
 11
5.8994061797
 21
3.8046312698
 31
0.0
 11
5.9223642779
 21
3.8110042081
 31
0.0
 11
5.9449815242
 21
3.8184940904
 31
0.0
 11
5.9672051474
 21
3.8270850541
 31
0.0
 11
5.9889824094
 21
3.8367550383
 31
0.0
 11
6.010260585
 21
3.8474795475
 31
0.0
 11
6.030986967
 21
3.8592340554
 31
0.0
 11
6.0511108459
 21
3.8719913267
 31
0.0
 11
6.0705852835
 21
3.8857190106
 31
0.0
 11
6.0893637604
 21
3.9003841882
 31
0.0
 11
6.1074001319
 21
3.9159534462
 31
0.0
 11
6.124651793
 21
3.9323886978
 31
0.0
 11
6.1410780873
 21
3.949649284
 31
0.0
 11
6.1566383833
 21
3.967694515
 31
0.0
 11
6.1712940295
 21
3.9864820483
 31
0.0
 11
6.1850114468
 21
4.0059653061
 31
0.0
 11
6.1977578572
 21
4.0260970421
 31
0.0
 11
6.2095007337
 21
4.0468298691
 31
0.0
 11
6.2202120709
 21
4.0681138607
 31
0.0
 11
6.2298677806
 21
4.0898968911
 31
0.0
 11
6.2384439039
 21
4.1121267616
 31
0.0
 11
6.2459180037
 21
4.134750751
 31
0.0
 11
6.2522738888
 21
4.157713993
 31
0.0
 11
6.2574969702
 21
4.1809610712
 31
0.0
 11
6.2615728167
 21
4.2044365373
 31
0.0
 11
6.2644914289
 21
4.2280840511
 31
0.0
 11
6.2662477375
 21
4.2518462806
 31
0.0
 11
6.2668369308
 21
4.2756658417
 31
0.0
 11
6.266255453
 21
4.2994853765
 31
0.0
 11
6.2645063495
 21
4.3232476642
 31
0.0
 11
6.2615948271
 21
4.346895529
 31
0.0
 11
6.2575261855
 21
4.3703718119
 31
0.0
 11
6.2523096387
 21
4.3936200636
 31
0.0
 11
6.245959691
 21
4.4165847948
 31
0.0
 11
6.2384912211
 21
4.4392105837
 31
0.0
 11
6.2299201209
 21
4.461442361
 31
0.0
 11
6.2202683901
 21
4.4832271806
 31
0.0
 11
6.2095603081
 21
4.5045128888
 31
0.0
 11
6.1978201973
 21
4.5252473556
 31
0.0
 11
6.1850754442
 21
4.5453801932
 31
0.0
 11
6.1713586473
 21
4.5648639774
 31
0.0
 11
6.1567029125
 21
4.5836515723
 31
0.0
 11
6.1411417953
 21
4.6016962191
 31
0.0
 11
6.1247134933
 21
4.6189550506
 31
0.0
 11
6.1074589424
 21
4.6353874947
 31
0.0
 11
6.0894191156
 21
4.6509530115
 31
0.0
 11
6.0706363967
 21
4.6656128924
 31
0.0
 11
6.051157088
 21
4.6793335152
 31
0.0
 11
6.0310281665
 21
4.6920821337
 31
0.0
 11
6.0102968222
 21
4.703826308
 31
0.0
 11
5.9890134258
 21
4.7145381786
 31
0.0
 11
5.9672307945
 21
4.7241934089
 31
0.0
 11
5.9450018084
 21
4.7327677538
 31
0.0
 11
5.9223793606
 21
4.7402389233
 31
0.0
 11
5.8994163846
 21
4.7465908046
 31
0.0
 11
5.876165822
 21
4.7518085016
 31
0.0
 11
5.85268098
 21
4.7558773635
 31
0.0
 11
5.8290225343
 21
4.7587876791
 31
0.0
 11
5.7814551197
 21
4.7611123203
 31
0.0
  0
LINE
  5
269
100
AcDbEntity
  8
0
100
AcDbLine
 62
6
  6
CONTINUOUS
 10
5.7814551197
 20
4.7611123203
 11
5.78126445
 21
4.7611122188
  0
LINE
  5
26A
100
AcDbEntity
  8
0
100
AcDbLine
 62
6
  6
CONTINUOUS
 10
5.78126445
 20
3.7921916449
 11
5.7814588236
 21
3.7921918263
  0
SPLINE
  5
26B
100
AcDbEntity
  8
0
100
AcDbSpline
 62
6
  6
CONTINUOUS
 70
0
 71
3
 72
67
 73
63
 74
61
 42
0.0000001
 43
0.0000001
 44
0.0000000001
 12
1.5178855613
 22
0.0017231167
 32
0.0
 13
-1.517886454
 23
-0.0005088502
 33
0.0
 40
0.0
 40
0.0
 40
0.0
 40
0.0
 40
0.0312316899
 40
0.0468638088
 40
0.0624947162
 40
0.0781218269
 40
0.0937466342
 40
0.1093707235
 40
0.1249955495
 40
0.1406212086
 40
0.1562471128
 40
0.1718727283
 40
0.1874979945
 40
0.2031231392
 40
0.2187483062
 40
0.2343737465
 40
0.2499995686
 40
0.2656255847
 40
0.2812516203
 40
0.2968777255
 40
0.3125038828
 40
0.3281299244
 40
0.3437557945
 40
0.3593816075
 40
0.3750072986
 40
0.3906327545
 40
0.4062580647
 40
0.4218833494
 40
0.4375085658
 40
0.4531337462
 40
0.468759045
 40
0.5000002873
 40
0.5312414853
 40
0.5468667539
 40
0.5624919123
 40
0.5781171168
 40
0.5937423966
 40
0.6093677044
 40
0.6249931561
 40
0.640618844
 40
0.6562446545
 40
0.6718705219
 40
0.6874965608
 40
0.7031227165
 40
0.7187488197
 40
0.7343748519
 40
0.750000866
 40
0.7656266894
 40
0.7812521362
 40
0.7968773084
 40
0.8125024483
 40
0.8281276921
 40
0.843753266
 40
0.8593791227
 40
0.8750047355
 40
0.8906295241
 40
0.9062535738
 40
0.9218783297
 40
0.9375053821
 40
0.9531362426
 40
0.9687683565
 40
1.0
 40
1.0
 40
1.0
 40
1.0
 10
5.7814588236
 20
3.7921918263
 30
0.0
 10
5.7972608673
 20
3.7922097649
 30
0.0
 10
5.8209922739
 20
3.7934047236
 30
0.0
 10
5.8523793987
 20
3.7973034275
 30
0.0
 10
5.8757616563
 20
3.8013804696
 30
0.0
 10
5.898910673
 20
3.8066003362
 30
0.0
 10
5.9217732037
 20
3.8129466949
 30
0.0
 10
5.9442963121
 20
3.8204049131
 30
0.0
 10
5.9664264606
 20
3.8289602293
 30
0.0
 10
5.9881118156
 20
3.8385895022
 30
0.0
 10
6.0093005194
 20
3.8492682739
 30
0.0
 10
6.0299399755
 20
3.860973124
 30
0.0
 10
6.0499792884
 20
3.8736773455
 30
0.0
 10
6.0693723268
 20
3.8873473194
 30
0.0
 10
6.0880728192
 20
3.9019506244
 30
0.0
 10
6.1060336715
 20
3.9174551313
 30
0.0
 10
6.1232131467
 20
3.9338217225
 30
0.0
 10
6.1395712076
 20
3.9510097393
 30
0.0
 10
6.1550669499
 20
3.9689793174
 30
0.0
 10
6.1696609815
 20
3.9876886892
 30
0.0
 10
6.1833211586
 20
4.0070903196
 30
0.0
 10
6.1960149424
 20
4.0271374673
 30
0.0
 10
6.207708713
 20
4.0477837581
 30
0.0
 10
6.2183750229
 20
4.0689788696
 30
0.0
 10
6.2279907294
 20
4.090670574
 30
0.0
 10
6.2365316611
 20
4.1128073164
 30
0.0
 10
6.2439740836
 20
4.1353369165
 30
0.0
 10
6.2503034469
 20
4.1582040291
 30
0.0
 10
6.2555053768
 20
4.1813534843
 30
0.0
 10
6.259564293
 20
4.2047310493
 30
0.0
 10
6.2634384231
 20
4.2361218746
 30
0.0
 10
6.2653911756
 20
4.2756609267
 30
0.0
 10
6.2634516791
 20
4.3152006347
 30
0.0
 10
6.2595876352
 20
4.3465926564
 30
0.0
 10
6.2555361639
 20
4.3699714841
 30
0.0
 10
6.2503411313
 20
4.393122477
 30
0.0
 10
6.2440181515
 20
4.4159913519
 30
0.0
 10
6.2365816415
 20
4.4385229058
 30
0.0
 10
6.2280459909
 20
4.4606616922
 30
0.0
 10
6.218434727
 20
4.4823553744
 30
0.0
 10
6.2077721023
 20
4.503552347
 30
0.0
 10
6.196081326
 20
4.5242003452
 30
0.0
 10
6.1833895582
 20
4.5442487865
 30
0.0
 10
6.1697304786
 20
4.563651206
 30
0.0
 10
6.1551367021
 20
4.5823607933
 30
0.0
 10
6.1396403758
 20
4.6003298901
 30
0.0
 10
6.1232807391
 20
4.6175164361
 30
0.0
 10
6.1060988369
 20
4.6338805137
 30
0.0
 10
6.088134827
 20
4.649381408
 30
0.0
 10
6.0694303911
 20
4.6639797111
 30
0.0
 10
6.0500327274
 20
4.6776431478
 30
0.0
 10
6.0299882646
 20
4.6903392266
 30
0.0
 10
6.0093432544
 20
4.7020342237
 30
0.0
 10
5.9881486157
 20
4.7127011309
 30
0.0
 10
5.966457131
 20
4.7223165007
 30
0.0
 10
5.9443208358
 20
4.7308558183
 30
0.0
 10
5.9217917163
 20
4.7382957646
 30
0.0
 10
5.8989235002
 20
4.7446214596
 30
0.0
 10
5.8757693292
 20
4.7498182179
 30
0.0
 10
5.8523826312
 20
4.7538696383
 30
0.0
 10
5.8209908673
 20
4.7577306876
 30
0.0
 10
5.7972576639
 20
4.7588934445
 30
0.0
 10
5.7814556344
 20
4.7588881471
 30
0.0
 11
5.7814588236
 21
3.7921918263
 31
0.0
 11
5.8288052844
 21
3.7945702312
 31
0.0
 11
5.8523520559
 21
3.7974955065
 31
0.0
 11
5.875725271
 21
3.8015714398
 31
0.0
 11
5.8988646149
 21
3.806788503
 31
0.0
 11
5.921717167
 21
3.8131321606
 31
0.0
 11
5.9442304013
 21
3.8205876096
 31
0.0
 11
5.9663517973
 21
3.8291390028
 31
0.0
 11
5.9880288672
 21
3.8387643392
 31
0.0
 11
6.0092091355
 21
3.8494393726
 31
0.0
 11
6.0298401583
 21
3.8611398095
 31
0.0
 11
6.049871659
 21
3.8738383588
 31
0.0
 11
6.0692568821
 21
3.8875028584
 31
0.0
 11
6.0879493953
 21
3.9021007001
 31
0.0
 11
6.1059032457
 21
3.9175986342
 31
0.0
 11
6.1230761389
 21
3.9339585223
 31
0.0
 11
6.139427465
 21
3.9511399747
 31
0.0
 11
6.1549166349
 21
3.9691025799
 31
0.0
 11
6.1695053227
 21
3.9878040443
 31
0.0
 11
6.1831601362
 21
4.0071979713
 31
0.0
 11
6.1958483332
 21
4.0272374237
 31
0.0
 11
6.2075374972
 21
4.0478752798
 31
0.0
 11
6.2181999633
 21
4.0690617226
 31
0.0
 11
6.227811662
 21
4.0907448962
 31
0.0
 11
6.236348613
 21
4.1128728942
 31
0.0
 11
6.2437885835
 21
4.1353932002
 31
0.0
 11
6.2501155524
 21
4.1582511303
 31
0.0
 11
6.2553148783
 21
4.1813915192
 31
0.0
 11
6.2593721357
 21
4.2047591604
 31
0.0
 11
6.2622776069
 21
4.228297953
 31
0.0
 11
6.2646127724
 21
4.2756610834
 31
0.0
 11
6.2622933394
 21
4.3230249193
 31
0.0
 11
6.2593954585
 21
4.3465646014
 31
0.0
 11
6.2553455755
 21
4.3699334879
 31
0.0
 11
6.2501531524
 21
4.3930754081
 31
0.0
 11
6.2438325734
 21
4.4159350983
 31
0.0
 11
6.2363984879
 21
4.4384573437
 31
0.0
 11
6.2278667839
 21
4.4605873585
 31
0.0
 11
6.2182595414
 21
4.4822725015
 31
0.0
 11
6.2076007713
 21
4.5034607998
 31
0.0
 11
6.1959145538
 21
4.5241003197
 31
0.0
 11
6.183228383
 21
4.5441410503
 31
0.0
 11
6.1695746794
 21
4.5635357555
 31
0.0
 11
6.1549862468
 21
4.5822374153
 31
0.0
 11
6.1394964686
 21
4.600199489
 31
0.0
 11
6.1231435912
 21
4.6173794606
 31
0.0
 11
6.1059682917
 21
4.6337368254
 31
0.0
 11
6.0880112712
 21
4.6492311014
 31
0.0
 11
6.0693148267
 21
4.6638239206
 31
0.0
 11
6.0499249998
 21
4.677481874
 31
0.0
 11
6.0298883686
 21
4.690172263
 31
0.0
 11
6.0092518027
 21
4.7018627922
 31
0.0
 11
5.9880656356
 21
4.7125259537
 31
0.0
 11
5.9663824694
 21
4.7221373756
 31
0.0
 11
5.9442549462
 21
4.730672743
 31
0.0
 11
5.9217357267
 21
4.738109903
 31
0.0
 11
5.898877527
 21
4.744432888
 31
0.0
 11
5.875733073
 21
4.7496268296
 31
0.0
 11
5.8523554725
 21
4.753677118
 31
0.0
 11
5.8288052157
 21
4.7565741385
 31
0.0
 11
5.7814556344
 21
4.7588881471
 31
0.0
  0
LINE
  5
26C
100
AcDbEntity
  8
0
100
AcDbLine
 62
6
  6
CONTINUOUS
 10
5.7814556344
 20
4.7588881471
 11
5.78126445
 21
4.7588880449
  0
LINE
  5
26D
100
AcDbEntity
  8
0
100
AcDbLine
 62
6
  6
CONTINUOUS
 10
5.78126445
 20
3.7944158203
 11
5.7814584646
 21
3.7944160021
  0
SPLINE
  5
26E
100
AcDbEntity
  8
0
100
AcDbSpline
 62
6
  6
CONTINUOUS
 70
0
 71
3
 72
48
 73
44
 74
42
 42
0.0000001
 43
0.0000001
 44
0.0000000001
 12
1.1141290128
 22
0.0012697694
 32
0.0
 13
-0.7559747514
 23
0.8184053059
 33
0.0
 40
0.0
 40
0.0
 40
0.0
 40
0.0
 40
0.0312325759
 40
0.0468632588
 40
0.0624968213
 40
0.0781295842
 40
0.0937593164
 40
0.1250073293
 40
0.1562527155
 40
0.1875003849
 40
0.2187491014
 40
0.2343757702
 40
0.2500022752
 40
0.2812500771
 40
0.296876584
 40
0.3125032888
 40
0.3437523543
 40
0.3750018046
 40
0.4062514176
 40
0.4375010923
 40
0.4531283044
 40
0.4687554304
 40
0.5000044319
 40
0.5312528348
 40
0.5625008374
 40
0.5937486255
 40
0.6093749763
 40
0.6250013851
 40
0.6562493093
 40
0.671875842
 40
0.6875024176
 40
0.7187507651
 40
0.7499989992
 40
0.7812469492
 40
0.8124949826
 40
0.8281215718
 40
0.8437482851
 40
0.8749970948
 40
0.9062461741
 40
0.9374956791
 40
0.9687453803
 40
0.9843726942
 40
1.0
 40
1.0
 40
1.0
 40
1.0
 10
5.7814584646
 20
3.7944160021
 30
0.0
 10
5.7930575042
 20
3.7944292215
 30
0.0
 10
5.8104692722
 20
3.7950810219
 30
0.0
 10
5.8335853952
 20
3.7972017254
 30
0.0
 10
5.8508644107
 20
3.7994176596
 30
0.0
 10
5.8680514947
 20
3.8022567878
 30
0.0
 10
5.8908079037
 20
3.806869149
 30
0.0
 10
5.9189152477
 20
3.8141721386
 30
0.0
 10
5.9519177175
 20
3.8253470573
 30
0.0
 10
5.9840255636
 20
3.8388800874
 30
0.0
 10
6.0099033005
 20
3.8520592012
 30
0.0
 10
6.0299886042
 20
3.8637028145
 30
0.0
 10
6.0496385968
 20
3.8760654028
 30
0.0
 10
6.0686064313
 20
3.8894857062
 30
0.0
 10
6.0868035323
 20
3.9039017573
 30
0.0
 10
6.1044671287
 20
3.9189681736
 30
0.0
 10
6.1255078
 20
3.9389852219
 30
0.0
 10
6.1489551402
 20
3.9647621492
 30
0.0
 10
6.1704739385
 20
3.9921699043
 30
0.0
 10
6.1867128042
 20
4.0162473166
 30
0.0
 10
6.1986318387
 20
4.0361712255
 30
0.0
 10
6.2098206327
 20
4.0565139045
 30
0.0
 10
6.2224163149
 20
4.0826812348
 30
0.0
 10
6.2352225871
 20
4.1150873789
 30
0.0
 10
6.2456477641
 20
4.1483355513
 30
0.0
 10
6.2523138851
 20
4.176600212
 30
0.0
 10
6.2564082322
 20
4.199452048
 30
0.0
 10
6.2596719853
 20
4.2224368051
 30
0.0
 10
6.2616869611
 20
4.2455847023
 30
0.0
 10
6.2624434886
 20
4.2687878286
 30
0.0
 10
6.2623585694
 20
4.2920037402
 30
0.0
 10
6.2606758309
 20
4.3209954402
 30
0.0
 10
6.2561508011
 20
4.3555448258
 30
0.0
 10
6.2491341115
 20
4.389675388
 30
0.0
 10
6.2412466944
 20
4.4176240685
 30
0.0
 10
6.2337381587
 20
4.4395922602
 30
0.0
 10
6.22543766
 20
4.4612739221
 30
0.0
 10
6.2135988501
 20
4.4877923339
 30
0.0
 10
6.1971316111
 20
4.5185013727
 30
0.0
 10
6.1784816421
 20
4.5479361601
 30
0.0
 10
6.1612068796
 20
4.5712818852
 30
0.0
 10
6.1464036861
 20
4.58916694
 30
0.0
 10
6.1386811881
 20
4.5978366667
 30
0.0
 10
6.1347432385
 20
4.6020998233
 30
0.0
 11
5.7814584646
 21
3.7944160021
 31
0.0
 11
5.8162313576
 21
3.7957148365
 31
0.0
 11
5.8335731492
 21
3.7973057036
 31
0.0
 11
5.8508494399
 21
3.7995215834
 31
0.0
 11
5.8680334393
 21
3.8023605054
 31
0.0
 11
5.8851000108
 21
3.8058193832
 31
0.0
 11
5.9187955278
 21
3.8145744066
 31
0.0
 11
5.9517677829
 21
3.8257397519
 31
0.0
 11
5.9838491199
 21
3.8392600869
 31
0.0
 11
6.0148720146
 21
3.8550611276
 31
0.0
 11
6.0299342745
 21
3.8637927468
 31
0.0
 11
6.0446704863
 21
3.8730636991
 31
0.0
 11
6.0730903089
 21
3.8931717973
 31
0.0
 11
6.086736737
 21
3.9039829752
 31
0.0
 11
6.0999829172
 21
3.9152813361
 31
0.0
 11
6.1252075528
 21
3.9392779547
 31
0.0
 11
6.1486336527
 21
3.9650338794
 31
0.0
 11
6.170135125
 21
3.9924172523
 31
0.0
 11
6.1896024848
 21
4.0212822677
 31
0.0
 11
6.1985405828
 21
4.0362236307
 31
0.0
 11
6.2069314875
 21
4.0514789022
 31
0.0
 11
6.2220317517
 21
4.0828492227
 31
0.0
 11
6.2348258134
 21
4.1152279276
 31
0.0
 11
6.2452434483
 21
4.1484470544
 31
0.0
 11
6.253233978
 21
4.1823317455
 31
0.0
 11
6.2563043954
 21
4.1994686369
 31
0.0
 11
6.2587521536
 21
4.2167055521
 31
0.0
 11
6.261771155
 21
4.2513886466
 31
0.0
 11
6.2623382988
 21
4.2687893913
 31
0.0
 11
6.2622746641
 21
4.2861993076
 31
0.0
 11
6.2602581898
 21
4.3209555744
 31
0.0
 11
6.2557355042
 21
4.3554751452
 31
0.0
 11
6.248726133
 21
4.3895764961
 31
0.0
 11
6.2392701529
 21
4.4230820825
 31
0.0
 11
6.2336391836
 21
4.4395563639
 31
0.0
 11
6.2274147354
 21
4.455815848
 31
0.0
 11
6.2132220648
 21
4.4876068563
 31
0.0
 11
6.1967679301
 21
4.5182888132
 31
0.0
 11
6.1781351874
 21
4.5476992696
 31
0.0
 11
6.1574250494
 21
4.5756860423
 31
0.0
 11
6.1463236044
 21
4.5890985661
 31
0.0
 11
6.1347432385
 21
4.6020998233
 31
0.0
  0
LINE
  5
26F
100
AcDbEntity
  8
0
100
AcDbLine
 62
6
  6
CONTINUOUS
 10
5.7814558939
 20
4.7566639714
 11
5.78126445
 21
4.7566638687
  0
LINE
  5
270
100
AcDbEntity
  8
0
100
AcDbLine
 62
6
  6
CONTINUOUS
 10
5.78126445
 20
3.7966399966
 11
5.7814582144
 21
3.796640179
  0
SPLINE
  5
271
100
AcDbEntity
  8
0
100
AcDbSpline
 62
6
  6
CONTINUOUS
 70
0
 71
3
 72
47
 73
43
 74
41
 42
0.0000001
 43
0.0000001
 44
0.0000000001
 12
1.1088860057
 22
0.0012690749
 32
0.0
 13
-0.7522694672
 23
0.8146903908
 33
0.0
 40
0.0
 40
0.0
 40
0.0
 40
0.0
 40
0.031232748
 40
0.0468634859
 40
0.0624970648
 40
0.0781297928
 40
0.0937594516
 40
0.1250072822
 40
0.1562525427
 40
0.1875001696
 40
0.2187489222
 40
0.2499971549
 40
0.2812452325
 40
0.2968718799
 40
0.3124987143
 40
0.3437479951
 40
0.3749976294
 40
0.4062474444
 40
0.4374973296
 40
0.4531246513
 40
0.4687518933
 40
0.5000011188
 40
0.5312496983
 40
0.5624978299
 40
0.5937457516
 40
0.6093721983
 40
0.6249987318
 40
0.6562469839
 40
0.6718737213
 40
0.6875005334
 40
0.7187494066
 40
0.7499981323
 40
0.7812464477
 40
0.8124947352
 40
0.8281214212
 40
0.8437482161
 40
0.8749971522
 40
0.9062463164
 40
0.9374958604
 40
0.9687455241
 40
0.9843727787
 40
1.0
 40
1.0
 40
1.0
 40
1.0
 10
5.7814582144
 20
3.796640179
 30
0.0
 10
5.7930027335
 20
3.7966533913
 30
0.0
 10
5.8103326425
 20
3.7973021563
 30
0.0
 10
5.8333400784
 20
3.7994128193
 30
0.0
 10
5.8505378063
 20
3.8016182214
 30
0.0
 10
5.8676440007
 20
3.804443834
 30
0.0
 10
5.8902932671
 20
3.809034178
 30
0.0
 10
5.9182683688
 20
3.8163022704
 30
0.0
 10
5.9511155058
 20
3.8274237421
 30
0.0
 10
5.9830731627
 20
3.8408923847
 30
0.0
 10
6.0139779775
 20
3.8566298132
 30
0.0
 10
6.0436620889
 20
3.8745627648
 30
0.0
 10
6.0672578837
 20
3.8912561042
 30
0.0
 10
6.0853705738
 20
3.9056036435
 30
0.0
 10
6.1029519122
 20
3.9205982906
 30
0.0
 10
6.1238949983
 20
3.9405199705
 30
0.0
 10
6.1472338016
 20
3.9661742346
 30
0.0
 10
6.1686533927
 20
3.9934516688
 30
0.0
 10
6.1848178696
 20
4.0174146334
 30
0.0
 10
6.1966824764
 20
4.0372439759
 30
0.0
 10
6.2078203743
 20
4.0574901449
 30
0.0
 10
6.2203592376
 20
4.0835333589
 30
0.0
 10
6.2331083236
 20
4.1157859931
 30
0.0
 10
6.2434878212
 20
4.1488768042
 30
0.0
 10
6.25012563
 20
4.1770078668
 30
0.0
 10
6.2542031697
 20
4.1997518556
 30
0.0
 10
6.2574541803
 20
4.2226282797
 30
0.0
 10
6.25946244
 20
4.2456672445
 30
0.0
 10
6.2602182115
 20
4.2687613719
 30
0.0
 10
6.260136487
 20
4.2918683983
 30
0.0
 10
6.2584653179
 20
4.320724336
 30
0.0
 10
6.2539661027
 20
4.3551122391
 30
0.0
 10
6.2469870114
 20
4.3890835429
 30
0.0
 10
6.2391405873
 20
4.4169020634
 30
0.0
 10
6.2316705458
 20
4.4387681223
 30
0.0
 10
6.2234122981
 20
4.4603490929
 30
0.0
 10
6.2116331998
 20
4.4867446104
 30
0.0
 10
6.1952482779
 20
4.5173118204
 30
0.0
 10
6.1766908945
 20
4.5466111759
 30
0.0
 10
6.159501411
 20
4.5698499545
 30
0.0
 10
6.1447710405
 20
4.5876533709
 30
0.0
 10
6.1370864704
 20
4.5962836392
 30
0.0
 10
6.1331678432
 20
4.6005274216
 30
0.0
 11
5.7814582144
 21
3.796640179
 31
0.0
 11
5.8160676576
 21
3.7979329663
 31
0.0
 11
5.8333279055
 21
3.7995163009
 31
0.0
 11
5.8505229268
 21
3.8017216516
 31
0.0
 11
5.8676260467
 21
3.8045470543
 31
0.0
 11
5.8846122683
 21
3.8079894238
 31
0.0
 11
5.9181491759
 21
3.8167026
 31
0.0
 11
5.950966391
 21
3.827814599
 31
0.0
 11
5.9828971428
 21
3.841270269
 31
0.0
 11
6.0137746692
 21
3.8569958161
 31
0.0
 11
6.0434338202
 21
3.8749125481
 31
0.0
 11
6.071721154
 21
3.8949247781
 31
0.0
 11
6.0853040535
 21
3.905684459
 31
0.0
 11
6.0984886213
 21
3.9169290243
 31
0.0
 11
6.1235961883
 21
3.9408113428
 31
0.0
 11
6.1469138652
 21
3.9664446839
 31
0.0
 11
6.1683162336
 21
3.9936978443
 31
0.0
 11
6.1876943684
 21
4.0224256949
 31
0.0
 11
6.1965916604
 21
4.0372961354
 31
0.0
 11
6.2049444044
 21
4.0524790339
 31
0.0
 11
6.2199765154
 21
4.0837006042
 31
0.0
 11
6.2327134752
 21
4.1159259208
 31
0.0
 11
6.2430854561
 21
4.1489878136
 31
0.0
 11
6.2510420052
 21
4.182712344
 31
0.0
 11
6.254099838
 21
4.1997683645
 31
0.0
 11
6.2565380322
 21
4.216924026
 31
0.0
 11
6.2595469403
 21
4.2514439114
 31
0.0
 11
6.2601135154
 21
4.2687629281
 31
0.0
 11
6.2600522888
 21
4.2860911846
 31
0.0
 11
6.2580496632
 21
4.3206847277
 31
0.0
 11
6.2535527592
 21
4.3550429911
 31
0.0
 11
6.2465809517
 21
4.3889852182
 31
0.0
 11
6.237174135
 21
4.4223347389
 31
0.0
 11
6.2315720363
 21
4.4387324174
 31
0.0
 11
6.2253792681
 21
4.4549163966
 31
0.0
 11
6.2112581822
 21
4.4865600927
 31
0.0
 11
6.1948862941
 21
4.5171003512
 31
0.0
 11
6.1763460424
 21
4.5463755004
 31
0.0
 11
6.1557381472
 21
4.5742340565
 31
0.0
 11
6.144691328
 21
4.5875853489
 31
0.0
 11
6.1331678432
 21
4.6005274216
 31
0.0
  0
SPLINE
  5
272
100
AcDbEntity
  8
0
100
AcDbSpline
 62
6
  6
CONTINUOUS
 70
0
 71
3
 72
50
 73
46
 74
44
 42
0.0000001
 43
0.0000001
 44
0.0000000001
 12
0.7488171878
 22
-0.8111155416
 32
0.0
 13
-1.1039179915
 23
-0.0008188347
 33
0.0
 40
0.0
 40
0.0
 40
0.0
 40
0.0
 40
0.0312482031
 40
0.0624965228
 40
0.0781231493
 40
0.0937497825
 40
0.1249981112
 40
0.1562462985
 40
0.1874945256
 40
0.2187428327
 40
0.2343694519
 40
0.2499960954
 40
0.2812444353
 40
0.3124926069
 40
0.3281192562
 40
0.3437459736
 40
0.3749942677
 40
0.3906208823
 40
0.4062475354
 40
0.437495878
 40
0.4531225445
 40
0.4687491587
 40
0.4999974361
 40
0.5312457144
 40
0.546872326
 40
0.562498988
 40
0.5937473351
 40
0.6093740003
 40
0.6250006357
 40
0.6562489783
 40
0.6718756943
 40
0.6875023054
 40
0.7187502805
 40
0.7499985698
 40
0.7656253959
 40
0.7812524037
 40
0.8125014716
 40
0.8437487832
 40
0.8749935081
 40
0.9062414312
 40
0.9218714827
 40
0.9375046778
 40
0.9531384011
 40
0.9687689157
 40
1.0
 40
1.0
 40
1.0
 40
1.0
 10
6.1315532224
 20
4.5989986801
 30
0.0
 10
6.1393529529
 20
4.5905500457
 30
0.0
 10
6.1543443497
 20
4.5730803676
 30
0.0
 10
6.1714554893
 20
4.5499480856
 30
0.0
 10
6.184111509
 20
4.5307391873
 30
0.0
 10
6.1960620854
 20
4.5110838809
 30
0.0
 10
6.2096549879
 20
4.4857225273
 30
0.0
 10
6.2237232128
 20
4.4541935709
 30
0.0
 10
6.2354688762
 20
4.4217277968
 30
0.0
 10
6.2432787059
 20
4.3940335479
 30
0.0
 10
6.2483109078
 20
4.3715874948
 30
0.0
 10
6.252525755
 20
4.3489736192
 30
0.0
 10
6.2562565565
 20
4.3204427139
 30
0.0
 10
6.257915967
 20
4.2917167276
 30
0.0
 10
6.257991635
 20
4.2687134743
 30
0.0
 10
6.257235792
 20
4.2457230299
 30
0.0
 10
6.2552339335
 20
4.2227874669
 30
0.0
 10
6.2519922031
 20
4.2000140623
 30
0.0
 10
6.2479273175
 20
4.1773730926
 30
0.0
 10
6.2426366173
 20
4.1549665187
 30
0.0
 10
6.2361450467
 20
4.1328986276
 30
0.0
 10
6.2288582042
 20
4.111079875
 30
0.0
 10
6.2182745194
 20
4.0843232587
 30
0.0
 10
6.205787461
 20
4.0584002163
 30
0.0
 10
6.1946937382
 20
4.0382486613
 30
0.0
 10
6.1828777721
 20
4.0185125237
 30
0.0
 10
6.169998773
 20
3.9994290991
 30
0.0
 10
6.1561164825
 20
3.9810873617
 30
0.0
 10
6.1415788083
 20
3.9632605823
 30
0.0
 10
6.1260815673
 20
3.9462346316
 30
0.0
 10
6.1096994523
 20
3.9300866266
 30
0.0
 10
6.0927443889
 20
3.9145406643
 30
0.0
 10
6.070510622
 20
3.8962762943
 30
0.0
 10
6.0470160571
 20
3.8796650513
 30
0.0
 10
6.0275411152
 20
3.8674221959
 30
0.0
 10
6.0076350552
 20
3.8558931271
 30
0.0
 10
5.9819898321
 20
3.8428436575
 30
0.0
 10
5.950171666
 20
3.8294461728
 30
0.0
 10
5.917467789
 20
3.8183864369
 30
0.0
 10
5.8896155415
 20
3.8111607065
 30
0.0
 10
5.8670656487
 20
3.806599506
 30
0.0
 10
5.8500346222
 20
3.8037932524
 30
0.0
 10
5.8329129709
 20
3.8016042641
 30
0.0
 10
5.8100084596
 20
3.7995118678
 30
0.0
 10
5.7927566353
 20
3.7988726951
 30
0.0
 10
5.78126445
 20
3.7988641708
 30
0.0
 11
6.1315532224
 21
4.5989986801
 31
0.0
 11
6.1540185923
 21
4.5728215121
 31
0.0
 11
6.1745325986
 21
4.5450884741
 31
0.0
 11
6.1840233201
 21
4.5306833843
 31
0.0
 11
6.1929854891
 21
4.5159436359
 31
0.0
 11
6.2092812224
 21
4.4855397609
 31
0.0
 11
6.2233361147
 21
4.4540374471
 31
0.0
 11
6.2350731712
 21
4.4216001183
 31
0.0
 11
6.244435109
 21
4.3883992294
 31
0.0
 11
6.2482087283
 21
4.3715665255
 31
0.0
 11
6.2513697691
 21
4.3546080802
 31
0.0
 11
6.2558422975
 21
4.3204036376
 31
0.0
 11
6.2578305324
 21
4.2859655556
 31
0.0
 11
6.257887688
 21
4.2687151063
 31
0.0
 11
6.2573208516
 21
4.2514738023
 31
0.0
 11
6.2543203516
 21
4.2171089816
 31
0.0
 11
6.2518893032
 21
4.2000306342
 31
0.0
 11
6.2488411276
 21
4.1830515281
 31
0.0
 11
6.2409140205
 21
4.1494790905
 31
0.0
 11
6.2360456232
 21
4.1329297512
 31
0.0
 11
6.2305810861
 21
4.1165676373
 31
0.0
 11
6.2178938568
 21
4.0844899683
 31
0.0
 11
6.2029227078
 21
4.0534125264
 31
0.0
 11
6.1946034614
 21
4.0383006114
 31
0.0
 11
6.1857424587
 21
4.0234997877
 31
0.0
 11
6.1664454052
 21
3.9949065775
 31
0.0
 11
6.1560345461
 21
3.9811517278
 31
0.0
 11
6.1451323879
 21
3.96778297
 31
0.0
 11
6.121913278
 21
3.9422717854
 31
0.0
 11
6.1096277876
 21
3.9301618499
 31
0.0
 11
6.0969126663
 21
3.9185039983
 31
0.0
 11
6.0702585755
 21
3.8966069882
 31
0.0
 11
6.0420920619
 21
3.8766923944
 31
0.0
 11
6.0274873089
 21
3.8675114796
 31
0.0
 11
6.0125594354
 21
3.858865468
 31
0.0
 11
5.9818148754
 21
3.8432201853
 31
0.0
 11
5.9500230956
 21
3.829835425
 31
0.0
 11
5.9173495475
 21
3.8187850247
 31
0.0
 11
5.8839596835
 21
3.810122887
 31
0.0
 11
5.8670478368
 21
3.8067023166
 31
0.0
 11
5.8500197375
 21
3.8038961692
 31
0.0
 11
5.8329007575
 21
3.8017072702
 31
0.0
 11
5.8157174885
 21
3.8001376305
 31
0.0
 11
5.78126445
 21
3.7988641708
 31
0.0
  0
SPLINE
  5
273
100
AcDbEntity
  8
0
100
AcDbSpline
 62
6
  6
CONTINUOUS
 70
0
 71
3
 72
47
 73
43
 74
41
 42
0.0000001
 43
0.0000001
 44
0.0000000001
 12
-0.605351827
 22
0.8228264351
 32
0.0
 13
1.0193647063
 23
0.0662553564
 33
0.0
 40
0.0
 40
0.0
 40
0.0
 40
0.0
 40
0.0312485915
 40
0.062496986
 40
0.0937453734
 40
0.1093717078
 40
0.1249979368
 40
0.1562458071
 40
0.1874938606
 40
0.2187420895
 40
0.2499909005
 40
0.2656176756
 40
0.2812444519
 40
0.2968711707
 40
0.312497863
 40
0.3437468585
 40
0.374995322
 40
0.4062430968
 40
0.4374907597
 40
0.4531167835
 40
0.4687429098
 40
0.4999913945
 40
0.5312403584
 40
0.5468670803
 40
0.5624939027
 40
0.5937434542
 40
0.6249928756
 40
0.6562421415
 40
0.6874911215
 40
0.7031174723
 40
0.7187436031
 40
0.7499913285
 40
0.7812392302
 40
0.8124878581
 40
0.8437363693
 40
0.8749824893
 40
0.8906067792
 40
0.9062313547
 40
0.9374802266
 40
0.953110562
 40
0.9687433188
 40
1.0
 40
1.0
 40
1.0
 40
1.0
 10
5.3968600559
 20
3.9937127405
 30
0.0
 10
5.3905545919
 20
4.0022834629
 30
0.0
 10
5.3785125838
 20
4.0198520676
 30
0.0
 10
5.3622558252
 20
4.0473488108
 30
0.0
 10
5.3502718058
 20
4.0711222828
 30
0.0
 10
5.3416544943
 20
4.0905851835
 30
0.0
 10
5.3336924222
 20
4.1103250951
 30
0.0
 10
5.3249876016
 20
4.135484357
 30
0.0
 10
5.316584049
 20
4.1663028882
 30
0.0
 10
5.3102575163
 20
4.1976142789
 30
0.0
 10
5.3067452919
 20
4.2240048065
 30
0.0
 10
5.3049972146
 20
4.2452185243
 30
0.0
 10
5.3042183268
 20
4.2611655722
 30
0.0
 10
5.3039733687
 20
4.2771297335
 30
0.0
 10
5.3043605633
 20
4.2984118883
 30
0.0
 10
5.3061792297
 20
4.3249729284
 30
0.0
 10
5.3104834452
 20
4.356625767
 30
0.0
 10
5.3168978493
 20
4.3879188805
 30
0.0
 10
5.3239734567
 20
4.4135836241
 30
0.0
 10
5.3306514419
 20
4.4337938398
 30
0.0
 10
5.3380027514
 20
4.4537693796
 30
0.0
 10
5.3484396958
 20
4.4782607855
 30
0.0
 10
5.3604875857
 20
4.5020014211
 30
0.0
 10
5.3710607679
 20
4.5204756978
 30
0.0
 10
5.3822469169
 20
4.5385855307
 30
0.0
 10
5.3973552514
 20
4.5605071944
 30
0.0
 10
5.4171986024
 20
4.5855419237
 30
0.0
 10
5.4386737579
 20
4.6091914643
 30
0.0
 10
5.4578464908
 20
4.6276631931
 30
0.0
 10
5.4738958501
 20
4.6416450055
 30
0.0
 10
5.490404158
 20
4.6550811734
 30
0.0
 10
5.5118686788
 20
4.6708299674
 30
0.0
 10
5.5388265167
 20
4.6879667718
 30
0.0
 10
5.5668721429
 20
4.7032610111
 30
0.0
 10
5.5958743236
 20
4.7166490428
 30
0.0
 10
5.6207352556
 20
4.726169275
 30
0.0
 10
5.6409681846
 20
4.7327730669
 30
0.0
 10
5.6614108954
 20
4.7386977807
 30
0.0
 10
5.6821418821
 20
4.7435955244
 30
0.0
 10
5.7030800322
 20
4.7474444329
 30
0.0
 10
5.7241375535
 20
4.7505903025
 30
0.0
 10
5.7400421465
 20
4.7521579157
 30
0.0
 10
5.750662799
 20
4.7528482232
 30
0.0
 11
5.3968600559
 21
3.9937127405
 31
0.0
 11
5.378813587
 21
4.0200427687
 31
0.0
 11
5.3625685397
 21
4.0475205964
 31
0.0
 11
5.3481987868
 21
4.0760239702
 31
0.0
 11
5.3417363824
 21
4.0906198657
 31
0.0
 11
5.3357656721
 21
4.105423582
 31
0.0
 11
5.3253279459
 21
4.135588997
 31
0.0
 11
5.3169302444
 21
4.1663849212
 31
0.0
 11
5.3106095541
 21
4.1976734279
 31
0.0
 11
5.3063968752
 21
4.2293153791
 31
0.0
 11
5.3050859261
 21
4.2452244526
 31
0.0
 11
5.3043073143
 21
4.2611684487
 31
0.0
 11
5.3040625978
 21
4.2771295102
 31
0.0
 11
5.3043527838
 21
4.2930897828
 31
0.0
 11
5.3065329022
 21
4.3249365857
 31
0.0
 11
5.3108351946
 21
4.3565661187
 31
0.0
 11
5.3172438816
 21
4.3878362465
 31
0.0
 11
5.3257273843
 21
4.4186082314
 31
0.0
 11
5.3307355899
 21
4.4337644374
 31
0.0
 11
5.3362484722
 21
4.4487445636
 31
0.0
 11
5.3487617903
 21
4.4781104507
 31
0.0
 11
5.3632081866
 21
4.5065757162
 31
0.0
 11
5.3711373637
 21
4.5204300883
 31
0.0
 11
5.379526019
 21
4.5340112964
 31
0.0
 11
5.3976409242
 21
4.5602954787
 31
0.0
 11
5.4174706253
 21
4.5853111239
 31
0.0
 11
5.4389291033
 21
4.6089442178
 31
0.0
 11
5.4619173644
 21
4.6310916919
 31
0.0
 11
5.4739533206
 21
4.6415768781
 31
0.0
 11
5.4863333432
 21
4.6516531491
 31
0.0
 11
5.5120687812
 21
4.6705363736
 31
0.0
 11
5.5390075636
 21
4.6876595289
 31
0.0
 11
5.5670316972
 21
4.7029433678
 31
0.0
 11
5.596013591
 21
4.7163220829
 31
0.0
 11
5.6258215559
 21
4.7277356485
 31
0.0
 11
5.640994203
 21
4.7326881172
 31
0.0
 11
5.656324119
 21
4.7371309937
 31
0.0
 11
5.6873902972
 21
4.7444696779
 31
0.0
 11
5.7030938149
 21
4.7473563484
 31
0.0
 11
5.7188876033
 21
4.7497161304
 31
0.0
 11
5.750662799
 21
4.7528482232
 31
0.0
  0
SPLINE
  5
274
100
AcDbEntity
  8
0
100
AcDbSpline
 62
6
  6
CONTINUOUS
 70
0
 71
3
 72
40
 73
36
 74
34
 42
0.0000001
 43
0.0000001
 44
0.0000000001
 12
-0.2569667159
 22
0.8589207407
 32
0.0
 13
-0.6932784556
 23
-0.5684555523
 33
0.0
 40
0.0
 40
0.0
 40
0.0
 40
0.0
 40
0.0312342264
 40
0.0624927799
 40
0.0781257967
 40
0.0937564413
 40
0.1250073393
 40
0.1562545701
 40
0.187502741
 40
0.2187528838
 40
0.2500034875
 40
0.2812537712
 40
0.3125042375
 40
0.3437546278
 40
0.3750052065
 40
0.4062556498
 40
0.4375053472
 40
0.4687549957
 40
0.5000046463
 40
0.5312545167
 40
0.5625048501
 40
0.5937550995
 40
0.6250054349
 40
0.6562556158
 40
0.6875050834
 40
0.7187546132
 40
0.7500044785
 40
0.7812546625
 40
0.8125043277
 40
0.8437516861
 40
0.8749985292
 40
0.9062500614
 40
0.937509673
 40
0.9687663318
 40
1.0
 40
1.0
 40
1.0
 40
1.0
 10
6.1942822023
 20
4.4198239019
 30
0.0
 10
6.1916068168
 20
4.4287664768
 30
0.0
 10
6.185676519
 20
4.4464911478
 30
0.0
 10
6.1768655316
 20
4.4681299278
 30
0.0
 10
6.1689996962
 20
4.4850811597
 30
0.0
 10
6.1605978501
 20
4.5017705155
 30
0.0
 10
6.1491070367
 20
4.5221152276
 30
0.0
 10
6.1338023503
 20
4.5456028564
 30
0.0
 10
6.117041597
 20
4.568074906
 30
0.0
 10
6.0988988085
 20
4.5894476057
 30
0.0
 10
6.0794489205
 20
4.6096390321
 30
0.0
 10
6.0587692128
 20
4.628568853
 30
0.0
 10
6.0369485496
 20
4.6461710097
 30
0.0
 10
6.0140717334
 20
4.6623769796
 30
0.0
 10
5.9902311928
 20
4.6771282052
 30
0.0
 10
5.9655233
 20
4.690374961
 30
0.0
 10
5.9400422166
 20
4.7020647707
 30
0.0
 10
5.91388948
 20
4.7121616809
 30
0.0
 10
5.8871651764
 20
4.7206309506
 30
0.0
 10
5.8599707411
 20
4.7274414381
 30
0.0
 10
5.832410926
 20
4.7325776055
 30
0.0
 10
5.8045885725
 20
4.7360197504
 30
0.0
 10
5.7766084219
 20
4.7377602294
 30
0.0
 10
5.7485744916
 20
4.7378008205
 30
0.0
 10
5.7205900798
 20
4.736139715
 30
0.0
 10
5.6927573413
 20
4.7327916195
 30
0.0
 10
5.6651766649
 20
4.7277726196
 30
0.0
 10
5.637948584
 20
4.7211009785
 30
0.0
 10
5.6111696484
 20
4.7128113713
 30
0.0
 10
5.5849356532
 20
4.7029345664
 30
0.0
 10
5.5593382208
 20
4.6915078713
 30
0.0
 10
5.534462613
 20
4.6785772273
 30
0.0
 10
5.5103983858
 20
4.6641867076
 30
0.0
 10
5.4872335474
 20
4.6484007722
 30
0.0
 10
5.4724381928
 20
4.63698451
 30
0.0
 10
5.4652203164
 20
4.6310661926
 30
0.0
 11
6.1942822023
 21
4.4198239019
 31
0.0
 11
6.1853996436
 21
4.446380373
 31
0.0
 11
6.1748317981
 21
4.4723358852
 31
0.0
 11
6.1689322521
 21
4.4850493162
 31
0.0
 11
6.1626311196
 21
4.4975661884
 31
0.0
 11
6.1488536452
 21
4.5219621824
 31
0.0
 11
6.133559819
 21
4.5454333987
 31
0.0
 11
6.1168117289
 21
4.567891088
 31
0.0
 11
6.098681119
 21
4.5892505442
 31
0.0
 11
6.0792438933
 21
4.6094288197
 31
0.0
 11
6.0585790871
 21
4.6283475473
 31
0.0
 11
6.0367725177
 21
4.6459383167
 31
0.0
 11
6.0139111586
 21
4.6621344917
 31
0.0
 11
5.9900865685
 21
4.6768774964
 31
0.0
 11
5.9653941938
 21
4.6901155899
 31
0.0
 11
5.939930225
 21
4.7017993096
 31
0.0
 11
5.9137942277
 21
4.7118904048
 31
0.0
 11
5.8870869174
 21
4.7203544604
 31
0.0
 11
5.8599100087
 21
4.7271623484
 31
0.0
 11
5.8323671676
 21
4.7322952682
 31
0.0
 11
5.804562291
 21
4.7357361376
 31
0.0
 11
5.7765993735
 21
4.7374769163
 31
0.0
 11
5.7485824915
 21
4.7375171974
 31
0.0
 11
5.7206153614
 21
4.7358585519
 31
0.0
 11
5.6927994861
 21
4.7325131562
 31
0.0
 11
5.6652355308
 21
4.7274971994
 31
0.0
 11
5.6380231729
 21
4.720831239
 31
0.0
 11
5.6112596621
 21
4.7125465609
 31
0.0
 11
5.5850416866
 21
4.7026762378
 31
0.0
 11
5.5594603313
 21
4.6912580991
 31
0.0
 11
5.5346003841
 21
4.6783353202
 31
0.0
 11
5.5105468151
 21
4.6639531454
 31
0.0
 11
5.4873893581
 21
4.6481732547
 31
0.0
 11
5.4652203164
 21
4.6310661926
 31
0.0
  0
SPLINE
  5
275
100
AcDbEntity
  8
0
100
AcDbSpline
 62
6
  6
CONTINUOUS
 70
0
 71
3
 72
67
 73
63
 74
61
 42
0.0000001
 43
0.0000001
 44
0.0000000001
 12
1.5653375503
 22
0.0011131751
 32
0.0
 13
-1.565337552
 23
-0.001110693
 33
0.0
 40
0.0
 40
0.0
 40
0.0
 40
0.0
 40
0.0312312047
 40
0.046863036
 40
0.062493618
 40
0.0781204936
 40
0.0937451947
 40
0.1093693228
 40
0.1249943176
 40
0.1406202058
 40
0.1562463582
 40
0.1718722027
 40
0.1874976594
 40
0.2031229371
 40
0.2187481513
 40
0.2343735242
 40
0.2499991693
 40
0.2656249204
 40
0.2812506214
 40
0.2968763336
 40
0.3125020366
 40
0.3281275638
 40
0.3437528724
 40
0.3593781224
 40
0.3750033262
 40
0.3906284709
 40
0.4062537272
 40
0.4218791776
 40
0.437504749
 40
0.4531304718
 40
0.4687564629
 40
0.4999993106
 40
0.5312421721
 40
0.5468681552
 40
0.5624938556
 40
0.5781194035
 40
0.5937448487
 40
0.6093701472
 40
0.6249954059
 40
0.6406207345
 40
0.6562460315
 40
0.6718712259
 40
0.6874964587
 40
0.7031217678
 40
0.7187470851
 40
0.7343724816
 40
0.7499980136
 40
0.7656234974
 40
0.7812487591
 40
0.7968739276
 40
0.8124992165
 40
0.8281247422
 40
0.8437507133
 40
0.8593770001
 40
0.8750030213
 40
0.8906281591
 40
0.9062525427
 40
0.9218776423
 40
0.9375050351
 40
0.9531361909
 40
0.9687684299
 40
1.0
 40
1.0
 40
1.0
 40
1.0
 10
5.78126445
 20
4.7738717142
 30
0.0
 10
5.7975602425
 20
4.7738833028
 30
0.0
 10
5.8220354645
 20
4.7726931642
 30
0.0
 10
5.8544094531
 20
4.7687227438
 30
0.0
 10
5.8785282782
 20
4.7645528207
 30
0.0
 10
5.9024077875
 20
4.7592015158
 30
0.0
 10
5.9259929055
 20
4.7526856123
 30
0.0
 10
5.9492287805
 20
4.7450201383
 30
0.0
 10
5.9720599344
 20
4.7362204227
 30
0.0
 10
5.9944327105
 20
4.7263106351
 30
0.0
 10
6.0162933172
 20
4.715316018
 30
0.0
 10
6.0375872152
 20
4.7032607506
 30
0.0
 10
6.058261789
 20
4.69017267
 30
0.0
 10
6.0782693112
 20
4.6760866416
 30
0.0
 10
6.0975618867
 20
4.6610362494
 30
0.0
 10
6.1160908177
 20
4.6450548051
 30
0.0
 10
6.1338130318
 20
4.6281828836
 30
0.0
 10
6.150687155
 20
4.6104625239
 30
0.0
 10
6.1666708649
 20
4.5919349008
 30
0.0
 10
6.1817237531
 20
4.5726434509
 30
0.0
 10
6.1958126168
 20
4.5526373004
 30
0.0
 10
6.2089037475
 20
4.5319646941
 30
0.0
 10
6.2209623984
 20
4.5106735454
 30
0.0
 10
6.2319608854
 20
4.4888161345
 30
0.0
 10
6.2418750431
 20
4.4664461134
 30
0.0
 10
6.250679509
 20
4.4436164618
 30
0.0
 10
6.2583505573
 20
4.420381323
 30
0.0
 10
6.2648733805
 20
4.3967978691
 30
0.0
 10
6.270232685
 20
4.372922959
 30
0.0
 10
6.2744119867
 20
4.3488125949
 30
0.0
 10
6.2783983607
 20
4.3164378576
 30
0.0
 10
6.2803995548
 20
4.27565999
 30
0.0
 10
6.2783849257
 20
4.2348828119
 30
0.0
 10
6.2743884172
 20
4.2025093341
 30
0.0
 10
6.2702015242
 20
4.1784003194
 30
0.0
 10
6.2648352785
 20
4.1545270067
 30
0.0
 10
6.2583060437
 20
4.1309453259
 30
0.0
 10
6.2506289673
 20
4.1077121005
 30
0.0
 10
6.2418189698
 20
4.0848844384
 30
0.0
 10
6.2319002284
 20
4.0625163029
 30
0.0
 10
6.2208980039
 20
4.0406607508
 30
0.0
 10
6.2088363952
 20
4.0193715113
 30
0.0
 10
6.1957434732
 20
3.9987005578
 30
0.0
 10
6.1816538358
 20
3.9786956626
 30
0.0
 10
6.1666009461
 20
3.959404956
 30
0.0
 10
6.1506180238
 20
3.9408773175
 30
0.0
 10
6.1337458303
 20
3.9231556519
 30
0.0
 10
6.1160263348
 20
3.9062812715
 30
0.0
 10
6.0975005934
 20
3.8902964182
 30
0.0
 10
6.0782120603
 20
3.8752410198
 30
0.0
 10
6.0582092621
 20
3.8611482987
 30
0.0
 10
6.0375397997
 20
3.8480519864
 30
0.0
 10
6.0162512724
 20
3.8359869516
 30
0.0
 10
5.9943965596
 20
3.8249802492
 30
0.0
 10
5.9720298506
 20
3.8150563154
 30
0.0
 10
5.9492046155
 20
3.8062405734
 30
0.0
 10
5.9259744026
 20
3.7985567514
 30
0.0
 10
5.9023944655
 20
3.7920199752
 30
0.0
 10
5.8785194183
 20
3.7866454049
 30
0.0
 10
5.8544042722
 20
3.7824499401
 30
0.0
 10
5.8220342528
 20
3.7784418768
 30
0.0
 10
5.7975604332
 20
3.7772195382
 30
0.0
 10
5.78126445
 20
3.7772079753
 30
0.0
 11
5.78126445
 21
4.7738717142
 31
0.0
 11
5.8300944322
 21
4.7715032306
 31
0.0
 11
5.854381504
 21
4.7685241476
 31
0.0
 11
5.8784908973
 21
4.7643554248
 31
0.0
 11
5.9023603693
 21
4.7590070111
 31
0.0
 11
5.9259351429
 21
4.7524938893
 31
0.0
 11
5.949160805
 21
4.7448312879
 31
0.0
 11
5.9719829442
 21
4.7360356551
 31
0.0
 11
5.9943471564
 21
4.7261299184
 31
0.0
 11
6.01619904
 21
4.7151391484
 31
0.0
 11
6.0374842335
 21
4.7030884723
 31
0.0
 11
6.0581507374
 21
4.6900062636
 31
0.0
 11
6.0781501863
 21
4.6759258908
 31
0.0
 11
6.0974345243
 21
4.6608811474
 31
0.0
 11
6.115956225
 21
4.6449065189
 31
0.0
 11
6.1336716235
 21
4.628041536
 31
0.0
 11
6.1505387663
 21
4.6103279648
 31
0.0
 11
6.166515727
 21
4.5918075977
 31
0.0
 11
6.1815630939
 21
4.572524318
 31
0.0
 11
6.195646398
 21
4.5525261187
 31
0.0
 11
6.2087317467
 21
4.5318614721
 31
0.0
 11
6.2207857324
 21
4.5105791168
 31
0.0
 11
6.2317801803
 21
4.4887306648
 31
0.0
 11
6.2416901064
 21
4.4663694805
 31
0.0
 11
6.2504905797
 21
4.4435489558
 31
0.0
 11
6.2581591463
 21
4.4203234029
 31
0.0
 11
6.2646794355
 21
4.3967493936
 31
0.0
 11
6.2700359936
 21
4.3728838403
 31
0.0
 11
6.2742137791
 21
4.3487837356
 31
0.0
 11
6.2772033575
 21
4.3245071644
 31
0.0
 11
6.279596437
 21
4.2756601342
 31
0.0
 11
6.2771874397
 21
4.226813865
 31
0.0
 11
6.2741902098
 21
4.2025382499
 31
0.0
 11
6.2700049411
 21
4.178439479
 31
0.0
 11
6.2646414255
 21
4.1545755262
 31
0.0
 11
6.2581147074
 21
4.1310033045
 31
0.0
 11
6.2504401371
 21
4.1077796651
 31
0.0
 11
6.2416341931
 21
4.0849610597
 31
0.0
 11
6.2317196381
 21
4.0626017137
 31
0.0
 11
6.2207214108
 21
4.0407550816
 31
0.0
 11
6.2086645208
 21
4.0194745768
 31
0.0
 11
6.195577382
 21
3.9988116095
 31
0.0
 11
6.1814933048
 21
3.9788147089
 31
0.0
 11
6.1664459794
 21
3.9595321808
 31
0.0
 11
6.1504698689
 21
3.9410117096
 31
0.0
 11
6.1336045867
 21
3.9232968406
 31
0.0
 11
6.1158918511
 21
3.906429427
 31
0.0
 11
6.0973734112
 21
3.8904512852
 31
0.0
 11
6.0780930855
 21
3.8754015166
 31
0.0
 11
6.0580983125
 21
3.8613144737
 31
0.0
 11
6.0374368961
 21
3.84822403
 31
0.0
 11
6.0161570907
 21
3.8361634397
 31
0.0
 11
5.994311035
 21
3.8251606226
 31
0.0
 11
5.9719528504
 21
3.815240775
 31
0.0
 11
5.9491366744
 21
3.8064290637
 31
0.0
 11
5.9259166623
 21
3.7987480851
 31
0.0
 11
5.902347014
 21
3.7922141046
 31
0.0
 11
5.878481936
 21
3.7868424305
 31
0.0
 11
5.8543760784
 21
3.7826480686
 31
0.0
 11
5.8300918445
 21
3.7796407425
 31
0.0
 11
5.78126445
 21
3.7772079753
 31
0.0
  0
SPLINE
  5
276
100
AcDbEntity
  8
0
100
AcDbSpline
 62
6
  6
CONTINUOUS
 70
0
 71
3
 72
67
 73
63
 74
61
 42
0.0000001
 43
0.0000001
 44
0.0000000001
 12
1.5583510676
 22
0.0011131809
 32
0.0
 13
-1.5583510694
 23
-0.0011106885
 33
0.0
 40
0.0
 40
0.0
 40
0.0
 40
0.0
 40
0.0312311726
 40
0.046862898
 40
0.0624932635
 40
0.0781198589
 40
0.0937442768
 40
0.1093681781
 40
0.1249930269
 40
0.1406188067
 40
0.1562448714
 40
0.1718706449
 40
0.1874960641
 40
0.2031213345
 40
0.2187465737
 40
0.2343720106
 40
0.2499977493
 40
0.2656236232
 40
0.2812494867
 40
0.2968754051
 40
0.3125013347
 40
0.3281270883
 40
0.3437526089
 40
0.3593780446
 40
0.3750033934
 40
0.3906286268
 40
0.4062539108
 40
0.4218793503
 40
0.4375048969
 40
0.4531306028
 40
0.4687565913
 40
0.4999994553
 40
0.5312423278
 40
0.5468683094
 40
0.562494
 40
0.5781195342
 40
0.5937449778
 40
0.6093703027
 40
0.624995627
 40
0.6406210456
 40
0.6562464313
 40
0.6718716854
 40
0.6874969343
 40
0.7031222206
 40
0.7187474783
 40
0.7343727791
 40
0.7499981982
 40
0.7656235772
 40
0.7812487664
 40
0.7968739039
 40
0.8124991895
 40
0.8281247237
 40
0.8437507015
 40
0.8593769901
 40
0.8750030106
 40
0.8906281475
 40
0.9062525317
 40
0.9218776334
 40
0.937505029
 40
0.9531361875
 40
0.9687684284
 40
1.0
 40
1.0
 40
1.0
 40
1.0
 10
5.78126445
 20
4.7716475376
 30
0.0
 10
5.7974874937
 20
4.7716591263
 30
0.0
 10
5.8218534086
 20
4.7704743746
 30
0.0
 10
5.8540827348
 20
4.7665218041
 30
0.0
 10
5.8780936147
 20
4.762370615
 30
0.0
 10
5.9018661746
 20
4.7570434028
 30
0.0
 10
5.9253456638
 20
4.750556807
 30
0.0
 10
5.9484775242
 20
4.7429257009
 30
0.0
 10
5.9712065736
 20
4.7341654325
 30
0.0
 10
5.9934794202
 20
4.7243001502
 30
0.0
 10
6.0152424299
 20
4.7133548517
 30
0.0
 10
6.0364412038
 20
4.7013534467
 30
0.0
 10
6.0570235325
 20
4.6883239474
 30
0.0
 10
6.0769418709
 20
4.6743009678
 30
0.0
 10
6.0961484471
 20
4.6593178149
 30
0.0
 10
6.1145947674
 20
4.6434076582
 30
0.0
 10
6.1322381192
 20
4.6266110803
 30
0.0
 10
6.1490371939
 20
4.6089697875
 30
0.0
 10
6.1649497311
 20
4.5905246622
 30
0.0
 10
6.1799356645
 20
4.5713191037
 30
0.0
 10
6.1939619269
 20
4.5514020245
 30
0.0
 10
6.2069948767
 20
4.5308214314
 30
0.0
 10
6.2189998518
 20
4.5096250187
 30
0.0
 10
6.2299493725
 20
4.487864909
 30
0.0
 10
6.2398193643
 20
4.4655945293
 30
0.0
 10
6.2485845908
 20
4.4428666485
 30
0.0
 10
6.2562214056
 20
4.4197351568
 30
0.0
 10
6.2627150789
 20
4.3962569553
 30
0.0
 10
6.2680504159
 20
4.3724886223
 30
0.0
 10
6.272211036
 20
4.348485887
 30
0.0
 10
6.2761795702
 20
4.3162556418
 30
0.0
 10
6.2781717995
 20
4.2756597616
 30
0.0
 10
6.2761661061
 20
4.2350645702
 30
0.0
 10
6.2721873867
 20
4.2028355895
 30
0.0
 10
6.2680191742
 20
4.1788341937
 30
0.0
 10
6.2626768613
 20
4.1550674505
 30
0.0
 10
6.2561767361
 20
4.1315910232
 30
0.0
 10
6.2485338797
 20
4.1084614585
 30
0.0
 10
6.239763133
 20
4.0857356073
 30
0.0
 10
6.2298885627
 20
4.063467211
 30
0.0
 10
6.2189353547
 20
4.0417091125
 30
0.0
 10
6.2069275472
 20
4.0205148121
 30
0.0
 10
6.193893006
 20
3.9999361198
 30
0.0
 10
6.1798662198
 20
3.9800205779
 30
0.0
 10
6.1648805461
 20
3.9608160645
 30
0.0
 10
6.1489690641
 20
3.9423712134
 30
0.0
 10
6.1321722757
 20
3.9247287723
 30
0.0
 10
6.1145319625
 20
3.9079298245
 30
0.0
 10
6.0960889807
 20
3.8920163948
 30
0.0
 10
6.0768865859
 20
3.8770282203
 30
0.0
 10
6.056973089
 20
3.8629983881
 30
0.0
 10
6.0363958909
 20
3.849960498
 30
0.0
 10
6.0152023866
 20
3.8379492818
 30
0.0
 10
5.9934452271
 20
3.8269916754
 30
0.0
 10
5.9711783593
 20
3.8171120046
 30
0.0
 10
5.948455012
 20
3.8083355766
 30
0.0
 10
5.9253284936
 20
3.8006860091
 30
0.0
 10
5.9018538098
 20
3.7941783604
 30
0.0
 10
5.8780853308
 20
3.7888277244
 30
0.0
 10
5.8540778227
 20
3.7846509273
 30
0.0
 10
5.8218522858
 20
3.7806606687
 30
0.0
 10
5.797487701
 20
3.7794437141
 30
0.0
 10
5.78126445
 20
3.7794321512
 30
0.0
 11
5.78126445
 21
4.7716475376
 31
0.0
 11
5.8298764496
 21
4.7692897769
 31
0.0
 11
5.8540549678
 21
4.7663240861
 31
0.0
 11
5.8780564361
 21
4.7621741052
 31
0.0
 11
5.9018189716
 21
4.7568497687
 31
0.0
 11
5.9252881291
 21
4.75036594
 31
0.0
 11
5.9484098155
 21
4.7427377154
 31
0.0
 11
5.9711299193
 21
4.7339815188
 31
0.0
 11
5.9933942401
 21
4.7241202426
 31
0.0
 11
6.0151485509
 21
4.7131787468
 31
0.0
 11
6.03633868
 21
4.701181968
 31
0.0
 11
6.0569129706
 21
4.6881582993
 31
0.0
 11
6.0768232562
 21
4.6741409308
 31
0.0
 11
6.0960216275
 21
4.6591634057
 31
0.0
 11
6.1144607823
 21
4.6432600634
 31
0.0
 11
6.1320973301
 21
4.6264703698
 31
0.0
 11
6.1488894307
 21
4.6088358228
 31
0.0
 11
6.164795276
 21
4.5903979492
 31
0.0
 11
6.1797757211
 21
4.5712005137
 31
0.0
 11
6.1937964443
 21
4.5512913339
 31
0.0
 11
6.206823632
 21
4.5307186544
 31
0.0
 11
6.2188239803
 21
4.5095309996
 31
0.0
 11
6.2297694809
 21
4.4877798006
 31
0.0
 11
6.239635265
 21
4.4655182118
 31
0.0
 11
6.2483965112
 21
4.4427994124
 31
0.0
 11
6.2560308509
 21
4.4196774751
 31
0.0
 11
6.2625220005
 21
4.3962086895
 31
0.0
 11
6.2678546047
 21
4.3724496831
 31
0.0
 11
6.2720137102
 21
4.3484571638
 31
0.0
 11
6.274989913
 21
4.3242889449
 31
0.0
 11
6.2773722616
 21
4.2756599031
 31
0.0
 11
6.2749739516
 21
4.2270316324
 31
0.0
 11
6.2719900679
 21
4.2028643714
 31
0.0
 11
6.2678234663
 21
4.178873177
 31
0.0
 11
6.2624838735
 21
4.1551157601
 31
0.0
 11
6.2559862579
 21
4.1316487572
 31
0.0
 11
6.2483458976
 21
4.1085287416
 31
0.0
 11
6.2395791831
 21
4.0858118999
 31
0.0
 11
6.2297087794
 21
4.0635522398
 31
0.0
 11
6.2187595491
 21
4.0418030056
 31
0.0
 11
6.2067564194
 21
4.0206174035
 31
0.0
 11
6.1937276428
 21
4.0000466613
 31
0.0
 11
6.179706399
 21
3.9801390743
 31
0.0
 11
6.1647262665
 21
3.9609427009
 31
0.0
 11
6.1488215612
 21
3.9425050018
 31
0.0
 11
6.1320316662
 21
3.9248693334
 31
0.0
 11
6.1143980932
 21
3.9080773282
 31
0.0
 11
6.0959623854
 21
3.8921705813
 31
0.0
 11
6.0767681551
 21
3.8771880071
 31
0.0
 11
6.0568626403
 21
3.8631638234
 31
0.0
 11
6.0362934454
 21
3.8501317733
 31
0.0
 11
6.0151086229
 21
3.8381249807
 31
0.0
 11
5.9933600829
 21
3.8271712429
 31
0.0
 11
5.9711017027
 21
3.8172956403
 31
0.0
 11
5.948387375
 21
3.8085232248
 31
0.0
 11
5.9252710117
 21
3.8008764879
 31
0.0
 11
5.9018065703
 21
3.7943716225
 31
0.0
 11
5.8780480155
 21
3.78902387
 31
0.0
 11
5.8540497538
 21
3.7848481705
 31
0.0
 11
5.8298739113
 21
3.7818542036
 31
0.0
 11
5.78126445
 21
3.7794321512
 31
0.0
  0
SPLINE
  5
277
100
AcDbEntity
  8
0
100
AcDbSpline
 62
6
  6
CONTINUOUS
 70
0
 71
3
 72
67
 73
63
 74
61
 42
0.0000001
 43
0.0000001
 44
0.0000000001
 12
1.5513645859
 22
0.0011131848
 32
0.0
 13
-1.5513645877
 23
-0.0011106821
 33
0.0
 40
0.0
 40
0.0
 40
0.0
 40
0.0
 40
0.0312312404
 40
0.046862959
 40
0.0624932076
 40
0.0781195731
 40
0.0937437165
 40
0.1093673724
 40
0.1249920446
 40
0.140617687
 40
0.1562436377
 40
0.171869316
 40
0.1874946724
 40
0.2031199111
 40
0.2187451537
 40
0.2343706363
 40
0.2499964497
 40
0.2656224209
 40
0.2812484075
 40
0.2968744816
 40
0.3125006019
 40
0.3281265898
 40
0.3437524002
 40
0.359378151
 40
0.3750037797
 40
0.3906291956
 40
0.4062545319
 40
0.4218799379
 40
0.4375054173
 40
0.4531310668
 40
0.4687570242
 40
0.4999998624
 40
0.5312426931
 40
0.5468686486
 40
0.5624943095
 40
0.5781198125
 40
0.593745232
 40
0.6093705476
 40
0.6249958835
 40
0.6406213416
 40
0.6562468008
 40
0.6718721677
 40
0.6874975553
 40
0.7031229649
 40
0.718748281
 40
0.7343735312
 40
0.7499988207
 40
0.7656240494
 40
0.7812491204
 40
0.7968741953
 40
0.8124994556
 40
0.8281249789
 40
0.8437509398
 40
0.8593772055
 40
0.8750032024
 40
0.8906283182
 40
0.9062526798
 40
0.9218777543
 40
0.9375051172
 40
0.953136239
 40
0.9687684515
 40
1.0
 40
1.0
 40
1.0
 40
1.0
 10
5.78126445
 20
4.7694233626
 30
0.0
 10
5.7974147968
 20
4.7694349514
 30
0.0
 10
5.8216715073
 20
4.7682555454
 30
0.0
 10
5.8537563225
 20
4.7643207877
 30
0.0
 10
5.877659392
 20
4.7601883385
 30
0.0
 10
5.9013250819
 20
4.7548851772
 30
0.0
 10
5.9246989545
 20
4.7484278416
 30
0.0
 10
5.9477267747
 20
4.7408310833
 30
0.0
 10
5.9703536809
 20
4.7321102679
 30
0.0
 10
5.992526543
 20
4.722289471
 30
0.0
 10
6.0141919024
 20
4.7113934753
 30
0.0
 10
6.0352955194
 20
4.6994459531
 30
0.0
 10
6.0557855665
 20
4.6864750471
 30
0.0
 10
6.0756146768
 20
4.6725151173
 30
0.0
 10
6.0947352113
 20
4.6575992045
 30
0.0
 10
6.1130988961
 20
4.6417603546
 30
0.0
 10
6.1306633478
 20
4.6250391291
 30
0.0
 10
6.1473873319
 20
4.6074769257
 30
0.0
 10
6.1632286597
 20
4.589114349
 30
0.0
 10
6.1781476141
 20
4.5699947489
 30
0.0
 10
6.1921112544
 20
4.5501667793
 30
0.0
 10
6.2050860217
 20
4.529678171
 30
0.0
 10
6.2170373384
 20
4.5085763794
 30
0.0
 10
6.2279379413
 20
4.4869134003
 30
0.0
 10
6.2377638277
 20
4.4647424892
 30
0.0
 10
6.2464898923
 20
4.4421162698
 30
0.0
 10
6.2540924804
 20
4.4190883749
 30
0.0
 10
6.2605569473
 20
4.3957154314
 30
0.0
 10
6.2658682521
 20
4.3720537167
 30
0.0
 10
6.2700101703
 20
4.3481586645
 30
0.0
 10
6.2739608045
 20
4.316072961
 30
0.0
 10
6.2759440421
 20
4.2756591327
 30
0.0
 10
6.2739472733
 20
4.2352459894
 30
0.0
 10
6.2699863105
 20
4.2031615609
 30
0.0
 10
6.2658367767
 20
4.1792678168
 30
0.0
 10
6.2605183832
 20
4.1556076774
 30
0.0
 10
6.2540473614
 20
4.1322365463
 30
0.0
 10
6.2464387433
 20
4.1092106983
 30
0.0
 10
6.2377072945
 20
4.0865867185
 30
0.0
 10
6.2278769308
 20
4.0644181142
 30
0.0
 10
6.2169727356
 20
4.0427574794
 30
0.0
 10
6.2050186576
 20
4.0216580638
 30
0.0
 10
6.1920423731
 20
4.0011715146
 30
0.0
 10
6.1780783037
 20
3.981345176
 30
0.0
 10
6.1631597595
 20
3.9622267202
 30
0.0
 10
6.1473196851
 20
3.9438645819
 30
0.0
 10
6.1305982717
 20
3.926301403
 30
0.0
 10
6.1130371367
 20
3.9095779717
 30
0.0
 10
6.0946769474
 20
3.8937360239
 30
0.0
 10
6.0755607122
 20
3.8788151282
 30
0.0
 10
6.0557365274
 20
3.8648482348
 30
0.0
 10
6.0352516147
 20
3.8518687977
 30
0.0
 10
6.0141531669
 20
3.8399114117
 30
0.0
 10
5.9924935803
 20
3.8290029431
 30
0.0
 10
5.9703265733
 20
3.8191675785
 30
0.0
 10
5.947705142
 20
3.8104304871
 30
0.0
 10
5.9246823506
 20
3.8028151952
 30
0.0
 10
5.90131296
 20
3.7963367005
 30
0.0
 10
5.8776511002
 20
3.7910100193
 30
0.0
 10
5.8537512848
 20
3.7868518928
 30
0.0
 10
5.8216702778
 20
3.7828794511
 30
0.0
 10
5.7974149561
 20
3.7816678903
 30
0.0
 10
5.78126445
 20
3.7816563275
 30
0.0
 11
5.78126445
 21
4.7694233626
 31
0.0
 11
5.8296586203
 21
4.76707628
 31
0.0
 11
5.853728738
 21
4.7641239538
 31
0.0
 11
5.8776224388
 21
4.7599927005
 31
0.0
 11
5.9012781136
 21
4.7546924052
 31
0.0
 11
5.9246416621
 21
4.748237829
 31
0.0
 11
5.9476593401
 21
4.7406439638
 31
0.0
 11
5.9702773599
 21
4.7319272038
 31
0.0
 11
5.9924417355
 21
4.722110374
 31
0.0
 11
6.014098424
 21
4.7112181417
 31
0.0
 11
6.0351934534
 21
4.6992752723
 31
0.0
 11
6.0556754925
 21
4.6863101557
 31
0.0
 11
6.075496571
 21
4.6723557951
 31
0.0
 11
6.0946089359
 21
4.6574454923
 31
0.0
 11
6.1129655171
 21
4.6416134489
 31
0.0
 11
6.130523181
 21
4.6248990541
 31
0.0
 11
6.147240202
 21
4.6073435526
 31
0.0
 11
6.163074894
 21
4.5889882234
 31
0.0
 11
6.1779883805
 21
4.5698767063
 31
0.0
 11
6.1919464925
 21
4.5500565967
 31
0.0
 11
6.2049155103
 21
4.5295758678
 31
0.0
 11
6.2168622486
 21
4.5084827937
 31
0.0
 11
6.2277588631
 21
4.4868286569
 31
0.0
 11
6.2375805799
 21
4.4646664699
 31
0.0
 11
6.2463026671
 21
4.4420492673
 31
0.0
 11
6.2539027818
 21
4.4190309066
 31
0.0
 11
6.260364738
 21
4.3956673659
 31
0.0
 11
6.2656733284
 21
4.3720149602
 31
0.0
 11
6.269813721
 21
4.3481300825
 31
0.0
 11
6.2727765109
 21
4.3240702558
 31
0.0
 11
6.2751480871
 21
4.2756592657
 31
0.0
 11
6.2727604405
 21
4.227249077
 31
0.0
 11
6.2697898846
 21
4.203190211
 31
0.0
 11
6.2656419422
 21
4.1793066254
 31
0.0
 11
6.2603262608
 21
4.1556557747
 31
0.0
 11
6.2538577424
 21
4.1322940282
 31
0.0
 11
6.24625161
 21
4.1092776891
 31
0.0
 11
6.2375241709
 21
4.0866626843
 31
0.0
 11
6.2276979599
 21
4.0645027789
 31
0.0
 11
6.2167977298
 21
4.0428509684
 31
0.0
 11
6.2048482934
 21
4.0217602136
 31
0.0
 11
6.191877746
 21
4.0012815556
 31
0.0
 11
6.1779191886
 21
3.9814631082
 31
0.0
 11
6.1630061432
 21
3.9623527386
 31
0.0
 11
6.1471728039
 21
3.9439977513
 31
0.0
 11
6.1304582847
 21
3.9264413281
 31
0.0
 11
6.1129038869
 21
3.9097248183
 31
0.0
 11
6.0945509438
 21
3.893889535
 31
0.0
 11
6.0754428292
 21
3.8789742085
 31
0.0
 11
6.055626583
 21
3.8650129285
 31
0.0
 11
6.0351496273
 21
3.8520393004
 31
0.0
 11
6.0140598181
 21
3.8400863262
 31
0.0
 11
5.9924088177
 21
3.8291817054
 31
0.0
 11
5.970250263
 21
3.8193503876
 31
0.0
 11
5.9476378078
 21
3.8106172922
 31
0.0
 11
5.924625124
 21
3.8030048187
 31
0.0
 11
5.9012659298
 21
3.7965290932
 31
0.0
 11
5.8776139503
 21
3.7912052814
 31
0.0
 11
5.8537233455
 21
3.7870482528
 31
0.0
 11
5.8296559404
 21
3.7840676538
 31
0.0
 11
5.78126445
 21
3.7816563275
 31
0.0
  0
SPLINE
  5
278
100
AcDbEntity
  8
0
100
AcDbSpline
 62
6
  6
CONTINUOUS
 70
0
 71
3
 72
67
 73
63
 74
61
 42
0.0000001
 43
0.0000001
 44
0.0000000001
 12
1.5443781123
 22
0.0011131919
 32
0.0
 13
-1.5443781141
 23
-0.0011106759
 33
0.0
 40
0.0
 40
0.0
 40
0.0
 40
0.0
 40
0.0312313588
 40
0.0468631959
 40
0.062493565
 40
0.0781199861
 40
0.0937441117
 40
0.1093676748
 40
0.1249921879
 40
0.1406176459
 40
0.156243429
 40
0.1718689986
 40
0.1874943204
 40
0.2031195743
 40
0.2187448579
 40
0.2343703879
 40
0.2499962486
 40
0.2656222665
 40
0.2812482997
 40
0.2968744245
 40
0.3125006083
 40
0.3281266831
 40
0.343752612
 40
0.3593784885
 40
0.375004204
 40
0.3906296187
 40
0.4062548344
 40
0.4218800246
 40
0.4375052242
 40
0.4531305571
 40
0.468756181
 40
0.4999983989
 40
0.5312408195
 40
0.5468666331
 40
0.5624921982
 40
0.5781176548
 40
0.5937430631
 40
0.6093684012
 40
0.6249938027
 40
0.6406193706
 40
0.6562449979
 40
0.67187062
 40
0.6874963434
 40
0.7031220983
 40
0.7187477003
 40
0.7343731242
 40
0.7499984879
 40
0.7656237319
 40
0.7812488001
 40
0.7968738805
 40
0.8124991538
 40
0.8281246961
 40
0.8437506814
 40
0.8593769721
 40
0.8750029921
 40
0.8906281285
 40
0.9062525143
 40
0.9218776192
 40
0.9375050191
 40
0.9531361819
 40
0.9687684257
 40
1.0
 40
1.0
 40
1.0
 40
1.0
 10
5.78126445
 20
4.7671991887
 30
0.0
 10
5.7973421257
 20
4.7672107775
 30
0.0
 10
5.8214897229
 20
4.7660367111
 30
0.0
 10
5.8534302354
 20
4.7621197141
 30
0.0
 10
5.8772258231
 20
4.7580059318
 30
0.0
 10
5.9007850201
 20
4.7527266504
 30
0.0
 10
5.9240536023
 20
4.7462984018
 30
0.0
 10
5.9469775948
 20
4.7387359269
 30
0.0
 10
5.9695024167
 20
4.7300545286
 30
0.0
 10
5.9915752005
 20
4.7202781016
 30
0.0
 10
6.0131427887
 20
4.7094312992
 30
0.0
 10
6.0341512215
 20
4.6975376504
 30
0.0
 10
6.0545489595
 20
4.6846252302
 30
0.0
 10
6.0742888175
 20
4.670728215
 30
0.0
 10
6.0933233154
 20
4.655879479
 30
0.0
 10
6.1116043635
 20
4.6401119243
 30
0.0
 10
6.1290897898
 20
4.6234659751
 30
0.0
 10
6.145738527
 20
4.6059828267
 30
0.0
 10
6.1615085661
 20
4.5877028912
 30
0.0
 10
6.1763603916
 20
4.568669335
 30
0.0
 10
6.1902612101
 20
4.5489305765
 30
0.0
 10
6.2031776126
 20
4.5285341149
 30
0.0
 10
6.2150751586
 20
4.5075271865
 30
0.0
 10
6.225926693
 20
4.485961585
 30
0.0
 10
6.2357083307
 20
4.4638904018
 30
0.0
 10
6.244395106
 20
4.441366101
 30
0.0
 10
6.2519633989
 20
4.418442074
 30
0.0
 10
6.2583986294
 20
4.3951746838
 30
0.0
 10
6.26368588
 20
4.3716199263
 30
0.0
 10
6.2678090506
 20
4.3478329556
 30
0.0
 10
6.2717419564
 20
4.3158924146
 30
0.0
 10
6.2737162213
 20
4.2756612879
 30
0.0
 10
6.2717286983
 20
4.2354307468
 30
0.0
 10
6.2677858838
 20
4.2034911021
 30
0.0
 10
6.2636550137
 20
4.1797051141
 30
0.0
 10
6.2583607773
 20
4.1561515656
 30
0.0
 10
6.2519191463
 20
4.1328856332
 30
0.0
 10
6.2443448798
 20
4.1099634074
 30
0.0
 10
6.2356527535
 20
4.0874412055
 30
0.0
 10
6.2258668175
 20
4.0653721756
 30
0.0
 10
6.2150117905
 20
4.0438087451
 30
0.0
 10
6.2031113128
 20
4.022804031
 30
0.0
 10
6.1901932593
 20
4.002409305
 30
0.0
 10
6.1762918972
 20
3.9826717703
 30
0.0
 10
6.1614403724
 20
3.9636390151
 30
0.0
 10
6.1456714813
 20
3.9453593362
 30
0.0
 10
6.1290253173
 20
3.927875117
 30
0.0
 10
6.111543256
 20
3.9112269449
 30
0.0
 10
6.0932657403
 20
3.8954563383
 30
0.0
 10
6.0742356097
 20
3.8806026056
 30
0.0
 10
6.0545007196
 20
3.8666985529
 30
0.0
 10
6.0341080605
 20
3.8537775109
 30
0.0
 10
6.01310461
 20
3.841873935
 30
0.0
 10
5.9915425594
 20
3.8310145229
 30
0.0
 10
5.9694753732
 20
3.8212233789
 30
0.0
 10
5.9469558
 20
3.8125255788
 30
0.0
 10
5.9240366701
 20
3.8049445201
 30
0.0
 10
5.9007724937
 20
3.798495127
 30
0.0
 10
5.8772171526
 20
3.7931923606
 30
0.0
 10
5.853424922
 20
3.7890528991
 30
0.0
 10
5.8214883511
 20
3.7850982503
 30
0.0
 10
5.7973422366
 20
3.7838920638
 30
0.0
 10
5.78126445
 20
3.7838805011
 30
0.0
 11
5.78126445
 21
4.7671991887
 31
0.0
 11
5.829440868
 21
4.7648627717
 31
0.0
 11
5.8534027755
 21
4.7619237711
 31
0.0
 11
5.8771890673
 21
4.757811156
 31
0.0
 11
5.9007382991
 21
4.7525347345
 31
0.0
 11
5.9239966065
 21
4.7461092393
 31
0.0
 11
5.9469104992
 21
4.7385496457
 31
0.0
 11
5.969426451
 21
4.7298722815
 31
0.0
 11
5.9914907669
 21
4.7200998137
 31
0.0
 11
6.0130497028
 21
4.7092567665
 31
0.0
 11
6.0340495876
 21
4.6973677665
 31
0.0
 11
6.0544393626
 21
4.6844610985
 31
0.0
 11
6.0741712313
 21
4.6705696151
 31
0.0
 11
6.0931976025
 21
4.6557264565
 31
0.0
 11
6.1114715869
 21
4.6399656817
 31
0.0
 11
6.1289502534
 21
4.6233265292
 31
0.0
 11
6.1455920567
 21
4.6058500515
 31
0.0
 11
6.1613554916
 21
4.5875773353
 31
0.0
 11
6.1762018698
 21
4.5685518283
 31
0.0
 11
6.1900971809
 21
4.5488208985
 31
0.0
 11
6.2030078555
 21
4.5284322834
 31
0.0
 11
6.2149008506
 21
4.5074340233
 31
0.0
 11
6.2257484307
 21
4.4858772064
 31
0.0
 11
6.2355259345
 21
4.4638146868
 31
0.0
 11
6.2442087425
 21
4.4412993413
 31
0.0
 11
6.2517745647
 21
4.4183848167
 31
0.0
 11
6.2582072961
 21
4.3951268037
 31
0.0
 11
6.2634918466
 21
4.3715813281
 31
0.0
 11
6.2676135114
 21
4.3478044965
 31
0.0
 11
6.2705629705
 21
4.3238535422
 31
0.0
 11
6.27292391
 21
4.2756615289
 31
0.0
 11
6.2705473034
 21
4.2274699724
 31
0.0
 11
6.2675903057
 21
4.2035196524
 31
0.0
 11
6.263461102
 21
4.1797437651
 31
0.0
 11
6.2581695341
 21
4.1561994586
 31
0.0
 11
6.251730362
 21
4.1329428785
 31
0.0
 11
6.2441585859
 21
4.1100301215
 31
0.0
 11
6.2354704941
 21
4.0875168362
 31
0.0
 11
6.2256886565
 21
4.0654564871
 31
0.0
 11
6.2148375538
 21
4.0439018739
 31
0.0
 11
6.2029417494
 21
4.0229057498
 31
0.0
 11
6.1900293822
 21
4.0025188493
 31
0.0
 11
6.1761334741
 21
3.9827891499
 31
0.0
 11
6.1612873987
 21
3.9637644309
 31
0.0
 11
6.1455252278
 21
3.9454918671
 31
0.0
 11
6.1288859357
 21
3.9280143931
 31
0.0
 11
6.1114105954
 21
3.9113731285
 31
0.0
 11
6.0931403118
 21
3.8956091556
 31
0.0
 11
6.0741182625
 21
3.8807609685
 31
0.0
 11
6.0543912714
 21
3.8668625077
 31
0.0
 11
6.0340065325
 21
3.8539472507
 31
0.0
 11
6.0130116841
 21
3.8420480571
 31
0.0
 11
5.9914581773
 21
3.8311924791
 31
0.0
 11
5.9693994037
 21
3.8214053669
 31
0.0
 11
5.9468887706
 21
3.8127115423
 31
0.0
 11
5.9239797043
 21
3.805133289
 31
0.0
 11
5.9007256778
 21
3.7986866544
 31
0.0
 11
5.8771801713
 21
3.793386746
 31
0.0
 11
5.8533971034
 21
3.7892483717
 31
0.0
 11
5.8294380445
 21
3.7862811234
 31
0.0
 11
5.78126445
 21
3.7838805011
 31
0.0
  0
SPLINE
  5
279
100
AcDbEntity
  8
0
100
AcDbSpline
 62
6
  6
CONTINUOUS
 70
0
 71
3
 72
69
 73
65
 74
63
 42
0.0000001
 43
0.0000001
 44
0.0000000001
 12
1.5374205545
 22
0.0011132189
 32
0.0
 13
-1.5374205563
 23
-0.0011106924
 33
0.0
 40
0.0
 40
0.0
 40
0.0
 40
0.0
 40
0.0312307952
 40
0.046862417
 40
0.0624926531
 40
0.0781189785
 40
0.0937429783
 40
0.1093663172
 40
0.1249904717
 40
0.1406154961
 40
0.1562408332
 40
0.171866001
 40
0.1874909822
 40
0.2031159346
 40
0.2187409314
 40
0.234366169
 40
0.2499917311
 40
0.2656174487
 40
0.2812431826
 40
0.2968690099
 40
0.3124948965
 40
0.3281206719
 40
0.3437462958
 40
0.3593718661
 40
0.3749972835
 40
0.3906224167
 40
0.4062473637
 40
0.4218722631
 40
0.4374971069
 40
0.453121978
 40
0.4687470475
 40
0.4843722594
 40
0.4999975155
 40
0.5156228944
 40
0.5312483845
 40
0.5468737824
 40
0.5624989637
 40
0.5781240672
 40
0.5937491471
 40
0.6093741853
 40
0.6249993241
 40
0.6406246584
 40
0.6562500797
 40
0.671875532
 40
0.6875011239
 40
0.7031267747
 40
0.7187522967
 40
0.7343776658
 40
0.7500029739
 40
0.7656281218
 40
0.781253015
 40
0.7968778302
 40
0.8125027827
 40
0.8281279871
 40
0.8437536506
 40
0.8593796403
 40
0.8750053703
 40
0.8906302178
 40
0.9062543088
 40
0.921879114
 40
0.9375062116
 40
0.9531370721
 40
0.9687690165
 40
1.0
 40
1.0
 40
1.0
 40
1.0
 10
5.78126445
 20
4.7649750122
 30
0.0
 10
5.7972694055
 20
4.7649866011
 30
0.0
 10
5.8213078209
 20
4.7638179214
 30
0.0
 10
5.8531039832
 20
4.7599186959
 30
0.0
 10
5.8767921529
 20
4.7558235243
 30
0.0
 10
5.9002450344
 20
4.7505680549
 30
0.0
 10
5.9234085674
 20
4.7441688225
 30
0.0
 10
5.9462289574
 20
4.7366405854
 30
0.0
 10
5.9686518393
 20
4.7279985405
 30
0.0
 10
5.9906245921
 20
4.7182663869
 30
0.0
 10
6.0120944059
 20
4.7074686992
 30
0.0
 10
6.0330076574
 20
4.6956289222
 30
0.0
 10
6.053313046
 20
4.6827749538
 30
0.0
 10
6.0729635856
 20
4.6689408216
 30
0.0
 10
6.0919119878
 20
4.6541592742
 30
0.0
 10
6.110110348
 20
4.6384630593
 30
0.0
 10
6.1275166596
 20
4.6218924051
 30
0.0
 10
6.144090059
 20
4.604488338
 30
0.0
 10
6.1597887491
 20
4.5862911007
 30
0.0
 10
6.1745733689
 20
4.5673436415
 30
0.0
 10
6.1884112783
 20
4.547694168
 30
0.0
 10
6.2012692303
 20
4.5273899765
 30
0.0
 10
6.2131129488
 20
4.5064780933
 30
0.0
 10
6.2239153695
 20
4.4850100542
 30
0.0
 10
6.2336527286
 20
4.463038706
 30
0.0
 10
6.2423001849
 20
4.4406162762
 30
0.0
 10
6.2498342011
 20
4.4177959095
 30
0.0
 10
6.2562402719
 20
4.3946338131
 30
0.0
 10
6.2615035695
 20
4.3711856068
 30
0.0
 10
6.2656080632
 20
4.3475069355
 30
0.0
 10
6.2685448829
 20
4.3236551403
 30
0.0
 10
6.270309663
 20
4.2996879312
 30
0.0
 10
6.2708967798
 20
4.2756627879
 30
0.0
 10
6.2703015858
 20
4.2516377082
 30
0.0
 10
6.2685293775
 20
4.2276706813
 30
0.0
 10
6.2655852415
 20
4.2038193081
 30
0.0
 10
6.2614730851
 20
4.1801415017
 30
0.0
 10
6.2562029497
 20
4.1566944516
 30
0.0
 10
6.2497906424
 20
4.1335338027
 30
0.0
 10
6.2422506886
 20
4.1107152513
 30
0.0
 10
6.2335978938
 20
4.0882948887
 30
0.0
 10
6.223856352
 20
4.0663255406
 30
0.0
 10
6.2130505055
 20
4.0448594622
 30
0.0
 10
6.2012037502
 20
4.0239496122
 30
0.0
 10
6.1883440848
 20
4.0036468934
 30
0.0
 10
6.1745055473
 20
3.9839983362
 30
0.0
 10
6.1597210583
 20
3.9650513779
 30
0.0
 10
6.1440232486
 20
3.9468541437
 30
0.0
 10
6.1274521697
 20
3.9294487514
 30
0.0
 10
6.1100490157
 20
3.9128756672
 30
0.0
 10
6.0918540839
 20
3.8971762485
 30
0.0
 10
6.0729100071
 20
3.8823896545
 30
0.0
 10
6.0532644118
 20
3.8685485128
 30
0.0
 10
6.0329640447
 20
3.8556859556
 30
0.0
 10
6.0120556509
 20
3.8438362395
 30
0.0
 10
5.9905911681
 20
3.8330259392
 30
0.0
 10
5.9686238236
 20
3.8232790551
 30
0.0
 10
5.9462061374
 20
3.814620558
 30
0.0
 10
5.923390704
 20
3.8070737528
 30
0.0
 10
5.9002317896
 20
3.8006534949
 30
0.0
 10
5.8767830304
 20
3.7953746726
 30
0.0
 10
5.8530984524
 20
3.7912538825
 30
0.0
 10
5.8213063755
 20
3.7873170413
 30
0.0
 10
5.797269502
 20
3.7861162394
 30
0.0
 10
5.78126445
 20
3.7861046767
 30
0.0
 11
5.78126445
 21
4.7649750122
 31
0.0
 11
5.8292229708
 21
4.7626493086
 31
0.0
 11
5.8530766058
 21
4.759723642
 31
0.0
 11
5.8767555425
 21
4.7556296227
 31
0.0
 11
5.9001985392
 21
4.7503770023
 31
0.0
 11
5.9233518805
 21
4.7439805094
 31
0.0
 11
5.9461622312
 21
4.7364551239
 31
0.0
 11
5.9685762477
 21
4.7278170905
 31
0.0
 11
5.9905405449
 21
4.7180889013
 31
0.0
 11
6.0120017248
 21
4.7072949741
 31
0.0
 11
6.0329064573
 21
4.6954598245
 31
0.0
 11
6.0532039291
 21
4.6826115773
 31
0.0
 11
6.0728465272
 21
4.6687829461
 31
0.0
 11
6.0917868455
 21
4.6540069414
 31
0.0
 11
6.1099781709
 21
4.6383174723
 31
0.0
 11
6.1273777541
 21
4.6217535888
 31
0.0
 11
6.1439442532
 21
4.6043561659
 31
0.0
 11
6.1596363646
 21
4.5861661119
 31
0.0
 11
6.1744155632
 21
4.5672266662
 31
0.0
 11
6.188247993
 21
4.5475849862
 31
0.0
 11
6.2011002453
 21
4.5272886048
 31
0.0
 11
6.2129394265
 21
4.5063853495
 31
0.0
 11
6.2237379102
 21
4.4849260604
 31
0.0
 11
6.2334711542
 21
4.4629633419
 31
0.0
 11
6.242114659
 21
4.4405498221
 31
0.0
 11
6.2496462247
 21
4.4177389076
 31
0.0
 11
6.2560498184
 21
4.3945860942
 31
0.0
 11
6.2613104305
 21
4.3711472241
 31
0.0
 11
6.2654134316
 21
4.3474782133
 31
0.0
 11
6.2683495323
 21
4.32363601
 31
0.0
 11
6.2701133834
 21
4.2996783246
 31
0.0
 11
6.2706997282
 21
4.2756628852
 31
0.0
 11
6.2701054197
 21
4.2516474527
 31
0.0
 11
6.2683340492
 21
4.2276898932
 31
0.0
 11
6.2653905503
 21
4.2038480934
 31
0.0
 11
6.2612800759
 21
4.1801798953
 31
0.0
 11
6.2560125819
 21
4.1567421615
 31
0.0
 11
6.2496026963
 21
4.1335908014
 31
0.0
 11
6.2420652402
 21
4.1107816849
 31
0.0
 11
6.2334164868
 21
4.0883701806
 31
0.0
 11
6.223678998
 21
4.0664094835
 31
0.0
 11
6.2128770387
 21
4.0449522004
 31
0.0
 11
6.2010349788
 21
4.0240508788
 31
0.0
 11
6.1881809591
 21
4.0037559507
 31
0.0
 11
6.1743478377
 21
3.9841152013
 31
0.0
 11
6.15956877
 21
3.9651762487
 31
0.0
 11
6.1438776612
 21
3.9469860705
 31
0.0
 11
6.1273134035
 21
3.9295873829
 31
0.0
 11
6.109916925
 21
3.913021162
 31
0.0
 11
6.0917291831
 21
3.8973283493
 31
0.0
 11
6.0727931657
 21
3.8825472871
 31
0.0
 11
6.053155451
 21
3.8687117216
 31
0.0
 11
6.0328629848
 21
3.8558549289
 31
0.0
 11
6.0119631557
 21
3.8440095768
 31
0.0
 11
5.9905071734
 21
3.8332030907
 31
0.0
 11
5.9685481986
 21
3.8234602186
 31
0.0
 11
5.9461394079
 21
3.8148056794
 31
0.0
 11
5.9233339932
 21
3.8072616669
 31
0.0
 11
5.9001851841
 21
3.8008441548
 31
0.0
 11
5.8767462162
 21
3.7955681769
 31
0.0
 11
5.8530707607
 21
3.79144847
 31
0.0
 11
5.8292201041
 21
3.7884945832
 31
0.0
 11
5.78126445
 21
3.7861046767
 31
0.0
  0
SPLINE
  5
27A
100
AcDbEntity
  8
0
100
AcDbSpline
 62
6
  6
CONTINUOUS
 70
0
 71
3
 72
69
 73
65
 74
63
 42
0.0000001
 43
0.0000001
 44
0.0000000001
 12
1.5304339426
 22
0.0011132233
 32
0.0
 13
-1.5304339445
 23
-0.0011106861
 33
0.0
 40
0.0
 40
0.0
 40
0.0
 40
0.0
 40
0.0312307963
 40
0.0468624676
 40
0.0624928248
 40
0.0781193182
 40
0.0937434831
 40
0.1093669333
 40
0.1249911168
 40
0.1406161193
 40
0.1562414089
 40
0.1718665231
 40
0.1874914501
 40
0.2031163521
 40
0.2187413041
 40
0.2343665033
 40
0.2499920342
 40
0.265617726
 40
0.2812434356
 40
0.2968692361
 40
0.3124950932
 40
0.3281208341
 40
0.3437464155
 40
0.3593719429
 40
0.3749973313
 40
0.3906224639
 40
0.4062474404
 40
0.4218723665
 40
0.4374971944
 40
0.4531219689
 40
0.4687468642
 40
0.4843718586
 40
0.4999968898
 40
0.5156220626
 40
0.5312473666
 40
0.5468726021
 40
0.5624976563
 40
0.578122672
 40
0.593747695
 40
0.6093727086
 40
0.6249978597
 40
0.6406232324
 40
0.6562487136
 40
0.671874253
 40
0.6874999648
 40
0.7031257738
 40
0.7187515066
 40
0.7343771546
 40
0.750002772
 40
0.7656282004
 40
0.781253287
 40
0.7968781843
 40
0.8125031428
 40
0.8281283149
 40
0.8437539409
 40
0.8593799013
 40
0.8750056085
 40
0.8906304364
 40
0.906254501
 40
0.9218792707
 40
0.9375063249
 40
0.9531371373
 40
0.9687690454
 40
1.0
 40
1.0
 40
1.0
 40
1.0
 10
5.78126445
 20
4.7627508368
 30
0.0
 10
5.7971966736
 20
4.7627624257
 30
0.0
 10
5.82112588
 20
4.7615991375
 30
0.0
 10
5.8527776452
 20
4.757717695
 30
0.0
 10
5.876358345
 20
4.7536411456
 30
0.0
 10
5.8997048763
 20
4.7484095162
 30
0.0
 10
5.9227633663
 20
4.7420393134
 30
0.0
 10
5.9454802151
 20
4.7345452854
 30
0.0
 10
5.9678012677
 20
4.7259425204
 30
0.0
 10
5.9896741309
 20
4.7162545574
 30
0.0
 10
6.0110462972
 20
4.7055059199
 30
0.0
 10
6.0318644524
 20
4.6937200052
 30
0.0
 10
6.0520774881
 20
4.6809244767
 30
0.0
 10
6.071638646
 20
4.6671532276
 30
0.0
 10
6.0905008786
 20
4.6524388864
 30
0.0
 10
6.1086164988
 20
4.6368140435
 30
0.0
 10
6.1259436527
 20
4.6203187026
 30
0.0
 10
6.1424416848
 20
4.6029937348
 30
0.0
 10
6.1580690093
 20
4.5848792229
 30
0.0
 10
6.1727864004
 20
4.566017887
 30
0.0
 10
6.1865613721
 20
4.5464577272
 30
0.0
 10
6.1993608454
 20
4.5262458403
 30
0.0
 10
6.2111507158
 20
4.5054290443
 30
0.0
 10
6.2219040091
 20
4.4840586102
 30
0.0
 10
6.2315970821
 20
4.4621871323
 30
0.0
 10
6.2402052128
 20
4.4398665873
 30
0.0
 10
6.2477049615
 20
4.4171498849
 30
0.0
 10
6.2540818956
 20
4.3940930176
 30
0.0
 10
6.2593212568
 20
4.37075141
 30
0.0
 10
6.2634070943
 20
4.3471804914
 30
0.0
 10
6.2663305503
 20
4.3234373364
 30
0.0
 10
6.2680872903
 20
4.2995793565
 30
0.0
 10
6.2686716883
 20
4.2756637223
 30
0.0
 10
6.2680792426
 20
4.2517481371
 30
0.0
 10
6.2663152119
 20
4.2278903005
 30
0.0
 10
6.2633845676
 20
4.2041475455
 30
0.0
 10
6.2592911005
 20
4.1805775353
 30
0.0
 10
6.2540450725
 20
4.1572371466
 30
0.0
 10
6.2476620817
 20
4.1341817876
 30
0.0
 10
6.2401564367
 20
4.111466953
 30
0.0
 10
6.231542991
 20
4.0891484537
 30
0.0
 10
6.2218458486
 20
4.0672788245
 30
0.0
 10
6.2110891948
 20
4.0459101434
 30
0.0
 10
6.1992961935
 20
4.025095205
 30
0.0
 10
6.1864949637
 20
4.0048845334
 30
0.0
 10
6.1727192816
 20
3.9853249831
 30
0.0
 10
6.1580018208
 20
3.9664638281
 30
0.0
 10
6.1423750445
 20
3.9483490116
 30
0.0
 10
6.1258789833
 20
3.9310223789
 30
0.0
 10
6.1085546574
 20
3.914524301
 30
0.0
 10
6.0904422376
 20
3.8988959913
 30
0.0
 10
6.0715841385
 20
3.8841765004
 30
0.0
 10
6.0520277794
 20
3.8703982658
 30
0.0
 10
6.0318196798
 20
3.857594199
 30
0.0
 10
6.0110063537
 20
3.8457983433
 30
0.0
 10
5.9896394522
 20
3.835037193
 30
0.0
 10
5.9677719711
 20
3.8253346132
 30
0.0
 10
5.9454562047
 20
3.816715444
 30
0.0
 10
5.9227445031
 20
3.8092029148
 30
0.0
 10
5.8996908911
 20
3.8028118188
 30
0.0
 10
5.8763487642
 20
3.7975569604
 30
0.0
 10
5.8527718933
 20
3.7934548444
 30
0.0
 10
5.8211243582
 20
3.789535823
 30
0.0
 10
5.7971967544
 20
3.7883404157
 30
0.0
 10
5.78126445
 20
3.7883288531
 30
0.0
 11
5.78126445
 21
4.7627508368
 31
0.0
 11
5.8290050385
 21
4.7604358528
 31
0.0
 11
5.852750356
 21
4.7575235294
 31
0.0
 11
5.8763218762
 21
4.7534481225
 31
0.0
 11
5.8996585933
 21
4.7482193298
 31
0.0
 11
5.9227069649
 21
4.7418518527
 31
0.0
 11
5.9454138308
 21
4.7343606488
 31
0.0
 11
5.9677260385
 21
4.7257618728
 31
0.0
 11
5.9895904765
 21
4.7160778729
 31
0.0
 11
6.0109540462
 21
4.7053329943
 31
0.0
 11
6.0317637095
 21
4.6935516705
 31
0.0
 11
6.0519688642
 21
4.6807618422
 31
0.0
 11
6.0715221197
 21
4.666996075
 31
0.0
 11
6.0903763048
 21
4.6522872505
 31
0.0
 11
6.1084849156
 21
4.6366691163
 31
0.0
 11
6.1258053766
 21
4.6201805197
 31
0.0
 11
6.1422965453
 21
4.6028621677
 31
0.0
 11
6.1579173154
 21
4.5847547991
 31
0.0
 11
6.1726293114
 21
4.5659014414
 31
0.0
 11
6.186398832
 21
4.5463490409
 31
0.0
 11
6.1991926346
 21
4.5261449283
 31
0.0
 11
6.2109779801
 21
4.5053367205
 31
0.0
 11
6.221727352
 21
4.4839750041
 31
0.0
 11
6.2314163262
 21
4.4621121239
 31
0.0
 11
6.2400205229
 21
4.4398004492
 31
0.0
 11
6.2475178408
 21
4.4170931414
 31
0.0
 11
6.2538923164
 21
4.3940454956
 31
0.0
 11
6.2591290091
 21
4.3707131623
 31
0.0
 11
6.2632133533
 21
4.3471518603
 31
0.0
 11
6.2661360903
 21
4.323418271
 31
0.0
 11
6.267891898
 21
4.2995697898
 31
0.0
 11
6.2684755479
 21
4.275663829
 31
0.0
 11
6.2678839821
 21
4.251757846
 31
0.0
 11
6.2661207712
 21
4.2279094361
 31
0.0
 11
6.2631907467
 21
4.2041762205
 31
0.0
 11
6.2590990001
 21
4.1806157685
 31
0.0
 11
6.2538555789
 21
4.1572846518
 31
0.0
 11
6.2474749749
 21
4.134238548
 31
0.0
 11
6.2399718374
 21
4.1115331028
 31
0.0
 11
6.2313624333
 21
4.0892234066
 31
0.0
 11
6.2216693008
 21
4.0673623959
 31
0.0
 11
6.2109164979
 21
4.0460024854
 31
0.0
 11
6.199128215
 21
4.0251960154
 31
0.0
 11
6.1863325912
 21
4.0049931088
 31
0.0
 11
6.1725622918
 21
3.9854413469
 31
0.0
 11
6.1578502305
 21
3.9665881717
 31
0.0
 11
6.1422301357
 21
3.948480345
 31
0.0
 11
6.1257408368
 21
3.9311603699
 31
0.0
 11
6.1084231339
 21
3.9146691041
 31
0.0
 11
6.0903178527
 21
3.8990473738
 31
0.0
 11
6.0714677933
 21
3.8843333988
 31
0.0
 11
6.0519192986
 21
3.8705607214
 31
0.0
 11
6.0317190805
 21
3.8577623969
 31
0.0
 11
6.010914281
 21
3.8459708974
 31
0.0
 11
5.9895558431
 21
3.8352135394
 31
0.0
 11
5.9676966931
 21
3.825514949
 31
0.0
 11
5.9453897749
 21
3.8168997226
 31
0.0
 11
5.9226880452
 21
3.8093899739
 31
0.0
 11
5.8996444938
 21
3.803001609
 31
0.0
 11
5.8763121155
 21
3.7977495803
 31
0.0
 11
5.8527443328
 21
3.7936485487
 31
0.0
 11
5.829002125
 21
3.7907080322
 31
0.0
 11
5.78126445
 21
3.7883288531
 31
0.0
  0
SPLINE
  5
27B
100
AcDbEntity
  8
0
100
AcDbSpline
 62
6
  6
CONTINUOUS
 70
0
 71
3
 72
48
 73
44
 74
42
 42
0.0000001
 43
0.0000001
 44
0.0000000001
 12
-1.1535694208
 22
-0.0008258851
 32
0.0
 13
0.7947745792
 23
0.8360959628
 33
0.0
 40
0.0
 40
0.0
 40
0.0
 40
0.0
 40
0.0312322923
 40
0.0468628408
 40
0.0624961343
 40
0.0781284192
 40
0.093757607
 40
0.1250047142
 40
0.1406297161
 40
0.156255215
 40
0.1875034986
 40
0.2187528696
 40
0.2500012859
 40
0.2812492213
 40
0.2968757878
 40
0.3125025432
 40
0.3437515487
 40
0.3750008284
 40
0.4062502548
 40
0.4374995976
 40
0.453126621
 40
0.4687535436
 40
0.5000020466
 40
0.5156287234
 40
0.5312553067
 40
0.5625034505
 40
0.5937518989
 40
0.6250009378
 40
0.6562506215
 40
0.6718780493
 40
0.6875054676
 40
0.7187551704
 40
0.7500043183
 40
0.781252821
 40
0.812501046
 40
0.8281276496
 40
0.8437543128
 40
0.8750026443
 40
0.8906293226
 40
0.906255916
 40
0.9375039784
 40
0.9687519875
 40
1.0
 40
1.0
 40
1.0
 40
1.0
 10
5.78126445
 20
3.7816563275
 30
0.0
 10
5.7692549109
 20
3.7816477294
 30
0.0
 10
5.7512255555
 20
3.7822948421
 30
0.0
 10
5.7272889725
 20
3.7844648093
 30
0.0
 10
5.7093968029
 20
3.7867453603
 30
0.0
 10
5.6916003078
 20
3.789676803
 30
0.0
 10
5.6680385736
 20
3.7944484295
 30
0.0
 10
5.6447549149
 20
3.8005055404
 30
0.0
 10
5.621858425
 20
3.8078185488
 30
0.0
 10
5.5992430788
 20
3.8159623378
 30
0.0
 10
5.5715519791
 20
3.8276816649
 30
0.0
 10
5.5394358385
 20
3.8441207677
 30
0.0
 10
5.5086050087
 20
3.8628596524
 30
0.0
 10
5.4841145919
 20
3.8803054656
 30
0.0
 10
5.4653271618
 20
3.8953004053
 30
0.0
 10
5.4470994716
 20
3.9109716244
 30
0.0
 10
5.425402966
 20
3.9317910023
 30
0.0
 10
5.4012555121
 20
3.958598443
 30
0.0
 10
5.3791283775
 20
3.9870964511
 30
0.0
 10
5.3624620186
 20
4.0121250834
 30
0.0
 10
5.3502519774
 20
4.0328319183
 30
0.0
 10
5.3388061123
 20
4.0539698452
 30
0.0
 10
5.3285220827
 20
4.0757198669
 30
0.0
 10
5.3194480726
 20
4.097979
 30
0.0
 10
5.3111917235
 20
4.1205545616
 30
0.0
 10
5.302423365
 20
4.149316613
 30
0.0
 10
5.2944377105
 20
4.1845004982
 30
0.0
 10
5.2890390134
 20
4.2201736831
 30
0.0
 10
5.2867129997
 20
4.250153652
 30
0.0
 10
5.2861641979
 20
4.2741864394
 30
0.0
 10
5.2864929374
 20
4.2982232596
 30
0.0
 10
5.2885452348
 20
4.3282232519
 30
0.0
 10
5.2936166875
 20
4.3639444641
 30
0.0
 10
5.3012791155
 20
4.3992002575
 30
0.0
 10
5.3097828682
 20
4.428041671
 30
0.0
 10
5.317830108
 20
4.450692641
 30
0.0
 10
5.3266978955
 20
4.4730346684
 30
0.0
 10
5.3367799179
 20
4.4948788373
 30
0.0
 10
5.348028182
 20
4.5161222045
 30
0.0
 10
5.3600433277
 20
4.536941795
 30
0.0
 10
5.3764738462
 20
4.5621249141
 30
0.0
 10
5.3983284837
 20
4.5908281685
 30
0.0
 10
5.414257924
 20
4.6088550618
 30
0.0
 10
5.4225362993
 20
4.6175638408
 30
0.0
 11
5.78126445
 21
3.7816563275
 31
0.0
 11
5.7452588984
 21
3.7829455874
 31
0.0
 11
5.7273016001
 21
3.784573401
 31
0.0
 11
5.7094122795
 21
3.7868539177
 31
0.0
 11
5.6916191636
 21
3.7897850613
 31
0.0
 11
5.673948485
 21
3.7933634494
 31
0.0
 11
5.6390637866
 21
3.8024382222
 31
0.0
 11
5.621893804
 21
3.8079223214
 31
0.0
 11
5.604934759
 21
3.8140292935
 31
0.0
 11
5.5717377876
 21
3.8280775176
 31
0.0
 11
5.5396497187
 21
3.8445042579
 31
0.0
 11
5.5088453324
 21
3.8632256985
 31
0.0
 11
5.4794860848
 21
3.8841397402
 31
0.0
 11
5.4653972303
 21
3.8953848676
 31
0.0
 11
5.4517279223
 21
3.9071367436
 31
0.0
 11
5.4257176557
 21
3.9320950606
 31
0.0
 11
5.4015922827
 21
3.9588801449
 31
0.0
 11
5.3794830462
 21
3.987352381
 31
0.0
 11
5.3595038436
 21
4.017357565
 31
0.0
 11
5.3503474682
 21
4.0328858781
 31
0.0
 11
5.3417636743
 21
4.0487377551
 31
0.0
 11
5.3263549536
 21
4.0813258064
 31
0.0
 11
5.3195502691
 21
4.0980186064
 31
0.0
 11
5.3133587744
 21
4.1149483082
 31
0.0
 11
5.3028460803
 21
4.1494282032
 31
0.0
 11
5.2948689297
 21
4.1845817279
 31
0.0
 11
5.2894736468
 21
4.2202236309
 31
0.0
 11
5.2866851975
 21
4.2561643114
 31
0.0
 11
5.2862738996
 21
4.2741869463
 31
0.0
 11
5.2865202263
 21
4.2922125798
 31
0.0
 11
5.2889800623
 21
4.3281772675
 31
0.0
 11
5.2940485766
 21
4.3638672319
 31
0.0
 11
5.3017027791
 21
4.3990925484
 31
0.0
 11
5.3118978751
 21
4.4336677803
 31
0.0
 11
5.3179326748
 21
4.4506539939
 31
0.0
 11
5.3245826822
 21
4.4674089972
 31
0.0
 11
5.3396885155
 21
4.5001383311
 31
0.0
 11
5.348124072
 21
4.5160692681
 31
0.0
 11
5.3571344639
 21
4.5316821688
 31
0.0
 11
5.3768303031
 21
4.56187235
 31
0.0
 11
5.3986684054
 21
4.5905510177
 31
0.0
 11
5.4225362993
 21
4.6175638408
 31
0.0
  0
SPLINE
  5
27C
100
AcDbEntity
  8
0
100
AcDbSpline
 62
6
  6
CONTINUOUS
 70
0
 71
3
 72
67
 73
63
 74
61
 42
0.0000001
 43
0.0000001
 44
0.0000000001
 12
1.5234186813
 22
0.001113209
 32
0.0
 13
-1.5234186832
 23
-0.0011106583
 33
0.0
 40
0.0
 40
0.0
 40
0.0
 40
0.0
 40
0.0312314549
 40
0.0468635593
 40
0.0624944522
 40
0.0781215316
 40
0.093746303
 40
0.1093703576
 40
0.124995145
 40
0.1406207599
 40
0.1562466223
 40
0.1718722038
 40
0.187497454
 40
0.2031225995
 40
0.2187477765
 40
0.2343732269
 40
0.2499990544
 40
0.2656250736
 40
0.281251111
 40
0.2968772193
 40
0.3125033804
 40
0.3281294252
 40
0.3437552982
 40
0.3593811143
 40
0.3750068079
 40
0.3906322654
 40
0.4062575786
 40
0.4218828638
 40
0.4375080737
 40
0.4531332374
 40
0.4687585113
 40
0.4999997151
 40
0.5312409634
 40
0.5468662674
 40
0.5624914531
 40
0.5781166749
 40
0.5937419649
 40
0.6093672806
 40
0.6249927422
 40
0.6406184391
 40
0.6562442575
 40
0.6718701332
 40
0.6874961806
 40
0.7031223433
 40
0.7187484534
 40
0.7343744943
 40
0.7500005154
 40
0.7656263415
 40
0.7812517853
 40
0.796876957
 40
0.8125021073
 40
0.8281273798
 40
0.8437530031
 40
0.8593789128
 40
0.8750045738
 40
0.8906293985
 40
0.9062534925
 40
0.9218783154
 40
0.9375054534
 40
0.9531363933
 40
0.9687685021
 40
1.0
 40
1.0
 40
1.0
 40
1.0
 10
5.78126445
 20
4.7605266631
 30
0.0
 10
5.7971239773
 20
4.7605382521
 30
0.0
 10
5.820944055
 20
4.7593803214
 30
0.0
 10
5.8524515605
 20
4.7555166274
 30
0.0
 10
5.8759249614
 20
4.7514587014
 30
0.0
 10
5.899165334
 20
4.7462508602
 30
0.0
 10
5.922118998
 20
4.7399095806
 30
0.0
 10
5.9447325915
 20
4.7324496138
 30
0.0
 10
5.9669521652
 20
4.7238858761
 30
0.0
 10
5.9887255047
 20
4.7142417381
 30
0.0
 10
6.0100003646
 20
4.7035418247
 30
0.0
 10
6.0307237482
 20
4.6918096875
 30
0.0
 10
6.0508444939
 20
4.6790723941
 30
0.0
 10
6.070316152
 20
4.6653638068
 30
0.0
 10
6.0890921034
 20
4.6507165555
 30
0.0
 10
6.1071249487
 20
4.6351630373
 30
0.0
 10
6.1243728052
 20
4.6187427925
 30
0.0
 10
6.1407953533
 20
4.6014967116
 30
0.0
 10
6.1563513831
 20
4.5834648807
 30
0.0
 10
6.1710014642
 20
4.5646895098
 30
0.0
 10
6.184713309
 20
4.5452184519
 30
0.0
 10
6.197454169
 20
4.5250987134
 30
0.0
 10
6.2091902243
 20
4.5043769501
 30
0.0
 10
6.2198941751
 20
4.4831039399
 30
0.0
 10
6.2295427191
 20
4.4613321678
 30
0.0
 10
6.2381115055
 20
4.4391134538
 30
0.0
 10
6.2455768967
 20
4.4165003467
 30
0.0
 10
6.251924435
 20
4.3935485214
 30
0.0
 10
6.2571396453
 20
4.370313411
 30
0.0
 10
6.2612068489
 20
4.3468495236
 30
0.0
 10
6.2650858738
 20
4.3153431775
 30
0.0
 10
6.2670328294
 20
4.275659327
 30
0.0
 10
6.2650723529
 20
4.2359761457
 30
0.0
 10
6.2611830323
 20
4.204471022
 30
0.0
 10
6.2571082272
 20
4.1810084247
 30
0.0
 10
6.2518859656
 20
4.157774887
 30
0.0
 10
6.2455318921
 20
4.1348248664
 30
0.0
 10
6.2380604384
 20
4.1122137633
 30
0.0
 10
6.2294862246
 20
4.0899971503
 30
0.0
 10
6.2198330954
 20
4.0682274199
 30
0.0
 10
6.2091253204
 20
4.0469563414
 30
0.0
 10
6.1973861353
 20
4.0262363629
 30
0.0
 10
6.1846431293
 20
4.0061180007
 30
0.0
 10
6.1709300616
 20
3.9866478206
 30
0.0
 10
6.1562796043
 20
3.9678727599
 30
0.0
 10
6.1407240433
 20
3.949840547
 30
0.0
 10
6.1243029617
 20
3.932593099
 30
0.0
 10
6.1070574283
 20
3.9161704488
 30
0.0
 10
6.0890276421
 20
3.9006134311
 30
0.0
 10
6.0702555425
 20
3.8859612931
 30
0.0
 10
6.050788424
 20
3.8722462873
 30
0.0
 10
6.0306727478
 20
3.859500973
 30
0.0
 10
6.0099548444
 20
3.847759107
 30
0.0
 10
5.9886858522
 20
3.8370474542
 30
0.0
 10
5.9669185812
 20
3.8273895402
 30
0.0
 10
5.9447050988
 20
3.818809933
 30
0.0
 10
5.9220974672
 20
3.8113318231
 30
0.0
 10
5.8991494451
 20
3.8049700093
 30
0.0
 10
5.8759141889
 20
3.7997391895
 30
0.0
 10
5.8524451964
 20
3.7956557717
 30
0.0
 10
5.8209422968
 20
3.7917545944
 30
0.0
 10
5.7971239991
 20
3.7905645894
 30
0.0
 10
5.78126445
 20
3.7905530269
 30
0.0
 11
5.78126445
 21
4.7605266631
 31
0.0
 11
5.8287872114
 21
4.7582223621
 31
0.0
 11
5.8524243453
 21
4.7553233583
 31
0.0
 11
5.8758886315
 21
4.7512665491
 31
0.0
 11
5.8991192495
 21
4.7460615353
 31
0.0
 11
5.9220628555
 21
4.7397229771
 31
0.0
 11
5.9446665049
 21
4.7322658043
 31
0.0
 11
5.9668772628
 21
4.7237060276
 31
0.0
 11
5.9886422494
 21
4.7140658559
 31
0.0
 11
6.0099086043
 21
4.7033697046
 31
0.0
 11
6.0306235051
 21
4.6916420441
 31
0.0
 11
6.0507363858
 21
4.6789104638
 31
0.0
 11
6.0702001748
 21
4.6652073831
 31
0.0
 11
6.0889681009
 21
4.6505656362
 31
0.0
 11
6.1069939224
 21
4.6350187592
 31
0.0
 11
6.1242351493
 21
4.6186052566
 31
0.0
 11
6.1406509112
 21
4.6013657776
 31
0.0
 11
6.1562003613
 21
4.5833409945
 31
0.0
 11
6.1708450748
 21
4.5645735838
 31
0.0
 11
6.1845515217
 21
4.5451102726
 31
0.0
 11
6.1972867615
 21
4.5249982761
 31
0.0
 11
6.2090182347
 21
4.5042850239
 31
0.0
 11
6.2197183153
 21
4.4830207248
 31
0.0
 11
6.2293628217
 21
4.4612575274
 31
0.0
 11
6.237927643
 21
4.4390476202
 31
0.0
 11
6.2453905982
 21
4.4164438601
 31
0.0
 11
6.251735726
 21
4.3935012579
 31
0.0
 11
6.256948316
 21
4.3702752576
 31
0.0
 11
6.261013923
 21
4.3468213524
 31
0.0
 11
6.2639230393
 21
4.3231959453
 31
0.0
 11
6.2662513898
 21
4.2756594864
 31
0.0
 11
6.2639069898
 21
4.2281237488
 31
0.0
 11
6.2609901259
 21
4.2044992506
 31
0.0
 11
6.2569169882
 21
4.1810466181
 31
0.0
 11
6.2516973413
 21
4.1578221842
 31
0.0
 11
6.2453456719
 21
4.1348813845
 31
0.0
 11
6.2378766821
 21
4.1122796137
 31
0.0
 11
6.2293064674
 21
4.0900717804
 31
0.0
 11
6.2196573622
 21
4.0683106161
 31
0.0
 11
6.2089534465
 21
4.0470482431
 31
0.0
 11
6.1972188917
 21
4.026336732
 31
0.0
 11
6.1844814955
 21
4.0062260965
 31
0.0
 11
6.1707738134
 21
3.9867636522
 31
0.0
 11
6.1561287238
 21
3.9679965314
 31
0.0
 11
6.1405797668
 21
3.9499713161
 31
0.0
 11
6.1241654468
 21
3.93273046
 31
0.0
 11
6.1069265223
 21
3.9163145423
 31
0.0
 11
6.0889037727
 21
3.9007641199
 31
0.0
 11
6.0701396861
 21
3.886117466
 31
0.0
 11
6.0506804149
 21
3.8724079577
 31
0.0
 11
6.0305725846
 21
3.8596683388
 31
0.0
 11
6.009863153
 21
3.8479308944
 31
0.0
 11
5.9886026295
 21
3.8372229965
 31
0.0
 11
5.9668436779
 21
3.8275690373
 31
0.0
 11
5.9446389923
 21
3.8189933637
 31
0.0
 11
5.9220412788
 21
3.8115180309
 31
0.0
 11
5.8991032767
 21
3.8051589294
 31
0.0
 11
5.8758777307
 21
3.7999309237
 31
0.0
 11
5.8524177978
 21
3.795848599
 31
0.0
 11
5.8287841235
 21
3.7929214691
 31
0.0
 11
5.78126445
 21
3.7905530269
 31
0.0
  0
SPLINE
  5
27D
100
AcDbEntity
  8
0
100
AcDbSpline
 62
6
  6
CONTINUOUS
 70
0
 71
3
 72
48
 73
44
 74
42
 42
0.0000001
 43
0.0000001
 44
0.0000000001
 12
0.7588314388
 22
-0.8212828385
 32
0.0
 13
-1.1181815517
 23
-0.0008189702
 33
0.0
 40
0.0
 40
0.0
 40
0.0
 40
0.0
 40
0.0156273102
 40
0.0312546282
 40
0.0625043354
 40
0.0937538473
 40
0.1250029331
 40
0.1562517494
 40
0.1718784672
 40
0.1875050608
 40
0.2187531004
 40
0.2500010566
 40
0.281249297
 40
0.3124976505
 40
0.3281242304
 40
0.3437507673
 40
0.3749986975
 40
0.3906251105
 40
0.4062514655
 40
0.4374992602
 40
0.4687472691
 40
0.4999956794
 40
0.5312446877
 40
0.5468718182
 40
0.5624990351
 40
0.5937487167
 40
0.6249983349
 40
0.6562477913
 40
0.6874968602
 40
0.7031235675
 40
0.7187500779
 40
0.749997886
 40
0.7656243959
 40
0.7812510707
 40
0.8124997938
 40
0.8437474595
 40
0.8749928484
 40
0.9062408965
 40
0.9218706615
 40
0.9375034537
 40
0.9531370097
 40
0.9687676463
 40
1.0
 40
1.0
 40
1.0
 40
1.0
 10
6.1359042083
 20
4.6032579056
 30
0.0
 10
6.1398570397
 20
4.5989797584
 30
0.0
 10
6.1476087281
 20
4.5902794766
 30
0.0
 10
6.1624678924
 20
4.5723311283
 30
0.0
 10
6.1798079664
 20
4.5489023075
 30
0.0
 10
6.1985284086
 20
4.5193621153
 30
0.0
 10
6.2150577871
 20
4.4885425682
 30
0.0
 10
6.2269411451
 20
4.4619283525
 30
0.0
 10
6.2352727809
 20
4.4401681885
 30
0.0
 10
6.2428094021
 20
4.4181203555
 30
0.0
 10
6.2507261425
 20
4.3900701848
 30
0.0
 10
6.2577685588
 20
4.3558155104
 30
0.0
 10
6.2623096754
 20
4.3211403984
 30
0.0
 10
6.2639977382
 20
4.2920431898
 30
0.0
 10
6.2640820326
 20
4.2687428305
 30
0.0
 10
6.2633216278
 20
4.2454553434
 30
0.0
 10
6.2612979112
 20
4.2222233632
 30
0.0
 10
6.258020594
 20
4.1991552432
 30
0.0
 10
6.2539094746
 20
4.1762206239
 30
0.0
 10
6.2472164346
 20
4.1478537754
 30
0.0
 10
6.2367496301
 20
4.1144858194
 30
0.0
 10
6.2238926112
 20
4.0819634389
 30
0.0
 10
6.211247323
 20
4.0557027426
 30
0.0
 10
6.2000146188
 20
4.0352878368
 30
0.0
 10
6.1880489146
 20
4.0152934414
 30
0.0
 10
6.1717466844
 20
3.9911313391
 30
0.0
 10
6.1501442419
 20
3.963628099
 30
0.0
 10
6.1266061308
 20
3.9377623922
 30
0.0
 10
6.1054843421
 20
3.9176773439
 30
0.0
 10
6.0877528442
 20
3.902560412
 30
0.0
 10
6.0694859425
 20
3.8880964869
 30
0.0
 10
6.0504455835
 20
3.8746323469
 30
0.0
 10
6.030720708
 20
3.86223021
 30
0.0
 10
6.0105590271
 20
3.8505499714
 30
0.0
 10
5.9845832524
 20
3.8373305909
 30
0.0
 10
5.9523543719
 20
3.8237584024
 30
0.0
 10
5.9192281444
 20
3.8125537709
 30
0.0
 10
5.8910160009
 20
3.8052339716
 30
0.0
 10
5.8681751239
 20
3.8006130473
 30
0.0
 10
5.8509244585
 20
3.7977699503
 30
0.0
 10
5.8335817719
 20
3.79555247
 30
0.0
 10
5.8103808608
 20
3.7934329636
 30
0.0
 10
5.7929055972
 20
3.7927857283
 30
0.0
 10
5.78126445
 20
3.7927772021
 30
0.0
 11
6.1359042083
 21
4.6032579056
 31
0.0
 11
6.1475283458
 21
4.5902108291
 31
0.0
 11
6.1586717632
 21
4.5767508389
 31
0.0
 11
6.1794601954
 21
4.548664468
 31
0.0
 11
6.1981633392
 21
4.5191487044
 31
0.0
 11
6.2146795548
 21
4.4883563481
 31
0.0
 11
6.2289256276
 21
4.4564505032
 31
0.0
 11
6.2351734245
 21
4.4401321495
 31
0.0
 11
6.2408254557
 21
4.4235981446
 31
0.0
 11
6.2503165874
 21
4.3899709048
 31
0.0
 11
6.2573516552
 21
4.3557455612
 31
0.0
 11
6.261890418
 21
4.3211003862
 31
0.0
 11
6.2639132697
 21
4.2862176477
 31
0.0
 11
6.2639764363
 21
4.2687444039
 31
0.0
 11
6.2634063854
 21
4.2512803951
 31
0.0
 11
6.2603742873
 21
4.2164713349
 31
0.0
 11
6.2579163561
 21
4.1991719045
 31
0.0
 11
6.2548333625
 21
4.1819729335
 31
0.0
 11
6.2468105646
 21
4.1479657517
 31
0.0
 11
6.2363513369
 21
4.1146269605
 31
0.0
 11
6.2235065853
 21
4.0821321277
 31
0.0
 11
6.2083468514
 21
4.0506498947
 31
0.0
 11
6.1999230181
 21
4.03534046
 31
0.0
 11
6.1909499241
 21
4.0203462371
 31
0.0
 11
6.1714066022
 21
3.9913797097
 31
0.0
 11
6.1498215664
 21
3.9639009465
 31
0.0
 11
6.1263047879
 21
3.9380563208
 31
0.0
 11
6.1009829085
 21
3.9139782043
 31
0.0
 11
6.0876858115
 21
3.9026419602
 31
0.0
 11
6.0739870388
 21
3.8917948799
 31
0.0
 11
6.0454585614
 21
3.8716211166
 31
0.0
 11
6.0306661922
 21
3.8623205082
 31
0.0
 11
6.0155466582
 21
3.8535614189
 31
0.0
 11
5.9844062375
 21
3.8377121147
 31
0.0
 11
5.9522039841
 21
3.8241526716
 31
0.0
 11
5.9191081105
 21
3.8129576343
 31
0.0
 11
5.8852869618
 21
3.8041824758
 31
0.0
 11
5.8681570347
 21
3.800717174
 31
0.0
 11
5.8509094559
 21
3.7978742754
 31
0.0
 11
5.8335695037
 21
3.7956568527
 31
0.0
 11
5.8161640798
 21
3.7940668841
 31
0.0
 11
5.78126445
 21
3.7927772021
 31
0.0
  0
SPLINE
  5
27E
100
AcDbEntity
  8
0
100
AcDbSpline
 62
6
  6
CONTINUOUS
 70
0
 71
3
 72
48
 73
44
 74
42
 42
0.0000001
 43
0.0000001
 44
0.0000000001
 12
0.755126532
 22
-0.8175731235
 32
0.0
 13
-1.1129425955
 23
-0.0008189014
 33
0.0
 40
0.0
 40
0.0
 40
0.0
 40
0.0
 40
0.0156271456
 40
0.0312543243
 40
0.0625038339
 40
0.093753225
 40
0.1250022357
 40
0.1562510185
 40
0.1718777379
 40
0.1875043482
 40
0.218752482
 40
0.2500006438
 40
0.2812492159
 40
0.3124979352
 40
0.3281246715
 40
0.3437513332
 40
0.3749994314
 40
0.3906258889
 40
0.4062522599
 40
0.4375000283
 40
0.4687480063
 40
0.4999964335
 40
0.5312455059
 40
0.5468726723
 40
0.562499919
 40
0.5937496511
 40
0.6249993114
 40
0.6562487918
 40
0.6874979163
 40
0.7031246733
 40
0.7187512443
 40
0.749999168
 40
0.7656257063
 40
0.7812523693
 40
0.8125009681
 40
0.8437484312
 40
0.874993534
 40
0.90624124
 40
0.921870852
 40
0.93750353
 40
0.9531370228
 40
0.9687676345
 40
1.0
 40
1.0
 40
1.0
 40
1.0
 10
6.1343297549
 20
4.6016845007
 30
0.0
 10
6.1382632457
 20
4.5974257226
 30
0.0
 10
6.1459769696
 20
4.5887648896
 30
0.0
 10
6.1607632384
 20
4.5708981641
 30
0.0
 10
6.1780179439
 20
4.5475762767
 30
0.0
 10
6.1966456956
 20
4.5181715103
 30
0.0
 10
6.2130926553
 20
4.4874937952
 30
0.0
 10
6.2249162205
 20
4.461002484
 30
0.0
 10
6.2332055424
 20
4.4393430234
 30
0.0
 10
6.2407036083
 20
4.4173973378
 30
0.0
 10
6.2485792829
 20
4.3894773504
 30
0.0
 10
6.2555840193
 20
4.3553819685
 30
0.0
 10
6.2600992459
 20
4.3208683794
 30
0.0
 10
6.2617756824
 20
4.2919069712
 30
0.0
 10
6.2618567403
 20
4.2687155302
 30
0.0
 10
6.2610970518
 20
4.2455370767
 30
0.0
 10
6.2590800152
 20
4.2224140659
 30
0.0
 10
6.255815409
 20
4.1994543175
 30
0.0
 10
6.251721068
 20
4.1766275853
 30
0.0
 10
6.2450563086
 20
4.1483943864
 30
0.0
 10
6.2346351543
 20
4.1151838547
 30
0.0
 10
6.2218353
 20
4.0828150476
 30
0.0
 10
6.2092468195
 20
4.0566785204
 30
0.0
 10
6.1980650069
 20
4.0363601659
 30
0.0
 10
6.1861537278
 20
4.0164603783
 30
0.0
 10
6.1699258872
 20
3.9924127737
 30
0.0
 10
6.1484226654
 20
3.9650399133
 30
0.0
 10
6.1249930951
 20
3.9392969183
 30
0.0
 10
6.1039689476
 20
3.9193072995
 30
0.0
 10
6.0863196509
 20
3.9042621281
 30
0.0
 10
6.0681374863
 20
3.8898669051
 30
0.0
 10
6.0491855707
 20
3.8764668047
 30
0.0
 10
6.029552505
 20
3.8641236505
 30
0.0
 10
6.0094848738
 20
3.8524989301
 30
0.0
 10
5.9836303868
 20
3.8393425791
 30
0.0
 10
5.9515522627
 20
3.8258351686
 30
0.0
 10
5.9185812785
 20
3.8146838991
 30
0.0
 10
5.8905014548
 20
3.8073990274
 30
0.0
 10
5.8677677511
 20
3.8028001178
 30
0.0
 10
5.8505980021
 20
3.7999705359
 30
0.0
 10
5.8333366288
 20
3.7977635843
 30
0.0
 10
5.8102444392
 20
3.7956541119
 30
0.0
 10
5.79285106
 20
3.7950099041
 30
0.0
 10
5.78126445
 20
3.7950013787
 30
0.0
 11
6.1343297549
 21
4.6016845007
 31
0.0
 11
6.1458969566
 21
4.5886965944
 31
0.0
 11
6.1569856938
 21
4.575297824
 31
0.0
 11
6.1776717759
 21
4.547339654
 31
0.0
 11
6.1962823239
 21
4.5179591914
 31
0.0
 11
6.2127161913
 21
4.4873085366
 31
0.0
 11
6.2268905819
 21
4.4555500158
 31
0.0
 11
6.2331066517
 21
4.4393071761
 31
0.0
 11
6.2387297665
 21
4.4228497851
 31
0.0
 11
6.2481716475
 21
4.3893786387
 31
0.0
 11
6.25516907
 21
4.3553124532
 31
0.0
 11
6.259681976
 21
4.3208286256
 31
0.0
 11
6.2616909107
 21
4.2861086564
 31
0.0
 11
6.2617516377
 21
4.2687170973
 31
0.0
 11
6.261182126
 21
4.2513348424
 31
0.0
 11
6.2581600675
 21
4.2166890467
 31
0.0
 11
6.2557116765
 21
4.199470899
 31
0.0
 11
6.2526412456
 21
4.1823528288
 31
0.0
 11
6.2446523907
 21
4.1485058693
 31
0.0
 11
6.2342387878
 21
4.1153243749
 31
0.0
 11
6.2214511165
 21
4.0829829939
 31
0.0
 11
6.2063595224
 21
4.051649574
 31
0.0
 11
6.1979738464
 21
4.0364125433
 31
0.0
 11
6.1890415564
 21
4.0214892738
 31
0.0
 11
6.1695874614
 21
3.9926599715
 31
0.0
 11
6.1481015395
 21
3.9653114783
 31
0.0
 11
6.1246932001
 21
3.9395894907
 31
0.0
 11
6.099488412
 21
3.9156257242
 31
0.0
 11
6.086252941
 21
3.9043432987
 31
0.0
 11
6.0726177116
 21
3.8935477376
 31
0.0
 11
6.0442217571
 21
3.8734698828
 31
0.0
 11
6.0294982465
 21
3.8642135019
 31
0.0
 11
6.0144492144
 21
3.8554960588
 31
0.0
 11
5.9834542057
 21
3.8397222773
 31
0.0
 11
5.9514025851
 21
3.8262275209
 31
0.0
 11
5.9184618021
 21
3.8150858445
 31
0.0
 11
5.884799315
 21
3.8063525404
 31
0.0
 11
5.8677497642
 21
3.8029037475
 31
0.0
 11
5.8505830908
 21
3.8000743669
 31
0.0
 11
5.8333244338
 21
3.7978674703
 31
0.0
 11
5.8160005792
 21
3.796285029
 31
0.0
 11
5.78126445
 21
3.7950013787
 31
0.0
  0
SPLINE
  5
27F
100
AcDbEntity
  8
0
100
AcDbSpline
 62
6
  6
CONTINUOUS
 70
0
 71
3
 72
53
 73
49
 74
47
 42
0.0000001
 43
0.0000001
 44
0.0000000001
 12
-1.1483677266
 22
-0.0008258757
 32
0.0
 13
0.7910859528
 23
0.8324254518
 33
0.0
 40
0.0
 40
0.0
 40
0.0
 40
0.0
 40
0.0312301257
 40
0.0468602317
 40
0.0624934665
 40
0.078126021
 40
0.0937553475
 40
0.1250018373
 40
0.1562455183
 40
0.1874921279
 40
0.2187404049
 40
0.2343669349
 40
0.2499932174
 40
0.2812403678
 40
0.2968665374
 40
0.3124928494
 40
0.3281194431
 40
0.343746293
 40
0.359373284
 40
0.3750002999
 40
0.3906273066
 40
0.4062543728
 40
0.4375033757
 40
0.4531302813
 40
0.4687570054
 40
0.5000050376
 40
0.5312526211
 40
0.5468787781
 40
0.5625049305
 40
0.5937522466
 40
0.609378579
 40
0.62500506
 40
0.6562534944
 40
0.671880426
 40
0.6875072796
 40
0.718755602
 40
0.7500039505
 40
0.7656306411
 40
0.781257337
 40
0.8125053841
 40
0.8437516911
 40
0.8749958129
 40
0.906243341
 40
0.9218731961
 40
0.9375061495
 40
0.9531396068
 40
0.9687698138
 40
1.0
 40
1.0
 40
1.0
 40
1.0
 10
5.78126445
 20
3.7838805011
 30
0.0
 10
5.7693098939
 20
3.7838719037
 30
0.0
 10
5.7513628362
 20
3.78451617
 30
0.0
 10
5.7275352104
 20
3.78667622
 30
0.0
 10
5.7097237723
 20
3.7889463142
 30
0.0
 10
5.6920073715
 20
3.7918639637
 30
0.0
 10
5.6685515044
 20
3.7966136882
 30
0.0
 10
5.6395834423
 20
3.8041491687
 30
0.0
 10
5.6055778666
 20
3.8156966642
 30
0.0
 10
5.5725045404
 20
3.8296940008
 30
0.0
 10
5.5458595741
 20
3.8433325401
 30
0.0
 10
5.525186536
 20
3.855384272
 30
0.0
 10
5.5049681111
 20
3.8681823049
 30
0.0
 10
5.4854616471
 20
3.8820774223
 30
0.0
 10
5.4667592919
 20
3.8970032021
 30
0.0
 10
5.4531479747
 20
3.9087036718
 30
0.0
 10
5.4399728286
 20
3.9208930635
 30
0.0
 10
5.4272498015
 20
3.9335541098
 30
0.0
 10
5.4149956713
 20
3.9466697344
 30
0.0
 10
5.4032269679
 20
3.9602226161
 30
0.0
 10
5.3919604326
 20
3.9741962282
 30
0.0
 10
5.3776304155
 20
3.9933605395
 30
0.0
 10
5.364355804
 20
4.0132959937
 30
0.0
 10
5.3521995323
 20
4.0339078082
 30
0.0
 10
5.3408030774
 20
4.0549495162
 30
0.0
 10
5.3280086607
 20
4.0820097035
 30
0.0
 10
5.317214378
 20
4.1099278217
 30
0.0
 10
5.3098184113
 20
4.1326852272
 30
0.0
 10
5.3032573163
 20
4.1556965222
 30
0.0
 10
5.2979566281
 20
4.1790519254
 30
0.0
 10
5.2939417224
 20
4.2026413864
 30
0.0
 10
5.2907900177
 20
4.2263620564
 30
0.0
 10
5.2889377424
 20
4.2502405002
 30
0.0
 10
5.2883902916
 20
4.2741635886
 30
0.0
 10
5.2887133581
 20
4.2980913036
 30
0.0
 10
5.290754917
 20
4.3279545564
 30
0.0
 10
5.2949622744
 20
4.3575901938
 30
0.0
 10
5.2996131679
 20
4.3810635321
 30
0.0
 10
5.3051174782
 20
4.4043513366
 30
0.0
 10
5.3135834192
 20
4.4330616689
 30
0.0
 10
5.3262150134
 20
4.466680197
 30
0.0
 10
5.3412624505
 20
4.4992888659
 30
0.0
 10
5.3557468646
 20
4.5254838093
 30
0.0
 10
5.3684540945
 20
4.5457643279
 30
0.0
 10
5.3785369462
 20
4.5606214821
 30
0.0
 10
5.3891539642
 20
4.5751021261
 30
0.0
 10
5.40399186
 20
4.5938708493
 30
0.0
 10
5.4158793329
 20
4.6073318944
 30
0.0
 10
5.4241145867
 20
4.615997495
 30
0.0
 11
5.78126445
 21
3.7838805011
 31
0.0
 11
5.7454237431
 21
3.7851638959
 31
0.0
 11
5.7275479203
 21
3.7867842823
 31
0.0
 11
5.709739306
 21
3.7890542922
 31
0.0
 11
5.6920260398
 21
3.7919717974
 31
0.0
 11
5.6744348112
 21
3.7955337122
 31
0.0
 11
5.6397080176
 21
3.8045670633
 31
0.0
 11
5.6057343923
 21
3.8161045217
 31
0.0
 11
5.5726887595
 21
3.8300883575
 31
0.0
 11
5.5407461807
 21
3.8464398282
 31
0.0
 11
5.5252432403
 21
3.8554776444
 31
0.0
 11
5.5100807161
 21
3.8650750894
 31
0.0
 11
5.4808542561
 21
3.8858938338
 31
0.0
 11
5.4668287919
 21
3.8970873493
 31
0.0
 11
5.4532207827
 21
3.908785058
 31
0.0
 11
5.4400482839
 21
3.9209715748
 31
0.0
 11
5.4273280076
 21
3.9336298149
 31
0.0
 11
5.415076589
 21
3.9467425962
 31
0.0
 11
5.4033106634
 21
3.9602927369
 31
0.0
 11
5.3920468059
 21
3.974263007
 31
0.0
 11
5.3813000068
 21
3.9886349136
 31
0.0
 11
5.3614106346
 21
4.0185041558
 31
0.0
 11
5.3522944601
 21
4.0339616502
 31
0.0
 11
5.3437481532
 21
4.0497411283
 31
0.0
 11
5.3284085897
 21
4.0821814819
 31
0.0
 11
5.3154691411
 21
4.1156510567
 31
0.0
 11
5.3099227741
 21
4.1327169798
 31
0.0
 11
5.3050022519
 21
4.149973752
 31
0.0
 11
5.2970603338
 21
4.184967261
 31
0.0
 11
5.2940496476
 21
4.2026576797
 31
0.0
 11
5.2916860803
 21
4.2204462946
 31
0.0
 11
5.2889096737
 21
4.2562234306
 31
0.0
 11
5.2884991155
 21
4.2741642022
 31
0.0
 11
5.2887418232
 21
4.2921079399
 31
0.0
 11
5.2911880625
 21
4.3279090373
 31
0.0
 11
5.2962318072
 21
4.3634374127
 31
0.0
 11
5.2997198565
 21
4.3810403506
 31
0.0
 11
5.3038475196
 21
4.3985043857
 31
0.0
 11
5.3139958442
 21
4.4329237333
 31
0.0
 11
5.3266179782
 21
4.4665126942
 31
0.0
 11
5.3416505934
 21
4.4990914753
 31
0.0
 11
5.3590148003
 21
4.5304940471
 31
0.0
 11
5.3685450562
 21
4.5457037339
 31
0.0
 11
5.3786258558
 21
4.5605585501
 31
0.0
 11
5.3892409879
 21
4.5750370802
 31
0.0
 11
5.4003726736
 21
4.5891175783
 31
0.0
 11
5.4241145867
 21
4.615997495
 31
0.0
  0
LINE
  5
280
100
AcDbEntity
  8
0
100
AcDbLine
 62
6
  6
CONTINUOUS
 10
5.8349413171
 20
4.7508669331
 11
5.8355177485
 21
4.7508018698
  0
LINE
  5
281
100
AcDbEntity
  8
0
100
AcDbLine
 62
6
  6
CONTINUOUS
 10
5.918054876
 20
4.7339599151
 11
5.9189109782
 21
4.7337039751
  0
SPLINE
  5
282
100
AcDbEntity
  8
0
100
AcDbSpline
 62
6
  6
CONTINUOUS
 70
0
 71
3
 72
47
 73
43
 74
41
 42
0.0000001
 43
0.0000001
 44
0.0000000001
 12
0.7514307265
 22
-0.8138549076
 32
0.0
 13
-1.1077036051
 23
-0.000818831
 33
0.0
 40
0.0
 40
0.0
 40
0.0
 40
0.0
 40
0.0156267925
 40
0.0312536671
 40
0.0625027263
 40
0.0937518202
 40
0.1250006891
 40
0.1562494454
 40
0.1718761979
 40
0.1875028851
 40
0.2187512799
 40
0.2499998275
 40
0.2812489377
 40
0.3124983442
 40
0.3281255024
 40
0.3437526376
 40
0.3750016689
 40
0.3906284972
 40
0.4062551206
 40
0.4375030803
 40
0.4687510867
 40
0.4999996313
 40
0.5312489097
 40
0.5468761846
 40
0.5625035311
 40
0.5937534441
 40
0.6250032777
 40
0.6562529345
 40
0.6875022402
 40
0.7031290853
 40
0.7187557422
 40
0.7500038761
 40
0.7812522957
 40
0.8125013651
 40
0.8437491797
 40
0.8749941947
 40
0.906241479
 40
0.9218708823
 40
0.9375034237
 40
0.9531368723
 40
0.9687675051
 40
1.0
 40
1.0
 40
1.0
 40
1.0
 10
6.1327515161
 20
4.6001152751
 30
0.0
 10
6.1366656667
 20
4.5958759612
 30
0.0
 10
6.1443414258
 20
4.5872547498
 30
0.0
 10
6.1590547772
 20
4.5694699209
 30
0.0
 10
6.1762243979
 20
4.5462554557
 30
0.0
 10
6.1947597458
 20
4.5169865049
 30
0.0
 10
6.211124548
 20
4.4864508701
 30
0.0
 10
6.2228888603
 20
4.4600827162
 30
0.0
 10
6.2311360818
 20
4.4385239998
 30
0.0
 10
6.2385958036
 20
4.4166804374
 30
0.0
 10
6.2464310042
 20
4.3888906474
 30
0.0
 10
6.2533984286
 20
4.3549544222
 30
0.0
 10
6.2578882516
 20
4.3206021691
 30
0.0
 10
6.2595535757
 20
4.2917762949
 30
0.0
 10
6.2596314717
 20
4.2686934286
 30
0.0
 10
6.2588726466
 20
4.2456234987
 30
0.0
 10
6.2568625243
 20
4.2226089064
 30
0.0
 10
6.2536108093
 20
4.1997570094
 30
0.0
 10
6.2495333556
 20
4.1770378531
 30
0.0
 10
6.2428970862
 20
4.1489380601
 30
0.0
 10
6.2325217128
 20
4.1158847632
 30
0.0
 10
6.2197791218
 20
4.0836693755
 30
0.0
 10
6.2072476213
 20
4.057656807
 30
0.0
 10
6.1961167539
 20
4.0374348549
 30
0.0
 10
6.1842599361
 20
4.017629538
 30
0.0
 10
6.1681065983
 20
3.9936962098
 30
0.0
 10
6.1467026064
 20
3.9664535213
 30
0.0
 10
6.1233815837
 20
3.94083305
 30
0.0
 10
6.1024550829
 20
3.9209386285
 30
0.0
 10
6.0848880617
 20
3.9059651518
 30
0.0
 10
6.0667903541
 20
3.8916383464
 30
0.0
 10
6.0432144663
 20
3.8749700773
 30
0.0
 10
6.0135560674
 20
3.8570656867
 30
0.0
 10
5.9826786929
 20
3.841355313
 30
0.0
 10
5.9507503938
 20
3.8279120091
 30
0.0
 10
5.9179345887
 20
3.8168140149
 30
0.0
 10
5.8899870175
 20
3.8095640684
 30
0.0
 10
5.8673605425
 20
3.8049872132
 30
0.0
 10
5.8502717295
 20
3.8021711535
 30
0.0
 10
5.8330916542
 20
3.7999747263
 30
0.0
 10
5.8101081204
 20
3.7978752709
 30
0.0
 10
5.7927965658
 20
3.7972340775
 30
0.0
 10
5.78126445
 20
3.7972255528
 30
0.0
 11
6.1327515161
 21
4.6001152751
 31
0.0
 11
6.1442617708
 21
4.5871868082
 31
0.0
 11
6.1552958265
 21
4.5738494926
 31
0.0
 11
6.1758798007
 21
4.5460200512
 31
0.0
 11
6.1943980392
 21
4.5167753028
 31
0.0
 11
6.2107498993
 21
4.4862666175
 31
0.0
 11
6.2248531277
 21
4.454655646
 31
0.0
 11
6.2310376505
 21
4.4384883529
 31
0.0
 11
6.2366320302
 21
4.4221075684
 31
0.0
 11
6.2460252294
 21
4.3887924868
 31
0.0
 11
6.2529854507
 21
4.3548853506
 31
0.0
 11
6.2574729859
 21
4.3205627088
 31
0.0
 11
6.2594684901
 21
4.2860051858
 31
0.0
 11
6.2595268727
 21
4.26869502
 31
0.0
 11
6.2589580091
 21
4.251394131
 31
0.0
 11
6.2559462877
 21
4.2169107263
 31
0.0
 11
6.2535075639
 21
4.1997734797
 31
0.0
 11
6.2504497833
 21
4.1827360294
 31
0.0
 11
6.2424950813
 21
4.1490489962
 31
0.0
 11
6.2321272714
 21
4.1160246781
 31
0.0
 11
6.2193968066
 21
4.0838365809
 31
0.0
 11
6.2043735059
 21
4.0526517281
 31
0.0
 11
6.1960260305
 21
4.0374869868
 31
0.0
 11
6.1871345776
 21
4.0226345616
 31
0.0
 11
6.1677698088
 21
3.9939422455
 31
0.0
 11
6.1463830345
 21
3.9667238128
 31
0.0
 11
6.1230831281
 21
3.9411242427
 31
0.0
 11
6.097995457
 21
3.9172745998
 31
0.0
 11
6.0848216254
 21
3.9060459135
 31
0.0
 11
6.0712499697
 21
3.8953017902
 31
0.0
 11
6.0429865555
 21
3.8753196415
 31
0.0
 11
6.0133530957
 21
3.8574314662
 31
0.0
 11
5.9825029251
 21
3.8417328816
 31
0.0
 11
5.9506014093
 21
3.8283024813
 31
0.0
 11
5.9178155342
 21
3.8172140156
 31
0.0
 11
5.884311788
 21
3.8085226005
 31
0.0
 11
5.8673426699
 21
3.8050903449
 31
0.0
 11
5.8502569244
 21
3.8022744916
 31
0.0
 11
5.8330795422
 21
3.8000781158
 31
0.0
 11
5.8158372072
 21
3.7985031898
 31
0.0
 11
5.78126445
 21
3.7972255528
 31
0.0
  0
SPLINE
  5
283
100
AcDbEntity
  8
0
100
AcDbSpline
 62
6
  6
CONTINUOUS
 70
0
 71
3
 72
49
 73
45
 74
43
 42
0.0000001
 43
0.0000001
 44
0.0000000001
 12
1.1024621629
 22
0.0008187606
 32
0.0
 13
-0.7477034802
 23
0.8101623274
 33
0.0
 40
0.0
 40
0.0
 40
0.0
 40
0.0
 40
0.0312319167
 40
0.0468625682
 40
0.062496246
 40
0.0781292219
 40
0.093759056
 40
0.1250068615
 40
0.1562518818
 40
0.1874995764
 40
0.2187488161
 40
0.2343758609
 40
0.2500027427
 40
0.2812511554
 40
0.2968777873
 40
0.3125044097
 40
0.3281311329
 40
0.3437579447
 40
0.3750064133
 40
0.4062547786
 40
0.4375032743
 40
0.4531299925
 40
0.4687566958
 40
0.5000051751
 40
0.5312535568
 40
0.5625019297
 40
0.5937504066
 40
0.6093771123
 40
0.6250038319
 40
0.656252327
 40
0.6875006708
 40
0.718749083
 40
0.7499975349
 40
0.7656242331
 40
0.7812509712
 40
0.812499467
 40
0.8281262081
 40
0.8437529048
 40
0.8750013451
 40
0.9062497575
 40
0.9374980865
 40
0.9687465754
 40
0.9843732971
 40
1.0
 40
1.0
 40
1.0
 40
1.0
 10
5.78126445
 20
3.7994497276
 30
0.0
 10
5.7927417855
 20
3.7994582514
 30
0.0
 10
5.8099712143
 20
3.8000964844
 30
0.0
 10
5.8328458764
 20
3.8021859481
 30
0.0
 10
5.8499449226
 20
3.8043718823
 30
0.0
 10
5.8669533257
 20
3.8071743387
 30
0.0
 10
5.8894733242
 20
3.8117292452
 30
0.0
 10
5.9172890215
 20
3.8189446813
 30
0.0
 10
5.9499501846
 20
3.8299892325
 30
0.0
 10
5.9817271969
 20
3.8433679181
 30
0.0
 10
6.0073394376
 20
3.8563989286
 30
0.0
 10
6.0272196866
 20
3.8679124384
 30
0.0
 10
6.0466692315
 20
3.8801380176
 30
0.0
 10
6.0654440258
 20
3.8934107311
 30
0.0
 10
6.0834564613
 20
3.907668404
 30
0.0
 10
6.0965716382
 20
3.9188454467
 30
0.0
 10
6.1092734931
 20
3.930490023
 30
0.0
 10
6.1256354107
 20
3.9466156456
 30
0.0
 10
6.1449810498
 20
3.9678655855
 30
0.0
 10
6.1662847229
 20
3.9949755489
 30
0.0
 10
6.1823625182
 20
4.0187937276
 30
0.0
 10
6.194164814
 20
4.0385032143
 30
0.0
 10
6.2052449983
 20
4.0586275648
 30
0.0
 10
6.2177190553
 20
4.0845155222
 30
0.0
 10
6.23040519
 20
4.1165766925
 30
0.0
 10
6.240735349
 20
4.1494726661
 30
0.0
 10
6.2473430748
 20
4.1774391959
 30
0.0
 10
6.2514049606
 20
4.2000502724
 30
0.0
 10
6.2546443285
 20
4.2227937582
 30
0.0
 10
6.2571480015
 20
4.2514210302
 30
0.0
 10
6.2576630807
 20
4.2858970298
 30
0.0
 10
6.2556788298
 20
4.3203196829
 30
0.0
 10
6.2519585067
 20
4.348814378
 30
0.0
 10
6.2477515612
 20
4.3713990035
 30
0.0
 10
6.2427288745
 20
4.3938158784
 30
0.0
 10
6.2364928099
 20
4.4159465763
 30
0.0
 10
6.2290725385
 20
4.437687854
 30
0.0
 10
6.2208690719
 20
4.4591463435
 30
0.0
 10
6.209164267
 20
4.4853910872
 30
0.0
 10
6.1928832513
 20
4.5157849357
 30
0.0
 10
6.1744422505
 20
4.5449188683
 30
0.0
 10
6.1573578655
 20
4.5680257361
 30
0.0
 10
6.1427186609
 20
4.5857297447
 30
0.0
 10
6.1350813336
 20
4.5943119321
 30
0.0
 10
6.1311866202
 20
4.5985319875
 30
0.0
 11
5.78126445
 21
3.7994497276
 31
0.0
 11
5.8156729751
 21
3.8007213891
 31
0.0
 11
5.8328337469
 21
3.8022888246
 31
0.0
 11
5.8499301192
 21
3.8044746873
 31
0.0
 11
5.8669355404
 21
3.8072769936
 31
0.0
 11
5.8838248879
 21
3.8106928136
 31
0.0
 11
5.9171707878
 21
3.8193427426
 31
0.0
 11
5.9498018281
 21
3.8303778664
 31
0.0
 11
5.9815525821
 21
3.8437439244
 31
0.0
 11
6.0122574424
 21
3.8593673299
 31
0.0
 11
6.0271659281
 21
3.868001505
 31
0.0
 11
6.0417518768
 21
3.8771697014
 31
0.0
 11
6.0698825519
 21
3.8970564194
 31
0.0
 11
6.0833905935
 21
3.9077488957
 31
0.0
 11
6.0965027152
 21
3.918923337
 31
0.0
 11
6.1092018926
 21
3.9305650981
 31
0.0
 11
6.1214722032
 21
3.9426581766
 31
0.0
 11
6.1446626847
 21
3.9681340916
 31
0.0
 11
6.1659495399
 21
3.9952206679
 31
0.0
 11
6.1852239961
 21
4.0237744431
 31
0.0
 11
6.194074546
 21
4.0385550818
 31
0.0
 11
6.2023838869
 21
4.0536465961
 31
0.0
 11
6.2173386948
 21
4.0846816601
 31
0.0
 11
6.2300125289
 21
4.1167158294
 31
0.0
 11
6.2403351479
 21
4.1495830919
 31
0.0
 11
6.2482562406
 21
4.1831103584
 31
0.0
 11
6.2513021368
 21
4.200066819
 31
0.0
 11
6.2537316319
 21
4.2171225254
 31
0.0
 11
6.2567331324
 21
4.2514418156
 31
0.0
 11
6.2572465266
 21
4.2858881162
 31
0.0
 11
6.255265499
 21
4.3202813121
 31
0.0
 11
6.2508044566
 21
4.3544415009
 31
0.0
 11
6.2476495888
 21
4.3713780167
 31
0.0
 11
6.2438831135
 21
4.388189142
 31
0.0
 11
6.234539482
 21
4.4213481421
 31
0.0
 11
6.2289746249
 21
4.4376525204
 31
0.0
 11
6.2228226956
 21
4.4537445204
 31
0.0
 11
6.2087916436
 21
4.4852079612
 31
0.0
 11
6.1925232402
 21
4.5155749738
 31
0.0
 11
6.1740990168
 21
4.5446843892
 31
0.0
 11
6.153618
 21
4.5723854752
 31
0.0
 11
6.1426393696
 21
4.5856621209
 31
0.0
 11
6.1311866202
 21
4.5985319875
 31
0.0
  0
LINE
  5
284
100
AcDbEntity
  8
0
100
AcDbLine
 62
6
  6
CONTINUOUS
 10
5.2818207393
 20
4.2758406664
 11
5.2818205314
 21
4.2760457898
  0
SPLINE
  5
285
100
AcDbEntity
  8
0
100
AcDbSpline
 62
6
  6
CONTINUOUS
 70
0
 71
3
 72
48
 73
44
 74
42
 42
0.0000001
 43
0.0000001
 44
0.0000000001
 12
-1.1588010799
 22
-0.000825916
 32
0.0
 13
0.7984606685
 23
0.8398102082
 33
0.0
 40
0.0
 40
0.0
 40
0.0
 40
0.0
 40
0.0312322689
 40
0.0468628223
 40
0.0624961764
 40
0.0781286112
 40
0.0937580411
 40
0.1250057523
 40
0.1406310333
 40
0.1562567445
 40
0.1875053193
 40
0.2187548991
 40
0.2500034561
 40
0.281251444
 40
0.296877998
 40
0.3125047098
 40
0.3437535617
 40
0.3750026061
 40
0.4062516897
 40
0.4375006106
 40
0.4531273962
 40
0.4687540671
 40
0.5000021079
 40
0.5156286203
 40
0.5312551136
 40
0.5625032727
 40
0.5937518415
 40
0.62500096
 40
0.6562506719
 40
0.6718781088
 40
0.6875055404
 40
0.7187552809
 40
0.7500044794
 40
0.7812530454
 40
0.8125013016
 40
0.8281278935
 40
0.8437545221
 40
0.8750027319
 40
0.8906293346
 40
0.906255851
 40
0.9375037902
 40
0.9687517929
 40
1.0
 40
1.0
 40
1.0
 40
1.0
 10
5.78126445
 20
3.7794321512
 30
0.0
 10
5.7692004543
 20
3.7794235528
 30
0.0
 10
5.7510893406
 20
3.780073666
 30
0.0
 10
5.7270441977
 20
3.782253628
 30
0.0
 10
5.70907082
 20
3.7845446835
 30
0.0
 10
5.6911934722
 20
3.7874896374
 30
0.0
 10
5.6675245657
 20
3.7922832884
 30
0.0
 10
5.6441349806
 20
3.7983683319
 30
0.0
 10
5.6211343628
 20
3.8057149942
 30
0.0
 10
5.5984162918
 20
3.8138961687
 30
0.0
 10
5.5705996478
 20
3.8256694643
 30
0.0
 10
5.5383380747
 20
3.8421840871
 30
0.0
 10
5.5073677557
 20
3.8610088179
 30
0.0
 10
5.4827668421
 20
3.8785346795
 30
0.0
 10
5.4638946805
 20
3.8935982119
 30
0.0
 10
5.4455848792
 20
3.9093410271
 30
0.0
 10
5.4237909582
 20
3.9302556126
 30
0.0
 10
5.399535209
 20
3.957185342
 30
0.0
 10
5.3773091133
 20
3.9858131912
 30
0.0
 10
5.3605685511
 20
4.0109557884
 30
0.0
 10
5.3483042191
 20
4.0317567625
 30
0.0
 10
5.3368075582
 20
4.0529907391
 30
0.0
 10
5.326478058
 20
4.0748395816
 30
0.0
 10
5.3173641242
 20
4.0971998668
 30
0.0
 10
5.3090715608
 20
4.1198781643
 30
0.0
 10
5.3002649256
 20
4.1487711293
 30
0.0
 10
5.292244947
 20
4.1841150991
 30
0.0
 10
5.2868238581
 20
4.2199504772
 30
0.0
 10
5.2844891226
 20
4.2500666006
 30
0.0
 10
5.2839393943
 20
4.2742084373
 30
0.0
 10
5.2842712296
 20
4.2983542702
 30
0.0
 10
5.2863348492
 20
4.3284902216
 30
0.0
 10
5.2914318654
 20
4.3643731356
 30
0.0
 10
5.2991317003
 20
4.3997883024
 30
0.0
 10
5.3076762464
 20
4.4287598966
 30
0.0
 10
5.3157618055
 20
4.4515129396
 30
0.0
 10
5.3246716042
 20
4.4739555103
 30
0.0
 10
5.3348011269
 20
4.4958978303
 30
0.0
 10
5.3461021841
 20
4.5172364786
 30
0.0
 10
5.3581736166
 20
4.5381493303
 30
0.0
 10
5.3746808084
 20
4.5634451573
 30
0.0
 10
5.3966372426
 20
4.5922765845
 30
0.0
 10
5.4126407604
 20
4.6103837109
 30
0.0
 10
5.4209575819
 20
4.619131232
 30
0.0
 11
5.78126445
 21
3.7794321512
 31
0.0
 11
5.7450956388
 21
3.7807274049
 31
0.0
 11
5.7270569055
 21
3.7823627162
 31
0.0
 11
5.709086403
 21
3.7846537351
 31
0.0
 11
5.6912124515
 21
3.7875983887
 31
0.0
 11
5.673461404
 21
3.7911932882
 31
0.0
 11
5.6384179538
 21
3.8003099091
 31
0.0
 11
5.6211698796
 21
3.8058192461
 31
0.0
 11
5.6041337923
 21
3.81195428
 31
0.0
 11
5.5707862862
 21
3.8260671287
 31
0.0
 11
5.5385529077
 21
3.8425693195
 31
0.0
 11
5.5076091895
 21
3.8613765913
 31
0.0
 11
5.4781174394
 21
3.8823864957
 31
0.0
 11
5.46396506
 21
3.8936830633
 31
0.0
 11
5.4502341814
 21
3.9054886499
 31
0.0
 11
5.4241070503
 21
3.9305610436
 31
0.0
 11
5.3998734978
 21
3.9574683475
 31
0.0
 11
5.3776654096
 21
3.9860703086
 31
0.0
 11
5.3575972186
 21
4.0162120639
 31
0.0
 11
5.3484001429
 21
4.0318109677
 31
0.0
 11
5.3397782655
 21
4.0477348623
 31
0.0
 11
5.3243014326
 21
4.0804709506
 31
0.0
 11
5.3174668029
 21
4.097239623
 31
0.0
 11
5.3112481529
 21
4.1142463313
 31
0.0
 11
5.3006895888
 21
4.1488831684
 31
0.0
 11
5.2926781528
 21
4.1841966935
 31
0.0
 11
5.2872604763
 21
4.2200006468
 31
0.0
 11
5.284461593
 21
4.2561045293
 31
0.0
 11
5.2840495988
 21
4.2742089376
 31
0.0
 11
5.2842982416
 21
4.2923163197
 31
0.0
 11
5.2867716723
 21
4.3284439909
 31
0.0
 11
5.291865728
 21
4.3642955124
 31
0.0
 11
5.2995572919
 21
4.399680082
 31
0.0
 11
5.3098013112
 21
4.4344113646
 31
0.0
 11
5.3158648395
 21
4.4514741163
 31
0.0
 11
5.3225463556
 21
4.4683045279
 31
0.0
 11
5.3377233654
 21
4.5011809085
 31
0.0
 11
5.3461985113
 21
4.5171832903
 31
0.0
 11
5.3552510996
 21
4.5328661265
 31
0.0
 11
5.3750388593
 21
4.5631913615
 31
0.0
 11
5.3969786598
 21
4.5919980587
 31
0.0
 11
5.4209575819
 21
4.619131232
 31
0.0
  0
SPLINE
  5
286
100
AcDbEntity
  8
0
100
AcDbSpline
 62
6
  6
CONTINUOUS
 70
0
 71
3
 72
48
 73
44
 74
42
 42
0.0000001
 43
0.0000001
 44
0.0000000001
 12
-1.1431015943
 22
-0.000825821
 32
0.0
 13
0.7873913272
 23
0.8286717292
 33
0.0
 40
0.0
 40
0.0
 40
0.0
 40
0.0
 40
0.0312324288
 40
0.0468631176
 40
0.0624965752
 40
0.0781290259
 40
0.0937583142
 40
0.1250053673
 40
0.1406302141
 40
0.1562554704
 40
0.1875031162
 40
0.2187518979
 40
0.2500000486
 40
0.281247995
 40
0.2968746205
 40
0.3125014506
 40
0.3437506285
 40
0.375000109
 40
0.4062497919
 40
0.4374995027
 40
0.4531267767
 40
0.4687539917
 40
0.5000030482
 40
0.5156298955
 40
0.5312565172
 40
0.5625043346
 40
0.5937520819
 40
0.6250002055
 40
0.6562489307
 40
0.6718759297
 40
0.6875029866
 40
0.7187521339
 40
0.7500008979
 40
0.7812492085
 40
0.8124973934
 40
0.8281240423
 40
0.8437508028
 40
0.8749995049
 40
0.8906264863
 40
0.906253493
 40
0.9375025978
 40
0.9687515363
 40
1.0
 40
1.0
 40
1.0
 40
1.0
 10
5.78126445
 20
3.7861046767
 30
0.0
 10
5.769363837
 20
3.7860960792
 30
0.0
 10
5.7514979773
 20
3.7867371874
 30
0.0
 10
5.7277784088
 20
3.7888871875
 30
0.0
 10
5.7100483856
 20
3.7911467879
 30
0.0
 10
5.6924131594
 20
3.7940512895
 30
0.0
 10
5.6690650498
 20
3.79877913
 30
0.0
 10
5.6459925754
 20
3.8047807188
 30
0.0
 10
5.6233038049
 20
3.8120266402
 30
0.0
 10
5.6008937631
 20
3.8200956001
 30
0.0
 10
5.5734539826
 20
3.8317072347
 30
0.0
 10
5.5416290734
 20
3.8479955201
 30
0.0
 10
5.5110773705
 20
3.8665626691
 30
0.0
 10
5.4868081735
 20
3.8838486132
 30
0.0
 10
5.4681902505
 20
3.8987063516
 30
0.0
 10
5.4501268731
 20
3.9142342738
 30
0.0
 10
5.4286256291
 20
3.9348632828
 30
0.0
 10
5.4046951298
 20
3.9614258332
 30
0.0
 10
5.3827662878
 20
3.9896636945
 30
0.0
 10
5.3662487892
 20
4.0144640249
 30
0.0
 10
5.3541475178
 20
4.0349821672
 30
0.0
 10
5.3428034048
 20
4.0559276142
 30
0.0
 10
5.3326104686
 20
4.0774796399
 30
0.0
 10
5.3236164126
 20
4.0995361263
 30
0.0
 10
5.3154325514
 20
4.1219058925
 30
0.0
 10
5.3067407756
 20
4.1504056442
 30
0.0
 10
5.2988237766
 20
4.1852686266
 30
0.0
 10
5.293469715
 20
4.2206164393
 30
0.0
 10
5.2911608544
 20
4.2503231712
 30
0.0
 10
5.2906138268
 20
4.2741371383
 30
0.0
 10
5.2909362461
 20
4.2979553703
 30
0.0
 10
5.2929652113
 20
4.3276829517
 30
0.0
 10
5.297985158
 20
4.3630803643
 30
0.0
 10
5.3055722902
 20
4.3980172307
 30
0.0
 10
5.3139937535
 20
4.4265983659
 30
0.0
 10
5.3219642139
 20
4.4490451709
 30
0.0
 10
5.3307476393
 20
4.4711862112
 30
0.0
 10
5.3407341735
 20
4.4928343253
 30
0.0
 10
5.3518765967
 20
4.5138873918
 30
0.0
 10
5.3637793054
 20
4.5345207994
 30
0.0
 10
5.3800563828
 20
4.5594793064
 30
0.0
 10
5.4017074919
 20
4.5879272255
 30
0.0
 10
5.4174890762
 20
4.60579416
 30
0.0
 10
5.4256906659
 20
4.6144257329
 30
0.0
 11
5.78126445
 21
3.7861046767
 31
0.0
 11
5.7455854567
 21
3.7873819469
 31
0.0
 11
5.7277909284
 21
3.7889947838
 31
0.0
 11
5.7100637184
 21
3.7912543466
 31
0.0
 11
5.6924318169
 21
3.794158569
 31
0.0
 11
5.6749212981
 21
3.7977041302
 31
0.0
 11
5.6403529931
 21
3.8066956938
 31
0.0
 11
5.6233388221
 21
3.8121294653
 31
0.0
 11
5.6065337167
 21
3.8181803367
 31
0.0
 11
5.5736380951
 21
3.8320994749
 31
0.0
 11
5.5418410827
 21
3.8483754414
 31
0.0
 11
5.5113155384
 21
3.866925285
 31
0.0
 11
5.4822214423
 21
3.8876477957
 31
0.0
 11
5.4682596793
 21
3.898790044
 31
0.0
 11
5.4547135867
 21
3.9104344526
 31
0.0
 11
5.4289374374
 21
3.9351645876
 31
0.0
 11
5.4050288111
 21
3.9617049669
 31
0.0
 11
5.3831177123
 21
3.9899172769
 31
0.0
 11
5.3633169655
 21
4.0196487987
 31
0.0
 11
5.354242144
 21
4.0350356314
 31
0.0
 11
5.3457346437
 21
4.0507431786
 31
0.0
 11
5.3304623633
 21
4.0830346167
 31
0.0
 11
5.3237176428
 21
4.0995754246
 31
0.0
 11
5.3175805008
 21
4.1163508786
 31
0.0
 11
5.3071595681
 21
4.1505163948
 31
0.0
 11
5.2992509687
 21
4.1853492338
 31
0.0
 11
5.2939003355
 21
4.2206660013
 31
0.0
 11
5.291132501
 21
4.2562790826
 31
0.0
 11
5.2907225168
 21
4.2741376293
 31
0.0
 11
5.2909640837
 21
4.2919993142
 31
0.0
 11
5.2933961104
 21
4.3276373864
 31
0.0
 11
5.2984130629
 21
4.363003837
 31
0.0
 11
5.3059920252
 21
4.3979105404
 31
0.0
 11
5.316088642
 21
4.4321737375
 31
0.0
 11
5.322065819
 21
4.4490068844
 31
0.0
 11
5.3286525598
 21
4.4656111273
 31
0.0
 11
5.3436154145
 21
4.4980466567
 31
0.0
 11
5.3519716262
 21
4.513834905
 31
0.0
 11
5.3608976443
 21
4.5293081816
 31
0.0
 11
5.3804096475
 21
4.5592291644
 31
0.0
 11
5.4020445001
 21
4.5876527996
 31
0.0
 11
5.4256906659
 21
4.6144257329
 31
0.0
  0
SPLINE
  5
287
100
AcDbEntity
  8
0
100
AcDbSpline
 62
6
  6
CONTINUOUS
 70
0
 71
3
 72
49
 73
45
 74
43
 42
0.0000001
 43
0.0000001
 44
0.0000000001
 12
-0.828041994
 22
0.7862253277
 32
0.0
 13
1.1418419771
 23
0.0008421115
 33
0.0
 40
0.0
 40
0.0
 40
0.0
 40
0.0
 40
0.0312535344
 40
0.0468871199
 40
0.0625185189
 40
0.0937680177
 40
0.1250132448
 40
0.1562603553
 40
0.1875089879
 40
0.2031358043
 40
0.2187623634
 40
0.2500097753
 40
0.2656361456
 40
0.2812626329
 40
0.3125107615
 40
0.3437588796
 40
0.3750066001
 40
0.4062540335
 40
0.4218802547
 40
0.437506454
 40
0.4687536172
 40
0.4843799623
 40
0.5000064238
 40
0.5312545597
 40
0.5625030886
 40
0.5937519496
 40
0.6250010248
 40
0.6406281479
 40
0.6562552425
 40
0.6875038721
 40
0.7031305954
 40
0.7187570633
 40
0.7500043256
 40
0.7812516532
 40
0.8124995441
 40
0.843746701
 40
0.859371944
 40
0.8749966598
 40
0.9062428639
 40
0.9218716584
 40
0.9375036174
 40
0.9531368937
 40
0.9687676166
 40
1.0
 40
1.0
 40
1.0
 40
1.0
 10
5.4511227929
 20
3.9288501799
 30
0.0
 10
5.4424963799
 20
3.9370409533
 30
0.0
 10
5.4300055509
 20
3.949817031
 30
0.0
 10
5.4143419126
 20
3.967735172
 30
0.0
 10
5.3993579386
 20
3.9862248306
 30
0.0
 10
5.3819396806
 20
4.0103618699
 30
0.0
 10
5.3632520868
 20
4.0407940553
 30
0.0
 10
5.3468843875
 20
4.0725338571
 30
0.0
 10
5.3352444648
 20
4.0999276897
 30
0.0
 10
5.3271765972
 20
4.1223121637
 30
0.0
 10
5.319949486
 20
4.1449810566
 30
0.0
 10
5.3139926394
 20
4.168038648
 30
0.0
 10
5.309335043
 20
4.1913711769
 30
0.0
 10
5.3055502816
 20
4.2148618594
 30
0.0
 10
5.3024640351
 20
4.2444657218
 30
0.0
 10
5.301408436
 20
4.2801628425
 30
0.0
 10
5.3030159898
 20
4.3158391137
 30
0.0
 10
5.30655991
 20
4.3453911508
 30
0.0
 10
5.3107071366
 20
4.3688201148
 30
0.0
 10
5.3157245157
 20
4.3920776638
 30
0.0
 10
5.3220362921
 20
4.415040357
 30
0.0
 10
5.3296113305
 20
4.4375950336
 30
0.0
 10
5.3380219477
 20
4.4598525513
 30
0.0
 10
5.3500806956
 20
4.4870648231
 30
0.0
 10
5.3669332453
 20
4.5185518296
 30
0.0
 10
5.3860848341
 20
4.5486961833
 30
0.0
 10
5.4038671495
 20
4.5725656955
 30
0.0
 10
5.4191250531
 20
4.5908242403
 30
0.0
 10
5.4350523356
 20
4.6085010185
 30
0.0
 10
5.4519552332
 20
4.6252779216
 30
0.0
 10
5.4697500483
 20
4.6410726142
 30
0.0
 10
5.488120665
 20
4.6561936931
 30
0.0
 10
5.5121206912
 20
4.6737968888
 30
0.0
 10
5.5424051567
 20
4.6927232305
 30
0.0
 10
5.5740149376
 20
4.7093417191
 30
0.0
 10
5.6013140873
 20
4.7211996197
 30
0.0
 10
5.6236309365
 20
4.7294472914
 30
0.0
 10
5.6462385446
 20
4.7368581399
 30
0.0
 10
5.6692463759
 20
4.7430036779
 30
0.0
 10
5.6925421395
 20
4.7478532538
 30
0.0
 10
5.7101437449
 20
4.7508377787
 30
0.0
 10
5.72784503
 20
4.7531654092
 30
0.0
 10
5.7515314051
 20
4.755390232
 30
0.0
 10
5.7693769679
 20
4.7560695439
 30
0.0
 10
5.78126445
 20
4.756078311
 30
0.0
 11
5.4511227929
 21
3.9288501799
 31
0.0
 11
5.4261747308
 21
3.9543673924
 31
0.0
 11
5.4144262294
 21
3.9678074107
 31
0.0
 11
5.4031886455
 21
3.9816742402
 31
0.0
 11
5.3823074787
 21
4.0106083367
 31
0.0
 11
5.3636390491
 21
4.0410114079
 31
0.0
 11
5.3472847619
 21
4.0727217808
 31
0.0
 11
5.3333317151
 21
4.1055614972
 31
0.0
 11
5.3272816506
 21
4.1223478669
 31
0.0
 11
5.3218616354
 21
4.1393478209
 31
0.0
 11
5.3129368319
 21
4.1738931955
 31
0.0
 11
5.3094441702
 21
4.1913908704
 31
0.0
 11
5.3066059115
 21
4.2090066691
 31
0.0
 11
5.3029053311
 21
4.2444946828
 31
0.0
 11
5.301852297
 21
4.280159563
 31
0.0
 11
5.3034568366
 21
4.3158034351
 31
0.0
 11
5.3077058187
 21
4.3512291733
 31
0.0
 11
5.3108159187
 21
4.3687987069
 31
0.0
 11
5.3145783731
 21
4.3862401599
 31
0.0
 11
5.3240348369
 21
4.4206435033
 31
0.0
 11
5.329715756
 21
4.4375578004
 31
0.0
 11
5.3360228544
 21
4.454248862
 31
0.0
 11
5.3504776937
 21
4.4868701991
 31
0.0
 11
5.367316325
 21
4.5183278932
 31
0.0
 11
5.3864491844
 21
4.5484457748
 31
0.0
 11
5.4077666398
 21
4.5770593493
 31
0.0
 11
5.4192087537
 21
4.5907515374
 31
0.0
 11
5.4311529064
 21
4.604008009
 31
0.0
 11
5.4564772808
 21
4.6291438461
 31
0.0
 11
5.4698221528
 21
4.6409885109
 31
0.0
 11
5.4835985041
 21
4.6523279745
 31
0.0
 11
5.5123682175
 21
4.673430733
 31
0.0
 11
5.5426258634
 21
4.6923384832
 31
0.0
 11
5.5742066082
 21
4.7089436211
 31
0.0
 11
5.6069322288
 21
4.7231579799
 31
0.0
 11
5.6236675156
 21
4.729342764
 31
0.0
 11
5.6406208125
 21
4.734900247
 31
0.0
 11
5.6750906207
 21
4.7441072514
 31
0.0
 11
5.6925617272
 21
4.7477440823
 31
0.0
 11
5.7101597424
 21
4.7507281968
 31
0.0
 11
5.7278580738
 21
4.7530558228
 31
0.0
 11
5.7456276883
 21
4.7547248021
 31
0.0
 11
5.78126445
 21
4.756078311
 31
0.0
  0
SPLINE
  5
288
100
AcDbEntity
  8
0
100
AcDbSpline
 62
6
  6
CONTINUOUS
 70
0
 71
3
 72
49
 73
45
 74
43
 42
0.0000001
 43
0.0000001
 44
0.0000000001
 12
-0.8318439843
 22
0.7898653591
 32
0.0
 13
1.1471054837
 23
0.0008420922
 33
0.0
 40
0.0
 40
0.0
 40
0.0
 40
0.0
 40
0.0312490529
 40
0.0468763496
 40
0.0625036773
 40
0.0937531175
 40
0.1250022513
 40
0.1562510287
 40
0.1874994321
 40
0.2031260859
 40
0.2187526857
 40
0.2500004979
 40
0.2656270908
 40
0.281253755
 40
0.3125020271
 40
0.3437501134
 40
0.3749978746
 40
0.4062454377
 40
0.4218717983
 40
0.437498203
 40
0.4687458463
 40
0.4843724309
 40
0.4999991279
 40
0.531247678
 40
0.5624965604
 40
0.5937458235
 40
0.6249952835
 40
0.6406226028
 40
0.656249904
 40
0.687498919
 40
0.7031258115
 40
0.7187524444
 40
0.75000005
 40
0.7812477391
 40
0.8124960369
 40
0.8437436129
 40
0.8593691008
 40
0.8749941436
 40
0.906241184
 40
0.9218704365
 40
0.9375028287
 40
0.9531364322
 40
0.9687673846
 40
1.0
 40
1.0
 40
1.0
 40
1.0
 10
5.4495665085
 20
3.9272601504
 30
0.0
 10
5.4409017296
 20
3.9354876653
 30
0.0
 10
5.4283564235
 20
3.9483199601
 30
0.0
 10
5.412626249
 20
3.9663181308
 30
0.0
 10
5.3975778462
 20
3.9848916381
 30
0.0
 10
5.3800799401
 20
4.0091402121
 30
0.0
 10
5.3613049177
 20
4.0397143934
 30
0.0
 10
5.3448616465
 20
4.0716027594
 30
0.0
 10
5.3331687784
 20
4.0991237206
 30
0.0
 10
5.3250651953
 20
4.1216117693
 30
0.0
 10
5.3178056223
 20
4.144385532
 30
0.0
 10
5.3118216184
 20
4.1675497453
 30
0.0
 10
5.3071430967
 20
4.1909902568
 30
0.0
 10
5.3033418025
 20
4.2145895774
 30
0.0
 10
5.3002416977
 20
4.2443300463
 30
0.0
 10
5.2991824137
 20
4.2801918291
 30
0.0
 10
5.3007983357
 20
4.3160325413
 30
0.0
 10
5.3043588271
 20
4.3457209046
 30
0.0
 10
5.3085260619
 20
4.3692578978
 30
0.0
 10
5.3135671114
 20
4.3926228552
 30
0.0
 10
5.3199082461
 20
4.4156916936
 30
0.0
 10
5.3275187652
 20
4.4383505417
 30
0.0
 10
5.3359689405
 20
4.4607107211
 30
0.0
 10
5.3480835395
 20
4.4880487265
 30
0.0
 10
5.3650146297
 20
4.5196809446
 30
0.0
 10
5.3842552455
 20
4.5499642765
 30
0.0
 10
5.4021198187
 20
4.5739440827
 30
0.0
 10
5.4174486849
 20
4.5922866634
 30
0.0
 10
5.4334498252
 20
4.6100449302
 30
0.0
 10
5.4504308983
 20
4.6268993193
 30
0.0
 10
5.4683080985
 20
4.6427668381
 30
0.0
 10
5.4867638815
 20
4.6579574373
 30
0.0
 10
5.5108748383
 20
4.6756419215
 30
0.0
 10
5.5412994573
 20
4.6946554443
 30
0.0
 10
5.5730554973
 20
4.7113504486
 30
0.0
 10
5.6004808435
 20
4.7232632229
 30
0.0
 10
5.6229010066
 20
4.7315488195
 30
0.0
 10
5.6456133885
 20
4.738993843
 30
0.0
 10
5.6687278947
 20
4.7451678038
 30
0.0
 10
5.6921317151
 20
4.7500397575
 30
0.0
 10
5.7098149412
 20
4.7530379762
 30
0.0
 10
5.7275982091
 20
4.7553763007
 30
0.0
 10
5.7513940788
 20
4.7576113182
 30
0.0
 10
5.7693220819
 20
4.7582937198
 30
0.0
 10
5.78126445
 20
4.7583024867
 30
0.0
 11
5.4495665085
 21
3.9272601504
 31
0.0
 11
5.4245080616
 21
3.9528923135
 31
0.0
 11
5.4127114973
 21
3.9663900308
 31
0.0
 11
5.4014264682
 21
3.9803183006
 31
0.0
 11
5.3804501487
 21
4.009386486
 31
0.0
 11
5.3616934437
 21
4.0399336006
 31
0.0
 11
5.345263612
 21
4.0717922181
 31
0.0
 11
5.3312476352
 21
4.1047836188
 31
0.0
 11
5.3251706895
 21
4.1216475328
 31
0.0
 11
5.3197263629
 21
4.1387261145
 31
0.0
 11
5.3107611034
 21
4.1734313824
 31
0.0
 11
5.307252768
 21
4.1910100611
 31
0.0
 11
5.304402008
 21
4.208707362
 31
0.0
 11
5.3006851454
 21
4.2443592099
 31
0.0
 11
5.2996282827
 21
4.2801884869
 31
0.0
 11
5.301241098
 21
4.3159966722
 31
0.0
 11
5.3055102903
 21
4.3515857859
 31
0.0
 11
5.3086352938
 21
4.3692363713
 31
0.0
 11
5.3124155201
 21
4.3867583719
 31
0.0
 11
5.321916169
 21
4.4213207111
 31
0.0
 11
5.327623702
 21
4.4383131238
 31
0.0
 11
5.3339603943
 21
4.4550812176
 31
0.0
 11
5.3484824684
 21
4.4878531805
 31
0.0
 11
5.3653994482
 21
4.5194559543
 31
0.0
 11
5.3846212111
 21
4.5497127659
 31
0.0
 11
5.4060374727
 21
4.5784583875
 31
0.0
 11
5.4175327449
 21
4.5922136392
 31
0.0
 11
5.4295323018
 21
4.6055312261
 31
0.0
 11
5.4549738997
 21
4.6307830681
 31
0.0
 11
5.468380554
 21
4.6426823244
 31
0.0
 11
5.4822207304
 21
4.6540739671
 31
0.0
 11
5.5111235286
 21
4.6752740324
 31
0.0
 11
5.5415211615
 21
4.6942689079
 31
0.0
 11
5.5732480216
 21
4.7109505684
 31
0.0
 11
5.6061249756
 21
4.7252305533
 31
0.0
 11
5.6229377207
 21
4.7314438069
 31
0.0
 11
5.6399695614
 21
4.7370269083
 31
0.0
 11
5.6745992286
 21
4.7462764588
 31
0.0
 11
5.6921514039
 21
4.7499300717
 31
0.0
 11
5.7098310507
 21
4.752927902
 31
0.0
 11
5.7276113495
 21
4.7552662144
 31
0.0
 11
5.7454631446
 21
4.756942843
 31
0.0
 11
5.78126445
 21
4.7583024867
 31
0.0
  0
ENDSEC
  0
SECTION
  2
OBJECTS
  0
DICTIONARY
  5
C
100
AcDbDictionary
280
0
281
1
  3
ACAD_GROUP
350
D
  3
ACAD_MLINESTYLE
350
17
  3
ACAD_LAYOUT
350
1A
  3
ACAD_PLOTSETTINGS
350
19
  3
ACAD_PLOTSTYLENAME
350
E
  0
DICTIONARY
  5
D
102
{ACAD_REACTORS
330
C
102
}
100
AcDbDictionary
280
0
281
1
  0
ACDBDICTIONARYWDFLT
  5
E
102
{ACAD_REACTORS
330
C
102
}
100
AcDbDictionary
281
1
  3
Normal
350
F
100
AcDbDictionaryWithDefault
340
F
  0
DICTIONARY
  5
17
102
{ACAD_REACTORS
330
C
102
}
100
AcDbDictionary
280
0
281
1
  3
Standard
350
18
  0
DICTIONARY
  5
19
102
{ACAD_REACTORS
330
C
102
}
100
AcDbDictionary
281
1
  0
DICTIONARY
  5
1A
102
{ACAD_REACTORS
330
C
102
}
100
AcDbDictionary
281
1
  3
Model
350
289
  3
Layout1
350
28A
  0
ACDBPLACEHOLDER
  5
F
102
{ACAD_REACTORS
330
E
102
}
  0
MLINESTYLE
  5
18
102
{ACAD_REACTORS
330
17
102
}
100
AcDbMlineStyle
  2
STANDARD
 70
0
  3

 62
256
 51
90.0
 52
90.0
 71
2
 49
0.5
 62
256
  6
BYLAYER
 49
-0.5
 62
256
  6
BYLAYER
  0
LAYOUT
  5
289
102
{ACAD_REACTORS
330
1A
102
}
100
AcDbPlotSettings
  1

  2
none_device
  4
ISO_A4_(297.00_x_210.00_MM)
  6

 40
0.0
 41
0.0
 42
0.0
 43
0.0
 44
297.0
 45
210.0
 46
0.0
 47
0.0
 48
0.0
 49
0.0
140
0.0
141
0.0
142
1.0
143
1.0
 70
1024
 72
0
 73
0
 74
0
  7

 75
0
147
1.0
148
0.0
149
0.0
100
AcDbLayout
  1
Model
 70
0
 71
0
 10
0.0
 20
0.0
 11
11.6929133858
 21
8.2677165354
 12
0.0
 22
0.0
 32
0.0
 14
0.0
 24
0.0
 34
0.0
 15
0.0
 25
0.0
 35
0.0
146
0.0
 13
0.0
 23
0.0
 33
0.0
 16
1.0
 26
0.0
 36
0.0
 17
0.0
 27
1.0
 37
0.0
 76
0
330
203
345
0
346
0
  0
LAYOUT
  5
28A
102
{ACAD_REACTORS
330
1A
102
}
100
AcDbPlotSettings
  1

  2
none_device
  4
ISO_A4_(297.00_x_210.00_MM)
  6

 40
0.0
 41
0.0
 42
0.0
 43
0.0
 44
297.0
 45
210.0
 46
0.0
 47
0.0
 48
0.0
 49
0.0
140
0.0
141
0.0
142
1.0
143
1.0
 70
0
 72
0
 73
0
 74
0
  7

 75
0
147
1.0
148
0.0
149
0.0
100
AcDbLayout
  1
Layout1
 70
0
 71
1
 10
0.0
 20
0.0
 11
11.6929133858
 21
8.2677165354
 12
0.0
 22
0.0
 32
0.0
 14
0.0
 24
0.0
 34
0.0
 15
0.0
 25
0.0
 35
0.0
146
0.0
 13
0.0
 23
0.0
 33
0.0
 16
1.0
 26
0.0
 36
0.0
 17
0.0
 27
1.0
 37
0.0
 76
0
330
204
345
0
346
0
  0
ENDSEC
  0
EOF
