  0
SECTION
  2
HEADER
  9
$ACADVER
  1
AC1015
  9
$DWGCODEPAGE
  3
ANSI_1252
  9
$EXTMAX
 10
33.1102362205
 20
23.3858267717
 30
0.0
  9
$EXTMIN
 10
0.0
 20
0.0
 30
0.0
  9
$LIMMIN
 10
0.0
 20
0.0
  9
$LIMMAX
 10
33.1102362205
 20
23.3858267717
  9
$VIEWCTR
 10
16.5551181102
 20
11.6929133858
  9
$VIEWSIZE
 40
23.3858267717
  9
$CLAYER
  8
0
  9
$LTSCALE
 40
1.8210629921
  9
$CELTYPE
  6
BYLAYER
  9
$DIMSCALE
 40
1.0
  9
$DIMASZ
 40
0.1
  9
$DIMEXO
 40
0.2069389764
  9
$DIMDLI
 40
1.2581889764
  9
$DIMEXE
 40
0.595984252
  9
$DIMCEN
 40
0.297992126
  9
$DIMLFAC
 40
1.0
  9
$DIMBLK
  1
_FILLED
  9
$DIMTXT
 40
0.08
  9
$DIMTOL
 70
1
  9
$DIMLIM
 70
0
  9
$DIMTFAC
 40
1.0
  9
$DIMTP
 40
0.01
  9
$DIMTM
 40
0.01
  9
$PDMODE
 70
3
  9
$PDSIZE
 40
0.06
  9
$HANDSEED
  5
332
  9
$TILEMODE
 70
1
  9
$MEASUREMENT
 70
0
  9
$INSUNITS
 70
1
  0
ENDSEC
  0
SECTION
  2
CLASSES
  0
CLASS
  1
ACDBDICTIONARYWDFLT
  2
AcDbDictionaryWithDefault
  3
AutoCAD 2000
 90
0
280
0
281
0
  0
CLASS
  1
ACDBPLACEHOLDER
  2
AcDbPlaceHolder
  3
AutoCAD 2000
 90
0
280
0
281
0
  0
CLASS
  1
LAYOUT
  2
AcDbLayout
  3
AutoCAD 2000
 90
0
280
0
281
0
  0
ENDSEC
  0
SECTION
  2
TABLES
  0
TABLE
  2
VPORT
  5
8
100
AcDbSymbolTable
 70
2
  0
VPORT
  5
1F4
100
AcDbSymbolTableRecord
100
AcDbViewportTableRecord
  2
*ACTIVE
 70
0
 10
0.0
 20
0.0
 11
1.0
 21
1.0
 12
16.5551181102
 22
11.6929133858
 13
0.0
 23
0.0
 14
1.0
 24
1.0
 15
0.0
 25
0.0
 16
0.0
 26
0.0
 36
1.0
 17
0.0
 27
0.0
 37
0.0
 40
23.3858267717
 41
1.4158249158
 42
50.0
 43
0.0
 44
0.0
 50
0.0
 51
0.0
 71
0
 72
100
 73
1
 74
1
 75
0
 76
0
 77
0
 78
0
  0
ENDTAB
  0
TABLE
  2
LTYPE
  5
5
100
AcDbSymbolTable
 70
6
  0
LTYPE
  5
14
100
AcDbSymbolTableRecord
100
AcDbLinetypeTableRecord
  2
BYBLOCK
 70
0
  3

 72
65
 73
0
 40
0.0
  0
LTYPE
  5
15
100
AcDbSymbolTableRecord
100
AcDbLinetypeTableRecord
  2
BYLAYER
 70
0
  3

 72
65
 73
0
 40
0.0
  0
LTYPE
  5
16
100
AcDbSymbolTableRecord
100
AcDbLinetypeTableRecord
  2
CONTINUOUS
 70
64
  3
Solid line
 72
65
 73
0
 40
0.0
  0
LTYPE
  5
1F5
100
AcDbSymbolTableRecord
100
AcDbLinetypeTableRecord
  2
CENTER
 70
64
  3
____ _ ____ _ ____ _ ____ _ ____ _ ____ _ ____
 72
65
 73
4
 40
0.6
 49
0.375
 74
0
 49
-0.075
 74
0
 49
0.075
 74
0
 49
-0.075
 74
0
  0
LTYPE
  5
1F6
100
AcDbSymbolTableRecord
100
AcDbLinetypeTableRecord
  2
HIDDEN
 70
64
  3
- - - - - - - - - - - - - - - - - - - -
 72
65
 73
2
 40
0.2
 49
0.1
 74
0
 49
-0.1
 74
0
  0
LTYPE
  5
1F7
100
AcDbSymbolTableRecord
100
AcDbLinetypeTableRecord
  2
PHANTOM
 70
64
  3
_____ _ _ _____ _ _ _____ _ _ _____
 72
65
 73
6
 40
0.8
 49
0.45
 74
0
 49
-0.05
 74
0
 49
0.1
 74
0
 49
-0.05
 74
0
 49
0.1
 74
0
 49
-0.05
 74
0
  0
LTYPE
  5
1F8
100
AcDbSymbolTableRecord
100
AcDbLinetypeTableRecord
  2
DOT
 70
64
  3
. . . . . . . . . . . . . . . . . . . .
 72
65
 73
2
 40
0.2
 49
0.1
 74
0
 49
-0.1
 74
0
  0
LTYPE
  5
1F9
100
AcDbSymbolTableRecord
100
AcDbLinetypeTableRecord
  2
DASHED
 70
64
  3
- - - - - - - - - - - - - - - - - - - -
 72
65
 73
2
 40
0.2
 49
0.1
 74
0
 49
-0.1
 74
0
  0
ENDTAB
  0
TABLE
  2
LAYER
  5
2
100
AcDbSymbolTable
 70
36
  0
LAYER
  5
10
100
AcDbSymbolTableRecord
100
AcDbLayerTableRecord
  2
0
 70
0
 62
7
  6
CONTINUOUS
370
-3
390
F
  0
LAYER
  5
1FA
100
AcDbSymbolTableRecord
100
AcDbLayerTableRecord
  2
DEFAULT_1
 70
0
 62
7
  6
CENTER
370
-3
390
F
  0
LAYER
  5
1FB
100
AcDbSymbolTableRecord
100
AcDbLayerTableRecord
  2
DEFAULT_2
 70
0
 62
8
  6
HIDDEN
370
-3
390
F
  0
LAYER
  5
1FC
100
AcDbSymbolTableRecord
100
AcDbLayerTableRecord
  2
DEFAULT_3
 70
0
 62
7
  6
PHANTOM
370
-3
390
F
  0
LAYER
  5
1FD
100
AcDbSymbolTableRecord
100
AcDbLayerTableRecord
  2
DEFAULT_COORDINATE_SYSTEM
 70
0
 62
7
  6
CONTINUOUS
370
-3
390
F
  0
LAYER
  5
1FE
100
AcDbSymbolTableRecord
100
AcDbLayerTableRecord
  2
DEFAULT_DATUM_AXES
 70
0
 62
7
  6
CONTINUOUS
370
-3
390
F
  0
LAYER
  5
1FF
100
AcDbSymbolTableRecord
100
AcDbLayerTableRecord
  2
DEFAULT_DATUM_CURVES
 70
0
 62
7
  6
CONTINUOUS
370
-3
390
F
  0
LAYER
  5
200
100
AcDbSymbolTableRecord
100
AcDbLayerTableRecord
  2
DEFAULT_DATUM_PLANES
 70
0
 62
7
  6
CONTINUOUS
370
-3
390
F
  0
ENDTAB
  0
TABLE
  2
STYLE
  5
3
100
AcDbSymbolTable
 70
1
  0
STYLE
  5
11
100
AcDbSymbolTableRecord
100
AcDbTextStyleTableRecord
  2
STANDARD
 70
0
 40
0.0
 41
0.8
 50
0.0
 71
0
 42
0.2
  3
txt
  4

  0
STYLE
  5
201
100
AcDbSymbolTableRecord
100
AcDbTextStyleTableRecord
  2
TEXTSTYLE_1
 70
0
 40
0.0
 41
0.8
 50
0.0
 71
0
 42
0.2
  3
gdt
  4

  0
ENDTAB
  0
TABLE
  2
VIEW
  5
6
100
AcDbSymbolTable
 70
0
  0
ENDTAB
  0
TABLE
  2
UCS
  5
7
100
AcDbSymbolTable
 70
0
  0
ENDTAB
  0
TABLE
  2
APPID
  5
9
100
AcDbSymbolTable
 70
1
  0
APPID
  5
202
100
AcDbSymbolTableRecord
100
AcDbRegAppTableRecord
  2
ACAD
 70
0
  0
ENDTAB
  0
TABLE
  2
BLOCK_RECORD
  5
1
100
AcDbSymbolTable
 70
0
  0
BLOCK_RECORD
  5
203
100
AcDbSymbolTableRecord
100
AcDbBlockTableRecord
  2
*Model_Space
  0
BLOCK_RECORD
  5
204
100
AcDbSymbolTableRecord
100
AcDbBlockTableRecord
  2
*Paper_Space
  0
ENDTAB
  0
TABLE
  2
DIMSTYLE
  5
A
100
AcDbSymbolTable
 70
1
100
AcDbDimStyleTable
 71
0
  0
DIMSTYLE
105
205
100
AcDbSymbolTableRecord
100
AcDbDimStyleTableRecord
  2
STANDARD
 70
0
  3

  4

 40
1.0
 41
0.1
 42
0.0625
 43
0.38
 44
0.18
 45
0.0
 46
0.0
 47
0.01
 48
0.01
140
0.08
141
0.09
142
0.0
143
25.4
144
1.0
145
0.0
146
1.0
147
0.09
 71
1.0
 72
0.0
 73
1
 74
1
 75
0
 76
0
 77
0
 78
4
170
0
171
2
172
0
173
0
174
0
175
0
176
0
177
0
178
0
270
2
271
2
272
2
273
2
274
2
275
0
280
0
281
0
282
0
283
1
284
4
285
0
286
0
287
3
288
0
340
11
  0
ENDTAB
  0
ENDSEC
  0
SECTION
  2
BLOCKS
  0
BLOCK
  5
20
100
AcDbEntity
  8
0
100
AcDbBlockBegin
  2
*Model_Space
 70
0
 10
0.0
 20
0.0
 30
0.0
  3
*Model_Space
  1

  0
ENDBLK
  5
21
100
AcDbEntity
  8
0
100
AcDbBlockEnd
  0
BLOCK
  5
1C
100
AcDbEntity
  8
0
100
AcDbBlockBegin
  2
*Paper_Space
 70
0
 10
0.0
 20
0.0
 30
0.0
  3
*Paper_Space
  1

  0
ENDBLK
  5
1D
100
AcDbEntity
  8
0
100
AcDbBlockEnd
  0
ENDSEC
  0
SECTION
  2
ENTITIES
  0
LINE
  5
206
100
AcDbEntity
  8
0
100
AcDbLine
 62
7
  6
CONTINUOUS
 10
16.1940165407
 20
12.2382986049
 11
16.1940165407
 21
12.2366599869
  0
CIRCLE
  5
207
100
AcDbEntity
  8
0
100
AcDbCircle
 62
6
  6
CONTINUOUS
 10
16.1940165407
 20
11.8317986049
 40
1.1800000459
  0
CIRCLE
  5
208
100
AcDbEntity
  8
0
100
AcDbCircle
 62
6
  6
CONTINUOUS
 10
16.1940165407
 20
11.8317986049
 40
1.0000026738
  0
CIRCLE
  5
209
100
AcDbEntity
  8
0
100
AcDbCircle
 62
9
  6
CONTINUOUS
 10
16.1940165407
 20
11.8317986049
 40
0.8130026738
  0
CIRCLE
  5
20A
100
AcDbEntity
  8
0
100
AcDbCircle
 62
6
  6
CONTINUOUS
 10
16.1940165407
 20
11.8317986049
 40
0.741
  0
CIRCLE
  5
20B
100
AcDbEntity
  8
0
100
AcDbCircle
 62
7
  6
CONTINUOUS
 10
16.1940165407
 20
11.8317986049
 40
0.4225
  0
ARC
  5
20C
100
AcDbEntity
  8
0
100
AcDbCircle
 62
6
  6
CONTINUOUS
 10
16.1940165407
 20
11.8317986049
 40
0.4065
100
AcDbArc
 50
121.8816040074
 51
90.1122712304
  0
ARC
  5
20D
100
AcDbEntity
  8
0
100
AcDbCircle
 62
6
  6
CONTINUOUS
 10
16.1943391169
 20
11.8319466673
 40
0.4063467354
100
AcDbArc
 50
90.1569077307
 51
121.9125499489
  0
ARC
  5
20E
100
AcDbEntity
  8
0
100
AcDbCircle
 62
6
  6
CONTINUOUS
 10
16.1941900222
 20
11.8321178782
 40
0.4061180178
100
AcDbArc
 50
121.9074634885
 51
179.7084403436
  0
ARC
  5
20F
100
AcDbEntity
  8
0
100
AcDbCircle
 62
6
  6
CONTINUOUS
 10
16.1937476969
 20
11.8320654843
 40
0.4056626907
100
AcDbArc
 50
180.0220448616
 51
269.9279781909
  0
ARC
  5
210
100
AcDbEntity
  8
0
100
AcDbCircle
 62
6
  6
CONTINUOUS
 10
16.1943364466
 20
11.8319568598
 40
0.404697819
100
AcDbArc
 50
90.1267968677
 51
121.888585164
  0
ARC
  5
211
100
AcDbEntity
  8
0
100
AcDbCircle
 62
6
  6
CONTINUOUS
 10
16.194341862
 20
11.8319372865
 40
0.4041330299
100
AcDbArc
 50
90.1174551122
 51
121.8846325832
  0
ARC
  5
212
100
AcDbEntity
  8
0
100
AcDbCircle
 62
6
  6
CONTINUOUS
 10
16.1917330976
 20
11.8321712649
 40
0.4036608358
100
AcDbArc
 50
179.7142433635
 51
180.037169422
  0
ARC
  5
213
100
AcDbEntity
  8
0
100
AcDbCircle
 62
6
  6
CONTINUOUS
 10
16.1953185093
 20
11.8325734897
 40
0.4028564616
100
AcDbArc
 50
196.2181246625
 51
196.7214985571
  0
ARC
  5
214
100
AcDbEntity
  8
0
100
AcDbCircle
 62
6
  6
CONTINUOUS
 10
16.195373441
 20
11.8321674029
 40
0.4028477186
100
AcDbArc
 50
181.2711349031
 51
181.6979486565
  0
ARC
  5
215
100
AcDbEntity
  8
0
100
AcDbCircle
 62
6
  6
CONTINUOUS
 10
16.1943389876
 20
11.8319478897
 40
0.4024839749
100
AcDbArc
 50
90.1277012119
 51
121.8632697127
  0
ARC
  5
216
100
AcDbEntity
  8
0
100
AcDbCircle
 62
6
  6
CONTINUOUS
 10
16.1944310206
 20
11.8315235107
 40
0.4023267364
100
AcDbArc
 50
90.1376232794
 51
115.4305014769
  0
ARC
  5
217
100
AcDbEntity
  8
0
100
AcDbCircle
 62
6
  6
CONTINUOUS
 10
16.194622892
 20
11.8299637012
 40
0.4022562678
100
AcDbArc
 50
98.6099154964
 51
101.1444887559
  0
ARC
  5
218
100
AcDbEntity
  8
0
100
AcDbCircle
 62
6
  6
CONTINUOUS
 10
16.194349013
 20
11.8319734021
 40
0.4018814628
100
AcDbArc
 50
115.4414959411
 51
153.4729976665
  0
ARC
  5
219
100
AcDbEntity
  8
0
100
AcDbCircle
 62
6
  6
CONTINUOUS
 10
16.1941112187
 20
11.8321500246
 40
0.4015882582
100
AcDbArc
 50
153.4803916664
 51
181.2726510534
  0
ARC
  5
21A
100
AcDbEntity
  8
0
100
AcDbCircle
 62
6
  6
CONTINUOUS
 10
16.1937719608
 20
11.8320615542
 40
0.4012291377
100
AcDbArc
 50
196.715027486
 51
239.9064386365
  0
ARC
  5
21B
100
AcDbEntity
  8
0
100
AcDbCircle
 62
6
  6
CONTINUOUS
 10
16.1936746897
 20
11.8319712866
 40
0.4011083892
100
AcDbArc
 50
239.9119950391
 51
269.9728227269
  0
ARC
  5
21C
100
AcDbEntity
  8
0
100
AcDbCircle
 62
6
  6
CONTINUOUS
 10
16.1945238876
 20
11.8315159212
 40
0.4007312725
100
AcDbArc
 50
109.8606171054
 51
113.3152651221
  0
ARC
  5
21D
100
AcDbEntity
  8
0
100
AcDbCircle
 62
6
  6
CONTINUOUS
 10
16.1930561086
 20
11.8320101068
 40
0.4005267527
100
AcDbArc
 50
181.6852795635
 51
196.2311299495
  0
ARC
  5
21E
100
AcDbEntity
  8
0
100
AcDbCircle
 62
6
  6
CONTINUOUS
 10
16.1944368819
 20
11.8318912186
 40
0.4003226394
100
AcDbArc
 50
90.1833739132
 51
98.6248931365
  0
ARC
  5
21F
100
AcDbEntity
  8
0
100
AcDbCircle
 62
6
  6
CONTINUOUS
 10
16.1942760506
 20
11.8320436219
 40
0.4001446729
100
AcDbArc
 50
121.8269489938
 51
153.636143858
  0
ARC
  5
220
100
AcDbEntity
  8
0
100
AcDbCircle
 62
6
  6
CONTINUOUS
 10
16.1927370707
 20
11.8316226463
 40
0.400034092
100
AcDbArc
 50
350.762510832
 51
353.3918394498
  0
ARC
  5
221
100
AcDbEntity
  8
0
100
AcDbCircle
 62
6
  6
CONTINUOUS
 10
16.1927964974
 20
11.831282631
 40
0.3999722784
100
AcDbArc
 50
6.6895407724
 51
9.47190374
  0
ARC
  5
222
100
AcDbEntity
  8
0
100
AcDbCircle
 62
6
  6
CONTINUOUS
 10
16.1929311785
 20
11.8318755524
 40
0.3999145208
100
AcDbArc
 50
334.9463356215
 51
337.013861074
  0
ARC
  5
223
100
AcDbEntity
  8
0
100
AcDbCircle
 62
6
  6
CONTINUOUS
 10
16.1932046409
 20
11.8319649231
 40
0.3997199295
100
AcDbArc
 50
319.0643709421
 51
320.7158734305
  0
ARC
  5
224
100
AcDbEntity
  8
0
100
AcDbCircle
 62
6
  6
CONTINUOUS
 10
16.1943520753
 20
11.8319258816
 40
0.3997018927
100
AcDbArc
 50
90.1290730458
 51
121.8152037899
  0
ARC
  5
225
100
AcDbEntity
  8
0
100
AcDbCircle
 62
6
  6
CONTINUOUS
 10
16.1938131232
 20
11.8321347165
 40
0.3996627696
100
AcDbArc
 50
153.6183751301
 51
269.9067593054
  0
ARC
  5
226
100
AcDbEntity
  8
0
100
AcDbCircle
 62
6
  6
CONTINUOUS
 10
16.193196836
 20
11.8310720196
 40
0.3996389409
100
AcDbArc
 50
23.215900953
 51
25.3984434047
  0
ARC
  5
227
100
AcDbEntity
  8
0
100
AcDbCircle
 62
6
  6
CONTINUOUS
 10
16.1940492234
 20
11.832531756
 40
0.3996105238
100
AcDbArc
 50
113.3104122914
 51
121.8362252792
  0
ARC
  5
228
100
AcDbEntity
  8
0
100
AcDbCircle
 62
6
  6
CONTINUOUS
 10
16.1942029711
 20
11.8321046177
 40
0.3994671968
100
AcDbArc
 50
121.8105458811
 51
153.670803677
  0
ARC
  5
229
100
AcDbEntity
  8
0
100
AcDbCircle
 62
6
  6
CONTINUOUS
 10
16.193693017
 20
11.8316383522
 40
0.3991382762
100
AcDbArc
 50
270.1290596289
 51
319.053851306
  0
ARC
  5
22A
100
AcDbEntity
  8
0
100
AcDbCircle
 62
6
  6
CONTINUOUS
 10
16.1938073571
 20
11.8321343861
 40
0.3990756558
100
AcDbArc
 50
153.6494435572
 51
269.9194972087
  0
ARC
  5
22B
100
AcDbEntity
  8
0
100
AcDbCircle
 62
6
  6
CONTINUOUS
 10
16.193824241
 20
11.8312279931
 40
0.3990114652
100
AcDbArc
 50
39.8968885404
 51
41.1570292061
  0
ARC
  5
22C
100
AcDbEntity
  8
0
100
AcDbCircle
 62
6
  6
CONTINUOUS
 10
16.1939298477
 20
11.833236914
 40
0.3989108269
100
AcDbArc
 50
101.1376926915
 51
109.8643473016
  0
ARC
  5
22D
100
AcDbEntity
  8
0
100
AcDbCircle
 62
6
  6
CONTINUOUS
 10
16.194153135
 20
11.8312953606
 40
0.3985618442
100
AcDbArc
 50
320.7040418895
 51
334.9475064116
  0
ARC
  5
22E
100
AcDbEntity
  8
0
100
AcDbCircle
 62
6
  6
CONTINUOUS
 10
16.1936946093
 20
11.8316427856
 40
0.3985580721
100
AcDbArc
 50
270.1179521364
 51
302.6222172215
  0
ARC
  5
22F
100
AcDbEntity
  8
0
100
AcDbCircle
 62
6
  6
CONTINUOUS
 10
16.194360229
 20
11.8316773832
 40
0.3983095834
100
AcDbArc
 50
41.1591002153
 51
89.9669451267
  0
ARC
  5
230
100
AcDbEntity
  8
0
100
AcDbCircle
 62
6
  6
CONTINUOUS
 10
16.1944650735
 20
11.8316654741
 40
0.398239299
100
AcDbArc
 50
25.3995749928
 51
39.9077365036
  0
ARC
  5
231
100
AcDbEntity
  8
0
100
AcDbCircle
 62
6
  6
CONTINUOUS
 10
16.1945474893
 20
11.8312720292
 40
0.3981908723
100
AcDbArc
 50
337.0029858618
 51
350.7704894002
  0
ARC
  5
232
100
AcDbEntity
  8
0
100
AcDbCircle
 62
6
  6
CONTINUOUS
 10
16.1940193235
 20
11.8314034829
 40
0.3981574237
100
AcDbArc
 50
302.6014272651
 51
57.6818136782
  0
ARC
  5
233
100
AcDbEntity
  8
0
100
AcDbCircle
 62
6
  6
CONTINUOUS
 10
16.1943521371
 20
11.831925726
 40
0.3980634401
100
AcDbArc
 50
90.1077249879
 51
121.8190676631
  0
ARC
  5
234
100
AcDbEntity
  8
0
100
AcDbCircle
 62
6
  6
CONTINUOUS
 10
16.1947494118
 20
11.8316444239
 40
0.3979864527
100
AcDbArc
 50
9.4667957377
 51
23.2282770073
  0
ARC
  5
235
100
AcDbEntity
  8
0
100
AcDbCircle
 62
6
  6
CONTINUOUS
 10
16.194818431
 20
11.83144104
 40
0.3979456649
100
AcDbArc
 50
353.3833273743
 51
6.7008004123
  0
ARC
  5
236
100
AcDbEntity
  8
0
100
AcDbCircle
 62
6
  6
CONTINUOUS
 10
16.1942034913
 20
11.8321041449
 40
0.3978292852
100
AcDbArc
 50
121.8144248414
 51
153.649857422
  0
ARC
  5
237
100
AcDbEntity
  8
0
100
AcDbCircle
 62
6
  6
CONTINUOUS
 10
16.1943795205
 20
11.8317483435
 40
0.3976532098
100
AcDbArc
 50
57.6991082342
 51
89.9816628986
  0
ARC
  5
238
100
AcDbEntity
  8
0
100
AcDbCircle
 62
6
  6
CONTINUOUS
 10
16.1943403335
 20
11.8319432875
 40
0.3974573721
100
AcDbArc
 50
90.1187623161
 51
121.7897320714
  0
ARC
  5
239
100
AcDbEntity
  8
0
100
AcDbCircle
 62
6
  6
CONTINUOUS
 10
16.1938073507
 20
11.832134429
 40
0.3974370651
100
AcDbArc
 50
153.6284227714
 51
269.9490643676
  0
ARC
  5
23A
100
AcDbEntity
  8
0
100
AcDbCircle
 62
6
  6
CONTINUOUS
 10
16.1942406388
 20
11.8320753346
 40
0.3972899967
100
AcDbArc
 50
121.7875433986
 51
153.6148679779
  0
ARC
  5
23B
100
AcDbEntity
  8
0
100
AcDbCircle
 62
6
  6
CONTINUOUS
 10
16.1938130291
 20
11.8321365788
 40
0.3968547813
100
AcDbArc
 50
153.5953545409
 51
269.9577846685
  0
ARC
  5
23C
100
AcDbEntity
  8
0
100
AcDbCircle
 62
6
  6
CONTINUOUS
 10
16.1953080114
 20
11.8319737795
 40
0.3967111025
100
AcDbArc
 50
170.6333920229
 51
173.1862750068
  0
ARC
  5
23D
100
AcDbEntity
  8
0
100
AcDbCircle
 62
6
  6
CONTINUOUS
 10
16.1951874449
 20
11.8323103664
 40
0.3965881558
100
AcDbArc
 50
187.2434709813
 51
189.877913991
  0
ARC
  5
23E
100
AcDbEntity
  8
0
100
AcDbCircle
 62
6
  6
CONTINUOUS
 10
16.1949977105
 20
11.8317683103
 40
0.3964655761
100
AcDbArc
 50
154.4463562442
 51
156.2338303566
  0
ARC
  5
23F
100
AcDbEntity
  8
0
100
AcDbCircle
 62
6
  6
CONTINUOUS
 10
16.1947542793
 20
11.8324907393
 40
0.3962152365
100
AcDbArc
 50
203.7539535833
 51
205.7634771779
  0
ARC
  5
240
100
AcDbEntity
  8
0
100
AcDbCircle
 62
6
  6
CONTINUOUS
 10
16.1946157587
 20
11.8318138508
 40
0.3961054734
100
AcDbArc
 50
138.5722560149
 51
139.6907592489
  0
ARC
  5
241
100
AcDbEntity
  8
0
100
AcDbCircle
 62
6
  6
CONTINUOUS
 10
16.1946714258
 20
11.8319232654
 40
0.3961043672
100
AcDbArc
 50
153.6086805943
 51
154.4462192511
  0
ARC
  5
242
100
AcDbEntity
  8
0
100
AcDbCircle
 62
6
  6
CONTINUOUS
 10
16.1943414826
 20
11.8319550151
 40
0.3958074134
100
AcDbArc
 50
90.1303864135
 51
138.561306897
  0
ARC
  5
243
100
AcDbEntity
  8
0
100
AcDbCircle
 62
6
  6
CONTINUOUS
 10
16.1941106104
 20
11.8322855212
 40
0.3955474086
100
AcDbArc
 50
220.4933242171
 51
221.5093117144
  0
ARC
  5
244
100
AcDbEntity
  8
0
100
AcDbCircle
 62
6
  6
CONTINUOUS
 10
16.1946074874
 20
11.8300861249
 40
0.3954578979
100
AcDbArc
 50
100.2915778701
 51
103.148959514
  0
ARC
  5
245
100
AcDbEntity
  8
0
100
AcDbCircle
 62
6
  6
CONTINUOUS
 10
16.1943377908
 20
11.8319539157
 40
0.3952235082
100
AcDbArc
 50
90.1194011627
 51
122.4843768045
  0
ARC
  5
246
100
AcDbEntity
  8
0
100
AcDbCircle
 62
6
  6
CONTINUOUS
 10
16.1937922482
 20
11.8323659289
 40
0.395119519
100
AcDbArc
 50
139.6745553422
 51
153.6095121677
  0
ARC
  5
247
100
AcDbEntity
  8
0
100
AcDbCircle
 62
6
  6
CONTINUOUS
 10
16.1942309122
 20
11.8320836246
 40
0.3950541747
100
AcDbArc
 50
122.4814045908
 51
153.5963778859
  0
ARC
  5
248
100
AcDbEntity
  8
0
100
AcDbCircle
 62
6
  6
CONTINUOUS
 10
16.195298877
 20
11.8308429983
 40
0.3950452209
100
AcDbArc
 50
126.985199627
 51
131.0761448512
  0
ARC
  5
249
100
AcDbEntity
  8
0
100
AcDbCircle
 62
6
  6
CONTINUOUS
 10
16.1936373695
 20
11.8319745967
 40
0.3949857217
100
AcDbArc
 50
205.7664707111
 51
220.5036017124
  0
ARC
  5
24A
100
AcDbEntity
  8
0
100
AcDbCircle
 62
6
  6
CONTINUOUS
 10
16.1936724065
 20
11.8319181792
 40
0.3949731159
100
AcDbArc
 50
221.5115358947
 51
269.9670953236
  0
ARC
  5
24B
100
AcDbEntity
  8
0
100
AcDbCircle
 62
6
  6
CONTINUOUS
 10
16.1935698983
 20
11.8323062741
 40
0.3949420522
100
AcDbArc
 50
156.2217787637
 51
170.6399467491
  0
ARC
  5
24C
100
AcDbEntity
  8
0
100
AcDbCircle
 62
6
  6
CONTINUOUS
 10
16.1940971759
 20
11.8321481787
 40
0.3949055941
100
AcDbArc
 50
153.5961382928
 51
185.3988421911
  0
ARC
  5
24D
100
AcDbEntity
  8
0
100
AcDbCircle
 62
6
  6
CONTINUOUS
 10
16.1933502572
 20
11.8319674305
 40
0.3947193736
100
AcDbArc
 50
189.8746213329
 51
203.7665208723
  0
ARC
  5
24E
100
AcDbEntity
  8
0
100
AcDbCircle
 62
6
  6
CONTINUOUS
 10
16.193279249
 20
11.8321532248
 40
0.3946753843
100
AcDbArc
 50
173.1771991333
 51
187.25576838
  0
ARC
  5
24F
100
AcDbEntity
  8
0
100
AcDbCircle
 62
6
  6
CONTINUOUS
 10
16.1945360012
 20
11.8309091036
 40
0.3946353957
100
AcDbArc
 50
90.2124145501
 51
100.3027130073
  0
ARC
  5
250
100
AcDbEntity
  8
0
100
AcDbCircle
 62
6
  6
CONTINUOUS
 10
16.1938112987
 20
11.832099175
 40
0.3946136915
100
AcDbArc
 50
185.3956640926
 51
237.748345758
  0
ARC
  5
251
100
AcDbEntity
  8
0
100
AcDbCircle
 62
6
  6
CONTINUOUS
 10
16.1954400678
 20
11.8321635185
 40
0.3946046249
100
AcDbArc
 50
179.6825149548
 51
184.0759606928
  0
ARC
  5
252
100
AcDbEntity
  8
0
100
AcDbCircle
 62
6
  6
CONTINUOUS
 10
16.1952087004
 20
11.8325342426
 40
0.394433144
100
AcDbArc
 50
195.0049618647
 51
199.0292804162
  0
ARC
  5
253
100
AcDbEntity
  8
0
100
AcDbCircle
 62
6
  6
CONTINUOUS
 10
16.1936541104
 20
11.8318529665
 40
0.3943223458
100
AcDbArc
 50
237.7485709225
 51
269.9809223717
  0
ARC
  5
254
100
AcDbEntity
  8
0
100
AcDbCircle
 62
6
  6
CONTINUOUS
 10
16.1948477913
 20
11.8327568634
 40
0.3941991044
100
AcDbArc
 50
210.0999159146
 51
213.8652225885
  0
ARC
  5
255
100
AcDbEntity
  8
0
100
AcDbCircle
 62
6
  6
CONTINUOUS
 10
16.1945847143
 20
11.8314349566
 40
0.3941601452
100
AcDbArc
 50
112.8446803747
 51
117.4461884978
  0
ARC
  5
256
100
AcDbEntity
  8
0
100
AcDbCircle
 62
6
  6
CONTINUOUS
 10
16.1948782796
 20
11.8318835011
 40
0.3940849269
100
AcDbArc
 50
165.8078817862
 51
167.481345001
  0
ARC
  5
257
100
AcDbEntity
  8
0
100
AcDbCircle
 62
6
  6
CONTINUOUS
 10
16.1937120998
 20
11.8315920225
 40
0.3940579872
100
AcDbArc
 50
270.1229676821
 51
338.793544892
  0
ARC
  5
258
100
AcDbEntity
  8
0
100
AcDbCircle
 62
6
  6
CONTINUOUS
 10
16.1944741646
 20
11.8329090031
 40
0.3940152947
100
AcDbArc
 50
225.1209856056
 51
228.2196762553
  0
ARC
  5
259
100
AcDbEntity
  8
0
100
AcDbCircle
 62
6
  6
CONTINUOUS
 10
16.1940898895
 20
11.8314255183
 40
0.3936382198
100
AcDbArc
 50
338.7962480123
 51
0.1932594845
  0
ARC
  5
25A
100
AcDbEntity
  8
0
100
AcDbCircle
 62
6
  6
CONTINUOUS
 10
16.194442924
 20
11.8320510595
 40
0.3936217817
100
AcDbArc
 50
153.5799705656
 51
165.8159904528
  0
ARC
  5
25B
100
AcDbEntity
  8
0
100
AcDbCircle
 62
6
  6
CONTINUOUS
 10
16.1943134216
 20
11.8315774293
 40
0.3933836351
100
AcDbArc
 50
15.267108827
 51
89.9651817022
  0
ARC
  5
25C
100
AcDbEntity
  8
0
100
AcDbCircle
 62
6
  6
CONTINUOUS
 10
16.1941923501
 20
11.8320368977
 40
0.3933820552
100
AcDbArc
 50
167.48150076
 51
168.5803470165
  0
ARC
  5
25D
100
AcDbEntity
  8
0
100
AcDbCircle
 62
6
  6
CONTINUOUS
 10
16.1941040898
 20
11.8321609975
 40
0.3932675986
100
AcDbArc
 50
131.0710939476
 51
153.5723497669
  0
ARC
  5
25E
100
AcDbEntity
  8
0
100
AcDbCircle
 62
6
  6
CONTINUOUS
 10
16.1938386784
 20
11.8320773652
 40
0.392971737
100
AcDbArc
 50
228.2079807241
 51
240.3809777081
  0
ARC
  5
25F
100
AcDbEntity
  8
0
100
AcDbCircle
 62
6
  6
CONTINUOUS
 10
16.1943245628
 20
11.8319957858
 40
0.3929582474
100
AcDbArc
 50
90.1433385595
 51
153.5751669516
  0
ARC
  5
260
100
AcDbEntity
  8
0
100
AcDbCircle
 62
6
  6
CONTINUOUS
 10
16.1948462798
 20
11.8315454625
 40
0.3928806565
100
AcDbArc
 50
0.2614143525
 51
15.1887964338
  0
ARC
  5
261
100
AcDbEntity
  8
0
100
AcDbCircle
 62
6
  6
CONTINUOUS
 10
16.1936858595
 20
11.8320182816
 40
0.3928475342
100
AcDbArc
 50
240.9212719967
 51
269.9127924891
  0
ARC
  5
262
100
AcDbEntity
  8
0
100
AcDbCircle
 62
6
  6
CONTINUOUS
 10
16.1940142573
 20
11.832158053
 40
0.3926014721
100
AcDbArc
 50
153.5762206469
 51
185.4238661563
  0
ARC
  5
263
100
AcDbEntity
  8
0
100
AcDbCircle
 62
6
  6
CONTINUOUS
 10
16.19493194
 20
11.8309946494
 40
0.392486846
100
AcDbArc
 50
122.0933746326
 51
122.4356175063
  0
ARC
  5
264
100
AcDbEntity
  8
0
100
AcDbCircle
 62
6
  6
CONTINUOUS
 10
16.193773372
 20
11.8329190846
 40
0.392469106
100
AcDbArc
 50
117.4409382434
 51
126.9896423347
  0
ARC
  5
265
100
AcDbEntity
  8
0
100
AcDbCircle
 62
6
  6
CONTINUOUS
 10
16.1937064521
 20
11.8316015079
 40
0.3924286594
100
AcDbArc
 50
270.1362716142
 51
313.4650467794
  0
ARC
  5
266
100
AcDbEntity
  8
0
100
AcDbCircle
 62
6
  6
CONTINUOUS
 10
16.1935048553
 20
11.8316385765
 40
0.3924253057
100
AcDbArc
 50
240.3916856606
 51
240.9174245312
  0
ARC
  5
267
100
AcDbEntity
  8
0
100
AcDbCircle
 62
6
  6
CONTINUOUS
 10
16.1932220058
 20
11.8322635165
 40
0.3923860525
100
AcDbArc
 50
168.5847291147
 51
179.6953216748
  0
ARC
  5
268
100
AcDbEntity
  8
0
100
AcDbCircle
 62
6
  6
CONTINUOUS
 10
16.193738649
 20
11.8320520556
 40
0.3923081786
100
AcDbArc
 50
185.4122597237
 51
269.928434745
  0
ARC
  5
269
100
AcDbEntity
  8
0
100
AcDbCircle
 62
6
  6
CONTINUOUS
 10
16.195281854
 20
11.8317310437
 40
0.3922927085
100
AcDbArc
 50
153.606731699
 51
167.4097360174
  0
ARC
  5
26A
100
AcDbEntity
  8
0
100
AcDbCircle
 62
6
  6
CONTINUOUS
 10
16.193987955
 20
11.8314022353
 40
0.392088979
100
AcDbArc
 50
313.4552223003
 51
338.7843844775
  0
ARC
  5
26B
100
AcDbEntity
  8
0
100
AcDbCircle
 62
6
  6
CONTINUOUS
 10
16.1938152375
 20
11.8334034043
 40
0.3920473677
100
AcDbArc
 50
103.1464966256
 51
112.8527328835
  0
ARC
  5
26C
100
AcDbEntity
  8
0
100
AcDbCircle
 62
6
  6
CONTINUOUS
 10
16.1950589605
 20
11.8323363387
 40
0.3920185827
100
AcDbArc
 50
187.0803760771
 51
188.4258278809
  0
ARC
  5
26D
100
AcDbEntity
  8
0
100
AcDbCircle
 62
6
  6
CONTINUOUS
 10
16.1929200853
 20
11.8316787762
 40
0.3919906759
100
AcDbArc
 50
199.0201434312
 51
210.1048933679
  0
ARC
  5
26E
100
AcDbEntity
  8
0
100
AcDbCircle
 62
6
  6
CONTINUOUS
 10
16.1941441284
 20
11.8314467054
 40
0.3919510678
100
AcDbArc
 50
338.7700631417
 51
60.7200750902
  0
ARC
  5
26F
100
AcDbEntity
  8
0
100
AcDbCircle
 62
6
  6
CONTINUOUS
 10
16.1927576937
 20
11.8319468452
 40
0.3919136352
100
AcDbArc
 50
184.0722378505
 51
195.0147866128
  0
ARC
  5
270
100
AcDbEntity
  8
0
100
AcDbCircle
 62
6
  6
CONTINUOUS
 10
16.1929948998
 20
11.8314147501
 40
0.3919126824
100
AcDbArc
 50
213.8532466797
 51
225.1200852765
  0
ARC
  5
271
100
AcDbEntity
  8
0
100
AcDbCircle
 62
6
  6
CONTINUOUS
 10
16.193718259
 20
11.8315840933
 40
0.3918259791
100
AcDbArc
 50
270.1180932465
 51
338.6801979165
  0
ARC
  5
272
100
AcDbEntity
  8
0
100
AcDbCircle
 62
6
  6
CONTINUOUS
 10
16.194786584
 20
11.8325385604
 40
0.3918185455
100
AcDbArc
 50
202.7692483441
 51
204.5942278594
  0
ARC
  5
273
100
AcDbEntity
  8
0
100
AcDbCircle
 62
6
  6
CONTINUOUS
 10
16.1943509316
 20
11.8316026947
 40
0.3917122916
100
AcDbArc
 50
60.7353006064
 51
89.9586527417
  0
ARC
  5
274
100
AcDbEntity
  8
0
100
AcDbCircle
 62
6
  6
CONTINUOUS
 10
16.194494767
 20
11.8326321595
 40
0.3916182055
100
AcDbArc
 50
218.8164798971
 51
220.4451364009
  0
ARC
  5
275
100
AcDbEntity
  8
0
100
AcDbCircle
 62
6
  6
CONTINUOUS
 10
16.1945925588
 20
11.8322790276
 40
0.3915486735
100
AcDbArc
 50
185.415234524
 51
187.0804661306
  0
ARC
  5
276
100
AcDbEntity
  8
0
100
AcDbCircle
 62
6
  6
CONTINUOUS
 10
16.1943362888
 20
11.8319861532
 40
0.3913311943
100
AcDbArc
 50
90.1190397174
 51
122.0966192506
  0
ARC
  5
277
100
AcDbEntity
  8
0
100
AcDbCircle
 62
6
  6
CONTINUOUS
 10
16.1941616042
 20
11.8325517105
 40
0.3913213109
100
AcDbArc
 50
236.1546494012
 51
236.7363035062
  0
ARC
  5
278
100
AcDbEntity
  8
0
100
AcDbCircle
 62
6
  6
CONTINUOUS
 10
16.1942432549
 20
11.8314785069
 40
0.3912731935
100
AcDbArc
 50
338.6666513967
 51
89.9606093628
  0
ARC
  5
279
100
AcDbEntity
  8
0
100
AcDbCircle
 62
6
  6
CONTINUOUS
 10
16.1941956969
 20
11.8321163683
 40
0.3911459616
100
AcDbArc
 50
122.4327245551
 51
153.5865657601
  0
ARC
  5
27A
100
AcDbEntity
  8
0
100
AcDbCircle
 62
6
  6
CONTINUOUS
 10
16.1947502067
 20
11.8319319301
 40
0.3911424762
100
AcDbArc
 50
153.6272811422
 51
167.500711378
  0
ARC
  5
27B
100
AcDbEntity
  8
0
100
AcDbCircle
 62
6
  6
CONTINUOUS
 10
16.1928500574
 20
11.8318928077
 40
0.3911021281
100
AcDbArc
 50
335.4791202604
 51
338.6877450701
  0
ARC
  5
27C
100
AcDbEntity
  8
0
100
AcDbCircle
 62
6
  6
CONTINUOUS
 10
16.1928725892
 20
11.8315870153
 40
0.3910029876
100
AcDbArc
 50
351.3437944107
 51
353.5925033214
  0
ARC
  5
27D
100
AcDbEntity
  8
0
100
AcDbCircle
 62
6
  6
CONTINUOUS
 10
16.1929617521
 20
11.83129876
 40
0.390914402
100
AcDbArc
 50
7.4944619039
 51
9.6791029887
  0
ARC
  5
27E
100
AcDbEntity
  8
0
100
AcDbCircle
 62
6
  6
CONTINUOUS
 10
16.1939021255
 20
11.8321672884
 40
0.390851457
100
AcDbArc
 50
167.428060798
 51
185.4084792161
  0
ARC
  5
27F
100
AcDbEntity
  8
0
100
AcDbCircle
 62
6
  6
CONTINUOUS
 10
16.1943364429
 20
11.8319771425
 40
0.3907539697
100
AcDbArc
 50
90.1258672835
 51
153.6062705059
  0
ARC
  5
280
100
AcDbEntity
  8
0
100
AcDbCircle
 62
6
  6
CONTINUOUS
 10
16.1932888515
 20
11.8318904636
 40
0.3907155796
100
AcDbArc
 50
319.7124152234
 51
321.1337177413
  0
ARC
  5
281
100
AcDbEntity
  8
0
100
AcDbCircle
 62
6
  6
CONTINUOUS
 10
16.1942346494
 20
11.8321431645
 40
0.3905953443
100
AcDbArc
 50
167.5145950709
 51
185.2816428616
  0
ARC
  5
282
100
AcDbEntity
  8
0
100
AcDbCircle
 62
6
  6
CONTINUOUS
 10
16.1933739158
 20
11.831152835
 40
0.3905516297
100
AcDbArc
 50
24.0664242729
 51
25.707640599
  0
ARC
  5
283
100
AcDbEntity
  8
0
100
AcDbCircle
 62
6
  6
CONTINUOUS
 10
16.1936167444
 20
11.831894634
 40
0.3904722197
100
AcDbArc
 50
220.4463562605
 51
236.1673520884
  0
ARC
  5
284
100
AcDbEntity
  8
0
100
AcDbCircle
 62
6
  6
CONTINUOUS
 10
16.1936500106
 20
11.8318361407
 40
0.3904430883
100
AcDbArc
 50
236.7414816421
 51
269.9714565048
  0
ARC
  5
285
100
AcDbEntity
  8
0
100
AcDbCircle
 62
6
  6
CONTINUOUS
 10
16.1934694216
 20
11.8320055474
 40
0.3903977416
100
AcDbArc
 50
188.4119870971
 51
202.7719331304
  0
ARC
  5
286
100
AcDbEntity
  8
0
100
AcDbCircle
 62
6
  6
CONTINUOUS
 10
16.1934183884
 20
11.8318435762
 40
0.3902852354
100
AcDbArc
 50
204.5850517308
 51
218.8253283417
  0
ARC
  5
287
100
AcDbEntity
  8
0
100
AcDbCircle
 62
6
  6
CONTINUOUS
 10
16.1936907705
 20
11.8316440705
 40
0.3902511415
100
AcDbArc
 50
270.1339316041
 51
319.7018531284
  0
ARC
  5
288
100
AcDbEntity
  8
0
100
AcDbCircle
 62
6
  6
CONTINUOUS
 10
16.1937362947
 20
11.8320523087
 40
0.3900822943
100
AcDbArc
 50
185.2750927565
 51
269.9612106273
  0
ARC
  5
289
100
AcDbEntity
  8
0
100
AcDbCircle
 62
6
  6
CONTINUOUS
 10
16.1940206067
 20
11.8313990549
 40
0.3898580702
100
AcDbArc
 50
40.7281069988
 51
41.5167771695
  0
ARC
  5
28A
100
AcDbEntity
  8
0
100
AcDbCircle
 62
6
  6
CONTINUOUS
 10
16.1937111053
 20
11.8315942021
 40
0.389613579
100
AcDbArc
 50
270.1256547904
 51
338.7512801757
  0
ARC
  5
28B
100
AcDbEntity
  8
0
100
AcDbCircle
 62
6
  6
CONTINUOUS
 10
16.1943324047
 20
11.8315813344
 40
0.3895029716
100
AcDbArc
 50
25.7120074631
 51
40.7377133322
  0
ARC
  5
28C
100
AcDbEntity
  8
0
100
AcDbCircle
 62
6
  6
CONTINUOUS
 10
16.194302135
 20
11.8312012245
 40
0.3894937369
100
AcDbArc
 50
321.1191265494
 51
335.4830274767
  0
ARC
  5
28D
100
AcDbEntity
  8
0
100
AcDbCircle
 62
6
  6
CONTINUOUS
 10
16.1943607611
 20
11.8316797439
 40
0.3894143485
100
AcDbArc
 50
41.5190280861
 51
89.9666713152
  0
ARC
  5
28E
100
AcDbEntity
  8
0
100
AcDbCircle
 62
6
  6
CONTINUOUS
 10
16.1945668735
 20
11.8315939343
 40
0.3892825027
100
AcDbArc
 50
9.6759969012
 51
24.0787474311
  0
ARC
  5
28F
100
AcDbEntity
  8
0
100
AcDbCircle
 62
6
  6
CONTINUOUS
 10
16.1946522792
 20
11.8314478026
 40
0.3892188834
100
AcDbArc
 50
353.5836313665
 51
7.5051677835
  0
ARC
  5
290
100
AcDbEntity
  8
0
100
AcDbCircle
 62
6
  6
CONTINUOUS
 10
16.194655335
 20
11.8312646784
 40
0.3891920385
100
AcDbArc
 50
338.6775398059
 51
351.3512071838
  0
ARC
  5
291
100
AcDbEntity
  8
0
100
AcDbCircle
 62
6
  6
CONTINUOUS
 10
16.1942401377
 20
11.8314785188
 40
0.3890515686
100
AcDbArc
 50
338.7389231976
 51
89.9544997716
  0
ARC
  5
292
100
AcDbEntity
  8
0
100
AcDbCircle
 62
6
  6
CONTINUOUS
 10
16.1942378179
 20
11.8321429965
 40
0.388959902
100
AcDbArc
 50
90.1333836138
 51
185.3062960313
  0
ARC
  5
293
100
AcDbEntity
  8
0
100
AcDbCircle
 62
6
  6
CONTINUOUS
 10
16.1953795934
 20
11.8307357641
 40
0.3885092606
100
AcDbArc
 50
128.5195845384
 51
132.6068963598
  0
ARC
  5
294
100
AcDbEntity
  8
0
100
AcDbCircle
 62
6
  6
CONTINUOUS
 10
16.1943172557
 20
11.8320160547
 40
0.388487554
100
AcDbArc
 50
90.1241210732
 51
130.5980849469
  0
ARC
  5
295
100
AcDbEntity
  8
0
100
AcDbCircle
 62
6
  6
CONTINUOUS
 10
16.1937362913
 20
11.8320522685
 40
0.3884436633
100
AcDbArc
 50
185.2998123428
 51
269.9488923258
  0
ARC
  5
296
100
AcDbEntity
  8
0
100
AcDbCircle
 62
6
  6
CONTINUOUS
 10
16.1942941387
 20
11.8321458519
 40
0.3884301758
100
AcDbArc
 50
167.543250052
 51
185.3255702313
  0
ARC
  5
297
100
AcDbEntity
  8
0
100
AcDbCircle
 62
6
  6
CONTINUOUS
 10
16.1941476
 20
11.8321317908
 40
0.3882882535
100
AcDbArc
 50
130.5901899617
 51
167.5365598507
  0
ARC
  5
298
100
AcDbEntity
  8
0
100
AcDbCircle
 62
6
  6
CONTINUOUS
 10
16.1937110936
 20
11.8315942428
 40
0.3879750384
100
AcDbArc
 50
270.1384666771
 51
338.7276591283
  0
ARC
  5
299
100
AcDbEntity
  8
0
100
AcDbCircle
 62
6
  6
CONTINUOUS
 10
16.1937330559
 20
11.8320475407
 40
0.3878540081
100
AcDbArc
 50
185.318803121
 51
269.9620024915
  0
ARC
  5
29A
100
AcDbEntity
  8
0
100
AcDbCircle
 62
6
  6
CONTINUOUS
 10
16.1952742855
 20
11.8317807838
 40
0.3878253306
100
AcDbArc
 50
158.9076187743
 51
167.5411146414
  0
ARC
  5
29B
100
AcDbEntity
  8
0
100
AcDbCircle
 62
6
  6
CONTINUOUS
 10
16.1952032495
 20
11.8325284684
 40
0.3877549136
100
AcDbArc
 50
196.3797236629
 51
200.6394184052
  0
ARC
  5
29C
100
AcDbEntity
  8
0
100
AcDbCircle
 62
6
  6
CONTINUOUS
 10
16.1950172664
 20
11.8315676381
 40
0.3876837438
100
AcDbArc
 50
143.0330705993
 51
146.6201890321
  0
ARC
  5
29D
100
AcDbEntity
  8
0
100
AcDbCircle
 62
6
  6
CONTINUOUS
 10
16.1946800842
 20
11.8331182128
 40
0.3876398294
100
AcDbArc
 50
226.129777434
 51
229.621650881
  0
ARC
  5
29E
100
AcDbEntity
  8
0
100
AcDbCircle
 62
6
  6
CONTINUOUS
 10
16.1948132693
 20
11.8327405765
 40
0.3874921628
100
AcDbArc
 50
211.3220576309
 51
215.1781106329
  0
ARC
  5
29F
100
AcDbEntity
  8
0
100
AcDbCircle
 62
6
  6
CONTINUOUS
 10
16.1942403207
 20
11.8314785444
 40
0.3874128086
100
AcDbArc
 50
338.7152088962
 51
90.0330970499
  0
ARC
  5
2A0
100
AcDbEntity
  8
0
100
AcDbCircle
 62
6
  6
CONTINUOUS
 10
16.1945492759
 20
11.8315049754
 40
0.3874123343
100
AcDbArc
 50
114.5322660515
 51
118.0725314333
  0
ARC
  5
2A1
100
AcDbEntity
  8
0
100
AcDbCircle
 62
6
  6
CONTINUOUS
 10
16.1937151364
 20
11.8315888867
 40
0.3873842559
100
AcDbArc
 50
270.1267282743
 51
338.713489688
  0
ARC
  5
2A2
100
AcDbEntity
  8
0
100
AcDbCircle
 62
6
  6
CONTINUOUS
 10
16.1943667463
 20
11.8317976061
 40
0.3870707014
100
AcDbArc
 50
90.0518380633
 51
114.5256715301
  0
ARC
  5
2A3
100
AcDbEntity
  8
0
100
AcDbCircle
 62
6
  6
CONTINUOUS
 10
16.1942178802
 20
11.8314687035
 40
0.3868498557
100
AcDbArc
 50
338.7030443578
 51
81.6673092206
  0
ARC
  5
2A4
100
AcDbEntity
  8
0
100
AcDbCircle
 62
6
  6
CONTINUOUS
 10
16.1943398575
 20
11.8321346413
 40
0.3868261644
100
AcDbArc
 50
157.5998697257
 51
158.9067114635
  0
ARC
  5
2A5
100
AcDbEntity
  8
0
100
AcDbCircle
 62
6
  6
CONTINUOUS
 10
16.194760485
 20
11.8293131267
 40
0.3867679179
100
AcDbArc
 50
96.3952065762
 51
101.094691917
  0
ARC
  5
2A6
100
AcDbEntity
  8
0
100
AcDbCircle
 62
6
  6
CONTINUOUS
 10
16.1939150663
 20
11.8324082745
 40
0.3866269257
100
AcDbArc
 50
241.1134048996
 51
244.285193455
  0
ARC
  5
2A7
100
AcDbEntity
  8
0
100
AcDbCircle
 62
6
  6
CONTINUOUS
 10
16.194041541
 20
11.8320689934
 40
0.3865340867
100
AcDbArc
 50
167.5592337423
 51
185.3411021763
  0
ARC
  5
2A8
100
AcDbEntity
  8
0
100
AcDbCircle
 62
6
  6
CONTINUOUS
 10
16.1945602591
 20
11.8302874828
 40
0.3863681357
100
AcDbArc
 50
98.6481973579
 51
99.0338224881
  0
ARC
  5
2A9
100
AcDbEntity
  8
0
100
AcDbCircle
 62
6
  6
CONTINUOUS
 10
16.193727164
 20
11.8321938583
 40
0.3863571261
100
AcDbArc
 50
244.2965027496
 51
270.0429136035
  0
ARC
  5
2AA
100
AcDbEntity
  8
0
100
AcDbCircle
 62
6
  6
CONTINUOUS
 10
16.1943106392
 20
11.8320254079
 40
0.386256677
100
AcDbArc
 50
90.0436245641
 51
167.5537191987
  0
ARC
  5
2AB
100
AcDbEntity
  8
0
100
AcDbCircle
 62
6
  6
CONTINUOUS
 10
16.1936653351
 20
11.8323731431
 40
0.3861116531
100
AcDbArc
 50
146.6096259005
 51
157.5944480476
  0
ARC
  5
2AC
100
AcDbEntity
  8
0
100
AcDbCircle
 62
6
  6
CONTINUOUS
 10
16.1939320776
 20
11.8326648224
 40
0.3860984937
100
AcDbArc
 50
118.0727131766
 51
128.5298021695
  0
ARC
  5
2AD
100
AcDbEntity
  8
0
100
AcDbCircle
 62
6
  6
CONTINUOUS
 10
16.194144966
 20
11.8321503032
 40
0.3860609442
100
AcDbArc
 50
167.5665201407
 51
185.3443321214
  0
ARC
  5
2AE
100
AcDbEntity
  8
0
100
AcDbCircle
 62
6
  6
CONTINUOUS
 10
16.1943060216
 20
11.8323441375
 40
0.3859454057
100
AcDbArc
 50
81.7424969228
 51
90.0429750846
  0
ARC
  5
2AF
100
AcDbEntity
  8
0
100
AcDbCircle
 62
6
  6
CONTINUOUS
 10
16.1932573393
 20
11.832042499
 40
0.3857509449
100
AcDbArc
 50
185.499349262
 51
196.3919781366
  0
ARC
  5
2B0
100
AcDbEntity
  8
0
100
AcDbCircle
 62
6
  6
CONTINUOUS
 10
16.1937149059
 20
11.8315891795
 40
0.3857460215
100
AcDbArc
 50
270.0448015618
 51
338.6908409373
  0
ARC
  5
2B1
100
AcDbEntity
  8
0
100
AcDbCircle
 62
6
  6
CONTINUOUS
 10
16.1935106385
 20
11.8316161256
 40
0.3857379689
100
AcDbArc
 50
229.609435879
 51
241.1091625196
  0
ARC
  5
2B2
100
AcDbEntity
  8
0
100
AcDbCircle
 62
6
  6
CONTINUOUS
 10
16.1953756245
 20
11.8308070102
 40
0.385644498
100
AcDbArc
 50
130.5784260807
 51
135.132456818
  0
ARC
  5
2B3
100
AcDbEntity
  8
0
100
AcDbCircle
 62
6
  6
CONTINUOUS
 10
16.1937401715
 20
11.8320535483
 40
0.3856407649
100
AcDbArc
 50
185.3356213169
 51
270.0410616843
  0
ARC
  5
2B4
100
AcDbEntity
  8
0
100
AcDbCircle
 62
6
  6
CONTINUOUS
 10
16.1932800815
 20
11.8316289395
 40
0.3855765496
100
AcDbArc
 50
338.6970541721
 51
340.8688309245
  0
ARC
  5
2B5
100
AcDbEntity
  8
0
100
AcDbCircle
 62
6
  6
CONTINUOUS
 10
16.1933388991
 20
11.8328505532
 40
0.3855712715
100
AcDbArc
 50
132.5964430294
 51
143.0354086887
  0
ARC
  5
2B6
100
AcDbEntity
  8
0
100
AcDbCircle
 62
6
  6
CONTINUOUS
 10
16.1951479507
 20
11.8315792085
 40
0.3855670605
100
AcDbArc
 50
149.9892521943
 51
150.8908866903
  0
ARC
  5
2B7
100
AcDbEntity
  8
0
100
AcDbCircle
 62
6
  6
CONTINUOUS
 10
16.1928646598
 20
11.8316270384
 40
0.3852486805
100
AcDbArc
 50
200.6365547817
 51
211.3312385412
  0
ARC
  5
2B8
100
AcDbEntity
  8
0
100
AcDbCircle
 62
6
  6
CONTINUOUS
 10
16.1936920506
 20
11.8316435538
 40
0.3852181994
100
AcDbArc
 50
270.0482625781
 51
321.255501289
  0
ARC
  5
2B9
100
AcDbEntity
  8
0
100
AcDbCircle
 62
6
  6
CONTINUOUS
 10
16.1942247591
 20
11.8314711721
 40
0.3852046681
100
AcDbArc
 50
338.7565164575
 51
83.3972379644
  0
ARC
  5
2BA
100
AcDbEntity
  8
0
100
AcDbCircle
 62
6
  6
CONTINUOUS
 10
16.1936965186
 20
11.8315783146
 40
0.385172649
100
AcDbArc
 50
322.7724519911
 51
338.0253893888
  0
ARC
  5
2BB
100
AcDbEntity
  8
0
100
AcDbCircle
 62
6
  6
CONTINUOUS
 10
16.1928901028
 20
11.8313120046
 40
0.3850972093
100
AcDbArc
 50
215.1692298097
 51
226.1355303254
  0
ARC
  5
2BC
100
AcDbEntity
  8
0
100
AcDbCircle
 62
6
  6
CONTINUOUS
 10
16.195220466
 20
11.8318168277
 40
0.3849550916
100
AcDbArc
 50
165.0674739193
 51
167.5778043465
  0
ARC
  5
2BD
100
AcDbEntity
  8
0
100
AcDbCircle
 62
6
  6
CONTINUOUS
 10
16.1944204671
 20
11.8317318516
 40
0.3849191771
100
AcDbArc
 50
90.0601250472
 51
98.6599540714
  0
ARC
  5
2BE
100
AcDbEntity
  8
0
100
AcDbCircle
 62
6
  6
CONTINUOUS
 10
16.1946328631
 20
11.8321228936
 40
0.3849076546
100
AcDbArc
 50
167.5905616163
 51
185.3376388859
  0
ARC
  5
2BF
100
AcDbEntity
  8
0
100
AcDbCircle
 62
6
  6
CONTINUOUS
 10
16.1939103449
 20
11.8313863777
 40
0.3849012279
100
AcDbArc
 50
338.0399744984
 51
338.6966096843
  0
ARC
  5
2C0
100
AcDbEntity
  8
0
100
AcDbCircle
 62
6
  6
CONTINUOUS
 10
16.1942539339
 20
11.8317864539
 40
0.3848644361
100
AcDbArc
 50
83.3961554527
 51
90.0353413422
  0
ARC
  5
2C1
100
AcDbEntity
  8
0
100
AcDbCircle
 62
6
  6
CONTINUOUS
 10
16.1949730623
 20
11.8316219741
 40
0.3848101601
100
AcDbArc
 50
147.9824844726
 51
151.7876721204
  0
ARC
  5
2C2
100
AcDbEntity
  8
0
100
AcDbCircle
 62
6
  6
CONTINUOUS
 10
16.1946435894
 20
11.8313208311
 40
0.3848099085
100
AcDbArc
 50
113.2832320527
 51
118.2858018681
  0
ARC
  5
2C3
100
AcDbEntity
  8
0
100
AcDbCircle
 62
6
  6
CONTINUOUS
 10
16.1940644749
 20
11.8312351393
 40
0.3846718708
100
AcDbArc
 50
321.2682302254
 51
322.7799950703
  0
ARC
  5
2C4
100
AcDbEntity
  8
0
100
AcDbCircle
 62
6
  6
CONTINUOUS
 10
16.1943097392
 20
11.8320117071
 40
0.384628263
100
AcDbArc
 50
99.0372964839
 51
149.9825893139
  0
ARC
  5
2C5
100
AcDbEntity
  8
0
100
AcDbCircle
 62
6
  6
CONTINUOUS
 10
16.1942311445
 20
11.831475969
 40
0.3846126243
100
AcDbArc
 50
340.843928336
 51
83.9949599471
  0
ARC
  5
2C6
100
AcDbEntity
  8
0
100
AcDbCircle
 62
6
  6
CONTINUOUS
 10
16.1945462511
 20
11.8319683925
 40
0.384264057
100
AcDbArc
 50
167.5782492238
 51
168.5504320056
  0
ARC
  5
2C7
100
AcDbEntity
  8
0
100
AcDbCircle
 62
6
  6
CONTINUOUS
 10
16.193929442
 20
11.8321932621
 40
0.3842037384
100
AcDbArc
 50
150.8824940619
 51
167.4720348752
  0
ARC
  5
2C8
100
AcDbEntity
  8
0
100
AcDbCircle
 62
6
  6
CONTINUOUS
 10
16.1944772533
 20
11.8320408768
 40
0.3840255946
100
AcDbArc
 50
90.0687373286
 51
96.3985431483
  0
ARC
  5
2C9
100
AcDbEntity
  8
0
100
AcDbCircle
 62
6
  6
CONTINUOUS
 10
16.1937401513
 20
11.8320535308
 40
0.3840021339
100
AcDbArc
 50
185.3397250792
 51
270.0412399168
  0
ARC
  5
2CA
100
AcDbEntity
  8
0
100
AcDbCircle
 62
6
  6
CONTINUOUS
 10
16.1937162824
 20
11.8315861055
 40
0.3835194646
100
AcDbArc
 50
270.0448559796
 51
338.6914672595
  0
ARC
  5
2CB
100
AcDbEntity
  8
0
100
AcDbCircle
 62
6
  6
CONTINUOUS
 10
16.193733797
 20
11.8320491343
 40
0.3834090635
100
AcDbArc
 50
185.3768173631
 51
270.0422528541
  0
ARC
  5
2CC
100
AcDbEntity
  8
0
100
AcDbCircle
 62
6
  6
CONTINUOUS
 10
16.1936159275
 20
11.8321690673
 40
0.3833113801
100
AcDbArc
 50
168.5522267893
 51
185.3963164594
  0
ARC
  5
2CD
100
AcDbEntity
  8
0
100
AcDbCircle
 62
6
  6
CONTINUOUS
 10
16.1939028595
 20
11.832664276
 40
0.3832758686
100
AcDbArc
 50
118.2834601652
 51
130.5918114727
  0
ARC
  5
2CE
100
AcDbEntity
  8
0
100
AcDbCircle
 62
6
  6
CONTINUOUS
 10
16.1934741736
 20
11.8324198679
 40
0.3831116956
100
AcDbArc
 50
151.7868526022
 51
165.087317949
  0
ARC
  5
2CF
100
AcDbEntity
  8
0
100
AcDbCircle
 62
6
  6
CONTINUOUS
 10
16.1935101465
 20
11.8326353963
 40
0.3830324886
100
AcDbArc
 50
135.1294367746
 51
147.9949987335
  0
ARC
  5
2D0
100
AcDbEntity
  8
0
100
AcDbCircle
 62
6
  6
CONTINUOUS
 10
16.1941814548
 20
11.8314554011
 40
0.3830225538
100
AcDbArc
 50
338.6843965127
 51
72.8937124487
  0
ARC
  5
2D1
100
AcDbEntity
  8
0
100
AcDbCircle
 62
6
  6
CONTINUOUS
 10
16.1937156669
 20
11.8315869639
 40
0.3829362714
100
AcDbArc
 50
270.0450164494
 51
338.6512641702
  0
ARC
  5
2D2
100
AcDbEntity
  8
0
100
AcDbCircle
 62
6
  6
CONTINUOUS
 10
16.193886468
 20
11.8332160747
 40
0.3827697409
100
AcDbArc
 50
101.0787302101
 51
113.2912676591
  0
ARC
  5
2D3
100
AcDbEntity
  8
0
100
AcDbCircle
 62
6
  6
CONTINUOUS
 10
16.194331542
 20
11.833302085
 40
0.3827642396
100
AcDbArc
 50
83.9813091279
 51
90.0471523857
  0
ARC
  5
2D4
100
AcDbEntity
  8
0
100
AcDbCircle
 62
6
  6
CONTINUOUS
 10
16.1941880293
 20
11.8314577641
 40
0.3824317358
100
AcDbArc
 50
338.6435298159
 51
72.8967220447
  0
ARC
  5
2D5
100
AcDbEntity
  8
0
100
AcDbCircle
 62
6
  6
CONTINUOUS
 10
16.1940165407
 20
11.8317986049
 40
0.3821502168
100
AcDbArc
 50
72.8571188899
 51
167.5227907903
  0
ARC
  5
2D6
100
AcDbEntity
  8
0
100
AcDbCircle
 62
6
  6
CONTINUOUS
 10
16.1931733832
 20
11.8322655914
 40
0.3451323429
100
AcDbArc
 50
311.1727510043
 51
320.3472579976
  0
ARC
  5
2D7
100
AcDbEntity
  8
0
100
AcDbCircle
 62
6
  6
CONTINUOUS
 10
16.1741523893
 20
11.8299683412
 40
0.3450501607
100
AcDbArc
 50
272.9378831661
 51
278.606632605
  0
ARC
  5
2D8
100
AcDbEntity
  8
0
100
AcDbCircle
 62
6
  6
CONTINUOUS
 10
16.193696753
 20
11.8316297364
 40
0.3443242265
100
AcDbArc
 50
275.3479372832
 51
320.3731469735
  0
ARC
  5
2D9
100
AcDbEntity
  8
0
100
AcDbCircle
 62
6
  6
CONTINUOUS
 10
16.1939294036
 20
11.8292541867
 40
0.3419378982
100
AcDbArc
 50
272.2652792152
 51
275.3462234536
  0
CIRCLE
  5
2DA
100
AcDbEntity
  8
0
100
AcDbCircle
 62
6
  6
CONTINUOUS
 10
16.1940165407
 20
11.8317986049
 40
0.34125
  0
SPLINE
  5
2DB
100
AcDbEntity
  8
0
100
AcDbSpline
 62
6
  6
CONTINUOUS
 70
0
 71
3
 72
25
 73
21
 74
19
 42
0.0000001
 43
0.0000001
 44
0.0000000001
 12
-0.1070026521
 22
-0.6410778737
 32
0.0
 13
0.6490899708
 23
0.033355921
 33
0.0
 40
0.0
 40
0.0
 40
0.0
 40
0.0
 40
0.0624404551
 40
0.1249786276
 40
0.1875124936
 40
0.2500261193
 40
0.2812927649
 40
0.3125629065
 40
0.3750858835
 40
0.4376031372
 40
0.5001113975
 40
0.5626033592
 40
0.625079128
 40
0.6875446601
 40
0.718789893
 40
0.7500351873
 40
0.8124962789
 40
0.8749617097
 40
0.9374655803
 40
1.0
 40
1.0
 40
1.0
 40
1.0
 10
15.8208919386
 20
11.9143626374
 30
0.0
 10
15.8186648405
 20
11.9010195727
 30
0.0
 10
15.8156366544
 20
11.8740521586
 30
0.0
 10
15.815417482
 20
11.8333537252
 30
0.0
 10
15.8195919382
 20
11.7928492436
 30
0.0
 10
15.8267007175
 20
11.7596648402
 30
0.0
 10
15.834520601
 20
11.7337136371
 30
0.0
 10
15.8437533819
 20
11.7082287508
 30
0.0
 10
15.8578919347
 20
11.6773760388
 30
0.0
 10
15.8788124139
 20
11.6424484767
 30
0.0
 10
15.9034850343
 20
11.610067264
 30
0.0
 10
15.9315915157
 20
11.5806284376
 30
0.0
 10
15.9628198312
 20
11.5545406631
 30
0.0
 10
15.9911289943
 20
11.5358615618
 30
0.0
 10
16.0149269428
 20
11.5229301815
 30
0.0
 10
16.0394206516
 20
11.5113735348
 30
0.0
 10
16.071217477
 20
11.4995761587
 30
0.0
 10
16.110747762
 20
11.4899047102
 30
0.0
 10
16.1511453293
 20
11.4848656203
 30
0.0
 10
16.1783071828
 20
11.4846763865
 30
0.0
 10
16.1918373377
 20
11.4853716842
 30
0.0
 11
15.8208919386
 21
11.9143626374
 31
0.0
 11
15.8163584222
 21
11.8740336985
 31
0.0
 11
15.8161499005
 21
11.8333877693
 31
0.0
 11
15.8203186469
 21
11.7929584597
 31
0.0
 11
15.8288325134
 21
11.7532299759
 31
0.0
 11
15.8346969213
 21
11.7337728947
 31
0.0
 11
15.8416193994
 21
11.7146642334
 31
0.0
 11
15.8585519515
 21
11.677723457
 31
0.0
 11
15.87943951
 21
11.6428703386
 31
0.0
 11
15.9040606226
 21
11.6105538444
 31
0.0
 11
15.9321155028
 21
11.5811834843
 31
0.0
 11
15.9632789577
 21
11.5551512233
 31
0.0
 11
15.9971707433
 21
11.532798458
 31
0.0
 11
16.0150140272
 21
11.5231020123
 31
0.0
 11
16.0333804879
 21
11.5144372221
 31
0.0
 11
16.0714447224
 21
11.5003241445
 31
0.0
 11
16.1108814993
 21
11.4906787039
 31
0.0
 11
16.1511943271
 21
11.4856588344
 31
0.0
 11
16.1918373377
 21
11.4853716842
 31
0.0
  0
LINE
  5
2DC
100
AcDbEntity
  8
0
100
AcDbLine
 62
6
  6
CONTINUOUS
 10
16.1940165407
 20
12.2322135042
 11
16.1931556601
 21
12.2322118077
  0
LINE
  5
2DD
100
AcDbEntity
  8
0
100
AcDbLine
 62
6
  6
CONTINUOUS
 10
16.1931627669
 20
11.4324954925
 11
16.1940165407
 21
11.4324953263
  0
LINE
  5
2DE
100
AcDbEntity
  8
0
100
AcDbLine
 62
6
  6
CONTINUOUS
 10
16.1940165407
 20
12.2344367464
 11
16.1934419184
 21
12.2344358269
  0
SPLINE
  5
2DF
100
AcDbEntity
  8
0
100
AcDbSpline
 62
6
  6
CONTINUOUS
 70
0
 71
3
 72
38
 73
34
 74
32
 42
0.0000001
 43
0.0000001
 44
0.0000000001
 12
-0.8821150395
 22
-0.5485447594
 32
0.0
 13
1.0387627139
 23
-0.000565862
 33
0.0
 40
0.0
 40
0.0
 40
0.0
 40
0.0
 40
0.0312548444
 40
0.0625124695
 40
0.0937684385
 40
0.1250218343
 40
0.1562739599
 40
0.1875244816
 40
0.2187744308
 40
0.2500250753
 40
0.2812751055
 40
0.3125241135
 40
0.343773842
 40
0.3750240275
 40
0.4062744662
 40
0.4375267132
 40
0.468779732
 40
0.5000315965
 40
0.5312830575
 40
0.5625346588
 40
0.5937852251
 40
0.6250354539
 40
0.6562868454
 40
0.6875389144
 40
0.7187923441
 40
0.7500473779
 40
0.7813001324
 40
0.8125466716
 40
0.8437904302
 40
0.8750402103
 40
0.9063051695
 40
0.9375844424
 40
1.0
 40
1.0
 40
1.0
 40
1.0
 10
15.9818707287
 20
12.1737806864
 30
0.0
 10
15.9726806059
 20
12.1680657927
 30
0.0
 10
15.954752976
 20
12.1558873338
 30
0.0
 10
15.9294214925
 20
12.1355249641
 30
0.0
 10
15.9058086479
 20
12.1131891159
 30
0.0
 10
15.8840865741
 20
12.0890137831
 30
0.0
 10
15.8643814854
 20
12.0631709013
 30
0.0
 10
15.8468182039
 20
12.0358281556
 30
0.0
 10
15.8315274388
 20
12.007153015
 30
0.0
 10
15.8185972779
 20
11.9773396707
 30
0.0
 10
15.8081035184
 20
11.9465841581
 30
0.0
 10
15.8001324231
 20
11.9150804437
 30
0.0
 10
15.7947320945
 20
11.883036219
 30
0.0
 10
15.7919234499
 20
11.8506612274
 30
0.0
 10
15.7917395323
 20
11.8181638054
 30
0.0
 10
15.7941865146
 20
11.7857574673
 30
0.0
 10
15.7992296871
 20
11.7536523434
 30
0.0
 10
15.8068445394
 20
11.7220579304
 30
0.0
 10
15.8169964101
 20
11.6911857263
 30
0.0
 10
15.8295991208
 20
11.6612313776
 30
0.0
 10
15.8445717226
 20
11.6323883864
 30
0.0
 10
15.8618339122
 20
11.6048544969
 30
0.0
 10
15.8812594718
 20
11.5788017692
 30
0.0
 10
15.9027189069
 20
11.5543950816
 30
0.0
 10
15.9260879047
 20
11.5318078316
 30
0.0
 10
15.9512052679
 20
11.5111828312
 30
0.0
 10
15.9778964846
 20
11.4926437526
 30
0.0
 10
16.0059948335
 20
11.4763227831
 30
0.0
 10
16.0353219014
 20
11.4623316965
 30
0.0
 10
16.0656855199
 20
11.450746544
 30
0.0
 10
16.0969033188
 20
11.4416520105
 30
0.0
 10
16.1393197927
 20
11.4329540392
 30
0.0
 10
16.1718386205
 20
11.430283762
 30
0.0
 10
16.1934502718
 20
11.4302719892
 30
0.0
 11
15.9818707287
 21
12.1737806864
 31
0.0
 11
15.9550137319
 21
12.1555387834
 31
0.0
 11
15.9297074453
 21
12.1351956096
 31
0.0
 11
15.906122932
 21
12.1128816702
 31
0.0
 11
15.8844222554
 21
12.0887352787
 31
0.0
 11
15.864738019
 21
12.062920307
 31
0.0
 11
15.8471968085
 21
12.0356058477
 31
0.0
 11
15.8319209653
 21
12.0069635057
 31
0.0
 11
15.8190032522
 21
11.9771823921
 31
0.0
 11
15.8085238438
 21
11.9464590686
 31
0.0
 11
15.8005609341
 21
11.9149906123
 31
0.0
 11
15.7951640734
 21
11.88298133
 31
0.0
 11
15.792360912
 21
11.8506410553
 31
0.0
 11
15.7921779869
 21
11.8181797753
 31
0.0
 11
15.7946191795
 21
11.7858080178
 31
0.0
 11
15.7996583898
 21
11.7537370258
 31
0.0
 11
15.8072674335
 21
11.7221780846
 31
0.0
 11
15.817404894
 21
11.6913386781
 31
0.0
 11
15.829994286
 21
11.6614162154
 31
0.0
 11
15.8449533801
 21
11.6326064554
 31
0.0
 11
15.8621941954
 21
11.6051017597
 31
0.0
 11
15.8815981867
 21
11.5790764348
 31
0.0
 11
15.9030366953
 21
11.5546988129
 31
0.0
 11
15.9263788603
 21
11.5321352755
 31
0.0
 11
15.9514685348
 21
11.5115297834
 31
0.0
 11
15.9781333726
 21
11.4930119335
 31
0.0
 11
16.0062006101
 21
11.4767105419
 31
0.0
 11
16.0354917491
 21
11.4627338872
 31
0.0
 11
16.0658209497
 21
11.4511639552
 31
0.0
 11
16.0970018208
 21
11.4420809532
 31
0.0
 11
16.1288305445
 21
11.4355505636
 31
0.0
 11
16.1934502718
 21
11.4302719892
 31
0.0
  0
LINE
  5
2E0
100
AcDbEntity
  8
0
100
AcDbLine
 62
6
  6
CONTINUOUS
 10
16.1934502718
 20
11.4302719892
 11
16.1940165407
 21
11.4302720844
  0
LINE
  5
2E1
100
AcDbEntity
  8
0
100
AcDbLine
 62
6
  6
CONTINUOUS
 10
16.1940165407
 20
12.2366599869
 11
16.1934408299
 21
12.2366590699
  0
SPLINE
  5
2E2
100
AcDbEntity
  8
0
100
AcDbSpline
 62
6
  6
CONTINUOUS
 70
0
 71
3
 72
37
 73
33
 74
31
 42
0.0000001
 43
0.0000001
 44
0.0000000001
 12
-0.8865651121
 22
-0.5518227376
 32
0.0
 13
1.0442728042
 23
-0.0005849549
 33
0.0
 40
0.0
 40
0.0
 40
0.0
 40
0.0
 40
0.0624537091
 40
0.0937065342
 40
0.1249588153
 40
0.1562107294
 40
0.1874609718
 40
0.2187103473
 40
0.2499604424
 40
0.2812111259
 40
0.3124636996
 40
0.343719322
 40
0.3749762852
 40
0.4062336909
 40
0.4374926448
 40
0.4687516077
 40
0.5000083689
 40
0.5312636401
 40
0.5625180423
 40
0.5937704748
 40
0.625021677
 40
0.6562730954
 40
0.6875240959
 40
0.7187751935
 40
0.7500271867
 40
0.7812775307
 40
0.8125239687
 40
0.8437707856
 40
0.8750254895
 40
0.9062960352
 40
0.9375797755
 40
1.0
 40
1.0
 40
1.0
 40
1.0
 10
15.9805474956
 20
12.1755757476
 30
0.0
 10
15.9620910691
 20
12.1640879554
 30
0.0
 10
15.9357249683
 20
12.1445693866
 30
0.0
 10
15.9041172528
 20
12.1146406832
 30
0.0
 10
15.8822874131
 20
12.0903283534
 30
0.0
 10
15.8624857751
 20
12.0643441005
 30
0.0
 10
15.8448378308
 20
12.0368509697
 30
0.0
 10
15.8294753095
 20
12.0080194425
 30
0.0
 10
15.8164824388
 20
11.9780456256
 30
0.0
 10
15.8059404153
 20
11.9471229614
 30
0.0
 10
15.7979375024
 20
11.9154458991
 30
0.0
 10
15.7925136334
 20
11.8832252327
 30
0.0
 10
15.7896951008
 20
11.8506711183
 30
0.0
 10
15.7895192813
 20
11.8179941076
 30
0.0
 10
15.7919871683
 20
11.7854096728
 30
0.0
 10
15.7970646179
 20
11.753129234
 30
0.0
 10
15.8047280464
 20
11.7213639385
 30
0.0
 10
15.8149418509
 20
11.6903264213
 30
0.0
 10
15.8276186927
 20
11.6602130544
 30
0.0
 10
15.8426771742
 20
11.6312182148
 30
0.0
 10
15.8600364484
 20
11.6035405663
 30
0.0
 10
15.8795693617
 20
11.5773529058
 30
0.0
 10
15.9011453594
 20
11.552820754
 30
0.0
 10
15.9246390845
 20
11.5301177736
 30
0.0
 10
15.9498888304
 20
11.509386649
 30
0.0
 10
15.9767213004
 20
11.4907520683
 30
0.0
 10
16.0049707412
 20
11.4743476892
 30
0.0
 10
16.0344563066
 20
11.4602823316
 30
0.0
 10
16.0649854022
 20
11.4486340042
 30
0.0
 10
16.0963740759
 20
11.4394906369
 30
0.0
 10
16.1390206826
 20
11.4307461929
 30
0.0
 10
16.171715091
 20
11.428060923
 30
0.0
 10
16.1934430053
 20
11.428048752
 30
0.0
 11
15.9805474956
 21
12.1755757476
 31
0.0
 11
15.9281291308
 21
12.136771154
 31
0.0
 11
15.9044313788
 21
12.1143310916
 31
0.0
 11
15.8826252717
 21
12.0900494839
 31
0.0
 11
15.8628442944
 21
12.0640920053
 31
0.0
 11
15.8452185238
 21
12.036627555
 31
0.0
 11
15.8298703681
 21
12.0078293111
 31
0.0
 11
15.8168910515
 21
11.9778878496
 31
0.0
 11
15.8063638729
 21
11.9469981685
 31
0.0
 11
15.7983676376
 21
11.9153566936
 31
0.0
 11
15.7929479565
 21
11.8831703985
 31
0.0
 11
15.7901355684
 21
11.8506509826
 31
0.0
 11
15.7899598771
 21
11.8180101916
 31
0.0
 11
15.7924221081
 21
11.7854603058
 31
0.0
 11
15.7974958091
 21
11.7532141304
 31
0.0
 11
15.8051533206
 21
11.7214844804
 31
0.0
 11
15.8153525523
 21
11.6904799282
 31
0.0
 11
15.8280160251
 21
11.6603986414
 31
0.0
 11
15.8430609339
 21
11.631437222
 31
0.0
 11
15.8603987245
 21
11.6037888901
 31
0.0
 11
15.8799099714
 21
11.5776287063
 31
0.0
 11
15.901464932
 21
11.5531256624
 31
0.0
 11
15.924931553
 21
11.5304466014
 31
0.0
 11
15.9501532983
 21
11.5097355726
 31
0.0
 11
15.9769588606
 21
11.4911228734
 31
0.0
 11
16.0051764086
 21
11.4747376813
 31
0.0
 11
16.034626404
 21
11.4606867692
 31
0.0
 11
16.0651214008
 21
11.4490539238
 31
0.0
 11
16.0964734645
 21
11.4399217725
 31
0.0
 11
16.1284756928
 21
11.4333562911
 31
0.0
 11
16.1934430053
 21
11.428048752
 31
0.0
  0
LINE
  5
2E3
100
AcDbEntity
  8
0
100
AcDbLine
 62
6
  6
CONTINUOUS
 10
16.1934430053
 20
11.428048752
 11
16.1940165407
 21
11.4280488426
  0
LINE
  5
2E4
100
AcDbEntity
  8
0
100
AcDbLine
 62
6
  6
CONTINUOUS
 10
16.1940165407
 20
12.2299902635
 11
16.193603714
 21
12.2299896813
  0
LINE
  5
2E5
100
AcDbEntity
  8
0
100
AcDbLine
 62
6
  6
CONTINUOUS
 10
16.19345405
 20
11.4347184674
 11
16.1940165407
 21
11.4347185659
  0
LINE
  5
2E6
100
AcDbEntity
  8
0
100
AcDbLine
 62
6
  6
CONTINUOUS
 10
16.1940165407
 20
12.225543781
 11
16.1930729597
 21
12.2255417873
  0
LINE
  5
2E7
100
AcDbEntity
  8
0
100
AcDbLine
 62
6
  6
CONTINUOUS
 10
16.193087914
 20
11.4391653255
 11
16.1940165407
 21
11.4391650495
  0
LINE
  5
2E8
100
AcDbEntity
  8
0
100
AcDbLine
 62
6
  6
CONTINUOUS
 10
16.1940165407
 20
12.2277670233
 11
16.1934407448
 21
12.2277660854
  0
LINE
  5
2E9
100
AcDbEntity
  8
0
100
AcDbLine
 62
6
  6
CONTINUOUS
 10
16.1934455735
 20
11.4369417133
 11
16.1940165407
 21
11.4369418075
  0
LINE
  5
2EA
100
AcDbEntity
  8
0
100
AcDbLine
 62
6
  6
CONTINUOUS
 10
16.1940165407
 20
12.2233205401
 11
16.1935232391
 21
12.2233197809
  0
LINE
  5
2EB
100
AcDbEntity
  8
0
100
AcDbLine
 62
6
  6
CONTINUOUS
 10
16.193455498
 20
11.4413881882
 11
16.1940165407
 21
11.4413882892
  0
LINE
  5
2EC
100
AcDbEntity
  8
0
100
AcDbLine
 62
6
  6
CONTINUOUS
 10
15.8091857164
 20
11.7960885201
 11
15.8092818953
 21
11.7950742704
  0
LINE
  5
2ED
100
AcDbEntity
  8
0
100
AcDbLine
 62
6
  6
CONTINUOUS
 10
16.1940165407
 20
12.2210973001
 11
16.193396468
 21
12.2210962362
  0
LINE
  5
2EE
100
AcDbEntity
  8
0
100
AcDbLine
 62
6
  6
CONTINUOUS
 10
16.1933898032
 20
11.443611472
 11
16.1940165407
 21
11.4436115306
  0
LINE
  5
2EF
100
AcDbEntity
  8
0
100
AcDbLine
 62
6
  6
CONTINUOUS
 10
15.8188734984
 20
11.9155332394
 11
15.8187195647
 21
11.9148377129
  0
LINE
  5
2F0
100
AcDbEntity
  8
0
100
AcDbLine
 62
6
  6
CONTINUOUS
 10
16.1940165407
 20
11.4280488426
 11
16.1945980626
 21
11.4280497758
  0
SPLINE
  5
2F1
100
AcDbEntity
  8
0
100
AcDbSpline
 62
6
  6
CONTINUOUS
 70
0
 71
3
 72
40
 73
36
 74
34
 42
0.0000001
 43
0.0000001
 44
0.0000000001
 12
1.265016652
 22
0.0029511453
 32
0.0
 13
-1.2650199088
 23
0.0006851046
 33
0.0
 40
0.0
 40
0.0
 40
0.0
 40
0.0
 40
0.0312106938
 40
0.0624816215
 40
0.0937578255
 40
0.1250137487
 40
0.1562587635
 40
0.1875034213
 40
0.218751931
 40
0.2499999492
 40
0.2812462547
 40
0.3124926859
 40
0.3437395982
 40
0.3749895951
 40
0.4062417793
 40
0.4374956938
 40
0.4687524854
 40
0.5000092
 40
0.5312652121
 40
0.5625205429
 40
0.5937719205
 40
0.6250201112
 40
0.6562668273
 40
0.6875128455
 40
0.7187606266
 40
0.7500088661
 40
0.7812577753
 40
0.8125063047
 40
0.8437495347
 40
0.8749904492
 40
0.9062408965
 40
0.921878553
 40
0.9375216113
 40
0.9687900504
 40
1.0
 40
1.0
 40
1.0
 40
1.0
 10
16.1945980626
 20
11.4280497758
 30
0.0
 10
16.2077587451
 20
11.4280804782
 30
0.0
 10
16.2341201204
 20
11.4294450584
 30
0.0
 10
16.2732755197
 20
11.4353255519
 30
0.0
 10
16.3116935836
 20
11.4450063304
 30
0.0
 10
16.3489606061
 20
11.4584171858
 30
0.0
 10
16.3847303426
 20
11.4753921036
 30
0.0
 10
16.4186596434
 20
11.4957935107
 30
0.0
 10
16.4504320904
 20
11.5194144666
 30
0.0
 10
16.4797526004
 20
11.546020197
 30
0.0
 10
16.5063131808
 20
11.5753805333
 30
0.0
 10
16.5298821142
 20
11.6071909983
 30
0.0
 10
16.5502248898
 20
11.6411581997
 30
0.0
 10
16.5671357084
 20
11.6769598404
 30
0.0
 10
16.5804795093
 20
11.7142414821
 30
0.0
 10
16.5900947578
 20
11.7526577615
 30
0.0
 10
16.5959022021
 20
11.7918317233
 30
0.0
 10
16.5978614833
 20
11.8313869937
 30
0.0
 10
16.5959152204
 20
11.870942508
 30
0.0
 10
16.5901146633
 20
11.9101154444
 30
0.0
 10
16.5805132231
 20
11.9485315973
 30
0.0
 10
16.5671786934
 20
11.9858124302
 30
0.0
 10
16.5502725727
 20
12.0216124898
 30
0.0
 10
16.5299337114
 20
12.0555807895
 30
0.0
 10
16.5063614111
 20
12.0873902218
 30
0.0
 10
16.479796279
 20
12.1167488778
 30
0.0
 10
16.4504675692
 20
12.1433479037
 30
0.0
 10
16.4186828787
 20
12.1669521431
 30
0.0
 10
16.3847436462
 20
12.1873334622
 30
0.0
 10
16.34896599
 20
12.2042783006
 30
0.0
 10
16.3179012041
 20
12.2154201438
 30
0.0
 10
16.2924832454
 20
12.2224678888
 30
0.0
 10
16.2667406195
 20
12.2282540163
 30
0.0
 10
16.2341039793
 20
12.2331097235
 30
0.0
 10
16.2077425882
 20
12.2344297144
 30
0.0
 10
16.1945821857
 20
12.2344368418
 30
0.0
 11
16.1945980626
 21
11.4280497758
 31
0.0
 11
16.2340279288
 21
11.4300810795
 31
0.0
 11
16.2731472763
 21
11.4359581412
 31
0.0
 11
16.3115116525
 21
11.445631092
 31
0.0
 11
16.3487173811
 21
11.4590137526
 31
0.0
 11
16.3844242195
 21
11.4759634577
 31
0.0
 11
16.4182986422
 21
11.4963290806
 31
0.0
 11
16.4500234928
 21
11.5199120019
 31
0.0
 11
16.4792932274
 21
11.5464799111
 31
0.0
 11
16.5058145945
 21
11.5757889025
 31
0.0
 11
16.5293441729
 21
11.6075500641
 31
0.0
 11
16.5496520988
 21
11.6414624322
 31
0.0
 11
16.5665406599
 21
11.6772052016
 31
0.0
 11
16.5798577357
 21
11.714429432
 31
0.0
 11
16.5894598189
 21
11.7527825403
 31
0.0
 11
16.595260818
 21
11.7918951615
 31
0.0
 11
16.5972105572
 21
11.8313874334
 31
0.0
 11
16.595272762
 21
11.8708794034
 31
0.0
 11
16.5894807426
 21
11.9099914872
 31
0.0
 11
16.5798904843
 21
11.948344246
 31
0.0
 11
16.5665830542
 21
11.985566561
 31
0.0
 11
16.5497003069
 21
12.0213074869
 31
0.0
 11
16.5293952806
 21
12.0552202729
 31
0.0
 11
16.5058628543
 21
12.08698145
 31
0.0
 11
16.4793359175
 21
12.1162887002
 31
0.0
 11
16.4500578301
 21
12.142849082
 31
0.0
 11
16.4183214596
 21
12.1664165402
 31
0.0
 11
16.3844365242
 21
12.1867611581
 31
0.0
 11
16.348721024
 21
12.2036804917
 31
0.0
 11
16.3115085536
 21
12.2170238852
 31
0.0
 11
16.2924457779
 21
12.2223093479
 31
0.0
 11
16.2731389837
 21
12.2266502738
 31
0.0
 11
16.2340144425
 21
12.2324713064
 31
0.0
 11
16.1945821857
 21
12.2344368418
 31
0.0
  0
LINE
  5
2F2
100
AcDbEntity
  8
0
100
AcDbLine
 62
6
  6
CONTINUOUS
 10
16.1945821857
 20
12.2344368418
 11
16.1940165407
 21
12.2344367464
  0
LINE
  5
2F3
100
AcDbEntity
  8
0
100
AcDbLine
 62
6
  6
CONTINUOUS
 10
16.1940165407
 20
11.4302720844
 11
16.1948786977
 21
11.4302737801
  0
SPLINE
  5
2F4
100
AcDbEntity
  8
0
100
AcDbSpline
 62
6
  6
CONTINUOUS
 70
0
 71
3
 72
40
 73
36
 74
34
 42
0.0000001
 43
0.0000001
 44
0.0000000001
 12
1.2574452669
 22
0.0038379383
 32
0.0
 13
-1.2574500267
 23
0.0016611508
 33
0.0
 40
0.0
 40
0.0
 40
0.0
 40
0.0
 40
0.0312107865
 40
0.0624798818
 40
0.0781232556
 40
0.0937612548
 40
0.1250123212
 40
0.1562537859
 40
0.187497723
 40
0.2187471523
 40
0.2499966702
 40
0.2812448507
 40
0.3124927063
 40
0.3437398648
 40
0.3749883921
 40
0.4062369879
 40
0.4374851749
 40
0.4687342403
 40
0.4999823237
 40
0.5312304166
 40
0.5624789862
 40
0.5937271727
 40
0.6249765552
 40
0.656224848
 40
0.6874709099
 40
0.7187175367
 40
0.7499660131
 40
0.7812189671
 40
0.8124730246
 40
0.8437228491
 40
0.8749731753
 40
0.9062341429
 40
0.9375146041
 40
0.9687880988
 40
1.0
 40
1.0
 40
1.0
 40
1.0
 10
16.1948786977
 20
11.4302737801
 30
0.0
 10
16.2079606496
 20
11.4303137085
 30
0.0
 10
16.2341614764
 20
11.4316873286
 30
0.0
 10
16.2665933265
 20
11.43658047
 30
0.0
 10
16.2921718266
 20
11.4423789763
 30
0.0
 10
16.3174262853
 20
11.4494274024
 30
0.0
 10
16.3482888734
 20
11.4605490236
 30
0.0
 10
16.3838317155
 20
11.4774373281
 30
0.0
 10
16.4175476774
 20
11.4977315491
 30
0.0
 10
16.4491232028
 20
11.5212211979
 30
0.0
 10
16.4782610444
 20
11.5476785051
 30
0.0
 10
16.5046551684
 20
11.5768725335
 30
0.0
 10
16.5280774911
 20
11.6084986119
 30
0.0
 10
16.5482912602
 20
11.6422669955
 30
0.0
 10
16.5650956717
 20
11.6778545232
 30
0.0
 10
16.5783550126
 20
11.7149099616
 30
0.0
 10
16.5879086766
 20
11.7530898313
 30
0.0
 10
16.5936847364
 20
11.7920194728
 30
0.0
 10
16.5956331833
 20
11.8313278787
 30
0.0
 10
16.5937062234
 20
11.870636897
 30
0.0
 10
16.5879568685
 20
11.9095704675
 30
0.0
 10
16.5784176405
 20
11.94775423
 30
0.0
 10
16.5651781945
 20
11.9848167923
 30
0.0
 10
16.5483907783
 20
12.0204124806
 30
0.0
 10
16.528185138
 20
12.0541844793
 30
0.0
 10
16.5047745974
 20
12.0858183465
 30
0.0
 10
16.4783796779
 20
12.1150136455
 30
0.0
 10
16.4492374162
 20
12.1414710885
 30
0.0
 10
16.4176556425
 20
12.164962817
 30
0.0
 10
16.3839232599
 20
12.1852456364
 30
0.0
 10
16.3483594052
 20
12.2021173605
 30
0.0
 10
16.311305431
 20
12.2154393107
 30
0.0
 10
16.2731072025
 20
12.2250437858
 30
0.0
 10
16.2341785411
 20
12.230862971
 30
0.0
 10
16.2079718762
 20
12.2321960307
 30
0.0
 10
16.1948894075
 20
12.2322133132
 30
0.0
 11
16.1948786977
 21
11.4302737801
 31
0.0
 11
16.2340713676
 21
11.4323197922
 31
0.0
 11
16.2729506872
 21
11.4381858393
 31
0.0
 11
16.292134408
 21
11.442536053
 31
0.0
 11
16.311074616
 21
11.4478220903
 31
0.0
 11
16.3480452012
 21
11.4611414583
 31
0.0
 11
16.3835264473
 21
11.4780044989
 31
0.0
 11
16.4171885533
 21
11.498262531
 31
0.0
 11
16.4487166497
 21
11.5217156136
 31
0.0
 11
16.4778042309
 21
11.5481351011
 31
0.0
 11
16.5041600607
 21
11.5772781067
 31
0.0
 11
16.5275428858
 21
11.6088558825
 31
0.0
 11
16.5477227417
 21
11.642569633
 31
0.0
 11
16.5645047825
 21
11.6780990844
 31
0.0
 11
16.5777374413
 21
11.7150974941
 31
0.0
 11
16.5872790092
 21
11.7532144676
 31
0.0
 11
16.5930468391
 21
11.7920830168
 31
0.0
 11
16.5949872872
 21
11.8313280114
 31
0.0
 11
16.5930691764
 21
11.8705741162
 31
0.0
 11
16.5873252117
 21
11.9094455692
 31
0.0
 11
16.5778010748
 21
11.9475669011
 31
0.0
 11
16.5645866241
 21
11.9845728684
 31
0.0
 11
16.5478205485
 21
12.0201095304
 31
0.0
 11
16.5276511381
 21
12.0538279241
 31
0.0
 11
16.5042780078
 21
12.0854109541
 31
0.0
 11
16.4779234787
 21
12.1145556378
 31
0.0
 11
16.4488312421
 21
12.140976426
 31
0.0
 11
16.4172955796
 21
12.1644290876
 31
0.0
 11
16.3836186498
 21
12.184676838
 31
0.0
 11
16.348117174
 21
12.2015232563
 31
0.0
 11
16.3111240722
 21
12.2148168191
 31
0.0
 11
16.2729791828
 21
12.2244138769
 31
0.0
 11
16.2340866699
 21
12.23022933
 31
0.0
 11
16.1948894075
 21
12.2322133132
 31
0.0
  0
LINE
  5
2F5
100
AcDbEntity
  8
0
100
AcDbLine
 62
6
  6
CONTINUOUS
 10
16.1948894075
 20
12.2322133132
 11
16.1940165407
 21
12.2322135042
  0
LINE
  5
2F6
100
AcDbEntity
  8
0
100
AcDbLine
 62
6
  6
CONTINUOUS
 10
16.1940165407
 20
11.4324953263
 11
16.1945920923
 21
11.4324962558
  0
LINE
  5
2F7
100
AcDbEntity
  8
0
100
AcDbLine
 62
6
  6
CONTINUOUS
 10
16.1945900223
 20
12.2299903555
 11
16.1940165407
 21
12.2299902635
  0
LINE
  5
2F8
100
AcDbEntity
  8
0
100
AcDbLine
 62
6
  6
CONTINUOUS
 10
16.1940165407
 20
11.4369418075
 11
16.1946536607
 21
11.4369428994
  0
SPLINE
  5
2F9
100
AcDbEntity
  8
0
100
AcDbSpline
 62
6
  6
CONTINUOUS
 70
0
 71
3
 72
39
 73
35
 74
33
 42
0.0000001
 43
0.0000001
 44
0.0000000001
 12
1.2369544122
 22
0.0031312672
 32
0.0
 13
-1.2369580537
 23
0.0008922819
 33
0.0
 40
0.0
 40
0.0
 40
0.0
 40
0.0
 40
0.0311999168
 40
0.0624715323
 40
0.0937592796
 40
0.1250265315
 40
0.1562786193
 40
0.1875250499
 40
0.2187749115
 40
0.2500269826
 40
0.2812756165
 40
0.3125209028
 40
0.3437653969
 40
0.3750100556
 40
0.4062579314
 40
0.4375067612
 40
0.4687531809
 40
0.4999991956
 40
0.5312451995
 40
0.5624916234
 40
0.59374048
 40
0.6249883546
 40
0.6562329869
 40
0.6874774424
 40
0.7187227654
 40
0.7499716738
 40
0.7812241926
 40
0.8124745284
 40
0.8437213641
 40
0.8749736647
 40
0.9062408874
 40
0.937528563
 40
0.9688001787
 40
1.0
 40
1.0
 40
1.0
 40
1.0
 10
16.1946536607
 20
11.4369428994
 30
0.0
 10
16.2075179523
 20
11.4369754645
 30
0.0
 10
16.2332901702
 20
11.4383165526
 30
0.0
 10
16.2715756323
 20
11.444077315
 30
0.0
 10
16.3091516032
 20
11.4535423342
 30
0.0
 10
16.3456021117
 20
11.4666655083
 30
0.0
 10
16.3805802526
 20
11.48327842
 30
0.0
 10
16.4137629143
 20
11.5032255424
 30
0.0
 10
16.4448230135
 20
11.5263388004
 30
0.0
 10
16.473485164
 20
11.5523663356
 30
0.0
 10
16.49946904
 20
11.5810673036
 30
0.0
 10
16.5224995551
 20
11.6121838072
 30
0.0
 10
16.5423864415
 20
11.6453948092
 30
0.0
 10
16.5589275356
 20
11.6803951107
 30
0.0
 10
16.5719493211
 20
11.7168525451
 30
0.0
 10
16.5813608497
 20
11.754404698
 30
0.0
 10
16.5870460423
 20
11.7926989548
 30
0.0
 10
16.5889415841
 20
11.8313644503
 30
0.0
 10
16.5870616724
 20
11.87003071
 30
0.0
 10
16.5813916138
 20
11.908327255
 30
0.0
 10
16.5719932095
 20
11.9458827739
 30
0.0
 10
16.5589823943
 20
11.9823441908
 30
0.0
 10
16.5424496794
 20
12.0173485331
 30
0.0
 10
16.522567549
 20
12.0505625162
 30
0.0
 10
16.4995382503
 20
12.0816802305
 30
0.0
 10
16.4735518125
 20
12.1103795346
 30
0.0
 10
16.4448833954
 20
12.1364011739
 30
0.0
 10
16.4138141539
 20
12.1595033975
 30
0.0
 10
16.3806200201
 20
12.1794327708
 30
0.0
 10
16.3456291027
 20
12.1960199024
 30
0.0
 10
16.3091659585
 20
12.2091088525
 30
0.0
 10
16.2715786841
 20
12.2185299929
 30
0.0
 10
16.2332848716
 20
12.2242365316
 30
0.0
 10
16.2075102233
 20
12.2255345571
 30
0.0
 10
16.1946459333
 20
12.2255438368
 30
0.0
 11
16.1946536607
 21
11.4369428994
 31
0.0
 11
16.2331950603
 21
11.4389379039
 31
0.0
 11
16.271446261
 21
11.4446927741
 31
0.0
 11
16.3089733651
 21
11.4541549877
 31
0.0
 11
16.3453651331
 21
11.4672505809
 31
0.0
 11
16.3802841456
 21
11.4838357347
 31
0.0
 11
16.4134079941
 21
11.5037524222
 31
0.0
 11
16.44442252
 21
11.5268238558
 31
0.0
 11
16.4730399957
 21
11.5528131468
 31
0.0
 11
16.4989780255
 21
11.5814713582
 31
0.0
 11
16.5219759598
 21
11.6125333829
 31
0.0
 11
16.5418287055
 21
11.6456928025
 31
0.0
 11
16.5583403654
 21
11.6806364635
 31
0.0
 11
16.5713474443
 21
11.7170345112
 31
0.0
 11
16.5807400082
 21
11.7545294834
 31
0.0
 11
16.5864144773
 21
11.7927611867
 31
0.0
 11
16.5883123446
 21
11.8313645818
 31
0.0
 11
16.5864300255
 21
11.8699687248
 31
0.0
 11
16.5807704388
 21
11.9082026394
 31
0.0
 11
16.5713909697
 21
11.9457009236
 31
0.0
 11
16.558394787
 21
11.9821028616
 31
0.0
 11
16.5418913388
 21
12.0170503655
 31
0.0
 11
16.5220433932
 21
12.0502126029
 31
0.0
 11
16.4990466897
 21
12.0812755954
 31
0.0
 11
16.4731060981
 21
12.1099319459
 31
0.0
 11
16.4444824373
 21
12.1359152486
 31
0.0
 11
16.4134588075
 21
12.1589754224
 31
0.0
 11
16.3803235961
 21
12.178874173
 31
0.0
 11
16.3453920282
 21
12.195433481
 31
0.0
 11
16.308987915
 21
12.2084946099
 31
0.0
 11
16.2714498269
 21
12.2179127894
 31
0.0
 11
16.2331905028
 21
12.2236134051
 31
0.0
 11
16.1946459333
 21
12.2255438368
 31
0.0
  0
LINE
  5
2FA
100
AcDbEntity
  8
0
100
AcDbLine
 62
6
  6
CONTINUOUS
 10
16.1946459333
 20
12.2255438368
 11
16.1940165407
 21
12.225543781
  0
LINE
  5
2FB
100
AcDbEntity
  8
0
100
AcDbLine
 62
6
  6
CONTINUOUS
 10
16.1940165407
 20
11.4347185659
 11
16.1946418066
 21
11.4347196218
  0
SPLINE
  5
2FC
100
AcDbEntity
  8
0
100
AcDbSpline
 62
6
  6
CONTINUOUS
 70
0
 71
3
 72
42
 73
38
 74
36
 42
0.0000001
 43
0.0000001
 44
0.0000000001
 12
1.2439973393
 22
0.003092799
 32
0.0
 13
-1.2440008957
 23
0.0008467586
 33
0.0
 40
0.0
 40
0.0
 40
0.0
 40
0.0
 40
0.0311976777
 40
0.0624646233
 40
0.09374586
 40
0.1250073675
 40
0.156255918
 40
0.1875017218
 40
0.218753795
 40
0.2500091302
 40
0.2812610222
 40
0.3125092339
 40
0.3437559552
 40
0.375001678
 40
0.4062494756
 40
0.4374978457
 40
0.4687441062
 40
0.4999904806
 40
0.5312370796
 40
0.5468649844
 40
0.5624933716
 40
0.593742626
 40
0.6249914593
 40
0.6562377448
 40
0.6874844723
 40
0.7187323793
 40
0.7499836139
 40
0.7812382758
 40
0.796869438
 40
0.8124988438
 40
0.8437427559
 40
0.874988437
 40
0.8906200914
 40
0.9062565366
 40
0.9375359976
 40
0.9688024362
 40
1.0
 40
1.0
 40
1.0
 40
1.0
 10
16.1946418066
 20
11.4347196218
 30
0.0
 10
16.2075784159
 20
11.4347517845
 30
0.0
 10
16.2334945565
 20
11.436098583
 30
0.0
 10
16.2719930171
 20
11.4418882142
 30
0.0
 10
16.309776289
 20
11.451404837
 30
0.0
 10
16.3464289016
 20
11.4645980943
 30
0.0
 10
16.3816045707
 20
11.4812995277
 30
0.0
 10
16.4149760946
 20
11.5013589182
 30
0.0
 10
16.4462157881
 20
11.5246032881
 30
0.0
 10
16.475046695
 20
11.5507782987
 30
0.0
 10
16.5011824914
 20
11.5796444928
 30
0.0
 10
16.524346597
 20
11.6109406925
 30
0.0
 10
16.5443486736
 20
11.6443426078
 30
0.0
 10
16.5609852641
 20
11.6795430524
 30
0.0
 10
16.5740812332
 20
11.7162083371
 30
0.0
 10
16.5835456644
 20
11.753974081
 30
0.0
 10
16.5892626863
 20
11.7924866962
 30
0.0
 10
16.5911684962
 20
11.8313713652
 30
0.0
 10
16.5895900397
 20
11.8637832329
 30
0.0
 10
16.5864269389
 20
11.8895165536
 30
0.0
 10
16.5819982376
 20
11.9150636085
 30
0.0
 10
16.5741196756
 20
11.9465452631
 30
0.0
 10
16.5610320472
 20
11.983213115
 30
0.0
 10
16.5444034664
 20
12.0184186428
 30
0.0
 10
16.524403387
 20
12.0518218816
 30
0.0
 10
16.5012389371
 20
12.0831178993
 30
0.0
 10
16.475102111
 20
12.1119805131
 30
0.0
 10
16.451064768
 20
12.1337901548
 30
0.0
 10
16.4306363882
 20
12.1497633289
 30
0.0
 10
16.4094543844
 20
12.1647156194
 30
0.0
 10
16.3816341183
 20
12.1814180464
 30
0.0
 10
16.3523101969
 20
12.1953130808
 30
0.0
 10
16.3281241813
 20
12.2046662581
 30
0.0
 10
16.3034947094
 20
12.2128244084
 30
0.0
 10
16.2719916893
 20
12.2207200144
 30
0.0
 10
16.2334871817
 20
12.226454562
 30
0.0
 10
16.207568512
 20
12.2277582832
 30
0.0
 10
16.1946319129
 20
12.2277670888
 30
0.0
 11
16.1946418066
 21
11.4347196218
 31
0.0
 11
16.2333999903
 21
11.4367234334
 31
0.0
 11
16.2718636212
 21
11.4425076395
 31
0.0
 11
16.3095968631
 21
11.452020458
 31
0.0
 11
16.3461899905
 21
11.465185744
 31
0.0
 11
16.3813054896
 21
11.4818599766
 31
0.0
 11
16.4146182508
 21
11.501888022
 31
0.0
 11
16.4458129328
 21
11.5250906264
 31
0.0
 11
16.4745986913
 21
11.5512280455
 31
0.0
 11
16.5006885599
 21
11.580051131
 31
0.0
 11
16.5238201796
 21
11.6112925092
 31
0.0
 11
16.5437879785
 21
11.6446427476
 31
0.0
 11
16.5603947928
 21
11.6797862897
 31
0.0
 11
16.5734758837
 21
11.7163914882
 31
0.0
 11
16.5829212847
 21
11.7540995147
 31
0.0
 11
16.5886274996
 21
11.7925487792
 31
0.0
 11
16.590535188
 21
11.8313724649
 31
0.0
 11
16.5886412161
 21
11.870197102
 31
0.0
 11
16.5862687671
 21
11.8894929332
 31
0.0
 11
16.5829487611
 21
11.9086490944
 31
0.0
 11
16.5735139238
 21
11.9463608993
 31
0.0
 11
16.5604414206
 21
11.9829705336
 31
0.0
 11
16.5438416173
 21
12.018118162
 31
0.0
 11
16.5238764615
 21
12.0514699918
 31
0.0
 11
16.5007447697
 21
12.0827108449
 31
0.0
 11
16.4746523077
 21
12.1115304795
 31
0.0
 11
16.4458596438
 21
12.1376590454
 31
0.0
 11
16.4305411363
 21
12.1496364623
 31
0.0
 11
16.4146561093
 21
12.1608478914
 31
0.0
 11
16.38133423
 21
12.1808561918
 31
0.0
 11
16.3462091882
 21
12.1975019793
 31
0.0
 11
16.3280722627
 21
12.2045156044
 31
0.0
 11
16.3096066956
 21
12.2106306398
 31
0.0
 11
16.2718644189
 21
12.220098475
 31
0.0
 11
16.2333932489
 21
12.2258280429
 31
0.0
 11
16.1946319129
 21
12.2277670888
 31
0.0
  0
LINE
  5
2FD
100
AcDbEntity
  8
0
100
AcDbLine
 62
6
  6
CONTINUOUS
 10
16.1946319129
 20
12.2277670888
 11
16.1940165407
 21
12.2277670233
  0
LINE
  5
2FE
100
AcDbEntity
  8
0
100
AcDbLine
 62
6
  6
CONTINUOUS
 10
16.1940165407
 20
11.4391650495
 11
16.1946398176
 21
11.4391661124
  0
LINE
  5
2FF
100
AcDbEntity
  8
0
100
AcDbLine
 62
6
  6
CONTINUOUS
 10
16.1946336132
 20
12.2233206052
 11
16.1940165407
 21
12.2233205401
  0
LINE
  5
300
100
AcDbEntity
  8
0
100
AcDbLine
 62
6
  6
CONTINUOUS
 10
16.1940165407
 20
11.4413882892
 11
16.1946030112
 21
11.4413892663
  0
LINE
  5
301
100
AcDbEntity
  8
0
100
AcDbLine
 62
6
  6
CONTINUOUS
 10
16.1945872835
 20
12.2210973958
 11
16.1940165407
 21
12.2210973001
  0
LINE
  5
302
100
AcDbEntity
  8
0
100
AcDbLine
 62
6
  6
CONTINUOUS
 10
16.1940165407
 20
11.4436115306
 11
16.1946487304
 21
11.4436126285
  0
LINE
  5
303
100
AcDbEntity
  8
0
100
AcDbLine
 62
6
  6
CONTINUOUS
 10
16.5530848185
 20
11.6914105215
 11
16.5532721757
 21
11.6918922772
  0
LINE
  5
304
100
AcDbEntity
  8
0
100
AcDbLine
 62
6
  6
CONTINUOUS
 10
16.1940165407
 20
12.2316288814
 11
16.1948087161
 21
12.2316287887
  0
SPLINE
  5
305
100
AcDbEntity
  8
0
100
AcDbSpline
 62
6
  6
CONTINUOUS
 70
0
 71
3
 72
39
 73
35
 74
33
 42
0.0000001
 43
0.0000001
 44
0.0000000001
 12
1.2557541693
 22
-0.0014049697
 32
0.0
 13
-1.255749756
 23
-0.003613577
 33
0.0
 40
0.0
 40
0.0
 40
0.0
 40
0.0
 40
0.0312119497
 40
0.0624849006
 40
0.0937635935
 40
0.1250218152
 40
0.1562688502
 40
0.1875151342
 40
0.2187653565
 40
0.2500153644
 40
0.2812636142
 40
0.3125117873
 40
0.3437596412
 40
0.3750092366
 40
0.4062593105
 40
0.4375082962
 40
0.4687579107
 40
0.5000070265
 40
0.5312563914
 40
0.5625065743
 40
0.5937555959
 40
0.6250049453
 40
0.6562542294
 40
0.6875027594
 40
0.7187524884
 40
0.7500024149
 40
0.7812533145
 40
0.8125036991
 40
0.8437485129
 40
0.8749913898
 40
0.9062443127
 40
0.9375182508
 40
0.9687886753
 40
1.0
 40
1.0
 40
1.0
 40
1.0
 10
16.1948087161
 20
12.2316287887
 30
0.0
 10
16.2078735614
 20
12.2316141714
 30
0.0
 10
16.2340449363
 20
12.2302880602
 30
0.0
 10
16.2729212702
 20
12.2244842202
 30
0.0
 10
16.3110675397
 20
12.2148996341
 30
0.0
 10
16.3480707936
 20
12.2016033239
 30
0.0
 10
16.3835859839
 20
12.1847621717
 30
0.0
 10
16.4172721231
 20
12.1645142848
 30
0.0
 10
16.4488133032
 20
12.1410642244
 30
0.0
 10
16.4779180947
 20
12.1146486247
 30
0.0
 10
16.5042796546
 20
12.0854957993
 30
0.0
 10
16.5276662765
 20
12.0539086543
 30
0.0
 10
16.5478491665
 20
12.0201825243
 30
0.0
 10
16.5646195963
 20
11.984635866
 30
0.0
 10
16.5778467591
 20
11.9476239083
 30
0.0
 10
16.5873745521
 20
11.9094909169
 30
0.0
 10
16.5931211627
 20
11.8706094518
 30
0.0
 10
16.5950480849
 20
11.8313520493
 30
0.0
 10
16.5931030874
 20
11.7920952462
 30
0.0
 10
16.587337805
 20
11.7532162714
 30
0.0
 10
16.5777963015
 20
11.7150868501
 30
0.0
 10
16.5645555394
 20
11.6780801794
 30
0.0
 10
16.5477739657
 20
11.6425391271
 30
0.0
 10
16.5275844797
 20
11.6088161117
 30
0.0
 10
16.5041923299
 20
11.5772311904
 30
0.0
 10
16.4778309731
 20
11.5480761636
 30
0.0
 10
16.4487292321
 20
11.5216555866
 30
0.0
 10
16.4171938105
 20
11.4981985196
 30
0.0
 10
16.3835203719
 20
11.477934554
 30
0.0
 10
16.3480205789
 20
11.4610720247
 30
0.0
 10
16.3110345889
 20
11.4477463276
 30
0.0
 10
16.2729046591
 20
11.4381198206
 30
0.0
 10
16.2340397395
 20
11.4322640247
 30
0.0
 10
16.2078721448
 20
11.4308957906
 30
0.0
 10
16.194807607
 20
11.4308581957
 30
0.0
 11
16.1948087161
 21
12.2316287887
 31
0.0
 11
16.2339535558
 21
12.2296551899
 31
0.0
 11
16.272794014
 21
12.2238549261
 31
0.0
 11
16.310886951
 21
12.2142779337
 31
0.0
 11
16.3478292233
 21
12.2010099133
 31
0.0
 11
16.3832819359
 21
12.1841940161
 31
0.0
 11
16.4169130885
 21
12.1639816241
 31
0.0
 11
16.4484071895
 21
12.1405699829
 31
0.0
 11
16.477461511
 21
12.1141917984
 31
0.0
 11
16.503783951
 21
12.0850899413
 31
0.0
 11
16.5271323484
 21
12.0535521272
 31
0.0
 11
16.5472800199
 21
12.0198798647
 31
0.0
 11
16.5640289362
 21
11.9843919039
 31
0.0
 11
16.5772303297
 21
11.9474366346
 31
0.0
 11
16.5867443188
 21
11.9093663643
 31
0.0
 11
16.5924845645
 21
11.870546614
 31
0.0
 11
16.5944027695
 21
11.8313522932
 31
0.0
 11
16.5924664015
 21
11.7921585523
 31
0.0
 11
16.5867083382
 21
11.7533407193
 31
0.0
 11
16.5771797836
 21
11.7152740455
 31
0.0
 11
16.5639653772
 21
11.6783243936
 31
0.0
 11
16.547205848
 21
11.642841876
 31
0.0
 11
16.5270510087
 21
11.6091729139
 31
0.0
 11
16.5036976186
 21
11.5776363652
 31
0.0
 11
16.4773745608
 21
11.5485322278
 31
0.0
 11
16.4483231624
 21
11.5221491585
 31
0.0
 11
16.416835069
 21
11.4987290963
 31
0.0
 11
16.3832154462
 21
11.478501113
 31
0.0
 11
16.3477786694
 21
11.4616638234
 31
0.0
 11
16.3108541733
 21
11.4483660374
 31
0.0
 11
16.2727778187
 21
11.4387476784
 31
0.0
 11
16.233948418
 21
11.4328950958
 31
0.0
 11
16.194807607
 21
11.4308581957
 31
0.0
  0
LINE
  5
306
100
AcDbEntity
  8
0
100
AcDbLine
 62
6
  6
CONTINUOUS
 10
16.194807607
 20
11.4308581957
 11
16.1940165407
 21
11.4308567084
  0
LINE
  5
307
100
AcDbEntity
  8
0
100
AcDbLine
 62
6
  6
CONTINUOUS
 10
16.1940165407
 20
11.4264102245
 11
16.1932377809
 21
11.4264103012
  0
LINE
  5
308
100
AcDbEntity
  8
0
100
AcDbLine
 62
6
  6
CONTINUOUS
 10
16.1932263004
 20
12.2382971402
 11
16.1940165407
 21
12.2382986049
  0
LINE
  5
309
100
AcDbEntity
  8
0
100
AcDbLine
 62
6
  6
CONTINUOUS
 10
16.1940165407
 20
12.2294056414
 11
16.1945067879
 21
12.2294057721
  0
LINE
  5
30A
100
AcDbEntity
  8
0
100
AcDbLine
 62
6
  6
CONTINUOUS
 10
16.1945151116
 20
11.4330807054
 11
16.1940165407
 21
11.4330799478
  0
LINE
  5
30B
100
AcDbEntity
  8
0
100
AcDbLine
 62
6
  6
CONTINUOUS
 10
16.1940165407
 20
12.224959158
 11
16.1945524774
 21
12.2249592703
  0
LINE
  5
30C
100
AcDbEntity
  8
0
100
AcDbLine
 62
6
  6
CONTINUOUS
 10
16.5738167248
 20
11.9351636597
 11
16.5740027288
 21
11.9344803812
  0
LINE
  5
30D
100
AcDbEntity
  8
0
100
AcDbLine
 62
6
  6
CONTINUOUS
 10
16.5877228471
 20
11.8333379905
 11
16.5877252157
 21
11.8327532609
  0
LINE
  5
30E
100
AcDbEntity
  8
0
100
AcDbLine
 62
6
  6
CONTINUOUS
 10
16.1945578392
 20
11.4375272938
 11
16.1940165407
 21
11.4375264316
  0
LINE
  5
30F
100
AcDbEntity
  8
0
100
AcDbLine
 62
6
  6
CONTINUOUS
 10
16.1940165407
 20
12.227182399
 11
16.194563177
 21
12.2271825052
  0
SPLINE
  5
310
100
AcDbEntity
  8
0
100
AcDbSpline
 62
6
  6
CONTINUOUS
 70
0
 71
3
 72
39
 73
35
 74
33
 42
0.0000001
 43
0.0000001
 44
0.0000000001
 12
1.2422703185
 22
-0.0006289327
 32
0.0
 13
-1.2422671724
 23
-0.0028656753
 33
0.0
 40
0.0
 40
0.0
 40
0.0
 40
0.0
 40
0.0311996229
 40
0.0624711652
 40
0.0937588739
 40
0.1250261474
 40
0.1562784789
 40
0.1875253298
 40
0.218775674
 40
0.2500282085
 40
0.2812771369
 40
0.3125224759
 40
0.3437669463
 40
0.3750115919
 40
0.4062594794
 40
0.4375083509
 40
0.4687547897
 40
0.5000008081
 40
0.5312468371
 40
0.5624932715
 40
0.5937421161
 40
0.6249900048
 40
0.6562346767
 40
0.6874791856
 40
0.7187244873
 40
0.7499731407
 40
0.781225227
 40
0.8124750966
 40
0.8437215423
 40
0.874973661
 40
0.9062409635
 40
0.9375287435
 40
0.9688002846
 40
1.0
 40
1.0
 40
1.0
 40
1.0
 10
16.194563177
 20
12.2271825052
 30
0.0
 10
16.2074826321
 20
12.2271759644
 30
0.0
 10
16.2333681417
 20
12.2258777043
 30
0.0
 10
16.2718274186
 20
12.2201540325
 30
0.0
 10
16.3095778406
 20
12.210699259
 30
0.0
 10
16.3461998436
 20
12.1975602223
 30
0.0
 10
16.3813436298
 20
12.1809072119
 30
0.0
 10
16.4146831737
 20
12.1608969392
 30
0.0
 10
16.4458888227
 20
12.1376994542
 30
0.0
 10
16.4746833382
 20
12.1115693001
 30
0.0
 10
16.5007843157
 20
12.0827493601
 30
0.0
 10
16.5239152642
 20
12.051499998
 30
0.0
 10
16.5438852462
 20
12.0181448149
 30
0.0
 10
16.5604911132
 20
11.982991126
 30
0.0
 10
16.5735595269
 20
11.946373704
 30
0.0
 10
16.5829995557
 20
11.9086571842
 30
0.0
 10
16.5886947404
 20
11.870196254
 30
0.0
 10
16.5905829694
 20
11.8313639189
 30
0.0
 10
16.588679004
 20
11.7925323534
 30
0.0
 10
16.5829685805
 20
11.7540737275
 30
0.0
 10
16.5735153254
 20
11.7163605998
 30
0.0
 10
16.5604358429
 20
11.6797471964
 30
0.0
 10
16.5438215032
 20
11.6445975931
 30
0.0
 10
16.5238466779
 20
11.6112454443
 30
0.0
 10
16.5007144331
 20
11.5799973536
 30
0.0
 10
16.4746159463
 20
11.5511758164
 30
0.0
 10
16.4458276346
 20
11.5250398385
 30
0.0
 10
16.4146310725
 20
11.5018313951
 30
0.0
 10
16.3813029541
 20
11.4818034495
 30
0.0
 10
16.3461719046
 20
11.4651247354
 30
0.0
 10
16.3095625032
 20
11.4519515528
 30
0.0
 10
16.2718233579
 20
11.4424529754
 30
0.0
 10
16.2333724115
 20
11.4366751527
 30
0.0
 10
16.2074893224
 20
11.4353338773
 30
0.0
 10
16.1945698617
 20
11.4353040746
 30
0.0
 11
16.194563177
 21
12.2271825052
 31
0.0
 11
16.2332734294
 21
12.2252517961
 31
0.0
 11
16.2716980671
 21
12.2195340967
 31
0.0
 11
16.3093991088
 21
12.2100822669
 31
0.0
 11
16.3459618157
 21
12.1969711519
 31
0.0
 11
16.3810459843
 21
12.1803461
 31
0.0
 11
16.4143263249
 21
12.1603665717
 31
0.0
 11
16.4454861402
 21
12.1372113248
 31
0.0
 11
16.4742357014
 21
12.1111196873
 31
0.0
 11
16.5002906135
 21
12.0823428817
 31
0.0
 11
16.5233888108
 21
12.0511484896
 31
0.0
 11
16.5433244556
 21
12.0178452897
 31
0.0
 11
16.5599009109
 21
11.9827486934
 31
0.0
 11
16.5729546237
 21
11.9461910241
 31
0.0
 11
16.5823756318
 21
11.9085319999
 31
0.0
 11
16.5880602922
 21
11.8701339853
 31
0.0
 11
16.5899509398
 21
11.8313640513
 31
0.0
 11
16.588044638
 21
11.7925948706
 31
0.0
 11
16.5823449907
 21
11.7541990833
 31
0.0
 11
16.5729107858
 21
11.7165433973
 31
0.0
 11
16.5598460786
 21
11.6799896541
 31
0.0
 11
16.5432613183
 21
11.6448969453
 31
0.0
 11
16.5233207861
 21
11.6115966159
 31
0.0
 11
16.5002212781
 21
11.580403252
 31
0.0
 11
16.4741688567
 21
11.5516246523
 31
0.0
 11
16.445425418
 21
11.5255270985
 31
0.0
 11
16.4142746516
 21
11.5023606675
 31
0.0
 11
16.3810056272
 21
11.4823632786
 31
0.0
 11
16.345933974
 21
11.4657124574
 31
0.0
 11
16.3093835779
 21
11.4525669552
 31
0.0
 11
16.2716934929
 21
11.4430711663
 31
0.0
 11
16.2332769582
 21
11.4372992853
 31
0.0
 11
16.1945698617
 21
11.4353040746
 31
0.0
  0
LINE
  5
311
100
AcDbEntity
  8
0
100
AcDbLine
 62
6
  6
CONTINUOUS
 10
16.1945698617
 20
11.4353040746
 11
16.1940165407
 21
11.4353031895
  0
LINE
  5
312
100
AcDbEntity
  8
0
100
AcDbLine
 62
6
  6
CONTINUOUS
 10
16.1940165407
 20
11.4286334664
 11
16.1935254886
 21
11.4286333378
  0
SPLINE
  5
313
100
AcDbEntity
  8
0
100
AcDbSpline
 62
6
  6
CONTINUOUS
 70
0
 71
3
 72
36
 73
32
 74
30
 42
0.0000001
 43
0.0000001
 44
0.0000000001
 12
-1.0428134264
 22
0.0003689689
 32
0.0
 13
0.8853651701
 23
0.5509886514
 33
0.0
 40
0.0
 40
0.0
 40
0.0
 40
0.0
 40
0.0624210993
 40
0.0937030899
 40
0.1249708031
 40
0.1562231516
 40
0.1874688191
 40
0.2187160999
 40
0.2499684584
 40
0.281222771
 40
0.3124761975
 40
0.3437294063
 40
0.3749823231
 40
0.4062339798
 40
0.4374859035
 40
0.499943287
 40
0.5624118181
 40
0.5936741295
 40
0.6249362946
 40
0.6561992808
 40
0.6874614296
 40
0.7187207518
 40
0.7499782746
 40
0.7812344123
 40
0.8124880299
 40
0.8437400704
 40
0.8749920325
 40
0.9062435669
 40
0.937495646
 40
0.9687487193
 40
1.0
 40
1.0
 40
1.0
 40
1.0
 10
16.1935254886
 20
11.4286333378
 30
0.0
 10
16.1718276351
 20
11.4286410149
 30
0.0
 10
16.139178614
 20
11.4313153765
 30
0.0
 10
16.0965911932
 20
11.4400393121
 30
0.0
 10
16.0652471091
 20
11.4491636638
 30
0.0
 10
16.0347602175
 20
11.4607882437
 30
0.0
 10
16.00531387
 20
11.4748277527
 30
0.0
 10
15.9771010752
 20
11.491205483
 30
0.0
 10
15.9503006306
 20
11.5098091777
 30
0.0
 10
15.9250798547
 20
11.5305074117
 30
0.0
 10
15.9016145562
 20
11.553177539
 30
0.0
 10
15.8800633666
 20
11.5776735681
 30
0.0
 10
15.8605522868
 20
11.603821876
 30
0.0
 10
15.8432132535
 20
11.6314608563
 30
0.0
 10
15.8231683899
 20
11.6700404248
 30
0.0
 10
15.8040279987
 20
11.7211121375
 30
0.0
 10
15.7933937472
 20
11.7746093996
 30
0.0
 10
15.7901043288
 20
11.8179720708
 30
0.0
 10
15.790279419
 20
11.8506099761
 30
0.0
 10
15.7930914222
 20
11.8831243534
 30
0.0
 10
15.7985056255
 20
11.9153073247
 30
0.0
 10
15.8064986791
 20
11.946947028
 30
0.0
 10
15.817028477
 20
11.9778328442
 30
0.0
 10
15.8300055093
 20
12.0077702319
 30
0.0
 10
15.8453485683
 20
12.0365652338
 30
0.0
 10
15.8629732982
 20
12.0640212906
 30
0.0
 10
15.8827493343
 20
12.0899692149
 30
0.0
 10
15.9045471435
 20
12.1142439488
 30
0.0
 10
15.9282404297
 20
12.1366739791
 30
0.0
 10
15.953660772
 20
12.1571215095
 30
0.0
 10
15.9716519285
 20
12.1693517857
 30
0.0
 10
15.9808748604
 20
12.1750914861
 30
0.0
 11
16.1935254886
 21
11.4286333378
 31
0.0
 11
16.1286469683
 21
11.4339200895
 31
0.0
 11
16.0966900136
 21
11.4404699808
 31
0.0
 11
16.0653829083
 21
11.449582721
 31
0.0
 11
16.034930402
 21
11.4611920759
 31
0.0
 11
16.0055199459
 21
11.4752171698
 31
0.0
 11
15.9773383791
 21
11.4915752603
 31
0.0
 11
15.9505647434
 21
11.5101576544
 31
0.0
 11
15.9253722444
 21
11.5308362365
 31
0.0
 11
15.9019334652
 21
11.5534819683
 31
0.0
 11
15.8804032583
 21
11.5779491079
 31
0.0
 11
15.8609140037
 21
11.6040707436
 31
0.0
 11
15.8435965695
 21
11.6316785632
 31
0.0
 11
15.8285685578
 21
11.6605967626
 31
0.0
 11
15.805730208
 21
11.7215927406
 31
0.0
 11
15.7930080276
 21
11.7854813945
 31
0.0
 11
15.7905448698
 21
11.8179889692
 31
0.0
 11
15.7907188935
 21
11.8505891123
 31
0.0
 11
15.7935251882
 21
11.8830695702
 31
0.0
 11
15.7989357032
 21
11.9152180513
 31
0.0
 11
15.8069217432
 21
11.946822315
 31
0.0
 11
15.8174366438
 21
11.9776755297
 31
0.0
 11
15.8304003661
 21
12.0075809095
 31
0.0
 11
15.8457292415
 21
12.036342761
 31
0.0
 11
15.8633319319
 21
12.0637700579
 31
0.0
 11
15.8830863887
 21
12.0896904636
 31
0.0
 11
15.9048628769
 21
12.1139363188
 31
0.0
 11
15.9285280267
 21
12.1363433407
 31
0.0
 11
15.953922334
 21
12.1567715241
 31
0.0
 11
15.9808748604
 21
12.1750914861
 31
0.0
  0
LINE
  5
314
100
AcDbEntity
  8
0
100
AcDbLine
 62
6
  6
CONTINUOUS
 10
16.193513388
 20
12.2360746075
 11
16.1940165407
 21
12.2360753646
  0
LINE
  5
315
100
AcDbEntity
  8
0
100
AcDbLine
 62
6
  6
CONTINUOUS
 10
16.1940165407
 20
12.2227359182
 11
16.1945122431
 21
12.222736049
  0
LINE
  5
316
100
AcDbEntity
  8
0
100
AcDbLine
 62
6
  6
CONTINUOUS
 10
16.1945258747
 20
11.4397504655
 11
16.1940165407
 21
11.4397496712
  0
LINE
  5
317
100
AcDbEntity
  8
0
100
AcDbLine
 62
6
  6
CONTINUOUS
 10
16.1940165407
 20
12.2205126759
 11
16.1945490811
 21
12.2205127911
  0
LINE
  5
318
100
AcDbEntity
  8
0
100
AcDbLine
 62
6
  6
CONTINUOUS
 10
16.1945655792
 20
11.4419738027
 11
16.1940165407
 21
11.4419729126
  0
LINE
  5
319
100
AcDbEntity
  8
0
100
AcDbLine
 62
6
  6
CONTINUOUS
 10
16.2497363572
 20
12.2142882879
 11
16.2502767896
 21
12.214209652
  0
LINE
  5
31A
100
AcDbEntity
  8
0
100
AcDbLine
 62
6
  6
CONTINUOUS
 10
16.1945719809
 20
11.4441970653
 11
16.1940165407
 21
11.4441961548
  0
LINE
  5
31B
100
AcDbEntity
  8
0
100
AcDbLine
 62
6
  6
CONTINUOUS
 10
16.1940165407
 20
11.4353031895
 11
16.1935206435
 21
11.4353030605
  0
LINE
  5
31C
100
AcDbEntity
  8
0
100
AcDbLine
 62
6
  6
CONTINUOUS
 10
16.1935164765
 20
12.2294048784
 11
16.1940165407
 21
12.2294056414
  0
LINE
  5
31D
100
AcDbEntity
  8
0
100
AcDbLine
 62
6
  6
CONTINUOUS
 10
16.1933414756
 20
12.2249579661
 11
16.1940165407
 21
12.224959158
  0
LINE
  5
31E
100
AcDbEntity
  8
0
100
AcDbLine
 62
6
  6
CONTINUOUS
 10
16.1940165407
 20
11.4397496712
 11
16.1932486438
 21
11.4397497382
  0
SPLINE
  5
31F
100
AcDbEntity
  8
0
100
AcDbSpline
 62
6
  6
CONTINUOUS
 70
0
 71
3
 72
29
 73
25
 74
23
 42
0.0000001
 43
0.0000001
 44
0.0000000001
 12
0.486014808
 22
0.5230751143
 32
0.0
 13
-0.6707913692
 23
0.2446567141
 33
0.0
 40
0.0
 40
0.0
 40
0.0
 40
0.0
 40
0.0624576121
 40
0.0937413678
 40
0.1250188209
 40
0.1875090215
 40
0.2187655486
 40
0.2500249587
 40
0.281287904
 40
0.3125523425
 40
0.343815491
 40
0.375077118
 40
0.4375680696
 40
0.5000529715
 40
0.562529605
 40
0.6249957959
 40
0.6562428903
 40
0.6874909659
 40
0.7187406848
 40
0.7499911512
 40
0.8124676898
 40
0.8749791881
 40
0.9375324189
 40
1.0
 40
1.0
 40
1.0
 40
1.0
 10
16.4588998006
 20
11.6120252562
 30
0.0
 10
16.469018242
 20
11.6229152637
 30
0.0
 10
16.4831573025
 20
11.6402794766
 30
0.0
 10
16.4996509492
 20
11.6650625635
 30
0.0
 10
16.5145227403
 20
11.6908635213
 30
0.0
 10
16.5268737369
 20
11.7180413446
 30
0.0
 10
16.5365558114
 20
11.7461898143
 30
0.0
 10
16.5424650938
 20
11.7677297256
 30
0.0
 10
16.5470057076
 20
11.7895995333
 30
0.0
 10
16.5501665709
 20
11.8117119263
 30
0.0
 10
16.5519331801
 20
11.8339796493
 30
0.0
 10
16.5524240827
 20
11.8637458032
 30
0.0
 10
16.5495685034
 20
11.9009259837
 30
0.0
 10
16.5406497687
 20
11.9447535803
 30
0.0
 10
16.5264406453
 20
11.9871545766
 30
0.0
 10
16.5103712864
 20
12.0207868432
 30
0.0
 10
16.495160494
 20
12.0463616472
 30
0.0
 10
16.4826062024
 20
12.0648233582
 30
0.0
 10
16.4689638174
 20
12.0824968603
 30
0.0
 10
16.4494009589
 20
12.1049233605
 30
0.0
 10
16.4224667061
 20
12.130700789
 30
0.0
 10
16.3867003693
 20
12.1575792185
 30
0.0
 10
16.3480045511
 20
12.1800218652
 30
0.0
 10
16.3206250187
 20
12.1918765416
 30
0.0
 10
16.3066574473
 20
12.1969709126
 30
0.0
 11
16.4588998006
 21
11.6120252562
 31
0.0
 11
16.4870727163
 21
11.6465949381
 31
0.0
 11
16.4994483549
 21
11.6651903366
 31
0.0
 11
16.5106006663
 21
11.6845389851
 31
0.0
 11
16.5290705208
 21
11.725155687
 31
0.0
 11
16.5363299286
 21
11.7462596702
 31
0.0
 11
16.5422367102
 21
11.7677835854
 31
0.0
 11
16.5467756564
 21
11.789639469
 31
0.0
 11
16.5499342311
 21
11.8117381723
 31
0.0
 11
16.5517001484
 21
11.833990581
 31
0.0
 11
16.5520699973
 21
11.8563087993
 31
0.0
 11
16.5486528102
 21
11.9007972549
 31
0.0
 11
16.5397672622
 21
11.9445186619
 31
0.0
 11
16.5255940916
 21
11.9868165209
 31
0.0
 11
16.5063748785
 21
12.0270650526
 31
0.0
 11
16.4949700751
 21
12.0462407401
 31
0.0
 11
16.4824251614
 21
12.0646915649
 31
0.0
 11
16.46879189
 21
12.0823549186
 31
0.0
 11
16.4541235863
 21
12.0991693421
 31
0.0
 11
16.4219006104
 21
12.1300183521
 31
0.0
 11
16.3862199539
 21
12.1568343922
 31
0.0
 11
16.3475907181
 21
12.1792543004
 31
0.0
 11
16.3066574473
 21
12.1969709126
 31
0.0
  0
LINE
  5
320
100
AcDbEntity
  8
0
100
AcDbLine
 62
6
  6
CONTINUOUS
 10
16.1940165407
 20
11.4375264316
 11
16.1935228125
 21
11.4375263011
  0
LINE
  5
321
100
AcDbEntity
  8
0
100
AcDbLine
 62
6
  6
CONTINUOUS
 10
16.1935141574
 20
12.2271816267
 11
16.1940165407
 21
12.227182399
  0
LINE
  5
322
100
AcDbEntity
  8
0
100
AcDbLine
 62
6
  6
CONTINUOUS
 10
16.1940165407
 20
11.4419729126
 11
16.19347221
 21
11.4419728036
  0
LINE
  5
323
100
AcDbEntity
  8
0
100
AcDbLine
 62
6
  6
CONTINUOUS
 10
16.1934780251
 20
12.222735055
 11
16.1940165407
 21
12.2227359182
  0
LINE
  5
324
100
AcDbEntity
  8
0
100
AcDbLine
 62
6
  6
CONTINUOUS
 10
16.1940165407
 20
11.4441961548
 11
16.1934758399
 21
11.4441960434
  0
LINE
  5
325
100
AcDbEntity
  8
0
100
AcDbLine
 62
6
  6
CONTINUOUS
 10
16.1934756477
 20
12.2205118022
 11
16.1940165407
 21
12.2205126759
  0
LINE
  5
326
100
AcDbEntity
  8
0
100
AcDbLine
 62
6
  6
CONTINUOUS
 10
16.193451645
 20
12.23162798
 11
16.1940165407
 21
12.2316288814
  0
LINE
  5
327
100
AcDbEntity
  8
0
100
AcDbLine
 62
6
  6
CONTINUOUS
 10
16.1940165407
 20
11.4330799478
 11
16.1932466699
 21
11.433080016
  0
LINE
  5
328
100
AcDbEntity
  8
0
100
AcDbLine
 62
6
  6
CONTINUOUS
 10
16.1940165407
 20
11.4308567084
 11
16.1934844278
 21
11.4308565965
  0
LINE
  5
329
100
AcDbEntity
  8
0
100
AcDbLine
 62
6
  6
CONTINUOUS
 10
16.1934646358
 20
12.2338512526
 11
16.1940165407
 21
12.2338521222
  0
LINE
  5
32A
100
AcDbEntity
  8
0
100
AcDbLine
 62
6
  6
CONTINUOUS
 10
16.1940165407
 20
12.2360753646
 11
16.1945202414
 21
12.236075488
  0
SPLINE
  5
32B
100
AcDbEntity
  8
0
100
AcDbSpline
 62
6
  6
CONTINUOUS
 70
0
 71
3
 72
39
 73
35
 74
33
 42
0.0000001
 43
0.0000001
 44
0.0000000001
 12
1.2702960856
 22
-0.0004890487
 32
0.0
 13
-1.2702933186
 23
-0.00269611
 33
0.0
 40
0.0
 40
0.0
 40
0.0
 40
0.0
 40
0.0312113852
 40
0.0624844508
 40
0.0937640376
 40
0.1250234438
 40
0.156271729
 40
0.1875192274
 40
0.2187706846
 40
0.2500215326
 40
0.2812696105
 40
0.3125170667
 40
0.3437643107
 40
0.3750136933
 40
0.40626387
 40
0.4375129622
 40
0.4687625996
 40
0.5000116513
 40
0.5312607294
 40
0.5625106579
 40
0.5937596744
 40
0.6250092559
 40
0.6562587435
 40
0.687507012
 40
0.7187561016
 40
0.7500054363
 40
0.7812560331
 40
0.8125063247
 40
0.8437510182
 40
0.8749935624
 40
0.9062460438
 40
0.9375195249
 40
0.9687894033
 40
1.0
 40
1.0
 40
1.0
 40
1.0
 10
16.1945202414
 20
12.236075488
 30
0.0
 10
16.2077361416
 20
12.2360704
 30
0.0
 10
16.2342113792
 20
12.2347475467
 30
0.0
 10
16.2735419335
 20
12.2289020949
 30
0.0
 10
16.3121368993
 20
12.219230268
 30
0.0
 10
16.3495776198
 20
12.2058005958
 30
0.0
 10
16.3855142761
 20
12.1887822611
 30
0.0
 10
16.4196016536
 20
12.1683152756
 30
0.0
 10
16.4515186269
 20
12.1446054204
 30
0.0
 10
16.4809712098
 20
12.1178945969
 30
0.0
 10
16.5076483326
 20
12.088413405
 30
0.0
 10
16.5313136934
 20
12.0564670728
 30
0.0
 10
16.551738332
 20
12.0223559382
 30
0.0
 10
16.5687095072
 20
11.986400993
 30
0.0
 10
16.5820950933
 20
11.9489623035
 30
0.0
 10
16.5917378257
 20
11.9103887212
 30
0.0
 10
16.5975525549
 20
11.8710571463
 30
0.0
 10
16.5995022711
 20
11.8313452949
 30
0.0
 10
16.5975337043
 20
11.7916341362
 30
0.0
 10
16.5916979646
 20
11.7523056805
 30
0.0
 10
16.5820413188
 20
11.7137358575
 30
0.0
 10
16.5686402947
 20
11.6763028632
 30
0.0
 10
16.5516562457
 20
11.6403539944
 30
0.0
 10
16.5312245936
 20
11.6062457642
 30
0.0
 10
16.5075516631
 20
11.5743031262
 30
0.0
 10
16.4808748071
 20
11.5448205782
 30
0.0
 10
16.4514255857
 20
11.5181061472
 30
0.0
 10
16.4195143683
 20
11.4943920213
 30
0.0
 10
16.3854411057
 20
11.4739102033
 30
0.0
 10
16.3495212853
 20
11.456871995
 30
0.0
 10
16.3120994999
 20
11.4434142234
 30
0.0
 10
16.2735224197
 20
11.4337008085
 30
0.0
 10
16.2342041361
 20
11.4278038678
 30
0.0
 10
16.2077330155
 20
11.4264390238
 30
0.0
 10
16.194517478
 20
11.4264109748
 30
0.0
 11
16.1945202414
 21
12.236075488
 31
0.0
 11
16.2341190466
 21
12.2341069812
 31
0.0
 11
16.2734132464
 21
12.2282652892
 31
0.0
 11
16.3119543604
 21
12.2186009077
 31
0.0
 11
16.3493334117
 21
12.2051998734
 31
0.0
 11
16.3852068763
 21
12.1882071101
 31
0.0
 11
16.4192383759
 21
12.1677758312
 31
0.0
 11
16.4511080482
 21
12.1441051033
 31
0.0
 11
16.480509662
 21
12.1174318387
 31
0.0
 11
16.5071467073
 21
12.0880021534
 31
0.0
 11
16.5307735797
 21
12.0561062795
 31
0.0
 11
16.5511622408
 21
12.0220496067
 31
0.0
 11
16.5681117203
 21
11.9861541295
 31
0.0
 11
16.5814714115
 21
11.9487727319
 31
0.0
 11
16.5910997974
 21
11.910262538
 31
0.0
 11
16.5969084086
 21
11.8709935188
 31
0.0
 11
16.5988492289
 21
11.8313454421
 31
0.0
 11
16.5968892074
 21
11.7916982765
 31
0.0
 11
16.5910610775
 21
11.7524317754
 31
0.0
 11
16.5814173189
 21
11.7139255273
 31
0.0
 11
16.5680430828
 21
11.6765501343
 31
0.0
 11
16.5510813884
 21
11.6406602799
 31
0.0
 11
16.5306845719
 21
11.6066069737
 31
0.0
 11
16.50705118
 21
11.5747133477
 31
0.0
 11
16.4804131826
 21
11.5452823707
 31
0.0
 11
16.451014885
 21
11.5186059262
 31
0.0
 11
16.4191515813
 21
11.4949291086
 31
0.0
 11
16.3851327054
 21
11.4744837336
 31
0.0
 11
16.3492767519
 21
11.4574710572
 31
0.0
 11
16.3119172917
 21
11.4440414851
 31
0.0
 11
16.273394436
 21
11.4343362787
 31
0.0
 11
16.234112091
 21
11.4284426205
 31
0.0
 11
16.194517478
 21
11.4264109748
 31
0.0
  0
LINE
  5
32C
100
AcDbEntity
  8
0
100
AcDbLine
 62
6
  6
CONTINUOUS
 10
16.194517478
 20
11.4264109748
 11
16.1940165407
 21
11.4264102245
  0
LINE
  5
32D
100
AcDbEntity
  8
0
100
AcDbLine
 62
6
  6
CONTINUOUS
 10
16.1940165407
 20
12.2338521222
 11
16.1945131132
 21
12.2338522491
  0
SPLINE
  5
32E
100
AcDbEntity
  8
0
100
AcDbSpline
 62
6
  6
CONTINUOUS
 70
0
 71
3
 72
40
 73
36
 74
34
 42
0.0000001
 43
0.0000001
 44
0.0000000001
 12
1.263339524
 22
-0.0004656716
 32
0.0
 13
-1.2633367741
 23
-0.00267676
 33
0.0
 40
0.0
 40
0.0
 40
0.0
 40
0.0
 40
0.0312098441
 40
0.0624798166
 40
0.0937562919
 40
0.1250149618
 40
0.1562648281
 40
0.1875159568
 40
0.2187722923
 40
0.2500280173
 40
0.2812797146
 40
0.3125292074
 40
0.3437763855
 40
0.3750234086
 40
0.4062703066
 40
0.4375160469
 40
0.4687628831
 40
0.5000105032
 40
0.5312599908
 40
0.562511269
 40
0.5937610544
 40
0.6250100567
 40
0.6562584349
 40
0.6875056622
 40
0.7187541415
 40
0.7500036071
 40
0.7812552043
 40
0.8125069053
 40
0.8437523496
 40
0.874993817
 40
0.9062437106
 40
0.9218807808
 40
0.9375231855
 40
0.9687905295
 40
1.0
 40
1.0
 40
1.0
 40
1.0
 10
16.1945131132
 20
12.2338522491
 30
0.0
 10
16.2076559897
 20
12.2338474046
 30
0.0
 10
16.233984304
 20
12.2325329084
 30
0.0
 10
16.2730965395
 20
12.2267215455
 30
0.0
 10
16.3114771698
 20
12.2171028317
 30
0.0
 10
16.3487123806
 20
12.2037484431
 30
0.0
 10
16.3844548063
 20
12.1868242108
 30
0.0
 10
16.4183590583
 20
12.1664668481
 30
0.0
 10
16.4501054877
 20
12.142883128
 30
0.0
 10
16.479401312
 20
12.1163152145
 30
0.0
 10
16.5059351284
 20
12.0869918565
 30
0.0
 10
16.5294696109
 20
12.0552166277
 30
0.0
 10
16.5497825888
 20
12.0212926732
 30
0.0
 10
16.5666583575
 20
11.9855360066
 30
0.0
 10
16.5799666823
 20
11.9483050235
 30
0.0
 10
16.5895558702
 20
11.9099466424
 30
0.0
 10
16.595337393
 20
11.8708334521
 30
0.0
 10
16.597275489
 20
11.8313406583
 30
0.0
 10
16.5953166928
 20
11.7918468605
 30
0.0
 10
16.5895115976
 20
11.7527329414
 30
0.0
 10
16.5799083476
 20
11.7143735527
 30
0.0
 10
16.566579898
 20
11.677146185
 30
0.0
 10
16.5496878603
 20
11.6413959684
 30
0.0
 10
16.5293685586
 20
11.6074756199
 30
0.0
 10
16.5058247536
 20
11.5757090685
 30
0.0
 10
16.4792934342
 20
11.5463882144
 30
0.0
 10
16.4500039372
 20
11.5198200882
 30
0.0
 10
16.4182653446
 20
11.4962366709
 30
0.0
 10
16.3843779451
 20
11.4758666943
 30
0.0
 10
16.3486569046
 20
11.4589234738
 30
0.0
 10
16.3176422631
 20
11.4477731632
 30
0.0
 10
16.2922653707
 20
11.4407114914
 30
0.0
 10
16.2665639586
 20
11.4349065745
 30
0.0
 10
16.2339777146
 20
11.4300182388
 30
0.0
 10
16.2076541889
 20
11.4286620547
 30
0.0
 10
16.1945114983
 20
11.4286342079
 30
0.0
 11
16.1945131132
 21
12.2338522491
 31
0.0
 11
16.2338931782
 21
12.2318958451
 31
0.0
 11
16.2729685044
 21
12.2260879279
 31
0.0
 11
16.311294779
 21
12.2164775774
 31
0.0
 11
16.3484686777
 21
12.2031514263
 31
0.0
 11
16.3841481425
 21
12.1862522388
 31
0.0
 11
16.4179972528
 21
12.1659305654
 31
0.0
 11
16.4496972013
 21
12.1423856
 31
0.0
 11
16.4789425122
 21
12.1158544294
 31
0.0
 11
16.505436213
 21
12.0865820326
 31
0.0
 11
16.5289334229
 21
12.0548574266
 31
0.0
 11
16.5492098439
 21
12.0209870064
 31
0.0
 11
16.5660638391
 21
11.9852901439
 31
0.0
 11
16.5793469754
 21
11.9481166458
 31
0.0
 11
16.5889211662
 21
11.9098213448
 31
0.0
 11
16.5946967665
 21
11.8707707757
 31
0.0
 11
16.5966260107
 21
11.8313415896
 31
0.0
 11
16.5946757206
 21
11.7919110768
 31
0.0
 11
16.5888784337
 21
11.7528580479
 31
0.0
 11
16.579287329
 21
11.7145617114
 31
0.0
 11
16.5659857962
 21
11.6773919685
 31
0.0
 11
16.5491164096
 21
11.6417004833
 31
0.0
 11
16.5288314828
 21
11.6078350841
 31
0.0
 11
16.5053272948
 21
11.5761172415
 31
0.0
 11
16.4788345302
 21
11.5468478
 31
0.0
 11
16.449595552
 21
11.5203174104
 31
0.0
 11
16.4179044213
 21
11.4967703934
 31
0.0
 11
16.3840707738
 21
11.4764369241
 31
0.0
 11
16.3484119059
 21
11.4595190579
 31
0.0
 11
16.311259706
 21
11.4461652748
 31
0.0
 11
16.2922278618
 21
11.4408694114
 31
0.0
 11
16.272952033
 21
11.4365144137
 31
0.0
 11
16.2338878838
 21
11.4306541312
 31
0.0
 11
16.1945114983
 21
11.4286342079
 31
0.0
  0
LINE
  5
32F
100
AcDbEntity
  8
0
100
AcDbLine
 62
6
  6
CONTINUOUS
 10
16.1945114983
 20
11.4286342079
 11
16.1940165407
 21
11.4286334664
  0
ENDSEC
  0
SECTION
  2
OBJECTS
  0
DICTIONARY
  5
C
100
AcDbDictionary
280
0
281
1
  3
ACAD_GROUP
350
D
  3
ACAD_MLINESTYLE
350
17
  3
ACAD_LAYOUT
350
1A
  3
ACAD_PLOTSETTINGS
350
19
  3
ACAD_PLOTSTYLENAME
350
E
  0
DICTIONARY
  5
D
102
{ACAD_REACTORS
330
C
102
}
100
AcDbDictionary
280
0
281
1
  0
ACDBDICTIONARYWDFLT
  5
E
102
{ACAD_REACTORS
330
C
102
}
100
AcDbDictionary
281
1
  3
Normal
350
F
100
AcDbDictionaryWithDefault
340
F
  0
DICTIONARY
  5
17
102
{ACAD_REACTORS
330
C
102
}
100
AcDbDictionary
280
0
281
1
  3
Standard
350
18
  0
DICTIONARY
  5
19
102
{ACAD_REACTORS
330
C
102
}
100
AcDbDictionary
281
1
  0
DICTIONARY
  5
1A
102
{ACAD_REACTORS
330
C
102
}
100
AcDbDictionary
281
1
  3
Model
350
330
  3
Layout1
350
331
  0
ACDBPLACEHOLDER
  5
F
102
{ACAD_REACTORS
330
E
102
}
  0
MLINESTYLE
  5
18
102
{ACAD_REACTORS
330
17
102
}
100
AcDbMlineStyle
  2
STANDARD
 70
0
  3

 62
256
 51
90.0
 52
90.0
 71
2
 49
0.5
 62
256
  6
BYLAYER
 49
-0.5
 62
256
  6
BYLAYER
  0
LAYOUT
  5
330
102
{ACAD_REACTORS
330
1A
102
}
100
AcDbPlotSettings
  1

  2
none_device
  4
ISO_A1_(594.00_x_841.00_MM)
  6

 40
0.0
 41
0.0
 42
0.0
 43
0.0
 44
841.0
 45
594.0
 46
0.0
 47
0.0
 48
0.0
 49
0.0
140
0.0
141
0.0
142
1.0
143
1.0
 70
1024
 72
0
 73
0
 74
0
  7

 75
0
147
1.0
148
0.0
149
0.0
100
AcDbLayout
  1
Model
 70
0
 71
0
 10
0.0
 20
0.0
 11
33.1102362205
 21
23.3858267717
 12
0.0
 22
0.0
 32
0.0
 14
0.0
 24
0.0
 34
0.0
 15
0.0
 25
0.0
 35
0.0
146
0.0
 13
0.0
 23
0.0
 33
0.0
 16
1.0
 26
0.0
 36
0.0
 17
0.0
 27
1.0
 37
0.0
 76
0
330
203
345
0
346
0
  0
LAYOUT
  5
331
102
{ACAD_REACTORS
330
1A
102
}
100
AcDbPlotSettings
  1

  2
none_device
  4
ISO_A1_(594.00_x_841.00_MM)
  6

 40
0.0
 41
0.0
 42
0.0
 43
0.0
 44
841.0
 45
594.0
 46
0.0
 47
0.0
 48
0.0
 49
0.0
140
0.0
141
0.0
142
1.0
143
1.0
 70
0
 72
0
 73
0
 74
0
  7

 75
0
147
1.0
148
0.0
149
0.0
100
AcDbLayout
  1
Layout1
 70
0
 71
1
 10
0.0
 20
0.0
 11
33.1102362205
 21
23.3858267717
 12
0.0
 22
0.0
 32
0.0
 14
0.0
 24
0.0
 34
0.0
 15
0.0
 25
0.0
 35
0.0
146
0.0
 13
0.0
 23
0.0
 33
0.0
 16
1.0
 26
0.0
 36
0.0
 17
0.0
 27
1.0
 37
0.0
 76
0
330
204
345
0
346
0
  0
ENDSEC
  0
EOF
