  0
SECTION
  2
HEADER
  9
$ACADVER
  1
AC1015
  9
$DWGCODEPAGE
  3
ANSI_1252
  9
$EXTMAX
 10
11.6929133858
 20
8.2677165354
 30
0.0
  9
$EXTMIN
 10
0.0
 20
0.0
 30
0.0
  9
$LIMMIN
 10
0.0
 20
0.0
  9
$LIMMAX
 10
11.6929133858
 20
8.2677165354
  9
$VIEWCTR
 10
5.8464566929
 20
4.1338582677
  9
$VIEWSIZE
 40
8.2677165354
  9
$CLAYER
  8
0
  9
$LTSCALE
 40
0.6431102362
  9
$CELTYPE
  6
BYLAYER
  9
$DIMSCALE
 40
1.0
  9
$DIMASZ
 40
0.1
  9
$DIMEXO
 40
0.0730807087
  9
$DIMDLI
 40
0.4443307087
  9
$DIMEXE
 40
0.2104724409
  9
$DIMCEN
 40
0.1052362205
  9
$DIMLFAC
 40
1.0
  9
$DIMBLK
  1
_FILLED
  9
$DIMTXT
 40
0.08
  9
$DIMTOL
 70
1
  9
$DIMLIM
 70
0
  9
$DIMTFAC
 40
1.0
  9
$DIMTP
 40
0.01
  9
$DIMTM
 40
0.01
  9
$PDMODE
 70
3
  9
$PDSIZE
 40
0.06
  9
$HANDSEED
  5
27A
  9
$TILEMODE
 70
1
  9
$MEASUREMENT
 70
0
  9
$INSUNITS
 70
1
  0
ENDSEC
  0
SECTION
  2
CLASSES
  0
CLASS
  1
ACDBDICTIONARYWDFLT
  2
AcDbDictionaryWithDefault
  3
AutoCAD 2000
 90
0
280
0
281
0
  0
CLASS
  1
ACDBPLACEHOLDER
  2
AcDbPlaceHolder
  3
AutoCAD 2000
 90
0
280
0
281
0
  0
CLASS
  1
LAYOUT
  2
AcDbLayout
  3
AutoCAD 2000
 90
0
280
0
281
0
  0
ENDSEC
  0
SECTION
  2
TABLES
  0
TABLE
  2
VPORT
  5
8
100
AcDbSymbolTable
 70
2
  0
VPORT
  5
1F4
100
AcDbSymbolTableRecord
100
AcDbViewportTableRecord
  2
*ACTIVE
 70
0
 10
0.0
 20
0.0
 11
1.0
 21
1.0
 12
5.8464566929
 22
4.1338582677
 13
0.0
 23
0.0
 14
1.0
 24
1.0
 15
0.0
 25
0.0
 16
0.0
 26
0.0
 36
1.0
 17
0.0
 27
0.0
 37
0.0
 40
8.2677165354
 41
1.4142857143
 42
50.0
 43
0.0
 44
0.0
 50
0.0
 51
0.0
 71
0
 72
100
 73
1
 74
1
 75
0
 76
0
 77
0
 78
0
  0
ENDTAB
  0
TABLE
  2
LTYPE
  5
5
100
AcDbSymbolTable
 70
6
  0
LTYPE
  5
14
100
AcDbSymbolTableRecord
100
AcDbLinetypeTableRecord
  2
BYBLOCK
 70
0
  3

 72
65
 73
0
 40
0.0
  0
LTYPE
  5
15
100
AcDbSymbolTableRecord
100
AcDbLinetypeTableRecord
  2
BYLAYER
 70
0
  3

 72
65
 73
0
 40
0.0
  0
LTYPE
  5
16
100
AcDbSymbolTableRecord
100
AcDbLinetypeTableRecord
  2
CONTINUOUS
 70
64
  3
Solid line
 72
65
 73
0
 40
0.0
  0
LTYPE
  5
1F5
100
AcDbSymbolTableRecord
100
AcDbLinetypeTableRecord
  2
CENTER
 70
64
  3
____ _ ____ _ ____ _ ____ _ ____ _ ____ _ ____
 72
65
 73
4
 40
0.6
 49
0.375
 74
0
 49
-0.075
 74
0
 49
0.075
 74
0
 49
-0.075
 74
0
  0
LTYPE
  5
1F6
100
AcDbSymbolTableRecord
100
AcDbLinetypeTableRecord
  2
HIDDEN
 70
64
  3
- - - - - - - - - - - - - - - - - - - -
 72
65
 73
2
 40
0.2
 49
0.1
 74
0
 49
-0.1
 74
0
  0
LTYPE
  5
1F7
100
AcDbSymbolTableRecord
100
AcDbLinetypeTableRecord
  2
PHANTOM
 70
64
  3
_____ _ _ _____ _ _ _____ _ _ _____
 72
65
 73
6
 40
0.8
 49
0.45
 74
0
 49
-0.05
 74
0
 49
0.1
 74
0
 49
-0.05
 74
0
 49
0.1
 74
0
 49
-0.05
 74
0
  0
LTYPE
  5
1F8
100
AcDbSymbolTableRecord
100
AcDbLinetypeTableRecord
  2
DOT
 70
64
  3
. . . . . . . . . . . . . . . . . . . .
 72
65
 73
2
 40
0.2
 49
0.1
 74
0
 49
-0.1
 74
0
  0
LTYPE
  5
1F9
100
AcDbSymbolTableRecord
100
AcDbLinetypeTableRecord
  2
DASHED
 70
64
  3
- - - - - - - - - - - - - - - - - - - -
 72
65
 73
2
 40
0.2
 49
0.1
 74
0
 49
-0.1
 74
0
  0
ENDTAB
  0
TABLE
  2
LAYER
  5
2
100
AcDbSymbolTable
 70
36
  0
LAYER
  5
10
100
AcDbSymbolTableRecord
100
AcDbLayerTableRecord
  2
0
 70
0
 62
7
  6
CONTINUOUS
370
-3
390
F
  0
LAYER
  5
1FA
100
AcDbSymbolTableRecord
100
AcDbLayerTableRecord
  2
DEFAULT_1
 70
0
 62
7
  6
CENTER
370
-3
390
F
  0
LAYER
  5
1FB
100
AcDbSymbolTableRecord
100
AcDbLayerTableRecord
  2
DEFAULT_2
 70
0
 62
8
  6
HIDDEN
370
-3
390
F
  0
LAYER
  5
1FC
100
AcDbSymbolTableRecord
100
AcDbLayerTableRecord
  2
DEFAULT_3
 70
0
 62
7
  6
PHANTOM
370
-3
390
F
  0
LAYER
  5
1FD
100
AcDbSymbolTableRecord
100
AcDbLayerTableRecord
  2
DEFAULT_COORDINATE_SYSTEM
 70
0
 62
7
  6
CONTINUOUS
370
-3
390
F
  0
LAYER
  5
1FE
100
AcDbSymbolTableRecord
100
AcDbLayerTableRecord
  2
DEFAULT_DATUM_AXES
 70
0
 62
7
  6
CONTINUOUS
370
-3
390
F
  0
LAYER
  5
1FF
100
AcDbSymbolTableRecord
100
AcDbLayerTableRecord
  2
DEFAULT_DATUM_CURVES
 70
0
 62
7
  6
CONTINUOUS
370
-3
390
F
  0
LAYER
  5
200
100
AcDbSymbolTableRecord
100
AcDbLayerTableRecord
  2
DEFAULT_DATUM_PLANES
 70
0
 62
7
  6
CONTINUOUS
370
-3
390
F
  0
ENDTAB
  0
TABLE
  2
STYLE
  5
3
100
AcDbSymbolTable
 70
1
  0
STYLE
  5
11
100
AcDbSymbolTableRecord
100
AcDbTextStyleTableRecord
  2
STANDARD
 70
0
 40
0.0
 41
0.8
 50
0.0
 71
0
 42
0.2
  3
txt
  4

  0
STYLE
  5
201
100
AcDbSymbolTableRecord
100
AcDbTextStyleTableRecord
  2
TEXTSTYLE_1
 70
0
 40
0.0
 41
0.8
 50
0.0
 71
0
 42
0.2
  3
gdt
  4

  0
ENDTAB
  0
TABLE
  2
VIEW
  5
6
100
AcDbSymbolTable
 70
0
  0
ENDTAB
  0
TABLE
  2
UCS
  5
7
100
AcDbSymbolTable
 70
0
  0
ENDTAB
  0
TABLE
  2
APPID
  5
9
100
AcDbSymbolTable
 70
1
  0
APPID
  5
202
100
AcDbSymbolTableRecord
100
AcDbRegAppTableRecord
  2
ACAD
 70
0
  0
ENDTAB
  0
TABLE
  2
BLOCK_RECORD
  5
1
100
AcDbSymbolTable
 70
0
  0
BLOCK_RECORD
  5
203
100
AcDbSymbolTableRecord
100
AcDbBlockTableRecord
  2
*Model_Space
  0
BLOCK_RECORD
  5
204
100
AcDbSymbolTableRecord
100
AcDbBlockTableRecord
  2
*Paper_Space
  0
ENDTAB
  0
TABLE
  2
DIMSTYLE
  5
A
100
AcDbSymbolTable
 70
1
100
AcDbDimStyleTable
 71
0
  0
DIMSTYLE
105
205
100
AcDbSymbolTableRecord
100
AcDbDimStyleTableRecord
  2
STANDARD
 70
0
  3

  4

 40
1.0
 41
0.1
 42
0.0625
 43
0.38
 44
0.18
 45
0.0
 46
0.0
 47
0.01
 48
0.01
140
0.08
141
0.09
142
0.0
143
25.4
144
1.0
145
0.0
146
1.0
147
0.09
 71
1.0
 72
0.0
 73
1
 74
1
 75
0
 76
0
 77
0
 78
4
170
0
171
2
172
0
173
0
174
0
175
0
176
0
177
0
178
0
270
2
271
2
272
2
273
2
274
2
275
0
280
0
281
0
282
0
283
1
284
4
285
0
286
0
287
3
288
0
340
11
  0
ENDTAB
  0
ENDSEC
  0
SECTION
  2
BLOCKS
  0
BLOCK
  5
20
100
AcDbEntity
  8
0
100
AcDbBlockBegin
  2
*Model_Space
 70
0
 10
0.0
 20
0.0
 30
0.0
  3
*Model_Space
  1

  0
ENDBLK
  5
21
100
AcDbEntity
  8
0
100
AcDbBlockEnd
  0
BLOCK
  5
1C
100
AcDbEntity
  8
0
100
AcDbBlockBegin
  2
*Paper_Space
 70
0
 10
0.0
 20
0.0
 30
0.0
  3
*Paper_Space
  1

  0
ENDBLK
  5
1D
100
AcDbEntity
  8
0
100
AcDbBlockEnd
  0
ENDSEC
  0
SECTION
  2
ENTITIES
  0
LINE
  5
206
100
AcDbEntity
  8
0
100
AcDbLine
 62
6
  6
CONTINUOUS
 10
5.5775131454
 20
4.7512623263
 11
5.5775131454
 21
4.7496237083
  0
CIRCLE
  5
207
100
AcDbEntity
  8
0
100
AcDbCircle
 62
6
  6
CONTINUOUS
 10
5.5775131454
 20
4.3447623263
 40
1.1800000459
  0
CIRCLE
  5
208
100
AcDbEntity
  8
0
100
AcDbCircle
 62
6
  6
CONTINUOUS
 10
5.5775131454
 20
4.3447623263
 40
1.0000026738
  0
CIRCLE
  5
209
100
AcDbEntity
  8
0
100
AcDbCircle
 62
9
  6
CONTINUOUS
 10
5.5775131454
 20
4.3447623263
 40
0.8130026738
  0
CIRCLE
  5
20A
100
AcDbEntity
  8
0
100
AcDbCircle
 62
6
  6
CONTINUOUS
 10
5.5775131454
 20
4.3447623263
 40
0.741
  0
CIRCLE
  5
20B
100
AcDbEntity
  8
0
100
AcDbCircle
 62
6
  6
CONTINUOUS
 10
5.5775131454
 20
4.3447623263
 40
0.4225
  0
CIRCLE
  5
20C
100
AcDbEntity
  8
0
100
AcDbCircle
 62
6
  6
CONTINUOUS
 10
5.5775131454
 20
4.3447623263
 40
0.4065
  0
ARC
  5
20D
100
AcDbEntity
  8
0
100
AcDbCircle
 62
6
  6
CONTINUOUS
 10
5.5777762312
 20
4.3450320914
 40
0.4062174177
100
AcDbArc
 50
90.0371063172
 51
180.044401333
  0
ARC
  5
20E
100
AcDbEntity
  8
0
100
AcDbCircle
 62
6
  6
CONTINUOUS
 10
5.5772497792
 20
4.3450318128
 40
0.4056702096
100
AcDbArc
 50
180.0824522666
 51
270.0371982662
  0
ARC
  5
20F
100
AcDbEntity
  8
0
100
AcDbCircle
 62
6
  6
CONTINUOUS
 10
5.57785506
 20
4.3448651269
 40
0.4025345458
100
AcDbArc
 50
90.0749699251
 51
121.8268981722
  0
ARC
  5
210
100
AcDbEntity
  8
0
100
AcDbCircle
 62
6
  6
CONTINUOUS
 10
5.5778561529
 20
4.3448608694
 40
0.401954249
100
AcDbArc
 50
90.0488932301
 51
121.8246201439
  0
ARC
  5
211
100
AcDbEntity
  8
0
100
AcDbCircle
 62
6
  6
CONTINUOUS
 10
5.5778550745
 20
4.3448650798
 40
0.4003113537
100
AcDbArc
 50
90.0754077464
 51
121.8183842785
  0
ARC
  5
212
100
AcDbEntity
  8
0
100
AcDbCircle
 62
6
  6
CONTINUOUS
 10
5.5778571186
 20
4.3448605178
 40
0.399732042
100
AcDbArc
 50
90.0493035412
 51
121.8140338229
  0
ARC
  5
213
100
AcDbEntity
  8
0
100
AcDbCircle
 62
6
  6
CONTINUOUS
 10
5.5778570959
 20
4.3448605865
 40
0.3980933532
100
AcDbArc
 50
90.0718890957
 51
121.8142393066
  0
ARC
  5
214
100
AcDbEntity
  8
0
100
AcDbCircle
 62
6
  6
CONTINUOUS
 10
5.5778559563
 20
4.3448614976
 40
0.3975071452
100
AcDbArc
 50
90.0494118929
 51
121.8086831886
  0
ARC
  5
215
100
AcDbEntity
  8
0
100
AcDbCircle
 62
6
  6
CONTINUOUS
 10
5.5778196204
 20
4.344962181
 40
0.3957639731
100
AcDbArc
 50
90.0710013111
 51
153.5587613011
  0
ARC
  5
216
100
AcDbEntity
  8
0
100
AcDbCircle
 62
6
  6
CONTINUOUS
 10
5.5778244982
 20
4.3449537709
 40
0.3951884841
100
AcDbArc
 50
90.0451405458
 51
153.5605811356
  0
ARC
  5
217
100
AcDbEntity
  8
0
100
AcDbCircle
 62
6
  6
CONTINUOUS
 10
5.5778244363
 20
4.3449538603
 40
0.3935497743
100
AcDbArc
 50
90.0720087354
 51
153.5690521002
  0
ARC
  5
218
100
AcDbEntity
  8
0
100
AcDbCircle
 62
6
  6
CONTINUOUS
 10
5.5778250354
 20
4.3449525315
 40
0.3929666105
100
AcDbArc
 50
90.045474113
 51
153.5745071077
  0
ARC
  5
219
100
AcDbEntity
  8
0
100
AcDbCircle
 62
6
  6
CONTINUOUS
 10
5.5778249792
 20
4.3449526063
 40
0.3913279044
100
AcDbArc
 50
90.0714106233
 51
153.5747020861
  0
ARC
  5
21A
100
AcDbEntity
  8
0
100
AcDbCircle
 62
6
  6
CONTINUOUS
 10
5.5778246259
 20
4.3449542781
 40
0.3907416461
100
AcDbArc
 50
90.0456730133
 51
153.5832344552
  0
ARC
  5
21B
100
AcDbEntity
  8
0
100
AcDbCircle
 62
6
  6
CONTINUOUS
 10
5.5772383134
 20
4.3450162114
 40
0.3862275714
100
AcDbArc
 50
185.3574978903
 51
270.0141153999
  0
ARC
  5
21C
100
AcDbEntity
  8
0
100
AcDbCircle
 62
6
  6
CONTINUOUS
 10
5.5772213704
 20
4.3445331526
 40
0.3857279582
100
AcDbArc
 50
270.070820121
 51
346.3458535879
  0
ARC
  5
21D
100
AcDbEntity
  8
0
100
AcDbCircle
 62
6
  6
CONTINUOUS
 10
5.5772390303
 20
4.3450158557
 40
0.3856430117
100
AcDbArc
 50
185.3353810107
 51
270.040726929
  0
ARC
  5
21E
100
AcDbEntity
  8
0
100
AcDbCircle
 62
6
  6
CONTINUOUS
 10
5.577221239
 20
4.3445332852
 40
0.3851435106
100
AcDbArc
 50
270.0434246236
 51
346.339283756
  0
ARC
  5
21F
100
AcDbEntity
  8
0
100
AcDbCircle
 62
6
  6
CONTINUOUS
 10
5.5777981351
 20
4.3450005897
 40
0.3846060256
100
AcDbArc
 50
90.0424547868
 51
167.5820935477
  0
ARC
  5
220
100
AcDbEntity
  8
0
100
AcDbCircle
 62
6
  6
CONTINUOUS
 10
5.5775580771
 20
4.3451175974
 40
0.3843408388
100
AcDbArc
 50
167.5914328381
 51
185.3462358169
  0
ARC
  5
221
100
AcDbEntity
  8
0
100
AcDbCircle
 62
6
  6
CONTINUOUS
 10
5.5777999137
 20
4.3449977636
 40
0.3840241952
100
AcDbArc
 50
90.0427844648
 51
167.5729444598
  0
ARC
  5
222
100
AcDbEntity
  8
0
100
AcDbCircle
 62
6
  6
CONTINUOUS
 10
5.5772390207
 20
4.3450158455
 40
0.3840043832
100
AcDbArc
 50
185.3355557004
 51
270.0409021447
  0
ARC
  5
223
100
AcDbEntity
  8
0
100
AcDbCircle
 62
6
  6
CONTINUOUS
 10
5.5775299493
 20
4.3451165288
 40
0.3837284204
100
AcDbArc
 50
167.5815877902
 51
185.3364538032
  0
ARC
  5
224
100
AcDbEntity
  8
0
100
AcDbCircle
 62
6
  6
CONTINUOUS
 10
5.5772212363
 20
4.344533323
 40
0.3835049246
100
AcDbArc
 50
270.0436105563
 51
346.3231253576
  0
ARC
  5
225
100
AcDbEntity
  8
0
100
AcDbCircle
 62
6
  6
CONTINUOUS
 10
5.5772379348
 20
4.3450162335
 40
0.3834195794
100
AcDbArc
 50
185.3255899272
 51
270.0411267538
  0
ARC
  5
226
100
AcDbEntity
  8
0
100
AcDbCircle
 62
6
  6
CONTINUOUS
 10
5.5776968507
 20
4.3444364423
 40
0.3830029284
100
AcDbArc
 50
346.3203843046
 51
72.9000045979
  0
ARC
  5
227
100
AcDbEntity
  8
0
100
AcDbCircle
 62
6
  6
CONTINUOUS
 10
5.5772238597
 20
4.3445310208
 40
0.3829171231
100
AcDbArc
 50
270.0432848793
 51
346.3207601252
  0
ARC
  5
228
100
AcDbEntity
  8
0
100
AcDbCircle
 62
6
  6
CONTINUOUS
 10
5.5776933118
 20
4.3444327861
 40
0.3824226162
100
AcDbArc
 50
346.3184273312
 51
72.897466778
  0
ARC
  5
229
100
AcDbEntity
  8
0
100
AcDbCircle
 62
6
  6
CONTINUOUS
 10
5.5775131454
 20
4.3447623263
 40
0.3821502168
100
AcDbArc
 50
72.8571188901
 51
167.5227907925
  0
ARC
  5
22A
100
AcDbEntity
  8
0
100
AcDbCircle
 62
6
  6
CONTINUOUS
 10
5.5771890633
 20
4.3446057045
 40
0.3443364915
100
AcDbArc
 50
275.3484588132
 51
320.3720331815
  0
CIRCLE
  5
22B
100
AcDbEntity
  8
0
100
AcDbCircle
 62
6
  6
CONTINUOUS
 10
5.5775131454
 20
4.3447623263
 40
0.34125
  0
SPLINE
  5
22C
100
AcDbEntity
  8
0
100
AcDbSpline
 62
6
  6
CONTINUOUS
 70
0
 71
3
 72
39
 73
35
 74
33
 42
0.0000001
 43
0.0000001
 44
0.0000000001
 12
-0.1126576876
 22
-0.6749585118
 32
0.0
 13
0.676563729
 23
0.1025781066
 33
0.0
 40
0.0
 40
0.0
 40
0.0
 40
0.0
 40
0.0312407379
 40
0.0624930263
 40
0.0937420075
 40
0.1249876639
 40
0.156234483
 40
0.1874828919
 40
0.2187320472
 40
0.2499818403
 40
0.2812326526
 40
0.3124848726
 40
0.3437383555
 40
0.374993525
 40
0.4062500688
 40
0.4375082148
 40
0.4687676111
 40
0.5000271644
 40
0.5312866373
 40
0.5625450228
 40
0.5938016012
 40
0.6250561636
 40
0.6563081368
 40
0.6875577419
 40
0.7188051617
 40
0.7500510342
 40
0.7812954702
 40
0.812538986
 40
0.8437823099
 40
0.8750256729
 40
0.9062679633
 40
0.9375116625
 40
0.9687602971
 40
1.0
 40
1.0
 40
1.0
 40
1.0
 10
5.2043885432
 20
4.4273263588
 30
0.0
 10
5.2032153735
 20
4.4202976248
 30
0.0
 10
5.2012628245
 20
4.4061684938
 30
0.0
 10
5.1995273295
 20
4.3848458459
 30
0.0
 10
5.1989970108
 20
4.3634573578
 30
0.0
 10
5.1996756836
 20
4.3420744374
 30
0.0
 10
5.2015659989
 20
4.3207644458
 30
0.0
 10
5.2046636529
 20
4.2995953619
 30
0.0
 10
5.2089643579
 20
4.2786367733
 30
0.0
 10
5.2144565591
 20
4.2579578009
 30
0.0
 10
5.221126593
 20
4.2376273079
 30
0.0
 10
5.2289563761
 20
4.2177137284
 30
0.0
 10
5.2379223242
 20
4.1982839827
 30
0.0
 10
5.2480006031
 20
4.1794060474
 30
0.0
 10
5.2591578464
 20
4.1611437274
 30
0.0
 10
5.2713623791
 20
4.1435627026
 30
0.0
 10
5.2845746521
 20
4.1267249827
 30
0.0
 10
5.2987511335
 20
4.1106900552
 30
0.0
 10
5.313848426
 20
4.0955191371
 30
0.0
 10
5.3298136585
 20
4.0812654083
 30
0.0
 10
5.3465946804
 20
4.0679833585
 30
0.0
 10
5.3641348096
 20
4.0557237375
 30
0.0
 10
5.3823727136
 20
4.0445313479
 30
0.0
 10
5.4012468611
 20
4.0344521064
 30
0.0
 10
5.4206902159
 20
4.0255232662
 30
0.0
 10
5.4406353617
 20
4.0177829139
 30
0.0
 10
5.4610106946
 20
4.0112611958
 30
0.0
 10
5.4817436486
 20
4.0059875611
 30
0.0
 10
5.50275879
 20
4.0019846644
 30
0.0
 10
5.5239789739
 20
3.9992724396
 30
0.0
 10
5.5453255377
 20
3.997864941
 30
0.0
 10
5.5667198108
 20
3.9977724156
 30
0.0
 10
5.588077607
 20
3.9990009619
 30
0.0
 10
5.6022404654
 20
4.0006993198
 30
0.0
 10
5.609285682
 20
4.0017674897
 30
0.0
 11
5.2043885432
 21
4.4273263588
 31
0.0
 11
5.2014620076
 21
4.4061497149
 31
0.0
 11
5.1997281781
 21
4.384834305
 31
0.0
 11
5.1991985079
 21
4.3634573193
 31
0.0
 11
5.1998776041
 21
4.3420868349
 31
0.0
 11
5.2017671646
 21
4.3207884228
 31
0.0
 11
5.2048641134
 21
4.2996307237
 31
0.0
 11
5.2091628861
 21
4.2786836065
 31
0.0
 11
5.2146527645
 21
4.2580162152
 31
0.0
 11
5.2213197279
 21
4.2376972275
 31
0.0
 11
5.2291455585
 21
4.2177947846
 31
0.0
 11
5.2381074681
 21
4.1983764428
 31
0.0
 11
5.2481801869
 21
4.1795090761
 31
0.0
 11
5.2593321074
 21
4.1612577175
 31
0.0
 11
5.2715300997
 21
4.1436869092
 31
0.0
 11
5.2847352994
 21
4.1268588487
 31
0.0
 11
5.2989046419
 21
4.1108340163
 31
0.0
 11
5.3139933462
 21
4.095671755
 31
0.0
 11
5.3299500825
 21
4.0814269701
 31
0.0
 11
5.3467217634
 21
4.0681533439
 31
0.0
 11
5.3642518214
 21
4.0559011406
 31
0.0
 11
5.3824794583
 21
4.0447164685
 31
0.0
 11
5.401342383
 21
4.0346435145
 31
0.0
 11
5.4207743534
 21
4.0257211325
 31
0.0
 11
5.4407075082
 21
4.0179858601
 31
0.0
 11
5.4610705926
 21
4.0114691237
 31
0.0
 11
5.4817907622
 21
4.0061993313
 31
0.0
 11
5.5027930012
 21
4.0021997714
 31
0.0
 11
5.5240002664
 21
3.9994898702
 31
0.0
 11
5.5453329675
 21
3.9980841145
 31
0.0
 11
5.5667127038
 21
3.9979925791
 31
0.0
 11
5.5880607009
 21
3.9992209725
 31
0.0
 11
5.609285682
 21
4.0017674897
 31
0.0
  0
LINE
  5
22D
100
AcDbEntity
  8
0
100
AcDbLine
 62
6
  6
CONTINUOUS
 10
5.5775131454
 20
4.7451772256
 11
5.5773282183
 21
4.7451770193
  0
SPLINE
  5
22E
100
AcDbEntity
  8
0
100
AcDbSpline
 62
6
  6
CONTINUOUS
 70
0
 71
3
 72
59
 73
55
 74
53
 42
0.0000001
 43
0.0000001
 44
0.0000000001
 12
-0.878501363
 22
-0.5451437942
 32
0.0
 13
1.0338985447
 23
0.0004477542
 33
0.0
 40
0.0
 40
0.0
 40
0.0
 40
0.0
 40
0.0312456563
 40
0.0468714797
 40
0.062497371
 40
0.0781233775
 40
0.0937494556
 40
0.109375599
 40
0.1250019027
 40
0.140628363
 40
0.1562548721
 40
0.1718813464
 40
0.1875078255
 40
0.2031343178
 40
0.2187607198
 40
0.2343869339
 40
0.250012998
 40
0.265639025
 40
0.2812650333
 40
0.2968910382
 40
0.3125171516
 40
0.328143429
 40
0.3437697855
 40
0.3593961255
 40
0.3750224612
 40
0.390648839
 40
0.4062751798
 40
0.4219013779
 40
0.4375274282
 40
0.4531534278
 40
0.468779378
 40
0.484405244
 40
0.500031078
 40
0.5156570052
 40
0.5312830388
 40
0.5469091522
 40
0.5625353995
 40
0.5937821252
 40
0.6094087977
 40
0.6250354719
 40
0.6562826092
 40
0.6719093055
 40
0.6875358728
 40
0.7187824395
 40
0.7500283689
 40
0.7812738068
 40
0.8125193996
 40
0.8437654982
 40
0.8750101038
 40
0.906253141
 40
0.9218795874
 40
0.9375087281
 40
0.9687654948
 40
1.0
 40
1.0
 40
1.0
 40
1.0
 10
5.3667996881
 20
4.6850188193
 30
0.0
 10
5.3576499042
 20
4.6793410275
 30
0.0
 10
5.3442596244
 20
4.6702644549
 30
0.0
 10
5.3271920985
 20
4.6571198036
 30
0.0
 10
5.3147977599
 20
4.646749724
 30
0.0
 10
5.3028320388
 20
4.6358885108
 30
0.0
 10
5.2913137505
 20
4.6245535739
 30
0.0
 10
5.2802624941
 20
4.6127627146
 30
0.0
 10
5.2696971173
 20
4.6005343961
 30
0.0
 10
5.2596335338
 20
4.5878897692
 30
0.0
 10
5.2500879491
 20
4.5748495929
 30
0.0
 10
5.2410765786
 20
4.5614346564
 30
0.0
 10
5.232615404
 20
4.5476660852
 30
0.0
 10
5.2247167379
 20
4.5335673409
 30
0.0
 10
5.2173930918
 20
4.5191616192
 30
0.0
 10
5.2106569103
 20
4.5044721528
 30
0.0
 10
5.2045207359
 20
4.4895222439
 30
0.0
 10
5.1989931034
 20
4.474336899
 30
0.0
 10
5.1940824703
 20
4.458940977
 30
0.0
 10
5.1897972525
 20
4.4433593433
 30
0.0
 10
5.1861461309
 20
4.4276169548
 30
0.0
 10
5.1831336428
 20
4.4117398764
 30
0.0
 10
5.1807640481
 20
4.395754128
 30
0.0
 10
5.1790415786
 20
4.3796857249
 30
0.0
 10
5.1779709049
 20
4.3635607574
 30
0.0
 10
5.1775525504
 20
4.3474057206
 30
0.0
 10
5.1777863036
 20
4.3312470122
 30
0.0
 10
5.1786720159
 20
4.3151109962
 30
0.0
 10
5.1802100432
 20
4.2990241547
 30
0.0
 10
5.1823969887
 20
4.2830127253
 30
0.0
 10
5.1852282279
 20
4.267102655
 30
0.0
 10
5.1886993213
 20
4.2513198612
 30
0.0
 10
5.1928062927
 20
4.2356904746
 30
0.0
 10
5.1975418097
 20
4.2202398456
 30
0.0
 10
5.2028970039
 20
4.2049929261
 30
0.0
 10
5.2088635276
 20
4.189974159
 30
0.0
 10
5.2176212076
 20
4.1702908491
 30
0.0
 10
5.2275671161
 20
4.1511536577
 30
0.0
 10
5.2386410494
 20
4.1326732433
 30
0.0
 10
5.250453622
 20
4.1146557654
 30
0.0
 10
5.2633513551
 20
4.0973696337
 30
0.0
 10
5.2772565363
 20
4.080913474
 30
0.0
 10
5.2918161258
 20
4.0650329219
 30
0.0
 10
5.3112035236
 20
4.0463070493
 30
0.0
 10
5.3362011783
 20
4.0257895254
 30
0.0
 10
5.3627774965
 20
4.0073614423
 30
0.0
 10
5.3907537159
 20
3.9911376942
 30
0.0
 10
5.4199514246
 20
3.9772317601
 30
0.0
 10
5.4501735599
 20
3.9657262778
 30
0.0
 10
5.4760561401
 20
3.9582070018
 30
0.0
 10
5.4970709735
 20
3.9534610307
 30
0.0
 10
5.5182656075
 20
3.9495684332
 30
0.0
 10
5.5450223376
 20
3.946319699
 30
0.0
 10
5.5665686014
 20
3.9454542671
 30
0.0
 10
5.5773330379
 20
3.9454589289
 30
0.0
 11
5.3667996881
 21
4.6850188193
 31
0.0
 11
5.3400595534
 21
4.6668923751
 31
0.0
 11
5.3272600478
 21
4.6570347178
 31
0.0
 11
5.3148692371
 21
4.6466679041
 31
0.0
 11
5.3029066394
 21
4.6358095837
 31
0.0
 11
5.2913916167
 21
4.6244776152
 31
0.0
 11
5.2803435256
 21
4.6126898622
 31
0.0
 11
5.2697807975
 21
4.600465069
 31
0.0
 11
5.2597198833
 21
4.5878238653
 31
0.0
 11
5.2501769785
 21
4.5747871239
 31
0.0
 11
5.2411682782
 21
4.5613757179
 31
0.0
 11
5.2327091557
 21
4.5476110567
 31
0.0
 11
5.224812553
 21
4.533516137
 31
0.0
 11
5.2174909638
 21
4.5191142479
 31
0.0
 11
5.2107568821
 21
4.5044286786
 31
0.0
 11
5.2046221505
 21
4.4894829817
 31
0.0
 11
5.1990959334
 21
4.4743017935
 31
0.0
 11
5.1941867071
 21
4.4589100287
 31
0.0
 11
5.189902948
 21
4.4433326021
 31
0.0
 11
5.1862525857
 21
4.4275945815
 31
0.0
 11
5.1832407986
 21
4.4117218044
 31
0.0
 11
5.1808719021
 21
4.3957403499
 31
0.0
 11
5.1791502112
 21
4.3796762973
 31
0.0
 11
5.1780796255
 21
4.3635557604
 31
0.0
 11
5.1776612351
 21
4.3474050881
 31
0.0
 11
5.177894966
 21
4.3312507263
 31
0.0
 11
5.1787807403
 21
4.3151191216
 31
0.0
 11
5.1803181998
 21
4.2990366919
 31
0.0
 11
5.1825043753
 21
4.2830295912
 31
0.0
 11
5.1853348778
 21
4.2671238299
 31
0.0
 11
5.1888053036
 21
4.251345417
 31
0.0
 11
5.1929110387
 21
4.2357203076
 31
0.0
 11
5.1976450728
 21
4.2202738473
 31
0.0
 11
5.2029988761
 21
4.2050309945
 31
0.0
 11
5.2089638947
 21
4.1900167017
 31
0.0
 11
5.2155314223
 21
4.1752558586
 31
0.0
 11
5.2304287393
 21
4.146589778
 31
0.0
 11
5.238733379
 21
4.1327311318
 31
0.0
 11
5.2475918098
 21
4.1192197523
 31
0.0
 11
5.2669105894
 21
4.0933259987
 31
0.0
 11
5.2773383914
 21
4.0809853805
 31
0.0
 11
5.2882566915
 21
4.0690767147
 31
0.0
 11
5.3114926908
 21
4.0466322957
 31
0.0
 11
5.3364644676
 21
4.0261376282
 31
0.0
 11
5.3630107589
 21
4.0077288633
 31
0.0
 11
5.3909571873
 21
3.9915240589
 31
0.0
 11
5.4201227725
 21
3.9776315797
 31
0.0
 11
5.4503133878
 21
3.966139872
 31
0.0
 11
5.4813326726
 21
3.9571270023
 31
0.0
 11
5.4970919614
 21
3.9535680169
 31
0.0
 11
5.5129851274
 21
3.9506493098
 31
0.0
 11
5.5450656408
 21
3.9467524183
 31
0.0
 11
5.5773330379
 21
3.9454589289
 31
0.0
  0
LINE
  5
22F
100
AcDbEntity
  8
0
100
AcDbLine
 62
6
  6
CONTINUOUS
 10
5.5773330379
 20
3.9454589289
 11
5.5775131454
 21
3.9454590477
  0
LINE
  5
230
100
AcDbEntity
  8
0
100
AcDbLine
 62
6
  6
CONTINUOUS
 10
5.5775131454
 20
4.7496237083
 11
5.5773282698
 21
4.7496235044
  0
SPLINE
  5
231
100
AcDbEntity
  8
0
100
AcDbSpline
 62
6
  6
CONTINUOUS
 70
0
 71
3
 72
69
 73
65
 74
63
 42
0.0000001
 43
0.0000001
 44
0.0000000001
 12
-1.2696456673
 22
-0.0016920094
 32
0.0
 13
1.2696466775
 23
0.0005454871
 33
0.0
 40
0.0
 40
0.0
 40
0.0
 40
0.0
 40
0.0312332033
 40
0.0468646227
 40
0.0624941738
 40
0.078120389
 40
0.0937448728
 40
0.1093692301
 40
0.1249945492
 40
0.1406204738
 40
0.156246376
 40
0.171871851
 40
0.187497021
 40
0.2031220147
 40
0.218746987
 40
0.2343721291
 40
0.2499973577
 40
0.2656225328
 40
0.2812477001
 40
0.2968728857
 40
0.3124979787
 40
0.3281229807
 40
0.3437479971
 40
0.3593729638
 40
0.374997841
 40
0.390622777
 40
0.4062478141
 40
0.4218729325
 40
0.4374982582
 40
0.4531238106
 40
0.4687494459
 40
0.4843751252
 40
0.5000009218
 40
0.5156267223
 40
0.5312524079
 40
0.5468780454
 40
0.5625036011
 40
0.5781289251
 40
0.5937540216
 40
0.6093790275
 40
0.6250039385
 40
0.640628804
 40
0.6562537903
 40
0.6718788799
 40
0.6875040225
 40
0.7031293216
 40
0.7187547469
 40
0.7343801358
 40
0.7500054616
 40
0.7656307835
 40
0.7812559844
 40
0.7968809826
 40
0.812505957
 40
0.8281310638
 40
0.8437564192
 40
0.8593821686
 40
0.8750079407
 40
0.8906331061
 40
0.9062572549
 40
0.9218813888
 40
0.9375071388
 40
0.9531361528
 40
0.9687671762
 40
1.0
 40
1.0
 40
1.0
 40
1.0
 10
5.5773282698
 20
4.7496235044
 30
0.0
 10
5.5641099027
 20
4.7496058887
 30
0.0
 10
5.5442594453
 20
4.7486030931
 30
0.0
 10
5.5180062341
 20
4.7453375388
 30
0.0
 10
5.498449888
 20
4.7419236484
 30
0.0
 10
5.4790884216
 20
4.7375550015
 30
0.0
 10
5.4599659138
 20
4.7322443686
 30
0.0
 10
5.4411270518
 20
4.7260030313
 30
0.0
 10
5.4226165759
 20
4.7188445813
 30
0.0
 10
5.4044779585
 20
4.7107887806
 30
0.0
 10
5.3867552247
 20
4.7018548737
 30
0.0
 10
5.3694928587
 20
4.6920615753
 30
0.0
 10
5.3527315973
 20
4.6814342092
 30
0.0
 10
5.3365107018
 20
4.6699993749
 30
0.0
 10
5.3208702416
 20
4.6577825916
 30
0.0
 10
5.3058479949
 20
4.6448130646
 30
0.0
 10
5.2914784563
 20
4.631123819
 30
0.0
 10
5.2777968842
 20
4.6167468899
 30
0.0
 10
5.2648380533
 20
4.6017152817
 30
0.0
 10
5.2526310225
 20
4.5860670962
 30
0.0
 10
5.2412048474
 20
4.5698400006
 30
0.0
 10
5.2305894213
 20
4.5530713772
 30
0.0
 10
5.2208090584
 20
4.535802486
 30
0.0
 10
5.2118858395
 20
4.5180755431
 30
0.0
 10
5.2038431233
 20
4.4999321345
 30
0.0
 10
5.1967009245
 20
4.481415718
 30
0.0
 10
5.1904739851
 20
4.4625717025
 30
0.0
 10
5.1851781065
 20
4.4434449178
 30
0.0
 10
5.1808285129
 20
4.4240807817
 30
0.0
 10
5.1774329775
 20
4.4045266041
 30
0.0
 10
5.174999271
 20
4.3848293957
 30
0.0
 10
5.1735362028
 20
4.3650362802
 30
0.0
 10
5.1730462124
 20
4.3451951864
 30
0.0
 10
5.1735285517
 20
4.325353906
 30
0.0
 10
5.1749837992
 20
4.3055602075
 30
0.0
 10
5.1774100809
 20
4.2858620707
 30
0.0
 10
5.1807985909
 20
4.2663066688
 30
0.0
 10
5.185141393
 20
4.2469410143
 30
0.0
 10
5.1904308889
 20
4.2278124776
 30
0.0
 10
5.1966522292
 20
4.2089666356
 30
0.0
 10
5.2037894191
 20
4.190448312
 30
0.0
 10
5.2118276476
 20
4.1723029097
 30
0.0
 10
5.2207473854
 20
4.1545741575
 30
0.0
 10
5.2305251437
 20
4.1373036651
 30
0.0
 10
5.2411386762
 20
4.120533615
 30
0.0
 10
5.2525640441
 20
4.1043056215
 30
0.0
 10
5.2647712766
 20
4.0886572128
 30
0.0
 10
5.2777310492
 20
4.0736260533
 30
0.0
 10
5.2914143439
 20
4.0592504581
 30
0.0
 10
5.3057866435
 20
4.0455638868
 30
0.0
 10
5.3208123682
 20
4.0325982459
 30
0.0
 10
5.3364568094
 20
4.0203864749
 30
0.0
 10
5.3526824916
 20
4.0089584197
 30
0.0
 10
5.3694490611
 20
3.9983395454
 30
0.0
 10
5.3867169744
 20
3.9885562645
 30
0.0
 10
5.4044456192
 20
3.9796344153
 30
0.0
 10
5.4225903913
 20
3.9715928851
 30
0.0
 10
5.4411069733
 20
3.9644507685
 30
0.0
 10
5.459951649
 20
3.9582278569
 30
0.0
 10
5.479079563
 20
3.9529382091
 30
0.0
 10
5.4984457482
 20
3.9485929893
 30
0.0
 10
5.5180060172
 20
3.9452048676
 30
0.0
 10
5.544263388
 20
3.9419771779
 30
0.0
 10
5.5641153473
 20
3.9410067677
 30
0.0
 10
5.5773335643
 20
3.9410124467
 30
0.0
 11
5.5773282698
 21
4.7496235044
 31
0.0
 11
5.5377234256
 21
4.7476269653
 31
0.0
 11
5.5180288737
 21
4.745176764
 31
0.0
 11
5.4984805036
 21
4.7417641497
 31
0.0
 11
5.4791271806
 21
4.7373977411
 31
0.0
 11
5.4600130751
 21
4.7320892217
 31
0.0
 11
5.4411822612
 21
4.7258503522
 31
0.0
 11
5.4226788903
 21
4.7186951613
 31
0.0
 11
5.4045472745
 21
4.7106424286
 31
0.0
 11
5.3868317465
 21
4.7017115309
 31
0.0
 11
5.3695762103
 21
4.691922465
 31
0.0
 11
5.3528215665
 21
4.6812995704
 31
0.0
 11
5.3366074318
 21
4.669869044
 31
0.0
 11
5.3209733454
 21
4.6576571906
 31
0.0
 11
5.3059568175
 21
4.6446931454
 31
0.0
 11
5.2915931027
 21
4.6310091902
 31
0.0
 11
5.2779173367
 21
4.6166377721
 31
0.0
 11
5.2649633547
 21
4.6016125203
 31
0.0
 11
5.2527611349
 21
4.5859705702
 31
0.0
 11
5.241339944
 21
4.5697497041
 31
0.0
 11
5.230728597
 21
4.5529879969
 31
0.0
 11
5.2209519018
 21
4.5357261177
 31
0.0
 11
5.2120325711
 21
4.5180060928
 31
0.0
 11
5.2039932207
 21
4.4998699943
 31
0.0
 11
5.1968534879
 21
4.4813611745
 31
0.0
 11
5.1906291797
 21
4.4625246336
 31
0.0
 11
5.1853358506
 21
4.4434054797
 31
0.0
 11
5.1809875487
 21
4.424049238
 31
0.0
 11
5.1775932914
 21
4.4045028249
 31
0.0
 11
5.1751610475
 21
4.3848134469
 31
0.0
 11
5.1736983855
 21
4.365028345
 31
0.0
 11
5.1732082677
 21
4.3451951574
 31
0.0
 11
5.1736907061
 21
4.3253617765
 31
0.0
 11
5.1751456419
 21
4.305576097
 31
0.0
 11
5.1775704614
 21
4.2858858004
 31
0.0
 11
5.1809576664
 21
4.2663381598
 31
0.0
 11
5.1852992079
 21
4.2469804028
 31
0.0
 11
5.1905862156
 21
4.2278595288
 31
0.0
 11
5.1968048897
 21
4.2090211689
 31
0.0
 11
5.2039395998
 21
4.1905104463
 31
0.0
 11
5.2119745383
 21
4.172372409
 31
0.0
 11
5.2208903591
 21
4.15465059
 31
0.0
 11
5.2306644165
 21
4.1373871102
 31
0.0
 11
5.241273932
 21
4.1206240325
 31
0.0
 11
5.2526943129
 21
4.104402276
 31
0.0
 11
5.2648967088
 21
4.0887600774
 31
0.0
 11
5.277851659
 21
4.0737352887
 31
0.0
 11
5.2915291886
 21
4.0593652849
 31
0.0
 11
5.305895603
 21
4.0456839922
 31
0.0
 11
5.3209155727
 21
4.0327238208
 31
0.0
 11
5.336553696
 21
4.0205170838
 31
0.0
 11
5.3527725717
 21
4.0090933279
 31
0.0
 11
5.369532481
 21
3.9984788928
 31
0.0
 11
5.3867935747
 21
3.9886999375
 31
0.0
 11
5.4045149779
 21
3.9797811351
 31
0.0
 11
5.4226527018
 21
3.9717426476
 31
0.0
 11
5.4411621692
 21
3.9646037846
 31
0.0
 11
5.4599988206
 21
3.9583834067
 31
0.0
 11
5.479118277
 21
3.9530958577
 31
0.0
 11
5.4984762636
 21
3.9487528689
 31
0.0
 11
5.5180284349
 21
3.9453660935
 31
0.0
 11
5.5377259952
 21
3.9429443128
 31
0.0
 11
5.5773335643
 21
3.9410124467
 31
0.0
  0
LINE
  5
232
100
AcDbEntity
  8
0
100
AcDbLine
 62
6
  6
CONTINUOUS
 10
5.5773335643
 20
3.9410124467
 11
5.5775131454
 21
3.941012564
  0
LINE
  5
233
100
AcDbEntity
  8
0
100
AcDbLine
 62
6
  6
CONTINUOUS
 10
5.5775131454
 20
4.7474004678
 11
5.5773283537
 21
4.7474002629
  0
SPLINE
  5
234
100
AcDbEntity
  8
0
100
AcDbSpline
 62
6
  6
CONTINUOUS
 70
0
 71
3
 72
58
 73
54
 74
52
 42
0.0000001
 43
0.0000001
 44
0.0000000001
 12
-0.8832494441
 22
-0.5482709345
 32
0.0
 13
1.0395818371
 23
0.0004495208
 33
0.0
 40
0.0
 40
0.0
 40
0.0
 40
0.0
 40
0.0312458032
 40
0.0468717272
 40
0.062497729
 40
0.0781238092
 40
0.0937498747
 40
0.1093758701
 40
0.1250018753
 40
0.1406279428
 40
0.1562540356
 40
0.1718801455
 40
0.1875063611
 40
0.2031326682
 40
0.2187589426
 40
0.2343850793
 40
0.2500111227
 40
0.265637178
 40
0.2812632607
 40
0.2968893969
 40
0.3125157098
 40
0.3281422354
 40
0.3437688811
 40
0.3593955561
 40
0.3750222872
 40
0.3906491158
 40
0.4062759596
 40
0.4219027197
 40
0.4375294019
 40
0.453156063
 40
0.4687826348
 40
0.4844090128
 40
0.5000351867
 40
0.5156612936
 40
0.5312874047
 40
0.5469135484
 40
0.5625398279
 40
0.5937866752
 40
0.6094134224
 40
0.6250401686
 40
0.656287436
 40
0.6719141955
 40
0.6875408257
 40
0.7187875213
 40
0.7500335902
 40
0.7812792158
 40
0.8125252225
 40
0.8437720247
 40
0.8750171717
 40
0.90626009
 40
0.9375088195
 40
0.9687653864
 40
1.0
 40
1.0
 40
1.0
 40
1.0
 10
5.3655767187
 20
4.6868764271
 30
0.0
 10
5.3563774393
 20
4.6811660385
 30
0.0
 10
5.342914807
 20
4.6720375729
 30
0.0
 10
5.325755284
 20
4.658818097
 30
0.0
 10
5.3132942233
 20
4.6483891771
 30
0.0
 10
5.3012641991
 20
4.6374665518
 30
0.0
 10
5.2896841593
 20
4.6260677617
 30
0.0
 10
5.2785738501
 20
4.614210719
 30
0.0
 10
5.2679521584
 20
4.6019140452
 30
0.0
 10
5.2578350823
 20
4.5891989494
 30
0.0
 10
5.2482388901
 20
4.5760862304
 30
0.0
 10
5.2391799367
 20
4.5625966776
 30
0.0
 10
5.2306740584
 20
4.548751645
 30
0.0
 10
5.222733627
 20
4.5345747054
 30
0.0
 10
5.2153713298
 20
4.5200891299
 30
0.0
 10
5.2085998562
 20
4.505318205
 30
0.0
 10
5.2024316278
 20
4.4902854581
 30
0.0
 10
5.1968751078
 20
4.4750160668
 30
0.0
 10
5.1919389522
 20
4.4595349587
 30
0.0
 10
5.1876317916
 20
4.4438670828
 30
0.0
 10
5.1839622064
 20
4.4280375829
 30
0.0
 10
5.1809345571
 20
4.412072706
 30
0.0
 10
5.1785533123
 20
4.3959985745
 30
0.0
 10
5.176822857
 20
4.3798413281
 30
0.0
 10
5.1757478597
 20
4.3636272097
 30
0.0
 10
5.1753285861
 20
4.347382868
 30
0.0
 10
5.1755649945
 20
4.33113483
 30
0.0
 10
5.1764570048
 20
4.3149096033
 30
0.0
 10
5.1780050388
 20
4.2987338355
 30
0.0
 10
5.180205486
 20
4.2826339257
 30
0.0
 10
5.1830537248
 20
4.2666360228
 30
0.0
 10
5.1865452664
 20
4.2507662504
 30
0.0
 10
5.1906761186
 20
4.235050923
 30
0.0
 10
5.1954389567
 20
4.2195155414
 30
0.0
 10
5.2008248255
 20
4.2041851396
 30
0.0
 10
5.2068253172
 20
4.1890842289
 30
0.0
 10
5.2156325774
 20
4.1692932921
 30
0.0
 10
5.2256345333
 20
4.150051533
 30
0.0
 10
5.2367705869
 20
4.1314701733
 30
0.0
 10
5.2486492365
 20
4.11335429
 30
0.0
 10
5.2616189531
 20
4.0959738344
 30
0.0
 10
5.2756015446
 20
4.0794279246
 30
0.0
 10
5.2902420463
 20
4.0634607642
 30
0.0
 10
5.3097370251
 20
4.0446328425
 30
0.0
 10
5.3348730963
 20
4.0240035128
 30
0.0
 10
5.3615963938
 20
4.0054749997
 30
0.0
 10
5.3897274004
 20
3.9891627795
 30
0.0
 10
5.4190863629
 20
3.9751811946
 30
0.0
 10
5.4494761079
 20
3.9636128483
 30
0.0
 10
5.4807028287
 20
3.9545412837
 30
0.0
 10
5.5125646354
 20
3.9480200964
 30
0.0
 10
5.5448447733
 20
3.9441012875
 30
0.0
 10
5.5665100826
 20
3.9432310078
 30
0.0
 10
5.5773337283
 20
3.943235688
 30
0.0
 11
5.3655767187
 21
4.6868764271
 31
0.0
 11
5.338692129
 21
4.6686463323
 31
0.0
 11
5.3258236173
 21
4.6587325613
 31
0.0
 11
5.3133660894
 21
4.648306916
 31
0.0
 11
5.3013391926
 21
4.6373871871
 31
0.0
 11
5.2897624277
 21
4.6259913658
 31
0.0
 11
5.2786552886
 21
4.6141374498
 31
0.0
 11
5.2680362784
 21
4.6018443292
 31
0.0
 11
5.2579219053
 21
4.5891326906
 31
0.0
 11
5.2483284382
 21
4.5760234367
 31
0.0
 11
5.2392721423
 21
4.5625374723
 31
0.0
 11
5.2307683206
 21
4.5486963627
 31
0.0
 11
5.2228299755
 21
4.534523252
 31
0.0
 11
5.2154697731
 21
4.520041515
 31
0.0
 11
5.208700379
 21
4.5052745268
 31
0.0
 11
5.2025335795
 21
4.4902460183
 31
0.0
 11
5.1969785066
 21
4.4749807947
 31
0.0
 11
5.1920437941
 21
4.4595038628
 31
0.0
 11
5.1877380753
 21
4.4438402296
 31
0.0
 11
5.184069217
 21
4.428015121
 31
0.0
 11
5.1810423018
 21
4.4120545585
 31
0.0
 11
5.1786617801
 21
4.3959847439
 31
0.0
 11
5.1769321025
 21
4.3798318793
 31
0.0
 11
5.175857149
 21
4.363622216
 31
0.0
 11
5.1754378667
 21
4.3473822589
 31
0.0
 11
5.1756742629
 21
4.3311385945
 31
0.0
 11
5.1765663448
 21
4.314917809
 31
0.0
 11
5.1781137764
 21
4.2987464605
 31
0.0
 11
5.180313459
 21
4.2826508789
 31
0.0
 11
5.1831609607
 21
4.2666572845
 31
0.0
 11
5.1866518409
 21
4.2507918963
 31
0.0
 11
5.1907814599
 21
4.2350808767
 31
0.0
 11
5.1955427951
 21
4.2195497044
 31
0.0
 11
5.2009272551
 21
4.2042234079
 31
0.0
 11
5.2069262206
 21
4.1891270083
 31
0.0
 11
5.2135309326
 21
4.1742854707
 31
0.0
 11
5.2285121838
 21
4.145462734
 31
0.0
 11
5.2368634115
 21
4.1315283789
 31
0.0
 11
5.2457714046
 21
4.1179432077
 31
0.0
 11
5.2651979874
 21
4.0919081488
 31
0.0
 11
5.2756838378
 21
4.0795002234
 31
0.0
 11
5.2866628196
 21
4.0675266166
 31
0.0
 11
5.3100277422
 21
4.0449598672
 31
0.0
 11
5.335137787
 21
4.0243535304
 31
0.0
 11
5.3618308631
 21
4.0058444729
 31
0.0
 11
5.3899318425
 21
3.9895513386
 31
0.0
 11
5.4192588544
 21
3.9755831118
 31
0.0
 11
5.4496162252
 21
3.964028752
 31
0.0
 11
5.4808060748
 21
3.9549669653
 31
0.0
 11
5.5126321599
 21
3.9484542497
 31
0.0
 11
5.5448888432
 21
3.9445362188
 31
0.0
 11
5.5773337283
 21
3.943235688
 31
0.0
  0
LINE
  5
235
100
AcDbEntity
  8
0
100
AcDbLine
 62
6
  6
CONTINUOUS
 10
5.5773337283
 20
3.943235688
 11
5.5775131454
 21
3.9432358058
  0
LINE
  5
236
100
AcDbEntity
  8
0
100
AcDbLine
 62
6
  6
CONTINUOUS
 10
5.5775131454
 20
4.7429539849
 11
5.5773576075
 21
4.7429538162
  0
SPLINE
  5
237
100
AcDbEntity
  8
0
100
AcDbSpline
 62
6
  6
CONTINUOUS
 70
0
 71
3
 72
23
 73
19
 74
17
 42
0.0000001
 43
0.0000001
 44
0.0000000001
 12
-0.8728717042
 22
-0.5415334104
 32
0.0
 13
1.0272113893
 23
0.0004564107
 33
0.0
 40
0.0
 40
0.0
 40
0.0
 40
0.0
 40
0.0624992117
 40
0.1250002408
 40
0.1875020118
 40
0.2500027122
 40
0.3125016182
 40
0.3750007584
 40
0.4374995511
 40
0.4999986517
 40
0.5624979118
 40
0.6249991395
 40
0.6875006908
 40
0.7500007652
 40
0.8124993267
 40
0.8749995366
 40
0.9375002097
 40
1.0
 40
1.0
 40
1.0
 40
1.0
 10
5.3679955185
 20
4.6831449122
 30
0.0
 10
5.3498109207
 20
4.6718631085
 30
0.0
 10
5.3152006976
 20
4.6463106917
 30
0.0
 10
5.2701741278
 20
4.600172606
 30
0.0
 10
5.2331405731
 20
4.5473819897
 30
0.0
 10
5.2050848432
 20
4.4893252556
 30
0.0
 10
5.1867337835
 20
4.4275112566
 30
0.0
 10
5.1785678274
 20
4.3635507667
 30
0.0
 10
5.1808007422
 20
4.2991095796
 30
0.0
 10
5.1933759322
 20
4.2358677258
 30
0.0
 10
5.2159672743
 20
4.1754738767
 30
0.0
 10
5.2479873369
 20
4.1195040236
 30
0.0
 10
5.2886018916
 20
4.0694200247
 30
0.0
 10
5.3367515522
 20
4.0265308588
 30
0.0
 10
5.3911787062
 20
3.9919567069
 30
0.0
 10
5.4504692984
 20
3.9666013538
 30
0.0
 10
5.5130534669
 20
3.9511286122
 30
0.0
 10
5.5559363265
 20
3.9476726608
 30
0.0
 10
5.577336492
 20
3.9476821693
 30
0.0
 11
5.3679955185
 21
4.6831449122
 31
0.0
 11
5.3163493609
 21
4.645009592
 31
0.0
 11
5.2715065239
 21
4.5990641036
 31
0.0
 11
5.2346366401
 21
4.5465038764
 31
0.0
 11
5.2067020063
 21
4.4886983332
 31
0.0
 11
5.1884312883
 21
4.4271534814
 31
0.0
 11
5.1803009672
 21
4.3634705426
 31
0.0
 11
5.1825244394
 21
4.2993095798
 31
0.0
 11
5.1950452305
 21
4.2363425775
 31
0.0
 11
5.217538381
 21
4.1762119463
 31
0.0
 11
5.2494196764
 21
4.1204851382
 31
0.0
 11
5.2898582035
 21
4.0706186931
 31
0.0
 11
5.3377982674
 21
4.0279163242
 31
0.0
 11
5.3919887449
 21
3.9934934447
 31
0.0
 11
5.4510180144
 21
3.9682485396
 31
0.0
 11
5.5133437846
 21
3.9528433663
 31
0.0
 11
5.577336492
 21
3.9476821693
 31
0.0
  0
LINE
  5
238
100
AcDbEntity
  8
0
100
AcDbLine
 62
6
  6
CONTINUOUS
 10
5.577336492
 20
3.9476821693
 11
5.5775131454
 21
3.9476822873
  0
LINE
  5
239
100
AcDbEntity
  8
0
100
AcDbLine
 62
6
  6
CONTINUOUS
 10
5.5775131454
 20
4.7385075024
 11
5.5773298222
 21
4.7385072948
  0
SPLINE
  5
23A
100
AcDbEntity
  8
0
100
AcDbSpline
 62
6
  6
CONTINUOUS
 70
0
 71
3
 72
43
 73
39
 74
37
 42
0.0000001
 43
0.0000001
 44
0.0000000001
 12
-0.3554215491
 22
-0.7151591201
 32
0.0
 13
0.7986093677
 23
0.0003498637
 33
0.0
 40
0.0
 40
0.0
 40
0.0
 40
0.0
 40
0.0312495097
 40
0.062498568
 40
0.093747527
 40
0.1249967168
 40
0.1562465011
 40
0.1874964946
 40
0.2187467298
 40
0.2499971218
 40
0.2656241948
 40
0.2812512155
 40
0.3125012683
 40
0.3437509058
 40
0.3749999748
 40
0.4062489136
 40
0.437497834
 40
0.4531244084
 40
0.4687510862
 40
0.5000005136
 40
0.5312496365
 40
0.5624986881
 40
0.5937475295
 40
0.6249963632
 40
0.6562452313
 40
0.6718715347
 40
0.6874978042
 40
0.7187466687
 40
0.7499961441
 40
0.781246634
 40
0.8124972413
 40
0.8437459521
 40
0.874993402
 40
0.9062445691
 40
0.9218752522
 40
0.9375080911
 40
0.9687661112
 40
1.0
 40
1.0
 40
1.0
 40
1.0
 10
5.2254155109
 20
4.5201284907
 30
0.0
 10
5.2217132612
 20
4.5126790334
 30
0.0
 10
5.2147795664
 20
4.4975408317
 30
0.0
 10
5.2058438287
 20
4.4742225155
 30
0.0
 10
5.1984017524
 20
4.450384438
 30
0.0
 10
5.1924886407
 20
4.4261218423
 30
0.0
 10
5.1881260961
 20
4.4015328768
 30
0.0
 10
5.1853299436
 20
4.3767164678
 30
0.0
 10
5.1841168474
 20
4.3517728349
 30
0.0
 10
5.1844248872
 20
4.3309621359
 30
0.0
 10
5.1854625802
 20
4.3143532091
 30
0.0
 10
5.1870279343
 20
4.2977857704
 30
0.0
 10
5.1899701288
 20
4.277182047
 30
0.0
 10
5.1950592626
 20
4.2527335262
 30
0.0
 10
5.2016920904
 20
4.2286575373
 30
0.0
 10
5.2098380012
 20
4.2050514624
 30
0.0
 10
5.2178609759
 20
4.1858478303
 30
0.0
 10
5.2250010485
 20
4.1708167915
 30
0.0
 10
5.2326143728
 20
4.1560197023
 30
0.0
 10
5.2430051321
 20
4.1379867622
 30
0.0
 10
5.2568225311
 20
4.1171853659
 30
0.0
 10
5.2719327096
 20
4.0973029223
 30
0.0
 10
5.2882728616
 20
4.0784183227
 30
0.0
 10
5.3057806836
 20
4.0606115877
 30
0.0
 10
5.3212834463
 20
4.0467261878
 30
0.0
 10
5.3341934125
 20
4.036226704
 30
0.0
 10
5.3474309396
 20
4.0261433358
 30
0.0
 10
5.3645690533
 20
4.0143351913
 30
0.0
 10
5.3859901767
 20
4.0014989458
 30
0.0
 10
5.4081855295
 20
3.990051267
 30
0.0
 10
5.4310619276
 20
3.9800347912
 30
0.0
 10
5.4545272129
 20
3.971490053
 30
0.0
 10
5.4784881056
 20
3.9644552078
 30
0.0
 10
5.498790461
 20
3.9598709198
 30
0.0
 10
5.5151821564
 20
3.956983761
 30
0.0
 10
5.5316594212
 20
3.9546199804
 30
0.0
 10
5.5523773135
 20
3.9526484883
 30
0.0
 10
5.5690175674
 20
3.9521250072
 30
0.0
 10
5.5773321261
 20
3.9521286497
 30
0.0
 11
5.2254155109
 21
4.5201284907
 31
0.0
 11
5.2150236487
 21
4.4974388718
 31
0.0
 11
5.206092758
 21
4.4741358506
 31
0.0
 11
5.1986566039
 21
4.4503137755
 31
0.0
 11
5.1927471106
 21
4.4260676471
 31
0.0
 11
5.1883871766
 21
4.4014950705
 31
0.0
 11
5.1855937938
 21
4.3766953548
 31
0.0
 11
5.184380638
 21
4.3517681253
 31
0.0
 11
5.1847502109
 21
4.3268140037
 31
0.0
 11
5.1855285439
 21
4.3143583703
 31
0.0
 11
5.1867023896
 21
4.301933812
 31
0.0
 11
5.1902299208
 21
4.2772277849
 31
0.0
 11
5.1953165917
 21
4.2527954196
 31
0.0
 11
5.2019442898
 21
4.2287357926
 31
0.0
 11
5.2100849047
 21
4.2051451751
 31
0.0
 11
5.2197057568
 21
4.1821185531
 31
0.0
 11
5.2250601891
 21
4.1708460769
 31
0.0
 11
5.2307697073
 21
4.1597491346
 31
0.0
 11
5.2432299825
 21
4.1381262795
 31
0.0
 11
5.2570380203
 21
4.117338488
 31
0.0
 11
5.2721377485
 21
4.0974691762
 31
0.0
 11
5.2884674799
 21
4.0785979591
 31
0.0
 11
5.3059631844
 21
4.0608023703
 31
0.0
 11
5.3245526424
 21
4.0441525631
 31
0.0
 11
5.3342343672
 21
4.0362787159
 31
0.0
 11
5.3441615943
 21
4.0287167882
 31
0.0
 11
5.3647115046
 21
4.0145575131
 31
0.0
 11
5.3861189117
 21
4.0017305432
 31
0.0
 11
5.4082990412
 21
3.9902898034
 31
0.0
 11
5.4311606701
 21
3.9802798447
 31
0.0
 11
5.454610107
 21
3.9717415973
 31
0.0
 11
5.4785537978
 21
3.9647111511
 31
0.0
 11
5.5028984827
 21
3.9592146084
 31
0.0
 11
5.5151920622
 21
3.9570493191
 31
0.0
 11
5.5275500472
 21
3.9552762529
 31
0.0
 11
5.5524007341
 21
3.9529114612
 31
0.0
 11
5.5773321261
 21
3.9521286497
 31
0.0
  0
LINE
  5
23B
100
AcDbEntity
  8
0
100
AcDbLine
 62
6
  6
CONTINUOUS
 10
5.5773321261
 20
3.9521286497
 11
5.5775131454
 21
3.9521287709
  0
LINE
  5
23C
100
AcDbEntity
  8
0
100
AcDbLine
 62
6
  6
CONTINUOUS
 10
5.5775131454
 20
4.7407307447
 11
5.5773291814
 21
4.7407305374
  0
SPLINE
  5
23D
100
AcDbEntity
  8
0
100
AcDbSpline
 62
6
  6
CONTINUOUS
 70
0
 71
3
 72
43
 73
39
 74
37
 42
0.0000001
 43
0.0000001
 44
0.0000000001
 12
-0.357604607
 22
-0.7192036098
 32
0.0
 13
0.8032028168
 23
0.0003497529
 33
0.0
 40
0.0
 40
0.0
 40
0.0
 40
0.0
 40
0.0312496257
 40
0.0624988259
 40
0.0937477181
 40
0.1249963738
 40
0.1562452287
 40
0.1874941915
 40
0.2187435171
 40
0.2499931403
 40
0.2656198925
 40
0.2812466452
 40
0.3124962882
 40
0.3437456592
 40
0.374994653
 40
0.4062436812
 40
0.4374928441
 40
0.4531196043
 40
0.4687465075
 40
0.4999965335
 40
0.531246543
 40
0.5624966298
 40
0.5937463303
 40
0.6249956399
 40
0.6562447001
 40
0.6718710449
 40
0.6874973437
 40
0.7187462493
 40
0.7499957582
 40
0.7812462911
 40
0.8124969471
 40
0.8437457055
 40
0.8749932043
 40
0.9062444256
 40
0.921875139
 40
0.9375080075
 40
0.9687660775
 40
1.0
 40
1.0
 40
1.0
 40
1.0
 10
5.2234586651
 20
4.5211865014
 30
0.0
 10
5.2197336618
 20
4.5136948868
 30
0.0
 10
5.212757136
 20
4.4984708853
 30
0.0
 10
5.2037657213
 20
4.4750200274
 30
0.0
 10
5.1962766289
 20
4.4510462814
 30
0.0
 10
5.1903252793
 20
4.4266455824
 30
0.0
 10
5.1859336055
 20
4.4019165745
 30
0.0
 10
5.1831175092
 20
4.3769586332
 30
0.0
 10
5.1818934557
 20
4.3518724521
 30
0.0
 10
5.1821999355
 20
4.3309425359
 30
0.0
 10
5.1832411264
 20
4.3142382861
 30
0.0
 10
5.1848130877
 20
4.2975755978
 30
0.0
 10
5.1877690251
 20
4.2768531689
 30
0.0
 10
5.1928839543
 20
4.2522634954
 30
0.0
 10
5.1995518756
 20
4.2280482568
 30
0.0
 10
5.2077414077
 20
4.2043052129
 30
0.0
 10
5.2158084006
 20
4.1849900772
 30
0.0
 10
5.2229878762
 20
4.1698715995
 30
0.0
 10
5.2306433724
 20
4.1549882642
 30
0.0
 10
5.2410920936
 20
4.1368500236
 30
0.0
 10
5.2549874573
 20
4.1159271623
 30
0.0
 10
5.2701830966
 20
4.0959283229
 30
0.0
 10
5.2866160034
 20
4.0769331896
 30
0.0
 10
5.3042234402
 20
4.0590223857
 30
0.0
 10
5.3198145337
 20
4.0450558944
 30
0.0
 10
5.3327981256
 20
4.0344951327
 30
0.0
 10
5.3461111868
 20
4.024352922
 30
0.0
 10
5.3633472068
 20
4.0124758348
 30
0.0
 10
5.3848908933
 20
3.9995646103
 30
0.0
 10
5.407213411
 20
3.9880500402
 30
0.0
 10
5.4302210166
 20
3.9779749985
 30
0.0
 10
5.4538210127
 20
3.9693802836
 30
0.0
 10
5.477919562
 20
3.9623042705
 30
0.0
 10
5.4983386244
 20
3.9576931368
 30
0.0
 10
5.5148245789
 20
3.9547890629
 30
0.0
 10
5.5313966103
 20
3.9524114248
 30
0.0
 10
5.5522336783
 20
3.9504283538
 30
0.0
 10
5.5689696655
 20
3.949901767
 30
0.0
 10
5.577332057
 20
3.9499054084
 30
0.0
 11
5.2234586651
 21
4.5211865014
 31
0.0
 11
5.2130026459
 21
4.4983682826
 31
0.0
 11
5.2040160668
 21
4.4749327607
 31
0.0
 11
5.1965328976
 21
4.4509750469
 31
0.0
 11
5.1905852364
 21
4.4265909196
 31
0.0
 11
5.18619621
 21
4.4018784771
 31
0.0
 11
5.1833828599
 21
4.3769373909
 31
0.0
 11
5.1821587615
 21
4.3518677095
 31
0.0
 11
5.1825265274
 21
4.3267706162
 31
0.0
 11
5.1833074768
 21
4.3142434824
 31
0.0
 11
5.1844862535
 21
4.3017475048
 31
0.0
 11
5.1880303582
 21
4.2768991755
 31
0.0
 11
5.193142816
 21
4.2523257763
 31
0.0
 11
5.1998054768
 21
4.2281269556
 31
0.0
 11
5.2079898243
 21
4.2043995072
 31
0.0
 11
5.2176633652
 21
4.181239123
 31
0.0
 11
5.2230473529
 21
4.1699010545
 31
0.0
 11
5.2287884969
 21
4.1587394564
 31
0.0
 11
5.2413182946
 21
4.136990439
 31
0.0
 11
5.2552041667
 21
4.1160811713
 31
0.0
 11
5.2703893932
 21
4.0960955031
 31
0.0
 11
5.2868118603
 21
4.0771138004
 31
0.0
 11
5.3044070806
 21
4.0592142215
 31
0.0
 11
5.3231024021
 21
4.0424672336
 31
0.0
 11
5.3328393254
 21
4.0345474438
 31
0.0
 11
5.3428231981
 21
4.0269413867
 31
0.0
 11
5.3634905053
 21
4.0126994478
 31
0.0
 11
5.3850203911
 21
3.999797558
 31
0.0
 11
5.4073275946
 21
3.9882899651
 31
0.0
 11
5.4303203465
 21
3.9782214822
 31
0.0
 11
5.4539043989
 21
3.9696332956
 31
0.0
 11
5.4779856436
 21
3.9625617084
 31
0.0
 11
5.5024702702
 21
3.9570329797
 31
0.0
 11
5.5148345439
 21
3.954855004
 31
0.0
 11
5.5272636056
 21
3.953071543
 31
0.0
 11
5.5522572418
 21
3.950692863
 31
0.0
 11
5.577332057
 21
3.9499054084
 31
0.0
  0
LINE
  5
23E
100
AcDbEntity
  8
0
100
AcDbLine
 62
6
  6
CONTINUOUS
 10
5.577332057
 20
3.9499054084
 11
5.5775131454
 21
3.9499055289
  0
LINE
  5
23F
100
AcDbEntity
  8
0
100
AcDbLine
 62
6
  6
CONTINUOUS
 10
5.5775131454
 20
4.7362842615
 11
5.5773372428
 21
4.7362840628
  0
SPLINE
  5
240
100
AcDbEntity
  8
0
100
AcDbSpline
 62
6
  6
CONTINUOUS
 70
0
 71
3
 72
43
 73
39
 74
37
 42
0.0000001
 43
0.0000001
 44
0.0000000001
 12
-0.3533011796
 22
-0.7111360279
 32
0.0
 13
0.7940629926
 23
0.0003706475
 33
0.0
 40
0.0
 40
0.0
 40
0.0
 40
0.0
 40
0.0312359877
 40
0.0624931966
 40
0.0781245437
 40
0.0937535521
 40
0.125002566
 40
0.1562496339
 40
0.1874990688
 40
0.2187500332
 40
0.2343774644
 40
0.2500047428
 40
0.2812550271
 40
0.312504793
 40
0.343754318
 40
0.3750036303
 40
0.4062526342
 40
0.4375016026
 40
0.468750385
 40
0.4999992457
 40
0.5312482314
 40
0.5624973912
 40
0.5937467986
 40
0.6249960337
 40
0.6562452177
 40
0.6874942523
 40
0.7187432148
 40
0.7499926175
 40
0.7656195391
 40
0.7812467222
 40
0.812497465
 40
0.8437470014
 40
0.8749945985
 40
0.9062444886
 40
0.9218739882
 40
0.9375057941
 40
0.9687636548
 40
1.0
 40
1.0
 40
1.0
 40
1.0
 10
5.2273882862
 20
4.5191037906
 30
0.0
 10
5.2237097158
 20
4.5116994452
 30
0.0
 10
5.2168196809
 20
4.4966474615
 30
0.0
 10
5.2094147611
 20
4.4773248308
 30
0.0
 10
5.2042338813
 20
4.4616065194
 30
0.0
 10
5.1995561815
 20
4.4457335738
 30
0.0
 10
5.1946577772
 20
4.4256278683
 30
0.0
 10
5.1903216494
 20
4.40117973
 30
0.0
 10
5.1875467567
 20
4.3765050927
 30
0.0
 10
5.1865409661
 20
4.3558350382
 30
0.0
 10
5.1865245098
 20
4.3392881498
 30
0.0
 10
5.1870341954
 20
4.3227492953
 30
0.0
 10
5.1886549228
 20
4.3021184526
 30
0.0
 10
5.1921649114
 20
4.2775371054
 30
0.0
 10
5.1972299481
 20
4.253228303
 30
0.0
 10
5.2038245134
 20
4.2292894884
 30
0.0
 10
5.2119264524
 20
4.2058179896
 30
0.0
 10
5.2215010703
 20
4.1829079912
 30
0.0
 10
5.2325092194
 20
4.1606512181
 30
0.0
 10
5.2449096566
 20
4.1391391145
 30
0.0
 10
5.2586481909
 20
4.118455806
 30
0.0
 10
5.2736738341
 20
4.0986874964
 30
0.0
 10
5.2899230455
 20
4.0799120168
 30
0.0
 10
5.3073310996
 20
4.0622055166
 30
0.0
 10
5.3258292014
 20
4.0456413623
 30
0.0
 10
5.3453399922
 20
4.0302828544
 30
0.0
 10
5.3657875754
 20
4.0161962838
 30
0.0
 10
5.3835394624
 20
4.0055610731
 30
0.0
 10
5.3981222668
 20
3.9977429874
 30
0.0
 10
5.4129468459
 20
3.9903928501
 30
0.0
 10
5.4319044459
 20
3.9820940943
 30
0.0
 10
5.4552363682
 20
3.973598991
 30
0.0
 10
5.4790610803
 20
3.9666048158
 30
0.0
 10
5.4992474756
 20
3.962047868
 30
0.0
 10
5.5155449659
 20
3.9591774386
 30
0.0
 10
5.531927827
 20
3.9568273351
 30
0.0
 10
5.5525282006
 20
3.954867862
 30
0.0
 10
5.5690743468
 20
3.954348034
 30
0.0
 10
5.5773422221
 20
3.9543518933
 30
0.0
 11
5.2273882862
 21
4.5191037906
 31
0.0
 11
5.2170635338
 21
4.4965515094
 31
0.0
 11
5.2081819116
 21
4.4733748208
 31
0.0
 11
5.2042965209
 21
4.461586338
 31
0.0
 11
5.2007882757
 21
4.4496821075
 31
0.0
 11
5.1949146123
 21
4.4255736194
 31
0.0
 11
5.1905819525
 21
4.4011426862
 31
0.0
 11
5.1878081347
 21
4.3764841857
 31
0.0
 11
5.1866025475
 21
4.3516982512
 31
0.0
 11
5.1865902828
 21
4.3392890912
 31
0.0
 11
5.1869723908
 21
4.3268859308
 31
0.0
 11
5.188915803
 21
4.302147452
 31
0.0
 11
5.1924241041
 21
4.2775824244
 31
0.0
 11
5.1974848907
 21
4.2532898802
 31
0.0
 11
5.2040757736
 21
4.2293672728
 31
0.0
 11
5.2121719104
 21
4.2059115423
 31
0.0
 11
5.2217400151
 21
4.1830168114
 31
0.0
 11
5.2327412569
 21
4.1607753484
 31
0.0
 11
5.2451326465
 21
4.1392772892
 31
0.0
 11
5.2588626682
 21
4.1186083629
 31
0.0
 11
5.2738777143
 21
4.0988530278
 31
0.0
 11
5.2901162165
 21
4.0800901476
 31
0.0
 11
5.3075127959
 21
4.0623958868
 31
0.0
 11
5.3259980224
 21
4.0458422702
 31
0.0
 11
5.3454961314
 21
4.0304948377
 31
0.0
 11
5.365929813
 21
4.0164171336
 31
0.0
 11
5.3872160889
 21
4.0036645298
 31
0.0
 11
5.3981523896
 21
3.9978015368
 31
0.0
 11
5.4092698507
 21
3.9922893164
 31
0.0
 11
5.4320020841
 21
3.9823377929
 31
0.0
 11
5.4553190219
 21
3.9738489691
 31
0.0
 11
5.479126755
 21
3.9668593245
 31
0.0
 11
5.503332078
 21
3.9613952612
 31
0.0
 11
5.5155547753
 21
3.959242625
 31
0.0
 11
5.5278416163
 21
3.957479909
 31
0.0
 11
5.5525507826
 21
3.955129399
 31
0.0
 11
5.5773422221
 21
3.9543518933
 31
0.0
  0
LINE
  5
241
100
AcDbEntity
  8
0
100
AcDbLine
 62
6
  6
CONTINUOUS
 10
5.5773422221
 20
3.9543518933
 11
5.5775131454
 21
3.9543520106
  0
LINE
  5
242
100
AcDbEntity
  8
0
100
AcDbLine
 62
6
  6
CONTINUOUS
 10
5.5775131454
 20
4.7318377793
 11
5.5773281569
 21
4.7318375658
  0
SPLINE
  5
243
100
AcDbEntity
  8
0
100
AcDbSpline
 62
6
  6
CONTINUOUS
 70
0
 71
3
 72
38
 73
34
 74
32
 42
0.0000001
 43
0.0000001
 44
0.0000000001
 12
-0.6431701091
 22
-0.0008967023
 32
0.0
 13
0.0601878237
 23
-0.6403483577
 33
0.0
 40
0.0
 40
0.0
 40
0.0
 40
0.0
 40
0.0624661928
 40
0.0937291251
 40
0.1249866342
 40
0.156237829
 40
0.187486354
 40
0.2187357185
 40
0.2499870152
 40
0.2812389712
 40
0.3124903385
 40
0.3437409071
 40
0.3749909465
 40
0.4062406294
 40
0.4374904048
 40
0.4687403454
 40
0.4999902962
 40
0.5312404577
 40
0.5624909026
 40
0.5937413944
 40
0.6249919902
 40
0.6562427246
 40
0.6874932209
 40
0.7187433361
 40
0.7499933977
 40
0.7812434808
 40
0.8124937563
 40
0.8437445258
 40
0.874995559
 40
0.9062466184
 40
0.9374978538
 40
0.9687490901
 40
1.0
 40
1.0
 40
1.0
 40
1.0
 10
5.5773281569
 20
4.7318375658
 30
0.0
 10
5.5639360276
 20
4.7318188946
 30
0.0
 10
5.543822498
 20
4.7307425615
 30
0.0
 10
5.5172486652
 20
4.7272380597
 30
0.0
 10
5.4974714981
 20
4.7235745477
 30
0.0
 10
5.4779154647
 20
4.7188893209
 30
0.0
 10
5.4586301615
 20
4.7131964948
 30
0.0
 10
5.4396669322
 20
4.7065087375
 30
0.0
 10
5.4210759542
 20
4.6988449218
 30
0.0
 10
5.4029067648
 20
4.690227708
 30
0.0
 10
5.3852099518
 20
4.6806781185
 30
0.0
 10
5.3680341993
 20
4.6702211836
 30
0.0
 10
5.3514241743
 20
4.6588878074
 30
0.0
 10
5.3354252264
 20
4.6467071922
 30
0.0
 10
5.3200816849
 20
4.6337107392
 30
0.0
 10
5.3054329085
 20
4.6199359023
 30
0.0
 10
5.2915188623
 20
4.6054190917
 30
0.0
 10
5.2783792296
 20
4.5901976383
 30
0.0
 10
5.2660471958
 20
4.5743147515
 30
0.0
 10
5.2545559545
 20
4.5578131631
 30
0.0
 10
5.2439393317
 20
4.5407356556
 30
0.0
 10
5.2342238836
 20
4.5231299263
 30
0.0
 10
5.2254349899
 20
4.505043899
 30
0.0
 10
5.2175993706
 20
4.4865250601
 30
0.0
 10
5.2107368583
 20
4.4676241467
 30
0.0
 10
5.20486425
 20
4.4483925788
 30
0.0
 10
5.2000001823
 20
4.428881318
 30
0.0
 10
5.1961574276
 20
4.409143337
 30
0.0
 10
5.1933439752
 20
4.3892323797
 30
0.0
 10
5.1915697662
 20
4.3692019414
 30
0.0
 10
5.1908406835
 20
4.3491061407
 30
0.0
 10
5.1911555681
 20
4.3290002087
 30
0.0
 10
5.192061855
 20
4.3156238606
 30
0.0
 10
5.1926888298
 20
4.308953371
 30
0.0
 11
5.5773281569
 21
4.7318375658
 31
0.0
 11
5.5372088999
 21
4.7296950178
 31
0.0
 11
5.5172741758
 21
4.7270654865
 31
0.0
 11
5.4975065251
 21
4.7234038764
 31
0.0
 11
5.4779597505
 21
4.7187211712
 31
0.0
 11
5.4586840139
 21
4.7130307336
 31
0.0
 11
5.4397294756
 21
4.7063462526
 31
0.0
 11
5.421146448
 21
4.6986861062
 31
0.0
 11
5.402985359
 21
4.690072242
 31
0.0
 11
5.3852965872
 21
4.680526775
 31
0.0
 11
5.3681283411
 21
4.6700750163
 31
0.0
 11
5.3515259352
 21
4.6587465401
 31
0.0
 11
5.3355344732
 21
4.6465712298
 31
0.0
 11
5.3201975127
 21
4.6335810385
 31
0.0
 11
5.3055553748
 21
4.6198122513
 31
0.0
 11
5.2916479736
 21
4.6053016981
 31
0.0
 11
5.2785138803
 21
4.5900874613
 31
0.0
 11
5.2661873432
 21
4.574211655
 31
0.0
 11
5.2547017421
 21
4.5577172039
 31
0.0
 11
5.2440895429
 21
4.5406476443
 31
0.0
 11
5.2343782783
 21
4.5230498158
 31
0.0
 11
5.2255938251
 21
4.5049716675
 31
0.0
 11
5.2177615452
 21
4.4864613567
 31
0.0
 11
5.2109018453
 21
4.4675690475
 31
0.0
 11
5.2050323574
 21
4.4483460275
 31
0.0
 11
5.2001704314
 21
4.4288436679
 31
0.0
 11
5.1963289924
 21
4.4091145909
 31
0.0
 11
5.1935171851
 21
4.3892124883
 31
0.0
 11
5.1917439567
 21
4.3691910925
 31
0.0
 11
5.1910146785
 21
4.349104447
 31
0.0
 11
5.1913296621
 21
4.3290070346
 31
0.0
 11
5.1926888298
 21
4.308953371
 31
0.0
  0
LINE
  5
244
100
AcDbEntity
  8
0
100
AcDbLine
 62
6
  6
CONTINUOUS
 10
5.5773334621
 20
3.9587983714
 11
5.5775131454
 21
3.9587984942
  0
LINE
  5
245
100
AcDbEntity
  8
0
100
AcDbLine
 62
6
  6
CONTINUOUS
 10
5.5775131454
 20
4.7340610215
 11
5.5773281477
 21
4.7340608092
  0
SPLINE
  5
246
100
AcDbEntity
  8
0
100
AcDbSpline
 62
6
  6
CONTINUOUS
 70
0
 71
3
 72
67
 73
63
 74
61
 42
0.0000001
 43
0.0000001
 44
0.0000000001
 12
-1.2207371097
 22
-0.0016922517
 32
0.0
 13
1.2207381603
 23
0.0005465375
 33
0.0
 40
0.0
 40
0.0
 40
0.0
 40
0.0
 40
0.0312338137
 40
0.0468655405
 40
0.0624954011
 40
0.0781219242
 40
0.0937467129
 40
0.1093713714
 40
0.1249969901
 40
0.1406232153
 40
0.1562494208
 40
0.1718752017
 40
0.1875006751
 40
0.2031259634
 40
0.2187512148
 40
0.234376613
 40
0.2500020657
 40
0.2656274224
 40
0.2812527307
 40
0.2968780606
 40
0.3125033565
 40
0.3281286706
 40
0.3437540829
 40
0.3593794689
 40
0.3750047327
 40
0.390630002
 40
0.406255339
 40
0.4218807462
 40
0.4375063666
 40
0.453132218
 40
0.4687581522
 40
0.4843841285
 40
0.500010221
 40
0.5156363196
 40
0.5312623102
 40
0.5468882589
 40
0.5625141183
 40
0.5781397242
 40
0.593765073
 40
0.6093903323
 40
0.6250155451
 40
0.6406408073
 40
0.6562662834
 40
0.6718919067
 40
0.687517576
 40
0.7031433625
 40
0.7187692426
 40
0.7343950583
 40
0.7500207807
 40
0.7656464753
 40
0.7812720282
 40
0.7968973501
 40
0.8125226134
 40
0.8437641488
 40
0.8750066656
 40
0.8906320023
 40
0.9062562654
 40
0.921880449
 40
0.9375062442
 40
0.9531353607
 40
0.9687665928
 40
1.0
 40
1.0
 40
1.0
 40
1.0
 10
5.5773281477
 20
4.7340608092
 30
0.0
 10
5.5646187225
 20
4.7340431907
 30
0.0
 10
5.5455326116
 20
4.7330780447
 30
0.0
 10
5.5202903584
 20
4.7299370683
 30
0.0
 10
5.5014871193
 20
4.7266538186
 30
0.0
 10
5.4828712852
 20
4.7224526314
 30
0.0
 10
5.4644852346
 20
4.7173457882
 30
0.0
 10
5.4463719274
 20
4.7113441398
 30
0.0
 10
5.4285743775
 20
4.7044607445
 30
0.0
 10
5.4111343766
 20
4.6967146021
 30
0.0
 10
5.3940942463
 20
4.6881242194
 30
0.0
 10
5.3774967549
 20
4.6787075882
 30
0.0
 10
5.3613810772
 20
4.668489047
 30
0.0
 10
5.3457849608
 20
4.6574941816
 30
0.0
 10
5.3307469311
 20
4.6457475359
 30
0.0
 10
5.3163033253
 20
4.6332771827
 30
0.0
 10
5.3024873043
 20
4.6201148932
 30
0.0
 10
5.2893327653
 20
4.6062914765
 30
0.0
 10
5.2768731107
 20
4.5918386699
 30
0.0
 10
5.2651362747
 20
4.5767930503
 30
0.0
 10
5.2541501905
 20
4.5611907584
 30
0.0
 10
5.2439435899
 20
4.5450677074
 30
0.0
 10
5.2345397774
 20
4.5284636262
 30
0.0
 10
5.225960058
 20
4.5114191198
 30
0.0
 10
5.2182269548
 20
4.4939742028
 30
0.0
 10
5.211359703
 20
4.4761706887
 30
0.0
 10
5.2053724719
 20
4.4580522284
 30
0.0
 10
5.2002804541
 20
4.4396619002
 30
0.0
 10
5.196098259
 20
4.4210433637
 30
0.0
 10
5.1928333555
 20
4.4022421003
 30
0.0
 10
5.1904932328
 20
4.3833033086
 30
0.0
 10
5.1890863714
 20
4.364272298
 30
0.0
 10
5.1886150979
 20
4.3451951515
 30
0.0
 10
5.1890787092
 20
4.3261178144
 30
0.0
 10
5.190477778
 20
4.3070862138
 30
0.0
 10
5.1928104835
 20
4.288146485
 30
0.0
 10
5.1960683528
 20
4.2693439942
 30
0.0
 10
5.2002437588
 20
4.2507239578
 30
0.0
 10
5.2053293921
 20
4.232331917
 30
0.0
 10
5.211310992
 20
4.2142116676
 30
0.0
 10
5.2181732219
 20
4.196406269
 30
0.0
 10
5.2259018757
 20
4.1789593533
 30
0.0
 10
5.2344781434
 20
4.161912955
 30
0.0
 10
5.243879428
 20
4.145307122
 30
0.0
 10
5.2540842945
 20
4.1291824458
 30
0.0
 10
5.2650698046
 20
4.1135790282
 30
0.0
 10
5.2768071066
 20
4.0985329516
 30
0.0
 10
5.2892679374
 20
4.0840803716
 30
0.0
 10
5.3024243904
 20
4.0702581239
 30
0.0
 10
5.3162434239
 20
4.0570984712
 30
0.0
 10
5.3306906017
 20
4.0446320801
 30
0.0
 10
5.3457329657
 20
4.0328902523
 30
0.0
 10
5.3665297209
 20
4.0182426127
 30
0.0
 10
5.3938363906
 20
4.0018713294
 30
0.0
 10
5.4226199113
 20
3.9882631787
 30
0.0
 10
5.4463531019
 20
3.9791092741
 30
0.0
 10
5.4644723328
 20
3.9731259839
 30
0.0
 10
5.4828634606
 20
3.9680402909
 30
0.0
 10
5.5014837842
 20
3.9638626441
 30
0.0
 10
5.5202907416
 20
3.9606052421
 30
0.0
 10
5.5455370487
 20
3.9575021837
 30
0.0
 10
5.5646246233
 20
3.9565694401
 30
0.0
 10
5.577333894
 20
3.9565751302
 30
0.0
 11
5.5773281477
 21
4.7340608092
 31
0.0
 11
5.5392482883
 21
4.732139223
 31
0.0
 11
5.5203121326
 21
4.7297824945
 31
0.0
 11
5.5015165601
 21
4.7265004706
 31
0.0
 11
5.4829085545
 21
4.7223014357
 31
0.0
 11
5.4645305811
 21
4.717196625
 31
0.0
 11
5.4464250127
 21
4.711197348
 31
0.0
 11
5.4286342945
 21
4.7043170867
 31
0.0
 11
5.4112010251
 21
4.6965738951
 31
0.0
 11
5.3941678224
 21
4.6879864053
 31
0.0
 11
5.3775768964
 21
4.6785738405
 31
0.0
 11
5.3614675781
 21
4.6683595982
 31
0.0
 11
5.3458779587
 21
4.6573688733
 31
0.0
 11
5.3308460565
 21
4.6456269632
 31
0.0
 11
5.3164079447
 21
4.6331618794
 31
0.0
 11
5.3025975195
 21
4.6200046732
 31
0.0
 11
5.2894485604
 21
4.6061865576
 31
0.0
 11
5.2769935835
 21
4.5917398714
 31
0.0
 11
5.265261392
 21
4.5767002608
 31
0.0
 11
5.2542801115
 21
4.5611039761
 31
0.0
 11
5.2440774117
 21
4.5449875752
 31
0.0
 11
5.2346771199
 21
4.5283902093
 31
0.0
 11
5.2261011353
 21
4.511352331
 31
0.0
 11
5.2183712627
 21
4.4939144358
 31
0.0
 11
5.2115063856
 21
4.4761182328
 31
0.0
 11
5.2055216891
 21
4.4580069673
 31
0.0
 11
5.2004321205
 21
4.4396239835
 31
0.0
 11
5.1962511665
 21
4.4210130364
 31
0.0
 11
5.1929874945
 21
4.4022192361
 31
0.0
 11
5.1906487796
 21
4.3832879721
 31
0.0
 11
5.1892423056
 21
4.364264667
 31
0.0
 11
5.1887709124
 21
4.3451951232
 31
0.0
 11
5.1892346215
 21
4.3261253835
 31
0.0
 11
5.1906333873
 21
4.3071014927
 31
0.0
 11
5.192964687
 21
4.2881692963
 31
0.0
 11
5.1962213039
 21
4.2693742622
 31
0.0
 11
5.2003954984
 21
4.250761816
 31
0.0
 11
5.2054787378
 21
4.2323771551
 31
0.0
 11
5.2114577718
 21
4.2142641193
 31
0.0
 11
5.2183176122
 21
4.1964660482
 31
0.0
 11
5.2260430955
 21
4.17902621
 31
0.0
 11
5.2346156053
 21
4.1619864598
 31
0.0
 11
5.2440133379
 21
4.1453873489
 31
0.0
 11
5.2542143655
 21
4.1292693763
 31
0.0
 11
5.2651950749
 21
4.1136719571
 31
0.0
 11
5.2769277144
 21
4.0986318443
 31
0.0
 11
5.2893839083
 21
4.0841853895
 31
0.0
 11
5.3025348411
 21
4.0703685359
 31
0.0
 11
5.3163481777
 21
4.0572139581
 31
0.0
 11
5.3307898946
 21
4.0447527624
 31
0.0
 11
5.345825909
 21
4.0330159784
 31
0.0
 11
5.3614203281
 21
4.022032118
 31
0.0
 11
5.3941313869
 21
4.0024241167
 31
0.0
 11
5.4286097295
 21
3.9861200573
 31
0.0
 11
5.4464064398
 21
3.9792562666
 31
0.0
 11
5.4645176488
 21
3.9732755788
 31
0.0
 11
5.482900703
 21
3.9681918656
 31
0.0
 11
5.501513095
 21
3.964016374
 31
0.0
 11
5.5203122532
 21
3.9607602697
 31
0.0
 11
5.539251321
 21
3.9584320034
 31
0.0
 11
5.577333894
 21
3.9565751302
 31
0.0
  0
LINE
  5
247
100
AcDbEntity
  8
0
100
AcDbLine
 62
6
  6
CONTINUOUS
 10
5.577333894
 20
3.9565751302
 11
5.5775131454
 21
3.956575252
  0
LINE
  5
248
100
AcDbEntity
  8
0
100
AcDbLine
 62
6
  6
CONTINUOUS
 10
5.5775131454
 20
3.941012564
 11
5.577698066
 21
3.9410127686
  0
SPLINE
  5
249
100
AcDbEntity
  8
0
100
AcDbSpline
 62
6
  6
CONTINUOUS
 70
0
 71
3
 72
67
 73
63
 74
61
 42
0.0000001
 43
0.0000001
 44
0.0000000001
 12
1.2661301793
 22
0.0016921138
 32
0.0
 13
-1.2661311922
 23
-0.0005462476
 33
0.0
 40
0.0
 40
0.0
 40
0.0
 40
0.0
 40
0.0312338003
 40
0.0468655241
 40
0.0624953823
 40
0.0781219026
 40
0.0937466886
 40
0.1093713445
 40
0.1249969605
 40
0.1406231833
 40
0.1562493867
 40
0.1718751662
 40
0.1875006378
 40
0.2031259223
 40
0.2187511659
 40
0.2343765519
 40
0.2500019883
 40
0.2656273254
 40
0.2812526129
 40
0.2968779258
 40
0.3125032145
 40
0.3281285371
 40
0.343753969
 40
0.3593793762
 40
0.3750046542
 40
0.3906299283
 40
0.406255264
 40
0.4218806682
 40
0.4375062868
 40
0.4531321369
 40
0.4687580701
 40
0.4843840452
 40
0.5000101363
 40
0.5156362335
 40
0.5312622235
 40
0.5468881724
 40
0.5625140311
 40
0.5781396339
 40
0.5937649769
 40
0.6093902336
 40
0.625015455
 40
0.6406407455
 40
0.6562662677
 40
0.6718919442
 40
0.6875176627
 40
0.7031434874
 40
0.718769397
 40
0.734395236
 40
0.7500209764
 40
0.7656466852
 40
0.7812722483
 40
0.7968975751
 40
0.8125228365
 40
0.8437643541
 40
0.875006837
 40
0.8906321475
 40
0.9062563712
 40
0.9218805053
 40
0.9375062565
 40
0.9531353504
 40
0.9687665819
 40
1.0
 40
1.0
 40
1.0
 40
1.0
 10
5.577698066
 20
3.9410127686
 30
0.0
 10
5.5908800851
 20
3.9410303857
 30
0.0
 10
5.6106759559
 20
3.9420304963
 30
0.0
 10
5.6368569708
 20
3.945287158
 30
0.0
 10
5.656359539
 20
3.948691721
 30
0.0
 10
5.6756677595
 20
3.9530484151
 30
0.0
 10
5.6947376728
 20
3.9583445005
 30
0.0
 10
5.7135247167
 20
3.9645687224
 30
0.0
 10
5.7319842735
 20
3.9717075341
 30
0.0
 10
5.7500729933
 20
3.9797412279
 30
0.0
 10
5.7677469764
 20
3.9886506082
 30
0.0
 10
5.7849618599
 20
3.9984170119
 30
0.0
 10
5.8016770095
 20
4.0090151897
 30
0.0
 10
5.8178532686
 20
4.0204186019
 30
0.0
 10
5.8334506739
 20
4.0326017895
 30
0.0
 10
5.8484315368
 20
4.0455356283
 30
0.0
 10
5.862761461
 20
4.059187164
 30
0.0
 10
5.8764052842
 20
4.0735244433
 30
0.0
 10
5.889328371
 20
4.08851454
 30
0.0
 10
5.9015017494
 20
4.1041195206
 30
0.0
 10
5.9128964406
 20
4.1203019111
 30
0.0
 10
5.923482642
 20
4.1370244632
 30
0.0
 10
5.9332361992
 20
4.1542459528
 30
0.0
 10
5.9421350003
 20
4.171924261
 30
0.0
 10
5.9501556718
 20
4.1900178785
 30
0.0
 10
5.9572782718
 20
4.2084834267
 30
0.0
 10
5.9634881041
 20
4.2272756317
 30
0.0
 10
5.9687694083
 20
4.2463498166
 30
0.0
 10
5.9731070426
 20
4.2656606959
 30
0.0
 10
5.9764932643
 20
4.2851610959
 30
0.0
 10
5.9789203
 20
4.3048041364
 30
0.0
 10
5.9803793518
 20
4.3245428209
 30
0.0
 10
5.9808680212
 20
4.3443293506
 30
0.0
 10
5.9803870317
 20
4.3641160721
 30
0.0
 10
5.9789357825
 20
4.3838553487
 30
0.0
 10
5.976516178
 20
4.4034993295
 30
0.0
 10
5.9731370077
 20
4.4230009602
 30
0.0
 10
5.9688061771
 20
4.4423133403
 30
0.0
 10
5.9635312718
 20
4.461389237
 30
0.0
 10
5.9573270897
 20
4.4801832342
 30
0.0
 10
5.9502095242
 20
4.4986506771
 30
0.0
 10
5.9421933013
 20
4.5167463133
 30
0.0
 10
5.933297948
 20
4.5344265507
 30
0.0
 10
5.9235469042
 20
4.5516498436
 30
0.0
 10
5.9129624109
 20
4.5683740832
 30
0.0
 10
5.9015682486
 20
4.5845576621
 30
0.0
 10
5.8893943494
 20
4.6001631595
 30
0.0
 10
5.8764700393
 20
4.6151530887
 30
0.0
 10
5.8628242632
 20
4.6294892506
 30
0.0
 10
5.8484912723
 20
4.6431381668
 30
0.0
 10
5.8335067999
 20
4.656068047
 30
0.0
 10
5.8179050424
 20
4.6682464449
 30
0.0
 10
5.7963349153
 20
4.683438678
 30
0.0
 10
5.7680128467
 20
4.7004186705
 30
0.0
 10
5.7381590579
 20
4.7145328491
 30
0.0
 10
5.7135434174
 20
4.724027194
 30
0.0
 10
5.6947505044
 20
4.730233056
 30
0.0
 10
5.6756755927
 20
4.7355079676
 30
0.0
 10
5.6563629566
 20
4.7398411005
 30
0.0
 10
5.6368567247
 20
4.7432198067
 30
0.0
 10
5.6106716793
 20
4.7464385537
 30
0.0
 10
5.5908743482
 20
4.7474062724
 30
0.0
 10
5.5776924799
 20
4.7474005853
 30
0.0
 11
5.577698066
 21
3.9410127686
 31
0.0
 11
5.6171939973
 21
3.9430039604
 31
0.0
 11
5.636834392
 21
3.9454474895
 31
0.0
 11
5.6563290078
 21
3.9488507813
 31
0.0
 11
5.6756291078
 21
3.9532052428
 31
0.0
 11
5.6946906426
 21
3.95849922
 31
0.0
 11
5.7134696593
 21
3.9647209818
 31
0.0
 11
5.7319221296
 21
3.9718565427
 31
0.0
 11
5.7500038668
 21
3.9798871758
 31
0.0
 11
5.7676706639
 21
3.9887935552
 31
0.0
 11
5.7848787379
 21
3.9985557407
 31
0.0
 11
5.8015872916
 21
4.0091494599
 31
0.0
 11
5.817756812
 21
4.0205485779
 31
0.0
 11
5.8333478622
 21
4.032726853
 31
0.0
 11
5.8483230261
 21
4.045655226
 31
0.0
 11
5.8626471452
 21
4.0593014893
 31
0.0
 11
5.8762851815
 21
4.073633268
 31
0.0
 11
5.889203415
 21
4.088617015
 31
0.0
 11
5.9013719728
 21
4.1042157618
 31
0.0
 11
5.9127616799
 21
4.1203919191
 31
0.0
 11
5.9233438399
 21
4.1371075728
 31
0.0
 11
5.9330937459
 21
4.1543221014
 31
0.0
 11
5.9419886734
 21
4.1719935385
 31
0.0
 11
5.9500059961
 21
4.190079873
 31
0.0
 11
5.9571261322
 21
4.2085378366
 31
0.0
 11
5.9633333342
 21
4.2273225774
 31
0.0
 11
5.9686120995
 21
4.2463891427
 31
0.0
 11
5.9729484472
 21
4.2656921503
 31
0.0
 11
5.9763333908
 21
4.2851848099
 31
0.0
 11
5.978758966
 21
4.3048200426
 31
0.0
 11
5.9802176183
 21
4.3245507347
 31
0.0
 11
5.980706411
 21
4.3443293789
 31
0.0
 11
5.9802253189
 21
4.3641082198
 31
0.0
 11
5.9787743866
 21
4.3838395
 31
0.0
 11
5.9763562404
 21
4.403475669
 31
0.0
 11
5.972978368
 21
4.4229695662
 31
0.0
 11
5.9686487947
 21
4.4422740739
 31
0.0
 11
5.9633763743
 21
4.4613423144
 31
0.0
 11
5.9571748531
 21
4.4801288261
 31
0.0
 11
5.9500597667
 21
4.4985886653
 31
0.0
 11
5.9420468352
 21
4.5166769628
 31
0.0
 11
5.9331553775
 21
4.5343503091
 31
0.0
 11
5.9234080159
 21
4.5515666345
 31
0.0
 11
5.9128275001
 21
4.5682839222
 31
0.0
 11
5.9014383186
 21
4.5844612794
 31
0.0
 11
5.889269258
 21
4.6000605923
 31
0.0
 11
5.8763497576
 21
4.6150441688
 31
0.0
 11
5.8627097042
 21
4.6293747328
 31
0.0
 11
5.8483826247
 21
4.643018388
 31
0.0
 11
5.8334038177
 21
4.6559428833
 31
0.0
 11
5.817808641
 21
4.6681160448
 31
0.0
 11
5.8016343106
 21
4.6795082859
 31
0.0
 11
5.7677068826
 21
4.6998453451
 31
0.0
 11
5.7319465201
 21
4.7167556825
 31
0.0
 11
5.7134880933
 21
4.7238747458
 31
0.0
 11
5.6947034994
 21
4.7300779041
 31
0.0
 11
5.6756369679
 21
4.7353507613
 31
0.0
 11
5.6563325645
 21
4.739681658
 31
0.0
 11
5.6368344218
 21
4.7430590205
 31
0.0
 11
5.6171911352
 21
4.7454740899
 31
0.0
 11
5.5776924799
 21
4.7474005853
 31
0.0
  0
LINE
  5
24A
100
AcDbEntity
  8
0
100
AcDbLine
 62
6
  6
CONTINUOUS
 10
5.5776924799
 20
4.7474005853
 11
5.5775131454
 21
4.7474004678
  0
LINE
  5
24B
100
AcDbEntity
  8
0
100
AcDbLine
 62
6
  6
CONTINUOUS
 10
5.5775131454
 20
3.9432358058
 11
5.5776980766
 21
3.9432360116
  0
SPLINE
  5
24C
100
AcDbEntity
  8
0
100
AcDbSpline
 62
6
  6
CONTINUOUS
 70
0
 71
3
 72
67
 73
63
 74
61
 42
0.0000001
 43
0.0000001
 44
0.0000000001
 12
1.2591461349
 22
0.0016921312
 32
0.0
 13
-1.2591471541
 23
-0.0005447079
 33
0.0
 40
0.0
 40
0.0
 40
0.0
 40
0.0
 40
0.0312338016
 40
0.0468655258
 40
0.0624953854
 40
0.0781219076
 40
0.0937466936
 40
0.1093713456
 40
0.1249969543
 40
0.1406231736
 40
0.1562493866
 40
0.1718751937
 40
0.1875006864
 40
0.2031259455
 40
0.2187510779
 40
0.234376286
 40
0.250001566
 40
0.2656268635
 40
0.2812522867
 40
0.296877857
 40
0.3125034548
 40
0.3281290766
 40
0.3437547732
 40
0.3593803965
 40
0.3750058205
 40
0.3906311628
 40
0.4062565091
 40
0.4218818779
 40
0.4375074229
 40
0.4531331745
 40
0.4687589885
 40
0.4843848196
 40
0.5000107331
 40
0.5156366051
 40
0.5312623017
 40
0.546887896
 40
0.5625134088
 40
0.5781387551
 40
0.593764002
 40
0.6093893111
 40
0.6250146989
 40
0.6406402444
 40
0.656266077
 40
0.6718920769
 40
0.68751809
 40
0.7031441545
 40
0.7187702586
 40
0.7343962545
 40
0.7500221159
 40
0.765647917
 40
0.7812735479
 40
0.7968989116
 40
0.8125241627
 40
0.8437654485
 40
0.8750073731
 40
0.8906323871
 40
0.9062563587
 40
0.9218803083
 40
0.9375059707
 40
0.9531350992
 40
0.9687664336
 40
1.0
 40
1.0
 40
1.0
 40
1.0
 10
5.5776980766
 20
3.9432360116
 30
0.0
 10
5.5908073835
 20
3.9432536288
 30
0.0
 10
5.6104940525
 20
3.9442483584
 30
0.0
 10
5.6365306325
 20
3.9474872199
 30
0.0
 10
5.6559256049
 20
3.9508731188
 30
0.0
 10
5.6751272977
 20
3.9552058877
 30
0.0
 10
5.6940919931
 20
3.9604728546
 30
0.0
 10
5.7127753748
 20
3.9666628241
 30
0.0
 10
5.7311330749
 20
3.9737623257
 30
0.0
 10
5.7491219867
 20
3.9817517711
 30
0.0
 10
5.7666984587
 20
3.9906120793
 30
0.0
 10
5.7838183652
 20
4.0003246939
 30
0.0
 10
5.8004412841
 20
4.0108644754
 30
0.0
 10
5.8165282496
 20
4.0222049924
 30
0.0
 10
5.8320395122
 20
4.0343208982
 30
0.0
 10
5.8469376082
 20
4.0471832596
 30
0.0
 10
5.8611883713
 20
4.0607593889
 30
0.0
 10
5.874756868
 20
4.075017612
 30
0.0
 10
5.8876087343
 20
4.0899251626
 30
0.0
 10
5.8997151528
 20
4.1054442909
 30
0.0
 10
5.911047225
 20
4.1215376981
 30
0.0
 10
5.9215752199
 20
4.1381683243
 30
0.0
 10
5.9312750679
 20
4.1552951449
 30
0.0
 10
5.9401248334
 20
4.1728762062
 30
0.0
 10
5.9481013605
 20
4.1908701726
 30
0.0
 10
5.9551846295
 20
4.2092339836
 30
0.0
 10
5.9613601034
 20
4.2279225826
 30
0.0
 10
5.966612253
 20
4.2468915156
 30
0.0
 10
5.9709259275
 20
4.2660957945
 30
0.0
 10
5.9742933614
 20
4.2854885248
 30
0.0
 10
5.9767069378
 20
4.3050230675
 30
0.0
 10
5.9781579634
 20
4.3246526853
 30
0.0
 10
5.9786438948
 20
4.344329844
 30
0.0
 10
5.978165544
 20
4.3640071273
 30
0.0
 10
5.9767223747
 20
4.3836371579
 30
0.0
 10
5.9743162604
 20
4.4031723785
 30
0.0
 10
5.9709558791
 20
4.4225660561
 30
0.0
 10
5.9666490266
 20
4.4417716283
 30
0.0
 10
5.9614032846
 20
4.4607421879
 30
0.0
 10
5.9552334413
 20
4.4794326079
 30
0.0
 10
5.9481551859
 20
4.4977984173
 30
0.0
 10
5.9401830826
 20
4.5157945305
 30
0.0
 10
5.9313366708
 20
4.533377597
 30
0.0
 10
5.9216392671
 20
4.5505062497
 30
0.0
 10
5.9111130257
 20
4.5671385804
 30
0.0
 10
5.8997815351
 20
4.5832331398
 30
0.0
 10
5.8876745975
 20
4.5987527232
 30
0.0
 10
5.8748214396
 20
4.6136601079
 30
0.0
 10
5.8612508505
 20
4.6279173268
 30
0.0
 10
5.8469967726
 20
4.6414909728
 30
0.0
 10
5.8320948358
 20
4.6543495164
 30
0.0
 10
5.8165791285
 20
4.66646079
 30
0.0
 10
5.7951279792
 20
4.68156907
 30
0.0
 10
5.7669623931
 20
4.6984551622
 30
0.0
 10
5.7372736948
 20
4.7124913025
 30
0.0
 10
5.7127942354
 20
4.7219330222
 30
0.0
 10
5.6941052801
 20
4.7281045607
 30
0.0
 10
5.6751358058
 20
4.7333503409
 30
0.0
 10
5.6559298004
 20
4.7376595688
 30
0.0
 10
5.6365311394
 20
4.7410196077
 30
0.0
 10
5.6104904129
 20
4.744220605
 30
0.0
 10
5.5908021794
 20
4.745183015
 30
0.0
 10
5.5776929606
 20
4.7451773439
 30
0.0
 11
5.5776980766
 21
3.9432360116
 31
0.0
 11
5.6169761344
 21
3.9452164922
 31
0.0
 11
5.636508177
 21
3.9476466658
 31
0.0
 11
5.6558952414
 21
3.9510313002
 31
0.0
 11
5.6750888595
 21
3.9553618487
 31
0.0
 11
5.6940452238
 21
3.9606267189
 31
0.0
 11
5.7127206226
 21
3.9668142421
 31
0.0
 11
5.7310712719
 21
3.9739105111
 31
0.0
 11
5.7490532359
 21
3.9818969117
 31
0.0
 11
5.7666225592
 21
3.9907542352
 31
0.0
 11
5.7837357045
 21
4.0004626571
 31
0.0
 11
5.8003520795
 21
4.0109980118
 31
0.0
 11
5.8164323581
 21
4.022334267
 31
0.0
 11
5.8319372923
 21
4.0344452861
 31
0.0
 11
5.8468296884
 21
4.047302193
 31
0.0
 11
5.8610746445
 21
4.0608730553
 31
0.0
 11
5.8746373807
 21
4.075125779
 31
0.0
 11
5.8874844404
 21
4.0900270283
 31
0.0
 11
5.8995860798
 21
4.1055399837
 31
0.0
 11
5.9109132017
 21
4.1216272189
 31
0.0
 11
5.9214371782
 21
4.138250995
 31
0.0
 11
5.9311334081
 21
4.1553708913
 31
0.0
 11
5.93997934
 21
4.1729451218
 31
0.0
 11
5.947952505
 21
4.1909318627
 31
0.0
 11
5.9550333313
 21
4.209288117
 31
0.0
 11
5.9612062094
 21
4.2279692822
 31
0.0
 11
5.9664558159
 21
4.2469306406
 31
0.0
 11
5.9707681975
 21
4.2661270875
 31
0.0
 11
5.974134378
 21
4.2855121146
 31
0.0
 11
5.9765465109
 21
4.305038895
 31
0.0
 11
5.9779971124
 21
4.3246605702
 31
0.0
 11
5.9784831807
 21
4.3443298916
 31
0.0
 11
5.9780047361
 21
4.3639993477
 31
0.0
 11
5.9765618774
 21
4.383621424
 31
0.0
 11
5.9741572072
 21
4.403148846
 31
0.0
 11
5.9707981155
 21
4.4225347975
 31
0.0
 11
5.9664925318
 21
4.441732514
 31
0.0
 11
5.9612492764
 21
4.4606954703
 31
0.0
 11
5.9550820576
 21
4.4793784554
 31
0.0
 11
5.9480062509
 21
4.4977367064
 31
0.0
 11
5.9400374343
 21
4.5157255417
 31
0.0
 11
5.9311948869
 21
4.5333017703
 31
0.0
 11
5.9215011385
 21
4.5504235106
 31
0.0
 11
5.9109788335
 21
4.5670489279
 31
0.0
 11
5.8996523029
 21
4.5831372979
 31
0.0
 11
5.8875501894
 21
4.598650736
 31
0.0
 11
5.8747018156
 21
4.6135518046
 31
0.0
 11
5.8611368997
 21
4.6278034339
 31
0.0
 11
5.8468887172
 21
4.6413718602
 31
0.0
 11
5.8319924243
 21
4.6542250671
 31
0.0
 11
5.81648323
 21
4.6663311034
 31
0.0
 11
5.8003980891
 21
4.677660441
 31
0.0
 11
5.7666580066
 21
4.6978850864
 31
0.0
 11
5.731095518
 21
4.7147018084
 31
0.0
 11
5.7127392396
 21
4.7217814229
 31
0.0
 11
5.6940585629
 21
4.7279502617
 31
0.0
 11
5.6750974328
 21
4.7331939925
 31
0.0
 11
5.6558996251
 21
4.7375009873
 31
0.0
 11
5.6365089888
 21
4.740859708
 31
0.0
 11
5.616973926
 21
4.7432614636
 31
0.0
 11
5.5776929606
 21
4.7451773439
 31
0.0
  0
LINE
  5
24D
100
AcDbEntity
  8
0
100
AcDbLine
 62
6
  6
CONTINUOUS
 10
5.5776929606
 20
4.7451773439
 11
5.5775131454
 21
4.7451772256
  0
LINE
  5
24E
100
AcDbEntity
  8
0
100
AcDbLine
 62
6
  6
CONTINUOUS
 10
5.5775131454
 20
3.9454590477
 11
5.5776979156
 21
3.9454592544
  0
SPLINE
  5
24F
100
AcDbEntity
  8
0
100
AcDbSpline
 62
6
  6
CONTINUOUS
 70
0
 71
3
 72
69
 73
65
 74
63
 42
0.0000001
 43
0.0000001
 44
0.0000000001
 12
1.2521858958
 22
0.0016916346
 32
0.0
 13
-1.2521869205
 23
-0.0005433522
 33
0.0
 40
0.0
 40
0.0
 40
0.0
 40
0.0
 40
0.0312331809
 40
0.0468645673
 40
0.0624940761
 40
0.078120255
 40
0.0937447103
 40
0.1093690482
 40
0.1249943493
 40
0.1406202489
 40
0.1562461146
 40
0.1718715421
 40
0.1874966663
 40
0.2031216324
 40
0.2187466141
 40
0.234371824
 40
0.2499972078
 40
0.2656226595
 40
0.2812482459
 40
0.2968739655
 40
0.3124996658
 40
0.3281253033
 40
0.3437509371
 40
0.3593764368
 40
0.3750016715
 40
0.3906267495
 40
0.4062517731
 40
0.4218767597
 40
0.4375018529
 40
0.453127092
 40
0.4687523204
 40
0.4843774634
 40
0.5000026127
 40
0.5156277127
 40
0.531252688
 40
0.5468776452
 40
0.562502609
 40
0.5781274977
 40
0.5937523787
 40
0.6093773825
 40
0.6250024867
 40
0.640627736
 40
0.6562532474
 40
0.6718789096
 40
0.6875045816
 40
0.7031303117
 40
0.7187560861
 40
0.7343817581
 40
0.7500073057
 40
0.7656327917
 40
0.7812580903
 40
0.7968830939
 40
0.8125079581
 40
0.8281328408
 40
0.843757846
 40
0.8593831304
 40
0.8750084078
 40
0.8906331337
 40
0.9062569731
 40
0.9218809482
 40
0.9375066815
 40
0.9531358128
 40
0.9687669936
 40
1.0
 40
1.0
 40
1.0
 40
1.0
 10
5.5776979156
 20
3.9454592544
 30
0.0
 10
5.5907344984
 20
3.9454768661
 30
0.0
 10
5.6103119372
 20
3.9464661981
 30
0.0
 10
5.6362040331
 20
3.9496872377
 30
0.0
 10
5.6554913514
 20
3.9530544545
 30
0.0
 10
5.674586466
 20
3.9573632604
 30
0.0
 10
5.6934459122
 20
3.9626010746
 30
0.0
 10
5.7120256122
 20
3.9687567851
 30
0.0
 10
5.7302814452
 20
3.9758169614
 30
0.0
 10
5.7481705303
 20
3.9837621156
 30
0.0
 10
5.7656494364
 20
3.9925732844
 30
0.0
 10
5.7826742971
 20
4.0022320077
 30
0.0
 10
5.7992049661
 20
4.0127132878
 30
0.0
 10
5.8152027226
 20
4.0239909342
 30
0.0
 10
5.8306280499
 20
4.0360398142
 30
0.0
 10
5.8454437511
 20
4.048831095
 30
0.0
 10
5.8596158013
 20
4.0623322708
 30
0.0
 10
5.8731094269
 20
4.0765117963
 30
0.0
 10
5.8858903024
 20
4.091337158
 30
0.0
 10
5.8979297706
 20
4.1067707433
 30
0.0
 10
5.9091991871
 20
4.1227753345
 30
0.0
 10
5.919669002
 20
4.1393140502
 30
0.0
 10
5.9293149753
 20
4.1563462659
 30
0.0
 10
5.9381155225
 20
4.1738301139
 30
0.0
 10
5.9460478857
 20
4.1917243817
 30
0.0
 10
5.9530917041
 20
4.2099864541
 30
0.0
 10
5.9592326425
 20
4.2285714511
 30
0.0
 10
5.9644555578
 20
4.2474350805
 30
0.0
 10
5.9687452131
 20
4.2665326686
 30
0.0
 10
5.9720936795
 20
4.2858176073
 30
0.0
 10
5.9744936645
 20
4.3052434432
 30
0.0
 10
5.9759366883
 20
4.3247636984
 30
0.0
 10
5.9764198313
 20
4.344331163
 30
0.0
 10
5.975944053
 20
4.3638987296
 30
0.0
 10
5.9745089193
 20
4.3834193615
 30
0.0
 10
5.9721162503
 20
4.4028458114
 30
0.0
 10
5.9687746142
 20
4.422131619
 30
0.0
 10
5.9644917314
 20
4.4412304773
 30
0.0
 10
5.9592751491
 20
4.460095728
 30
0.0
 10
5.9531396181
 20
4.4786824801
 30
0.0
 10
5.9461007043
 20
4.4969464556
 30
0.0
 10
5.9381728678
 20
4.5148427677
 30
0.0
 10
5.9293756158
 20
4.5323283229
 30
0.0
 10
5.9197321006
 20
4.5493619746
 30
0.0
 10
5.9092643036
 20
4.5659020292
 30
0.0
 10
5.8979957531
 20
4.5819073207
 30
0.0
 10
5.8859560771
 20
4.5973408566
 30
0.0
 10
5.8731742915
 20
4.6121655816
 30
0.0
 10
5.8596790101
 20
4.6263437288
 30
0.0
 10
5.8455041102
 20
4.6398421281
 30
0.0
 10
5.8306848501
 20
4.6526294455
 30
0.0
 10
5.8152555922
 20
4.6646733385
 30
0.0
 10
5.7992530839
 20
4.6759440681
 30
0.0
 10
5.7827172401
 20
4.6864166267
 30
0.0
 10
5.7656871709
 20
4.6960651596
 30
0.0
 10
5.7482028302
 20
4.704864109
 30
0.0
 10
5.7303080877
 20
4.7127947638
 30
0.0
 10
5.7120465973
 20
4.7198384073
 30
0.0
 10
5.6934614197
 20
4.7259755987
 30
0.0
 10
5.6745967484
 20
4.7311924743
 30
0.0
 10
5.6554969076
 20
4.7354779545
 30
0.0
 10
5.6362055078
 20
4.7388194432
 30
0.0
 10
5.6103090242
 20
4.7420027132
 30
0.0
 10
5.5907299173
 20
4.7429597609
 30
0.0
 10
5.5776933965
 20
4.7429541041
 30
0.0
 11
5.5776979156
 21
3.9454592544
 31
0.0
 11
5.6167580658
 21
3.9474289983
 31
0.0
 11
5.6361817067
 21
3.9498457989
 31
0.0
 11
5.6554611534
 21
3.9532117529
 31
0.0
 11
5.674548236
 21
3.9575183531
 31
0.0
 11
5.6933993945
 21
3.962754085
 31
0.0
 11
5.7119711617
 21
3.9689073586
 31
0.0
 11
5.730219991
 21
3.9759643228
 31
0.0
 11
5.7481021712
 21
3.9839064553
 31
0.0
 11
5.7655739708
 21
3.9927146557
 31
0.0
 11
5.7825920942
 21
4.0023691975
 31
0.0
 11
5.7991162283
 21
4.012846069
 31
0.0
 11
5.8151073081
 21
4.0241194652
 31
0.0
 11
5.8305263496
 21
4.0361634685
 31
0.0
 11
5.8453363978
 21
4.0489493403
 31
0.0
 11
5.8595026919
 21
4.0624452905
 31
0.0
 11
5.8729905818
 21
4.0766193766
 31
0.0
 11
5.8857666881
 21
4.0914384724
 31
0.0
 11
5.897801431
 21
4.1068659147
 31
0.0
 11
5.909065938
 21
4.122864382
 31
0.0
 11
5.9195317029
 21
4.1393963135
 31
0.0
 11
5.9291741102
 21
4.1564216122
 31
0.0
 11
5.937970889
 21
4.1738986522
 31
0.0
 11
5.945899833
 21
4.1917857734
 31
0.0
 11
5.9529412377
 21
4.2100403124
 31
0.0
 11
5.9590796431
 21
4.2286179035
 31
0.0
 11
5.9643000003
 21
4.2474740158
 31
0.0
 11
5.9685883329
 21
4.2665638175
 31
0.0
 11
5.971935599
 21
4.2858410913
 31
0.0
 11
5.9743341751
 21
4.3052592214
 31
0.0
 11
5.9757767085
 21
4.3247715729
 31
0.0
 11
5.9762600109
 21
4.3443312123
 31
0.0
 11
5.9757841573
 21
4.3638909725
 31
0.0
 11
5.9743493287
 21
4.3834036815
 31
0.0
 11
5.9719580885
 21
4.4028223742
 31
0.0
 11
5.9686177326
 21
4.4221004967
 31
0.0
 11
5.964336115
 21
4.4411915432
 31
0.0
 11
5.9591220104
 21
4.4600492482
 31
0.0
 11
5.9529890771
 21
4.4786286204
 31
0.0
 11
5.9459525875
 21
4.4968850898
 31
0.0
 11
5.9380280286
 21
4.5147741742
 31
0.0
 11
5.9292346151
 21
4.5322529239
 31
0.0
 11
5.9195947301
 21
4.5492796918
 31
0.0
 11
5.9091308625
 21
4.5658128754
 31
0.0
 11
5.897867243
 21
4.5818120131
 31
0.0
 11
5.8858323568
 21
4.5972394308
 31
0.0
 11
5.8730553272
 21
4.6120578721
 31
0.0
 11
5.8595657038
 21
4.626230474
 31
0.0
 11
5.8453966306
 21
4.6397236921
 31
0.0
 11
5.8305830552
 21
4.6525056471
 31
0.0
 11
5.8151599808
 21
4.6645445303
 31
0.0
 11
5.7991642014
 21
4.6758110356
 31
0.0
 11
5.7826349384
 21
4.6862792482
 31
0.0
 11
5.7656115859
 21
4.6959234943
 31
0.0
 11
5.7481344091
 21
4.7047194015
 31
0.0
 11
5.7302466568
 21
4.7126470537
 31
0.0
 11
5.7119922161
 21
4.7196874882
 31
0.0
 11
5.69341496
 21
4.7258221803
 31
0.0
 11
5.674558624
 21
4.7310369795
 31
0.0
 11
5.6554668642
 21
4.735320249
 31
0.0
 11
5.6361834158
 21
4.7386604332
 31
0.0
 11
5.6167565288
 21
4.7410488909
 31
0.0
 11
5.5776933965
 21
4.7429541041
 31
0.0
  0
LINE
  5
250
100
AcDbEntity
  8
0
100
AcDbLine
 62
6
  6
CONTINUOUS
 10
5.5776933965
 20
4.7429541041
 11
5.5775131454
 21
4.7429539849
  0
LINE
  5
251
100
AcDbEntity
  8
0
100
AcDbLine
 62
6
  6
CONTINUOUS
 10
5.5775131454
 20
3.9476822873
 11
5.5776972179
 21
3.9476824942
  0
SPLINE
  5
252
100
AcDbEntity
  8
0
100
AcDbSpline
 62
6
  6
CONTINUOUS
 70
0
 71
3
 72
69
 73
65
 74
63
 42
0.0000001
 43
0.0000001
 44
0.0000000001
 12
1.245202277
 22
0.0016894087
 32
0.0
 13
-1.2452033054
 23
-0.000541319
 33
0.0
 40
0.0
 40
0.0
 40
0.0
 40
0.0
 40
0.0312330782
 40
0.0468642699
 40
0.0624934581
 40
0.0781192588
 40
0.0937432945
 40
0.1093671822
 40
0.1249919595
 40
0.1406172871
 40
0.1562426107
 40
0.1718676316
 40
0.1874925053
 40
0.2031173488
 40
0.2187423355
 40
0.2343676272
 40
0.2499931111
 40
0.2656186569
 40
0.2812443247
 40
0.2968700928
 40
0.3124958168
 40
0.3281214843
 40
0.3437471435
 40
0.3593726516
 40
0.3749978961
 40
0.3906229926
 40
0.4062479918
 40
0.4218728795
 40
0.4374977893
 40
0.4531227742
 40
0.4687477325
 40
0.4843726715
 40
0.4999977048
 40
0.515622777
 40
0.5312478526
 40
0.5468730331
 40
0.5624982382
 40
0.5781233069
 40
0.5937482739
 40
0.6093732798
 40
0.6249983436
 40
0.6406235729
 40
0.6562490775
 40
0.6718747229
 40
0.6875003789
 40
0.7031261061
 40
0.7187518624
 40
0.7343774997
 40
0.7500030212
 40
0.765628481
 40
0.7812537545
 40
0.7968787714
 40
0.8125037386
 40
0.8281288391
 40
0.8437542309
 40
0.8593800685
 40
0.8750059489
 40
0.8906312363
 40
0.9062555576
 40
0.9218799733
 40
0.9375060937
 40
0.9531355409
 40
0.968766905
 40
1.0
 40
1.0
 40
1.0
 40
1.0
 10
5.5776972179
 20
3.9476824942
 30
0.0
 10
5.5906610512
 20
3.9477000827
 30
0.0
 10
5.6101291751
 20
3.9486839668
 30
0.0
 10
5.6358766011
 20
3.9518871095
 30
0.0
 10
5.655055969
 20
3.9552355772
 30
0.0
 10
5.6740441299
 20
3.9595202638
 30
0.0
 10
5.6927979019
 20
3.9647287064
 30
0.0
 10
5.7112734197
 20
3.9708499344
 30
0.0
 10
5.7294268995
 20
3.9778703364
 30
0.0
 10
5.7472156974
 20
3.9857706723
 30
0.0
 10
5.7645965841
 20
3.9945323712
 30
0.0
 10
5.7815260584
 20
4.0041369787
 30
0.0
 10
5.7979644619
 20
4.0145593033
 30
0.0
 10
5.8138730673
 20
4.0257736985
 30
0.0
 10
5.8292123324
 20
4.0377553981
 30
0.0
 10
5.8439456965
 20
4.0504751101
 30
0.0
 10
5.8580390926
 20
4.0639007567
 30
0.0
 10
5.8714575841
 20
4.078001247
 30
0.0
 10
5.8841673982
 20
4.0927438528
 30
0.0
 10
5.8961400952
 20
4.1080911507
 30
0.0
 10
5.9073469044
 20
4.1240063692
 30
0.0
 10
5.9177583634
 20
4.1404528604
 30
0.0
 10
5.9273509096
 20
4.1573898997
 30
0.0
 10
5.9361027421
 20
4.17477608
 30
0.0
 10
5.9439908887
 20
4.1925705567
 30
0.0
 10
5.9509957019
 20
4.2107306668
 30
0.0
 10
5.9571027883
 20
4.2292118383
 30
0.0
 10
5.9622967112
 20
4.2479700959
 30
0.0
 10
5.9665626054
 20
4.266960905
 30
0.0
 10
5.9698928329
 20
4.2861379129
 30
0.0
 10
5.9722797397
 20
4.3054550723
 30
0.0
 10
5.973714737
 20
4.3248662111
 30
0.0
 10
5.9741957148
 20
4.3443243804
 30
0.0
 10
5.9737231264
 20
4.3637828184
 30
0.0
 10
5.9722960174
 20
4.383194708
 30
0.0
 10
5.9699170142
 20
4.4025130827
 30
0.0
 10
5.9665944993
 20
4.421691688
 30
0.0
 10
5.9623357179
 20
4.4406842982
 30
0.0
 10
5.9571483888
 20
4.4594444913
 30
0.0
 10
5.9510475335
 20
4.4779277514
 30
0.0
 10
5.9440482134
 20
4.496089977
 30
0.0
 10
5.9361646326
 20
4.5138864654
 30
0.0
 10
5.9274168642
 20
4.5312746848
 30
0.0
 10
5.9178275627
 20
4.5482135692
 30
0.0
 10
5.9074182116
 20
4.5646614043
 30
0.0
 10
5.8962127764
 20
4.5805775954
 30
0.0
 10
5.8842406576
 20
4.5959253476
 30
0.0
 10
5.871530391
 20
4.6106675586
 30
0.0
 10
5.8581104589
 20
4.6247666592
 30
0.0
 10
5.8440149811
 20
4.6381901067
 30
0.0
 10
5.8292786661
 20
4.6509064369
 30
0.0
 10
5.8139354521
 20
4.6628832126
 30
0.0
 10
5.7980223103
 20
4.674091482
 30
0.0
 10
5.7815786794
 20
4.6845061759
 30
0.0
 10
5.7646432
 20
4.6941011938
 30
0.0
 10
5.7472558509
 20
4.7028514518
 30
0.0
 10
5.7294603948
 20
4.71073847
 30
0.0
 10
5.711300206
 20
4.7177433264
 30
0.0
 10
5.6928181089
 20
4.7238465287
 30
0.0
 10
5.6740581517
 20
4.7290345495
 30
0.0
 10
5.655064383
 20
4.7332962978
 30
0.0
 10
5.6358802097
 20
4.7366192072
 30
0.0
 10
5.610127915
 20
4.7397847715
 30
0.0
 10
5.5906578899
 20
4.7407365005
 30
0.0
 10
5.5776940388
 20
4.7407308648
 30
0.0
 11
5.5776972179
 21
3.9476824942
 31
0.0
 11
5.6165393877
 21
3.9496414237
 31
0.0
 11
5.6358544499
 21
3.9520447949
 31
0.0
 11
5.6550259656
 21
3.9553919862
 31
0.0
 11
5.6740061326
 21
3.959674486
 31
0.0
 11
5.692751654
 21
3.9648808715
 31
0.0
 11
5.7112193153
 21
3.9709996407
 31
0.0
 11
5.7293658158
 21
3.9780168678
 31
0.0
 11
5.7471476978
 21
3.9859142276
 31
0.0
 11
5.764521487
 21
3.9946729303
 31
0.0
 11
5.7814442944
 21
4.0042733131
 31
0.0
 11
5.7978761748
 21
4.0146913229
 31
0.0
 11
5.8137781066
 21
4.0259015294
 31
0.0
 11
5.8291112168
 21
4.0378782916
 31
0.0
 11
5.8438389472
 21
4.0505926866
 31
0.0
 11
5.8579265718
 21
4.0640131941
 31
0.0
 11
5.8713394241
 21
4.0781082141
 31
0.0
 11
5.8840445109
 21
4.0928445933
 31
0.0
 11
5.896012458
 21
4.108185819
 31
0.0
 11
5.9072143633
 21
4.1240949403
 31
0.0
 11
5.9176218873
 21
4.1405346343
 31
0.0
 11
5.9272108336
 21
4.1574648379
 31
0.0
 11
5.9359588579
 21
4.1748442635
 31
0.0
 11
5.9438437037
 21
4.1926315848
 31
0.0
 11
5.9508461027
 21
4.2107842383
 31
0.0
 11
5.9569506118
 21
4.229258076
 31
0.0
 11
5.962142038
 21
4.2480088465
 31
0.0
 11
5.9664066539
 21
4.2669919029
 31
0.0
 11
5.969735614
 21
4.2861612804
 31
0.0
 11
5.9721210888
 21
4.3054707402
 31
0.0
 11
5.9735557316
 21
4.3248740025
 31
0.0
 11
5.974036787
 21
4.3443243996
 31
0.0
 11
5.9735640403
 21
4.3637750488
 31
0.0
 11
5.9721373735
 21
4.3831790698
 31
0.0
 11
5.9697597632
 21
4.4024897781
 31
0.0
 11
5.9664384407
 21
4.4216607588
 31
0.0
 11
5.9621809466
 21
4.4406456165
 31
0.0
 11
5.9569961393
 21
4.4593983207
 31
0.0
 11
5.9508978038
 21
4.477874206
 31
0.0
 11
5.9439008764
 21
4.4960289256
 31
0.0
 11
5.9360206673
 21
4.5138182809
 31
0.0
 11
5.9272766498
 21
4.5311997178
 31
0.0
 11
5.9176908979
 21
4.5481317107
 31
0.0
 11
5.9072855517
 21
4.564572766
 31
0.0
 11
5.896085002
 21
4.5804828468
 31
0.0
 11
5.8841175924
 21
4.5958244731
 31
0.0
 11
5.8714120674
 21
4.6105604245
 31
0.0
 11
5.857997832
 21
4.6246540862
 31
0.0
 11
5.8439080915
 21
4.638072329
 31
0.0
 11
5.8291774078
 21
4.6507832672
 31
0.0
 11
5.8138404383
 21
4.6627551482
 31
0.0
 11
5.7979339633
 21
4.6739591748
 31
0.0
 11
5.7814968603
 21
4.6843694705
 31
0.0
 11
5.7645680989
 21
4.6939602875
 31
0.0
 11
5.7471878419
 21
4.7027075724
 31
0.0
 11
5.7293992811
 21
4.7105915757
 31
0.0
 11
5.711246082
 21
4.717593221
 31
0.0
 11
5.6927718929
 21
4.7236939747
 31
0.0
 11
5.6740202149
 21
4.7288799181
 31
0.0
 11
5.655034475
 21
4.7331394623
 31
0.0
 11
5.6358581868
 21
4.7364610929
 31
0.0
 11
5.6165394206
 21
4.7388362663
 31
0.0
 11
5.5776940388
 21
4.7407308648
 31
0.0
  0
LINE
  5
253
100
AcDbEntity
  8
0
100
AcDbLine
 62
6
  6
CONTINUOUS
 10
5.5776940388
 20
4.7407308648
 11
5.5775131454
 21
4.7407307447
  0
LINE
  5
254
100
AcDbEntity
  8
0
100
AcDbLine
 62
6
  6
CONTINUOUS
 10
5.5775131454
 20
3.9499055289
 11
5.5776968512
 21
3.9499057365
  0
SPLINE
  5
255
100
AcDbEntity
  8
0
100
AcDbSpline
 62
6
  6
CONTINUOUS
 70
0
 71
3
 72
67
 73
63
 74
61
 42
0.0000001
 43
0.0000001
 44
0.0000000001
 12
1.2381954912
 22
0.0016882157
 32
0.0
 13
-1.2381965241
 23
-0.0005405579
 33
0.0
 40
0.0
 40
0.0
 40
0.0
 40
0.0
 40
0.0312336488
 40
0.0468650133
 40
0.06249423
 40
0.0781199866
 40
0.0937440002
 40
0.1093679811
 40
0.1249929685
 40
0.1562348677
 40
0.187476195
 40
0.2031014583
 40
0.2187268325
 40
0.2343524726
 40
0.2499782813
 40
0.2656041509
 40
0.2812301565
 40
0.2968562695
 40
0.3124823415
 40
0.3281083603
 40
0.3437343675
 40
0.3593602131
 40
0.3749857818
 40
0.3906111947
 40
0.4062365154
 40
0.4218617452
 40
0.4374870377
 40
0.4531124739
 40
0.4687379857
 40
0.4843636101
 40
0.4999894242
 40
0.5156152905
 40
0.5312410843
 40
0.5468668695
 40
0.562492599
 40
0.5781181296
 40
0.5937434926
 40
0.6093688376
 40
0.6249941814
 40
0.640619612
 40
0.6562452513
 40
0.6718709748
 40
0.6874966392
 40
0.7031222953
 40
0.7187479246
 40
0.7343733932
 40
0.7499987125
 40
0.7656239933
 40
0.7812491895
 40
0.796874308
 40
0.8124995535
 40
0.8281250295
 40
0.8437508179
 40
0.8593770188
 40
0.8750032316
 40
0.8906288367
 40
0.9062534827
 40
0.9218782443
 40
0.9375047273
 40
0.953134548
 40
0.9687662683
 40
1.0
 40
1.0
 40
1.0
 40
1.0
 10
5.5776968512
 20
3.9499057365
 30
0.0
 10
5.5905879723
 20
3.9499233129
 30
0.0
 10
5.6099468475
 20
3.9509018037
 30
0.0
 10
5.6355496945
 20
3.9540870876
 30
0.0
 10
5.6546211846
 20
3.9574167933
 30
0.0
 10
5.6735025001
 20
3.9616774024
 30
0.0
 10
5.6921506619
 20
3.966856532
 30
0.0
 10
5.710522615
 20
3.9729435952
 30
0.0
 10
5.7345864737
 20
3.9822495394
 30
0.0
 10
5.7637708604
 20
3.9960734222
 30
0.0
 10
5.7914586455
 20
4.0126934562
 30
0.0
 10
5.812546717
 20
4.0275590871
 30
0.0
 10
5.8278003348
 20
4.0394738525
 30
0.0
 10
5.8424510792
 20
4.0521221869
 30
0.0
 10
5.8564655314
 20
4.0654725432
 30
0.0
 10
5.869808779
 20
4.0794939941
 30
0.0
 10
5.8824473681
 20
4.0941539396
 30
0.0
 10
5.8943530088
 20
4.1094151719
 30
0.0
 10
5.9054970393
 20
4.125241165
 30
0.0
 10
5.9158501468
 20
4.1415954749
 30
0.0
 10
5.9253889763
 20
4.1584375526
 30
0.0
 10
5.9340918009
 20
4.175726248
 30
0.0
 10
5.9419357391
 20
4.1934209576
 30
0.0
 10
5.9489013236
 20
4.2114792333
 30
0.0
 10
5.9549742271
 20
4.2298567773
 30
0.0
 10
5.9601390715
 20
4.2485098895
 30
0.0
 10
5.9643811079
 20
4.2673943015
 30
0.0
 10
5.9676927425
 20
4.2864639561
 30
0.0
 10
5.9700663338
 20
4.305673107
 30
0.0
 10
5.9714932948
 20
4.3249758533
 30
0.0
 10
5.9719715114
 20
4.3443254668
 30
0.0
 10
5.9715015044
 20
4.3636753546
 30
0.0
 10
5.9700824568
 20
4.3829788926
 30
0.0
 10
5.9677166153
 20
4.4021893074
 30
0.0
 10
5.9644124658
 20
4.4212606022
 30
0.0
 10
5.9601774796
 20
4.4401468852
 30
0.0
 10
5.9550191614
 20
4.4588019807
 30
0.0
 10
5.948952262
 20
4.4771815551
 30
0.0
 10
5.9419920518
 20
4.4952418337
 30
0.0
 10
5.9341527859
 20
4.5129384393
 30
0.0
 10
5.9254539724
 20
4.5302288758
 30
0.0
 10
5.9159183946
 20
4.5470724123
 30
0.0
 10
5.9055676417
 20
4.5634277161
 30
0.0
 10
5.8944252541
 20
4.5792542499
 30
0.0
 10
5.88252049
 20
4.594515438
 30
0.0
 10
5.8698818402
 20
4.6091745024
 30
0.0
 10
5.8565376376
 20
4.6231941577
 30
0.0
 10
5.8425216362
 20
4.6365419667
 30
0.0
 10
5.8278682984
 20
4.6491867099
 30
0.0
 10
5.8126113041
 20
4.6610961449
 30
0.0
 10
5.7967874865
 20
4.6722415727
 30
0.0
 10
5.780436068
 20
4.6825979748
 30
0.0
 10
5.7635955009
 20
4.6921392763
 30
0.0
 10
5.7463056064
 20
4.7008405355
 30
0.0
 10
5.7286099224
 20
4.7086833868
 30
0.0
 10
5.7105515532
 20
4.7156489926
 30
0.0
 10
5.6921730662
 20
4.7217179755
 30
0.0
 10
5.6735182654
 20
4.7268769336
 30
0.0
 10
5.6546309409
 20
4.7311148092
 30
0.0
 10
5.6355542692
 20
4.7344190779
 30
0.0
 10
5.6099463207
 20
4.737566876
 30
0.0
 10
5.5905854419
 20
4.7385132513
 30
0.0
 10
5.5776942759
 20
4.7385076234
 30
0.0
 11
5.5776968512
 21
3.9499057365
 31
0.0
 11
5.6163211489
 21
3.951853922
 31
0.0
 11
5.6355277252
 21
3.9542438911
 31
0.0
 11
5.6545913854
 21
3.9575723225
 31
0.0
 11
5.6734646896
 21
3.9618307469
 31
0.0
 11
5.692104692
 21
3.9670078692
 31
0.0
 11
5.7104685237
 21
3.9730923088
 31
0.0
 11
5.7285131635
 21
3.9800701244
 31
0.0
 11
5.7634717448
 21
3.9966327222
 31
0.0
 11
5.7966396296
 21
4.0165389693
 31
0.0
 11
5.8124525308
 21
4.0276863597
 31
0.0
 11
5.8276997421
 21
4.0395960204
 31
0.0
 11
5.8423449535
 21
4.0522391211
 31
0.0
 11
5.8563536284
 21
4.0655843568
 31
0.0
 11
5.8696912843
 21
4.0796003528
 31
0.0
 11
5.8823251728
 21
4.0942541092
 31
0.0
 11
5.8942260831
 21
4.1095093117
 31
0.0
 11
5.9053652351
 21
4.125329242
 31
0.0
 11
5.9157144441
 21
4.1416767871
 31
0.0
 11
5.9252496878
 21
4.1585120752
 31
0.0
 11
5.9339487195
 21
4.1757940573
 31
0.0
 11
5.9417893856
 21
4.1934816446
 31
0.0
 11
5.9487525643
 21
4.2115325024
 31
0.0
 11
5.9548228975
 21
4.2299027491
 31
0.0
 11
5.9599852623
 21
4.2485484065
 31
0.0
 11
5.9642260256
 21
4.2674250981
 31
0.0
 11
5.9675363939
 21
4.286487152
 31
0.0
 11
5.9699085552
 21
4.3056886341
 31
0.0
 11
5.9713351656
 21
4.3249835619
 31
0.0
 11
5.9718134737
 21
4.3443254793
 31
0.0
 11
5.9713433293
 21
4.3636676616
 31
0.0
 11
5.9699246566
 21
4.382963385
 31
0.0
 11
5.9675602243
 21
4.4021661614
 31
0.0
 11
5.9642573045
 21
4.4212298759
 31
0.0
 11
5.960023568
 21
4.4401084468
 31
0.0
 11
5.9548677256
 21
4.45875608
 31
0.0
 11
5.9488033784
 21
4.4771283353
 31
0.0
 11
5.9418455643
 21
4.4951811698
 31
0.0
 11
5.934009576
 21
4.5128706429
 31
0.0
 11
5.9253145352
 21
4.5301543475
 31
0.0
 11
5.91578252
 21
4.5469910601
 31
0.0
 11
5.9054356971
 21
4.5633395961
 31
0.0
 11
5.8942981765
 21
4.5791600452
 31
0.0
 11
5.8823981188
 21
4.5944151531
 31
0.0
 11
5.8697641907
 21
4.6090679978
 31
0.0
 11
5.8564256467
 21
4.6230822079
 31
0.0
 11
5.8424153773
 21
4.6364248218
 31
0.0
 11
5.8277676626
 21
4.6490641807
 31
0.0
 11
5.8125168914
 21
4.6609687681
 31
0.0
 11
5.7966996706
 21
4.6721099902
 31
0.0
 11
5.7803547103
 21
4.6824620248
 31
0.0
 11
5.7635208076
 21
4.6919991646
 31
0.0
 11
5.7462379671
 21
4.7006974692
 31
0.0
 11
5.7285491436
 21
4.7085373146
 31
0.0
 11
5.7104977339
 21
4.7154997236
 31
0.0
 11
5.6921271187
 21
4.7215662777
 31
0.0
 11
5.6734805473
 21
4.7267231662
 31
0.0
 11
5.654601204
 21
4.7309588466
 31
0.0
 11
5.6355323628
 21
4.7342618512
 31
0.0
 11
5.6163218638
 21
4.7366236955
 31
0.0
 11
5.5776942759
 21
4.7385076234
 31
0.0
  0
LINE
  5
256
100
AcDbEntity
  8
0
100
AcDbLine
 62
6
  6
CONTINUOUS
 10
5.5776942759
 20
4.7385076234
 11
5.5775131454
 21
4.7385075024
  0
LINE
  5
257
100
AcDbEntity
  8
0
100
AcDbLine
 62
6
  6
CONTINUOUS
 10
5.5775131454
 20
3.9521287709
 11
5.5776963182
 21
3.9521289789
  0
SPLINE
  5
258
100
AcDbEntity
  8
0
100
AcDbSpline
 62
6
  6
CONTINUOUS
 70
0
 71
3
 72
69
 73
65
 74
63
 42
0.0000001
 43
0.0000001
 44
0.0000000001
 12
1.231235619
 22
0.0016865348
 32
0.0
 13
-1.2312366553
 23
-0.0005407064
 33
0.0
 40
0.0
 40
0.0
 40
0.0
 40
0.0
 40
0.0312329326
 40
0.0468638754
 40
0.0624926801
 40
0.0781181107
 40
0.0937419003
 40
0.109365775
 40
0.1249907524
 40
0.140616383
 40
0.1562420212
 40
0.1718673031
 40
0.1874923729
 40
0.203117345
 40
0.2187423902
 40
0.2343676798
 40
0.2499931198
 40
0.2656185982
 40
0.2812441846
 40
0.2968698511
 40
0.3124954457
 40
0.3281209512
 40
0.3437464222
 40
0.3593717309
 40
0.3749967856
 40
0.3906217415
 40
0.4062467108
 40
0.4218717535
 40
0.4374970532
 40
0.4531226106
 40
0.4687482597
 40
0.4843739502
 40
0.4999997485
 40
0.5156255417
 40
0.5312512199
 40
0.5468768566
 40
0.5625024109
 40
0.5781277335
 40
0.593752839
 40
0.6093778752
 40
0.6250028547
 40
0.6406278497
 40
0.6562529859
 40
0.6718781474
 40
0.6875031879
 40
0.7031281738
 40
0.7187531674
 40
0.7343781256
 40
0.7500031304
 40
0.7656282367
 40
0.7812532971
 40
0.7968782233
 40
0.8125031942
 40
0.8281283508
 40
0.8437538125
 40
0.859379704
 40
0.8750056208
 40
0.8906309346
 40
0.9062552859
 40
0.9218797473
 40
0.9375059263
 40
0.9531354417
 40
0.9687668601
 40
1.0
 40
1.0
 40
1.0
 40
1.0
 10
5.5776963182
 20
3.9521289789
 30
0.0
 10
5.5905146846
 20
3.9521465374
 30
0.0
 10
5.609764272
 20
3.953119587
 30
0.0
 10
5.6352225582
 20
3.9562870107
 30
0.0
 10
5.6541863664
 20
3.9595980242
 30
0.0
 10
5.672961132
 20
3.9638346302
 30
0.0
 10
5.6915042877
 20
3.9689846567
 30
0.0
 10
5.7097724932
 20
3.9750374044
 30
0.0
 10
5.7277225156
 20
3.9819792042
 30
0.0
 10
5.7453120981
 20
3.9897910549
 30
0.0
 10
5.7624983494
 20
3.998454659
 30
0.0
 10
5.7792381685
 20
4.007951772
 30
0.0
 10
5.7954923614
 20
4.0182573786
 30
0.0
 10
5.8112226235
 20
4.0293461296
 30
0.0
 10
5.8263898675
 20
4.0411935234
 30
0.0
 10
5.8409579503
 20
4.0537706051
 30
0.0
 10
5.8548932082
 20
4.0670456618
 30
0.0
 10
5.8681611167
 20
4.0809879591
 30
0.0
 10
5.880728302
 20
4.0955651314
 30
0.0
 10
5.8925666408
 20
4.1107401788
 30
0.0
 10
5.903647669
 20
4.1264767465
 30
0.0
 10
5.913942267
 20
4.1427385862
 30
0.0
 10
5.9234271815
 20
4.159485415
 30
0.0
 10
5.932080823
 20
4.1766763351
 30
0.0
 10
5.9398804345
 20
4.1942710101
 30
0.0
 10
5.9468067713
 20
4.2122272337
 30
0.0
 10
5.952845519
 20
4.2305010555
 30
0.0
 10
5.957981286
 20
4.2490491068
 30
0.0
 10
5.9621994673
 20
4.2678273472
 30
0.0
 10
5.9654925626
 20
4.2867899085
 30
0.0
 10
5.967852911
 20
4.3058912074
 30
0.0
 10
5.9692719074
 20
4.3250855278
 30
0.0
 10
5.9697473829
 20
4.3443263712
 30
0.0
 10
5.9692799501
 20
4.3635674068
 30
0.0
 10
5.9678689308
 20
4.3827623048
 30
0.0
 10
5.9655163372
 20
4.4018645529
 30
0.0
 10
5.962230676
 20
4.4208284116
 30
0.0
 10
5.958019532
 20
4.4396082723
 30
0.0
 10
5.9528902986
 20
4.4581582046
 30
0.0
 10
5.9468574885
 20
4.4764340632
 30
0.0
 10
5.9399364741
 20
4.4943923627
 30
0.0
 10
5.9321415348
 20
4.5119890273
 30
0.0
 10
5.9234918131
 20
4.529181686
 30
0.0
 10
5.9140100966
 20
4.5459298951
 30
0.0
 10
5.9037179577
 20
4.5621926364
 30
0.0
 10
5.8926387045
 20
4.5779295955
 30
0.0
 10
5.8808013286
 20
4.5931044242
 30
0.0
 10
5.8682340957
 20
4.6076806228
 30
0.0
 10
5.854965165
 20
4.6216211585
 30
0.0
 10
5.8410281551
 20
4.6348937851
 30
0.0
 10
5.8264573789
 20
4.6474673631
 30
0.0
 10
5.8112863718
 20
4.6593097463
 30
0.0
 10
5.7955517691
 20
4.6703923493
 30
0.0
 10
5.7792925735
 20
4.6806903249
 30
0.0
 10
5.7625470005
 20
4.690177788
 30
0.0
 10
5.7453546302
 20
4.6988299584
 30
0.0
 10
5.727758747
 20
4.7066285697
 30
0.0
 10
5.7098022194
 20
4.7135548869
 30
0.0
 10
5.6915273797
 20
4.7195896331
 30
0.0
 10
5.6729777868
 20
4.7247194737
 30
0.0
 10
5.6541969856
 20
4.7289334193
 30
0.0
 10
5.6352279069
 20
4.7322190217
 30
0.0
 10
5.6097643826
 20
4.7353490191
 30
0.0
 10
5.5905126952
 20
4.7362900124
 30
0.0
 10
5.5776942329
 20
4.7362843831
 30
0.0
 11
5.5776963182
 21
3.9521289789
 31
0.0
 11
5.6161026192
 21
3.9540663656
 31
0.0
 11
5.6352007091
 21
3.9564429304
 31
0.0
 11
5.6541566973
 21
3.9597526564
 31
0.0
 11
5.672923512
 21
3.9639871079
 31
0.0
 11
5.6914584602
 21
3.9691351047
 31
0.0
 11
5.7097189184
 21
3.9751853834
 31
0.0
 11
5.7276620825
 21
3.9821240653
 31
0.0
 11
5.7452448539
 21
3.9899330051
 31
0.0
 11
5.7624241066
 21
3.9985936646
 31
0.0
 11
5.7791573448
 21
4.0080865888
 31
0.0
 11
5.7954050866
 21
4.0183879335
 31
0.0
 11
5.8111287514
 21
4.0294725427
 31
0.0
 11
5.8262899051
 21
4.0413150539
 31
0.0
 11
5.8408524116
 21
4.0538868732
 31
0.0
 11
5.8547819577
 21
4.0671568431
 31
0.0
 11
5.8680442893
 21
4.0810937272
 31
0.0
 11
5.8806068015
 21
4.0956647459
 31
0.0
 11
5.892440443
 21
4.1108337939
 31
0.0
 11
5.9035166251
 21
4.1265643333
 31
0.0
 11
5.913807337
 21
4.1428194468
 31
0.0
 11
5.9232886816
 21
4.1595595163
 31
0.0
 11
5.9319385444
 21
4.1767437536
 31
0.0
 11
5.9397349135
 21
4.194331327
 31
0.0
 11
5.9466588384
 21
4.2122801622
 31
0.0
 11
5.952695007
 21
4.2305467089
 31
0.0
 11
5.9578283199
 21
4.2490873302
 31
0.0
 11
5.9620452573
 21
4.267857923
 31
0.0
 11
5.965337095
 21
4.2868129678
 31
0.0
 11
5.9676960157
 21
4.3059066776
 31
0.0
 11
5.9691146512
 21
4.3250932276
 31
0.0
 11
5.9695902312
 21
4.3443264062
 31
0.0
 11
5.9691226828
 21
4.3635597754
 31
0.0
 11
5.9677119986
 21
4.3827468964
 31
0.0
 11
5.9653608171
 21
4.4018415455
 31
0.0
 11
5.9620764031
 21
4.4207978742
 31
0.0
 11
5.9578664872
 21
4.4395700718
 31
0.0
 11
5.9527396877
 21
4.4581125754
 31
0.0
 11
5.9467094442
 21
4.4763811657
 31
0.0
 11
5.9397908253
 21
4.4943320782
 31
0.0
 11
5.9319991012
 21
4.5119216294
 31
0.0
 11
5.9233531533
 21
4.5291075989
 31
0.0
 11
5.9138749953
 21
4.5458490351
 31
0.0
 11
5.9035867534
 21
4.5621050343
 31
0.0
 11
5.8925123493
 21
4.5778359091
 31
0.0
 11
5.8806796774
 21
4.5930046628
 31
0.0
 11
5.8681171643
 21
4.6075746592
 31
0.0
 11
5.8548538528
 21
4.6215098058
 31
0.0
 11
5.8409225091
 21
4.634777293
 31
0.0
 11
5.8263572908
 21
4.6473455382
 31
0.0
 11
5.8111924596
 21
4.6591831018
 31
0.0
 11
5.795464431
 21
4.6702615158
 31
0.0
 11
5.7792116722
 21
4.6805551431
 31
0.0
 11
5.7624727355
 21
4.6900384644
 31
0.0
 11
5.7452873775
 21
4.6986876969
 31
0.0
 11
5.727698313
 21
4.7064833209
 31
0.0
 11
5.7097487021
 21
4.7134064595
 31
0.0
 11
5.6914816887
 21
4.7194387895
 31
0.0
 11
5.67294028
 21
4.7245665728
 31
0.0
 11
5.6541674161
 21
4.7287783362
 31
0.0
 11
5.6352061256
 21
4.7320626806
 31
0.0
 11
5.6161039729
 21
4.7344111684
 31
0.0
 11
5.5776942329
 21
4.7362843831
 31
0.0
  0
LINE
  5
259
100
AcDbEntity
  8
0
100
AcDbLine
 62
6
  6
CONTINUOUS
 10
5.5776942329
 20
4.7362843831
 11
5.5775131454
 21
4.7362842615
  0
LINE
  5
25A
100
AcDbEntity
  8
0
100
AcDbLine
 62
6
  6
CONTINUOUS
 10
5.5775131454
 20
3.9543520106
 11
5.5776978183
 21
3.9543522219
  0
SPLINE
  5
25B
100
AcDbEntity
  8
0
100
AcDbSpline
 62
6
  6
CONTINUOUS
 70
0
 71
3
 72
69
 73
65
 74
63
 42
0.0000001
 43
0.0000001
 44
0.0000000001
 12
1.2242518695
 22
0.001691258
 32
0.0
 13
-1.2242529163
 23
-0.0005452749
 33
0.0
 40
0.0
 40
0.0
 40
0.0
 40
0.0
 40
0.0312331563
 40
0.0468645099
 40
0.0624939844
 40
0.0781201435
 40
0.0937445909
 40
0.1093689296
 40
0.1249942348
 40
0.1406201439
 40
0.1562460311
 40
0.1718714979
 40
0.1874966677
 40
0.2031216659
 40
0.2187466463
 40
0.2343717992
 40
0.2499970429
 40
0.2656222429
 40
0.2812474479
 40
0.2968726732
 40
0.3124977961
 40
0.3281228098
 40
0.343747822
 40
0.3593727776
 40
0.3749976465
 40
0.3906225815
 40
0.4062476211
 40
0.4218727431
 40
0.4374980724
 40
0.4531236272
 40
0.4687492642
 40
0.4843749466
 40
0.5000007469
 40
0.5156265504
 40
0.5312522382
 40
0.5468778782
 40
0.5625034366
 40
0.5781287657
 40
0.5937538717
 40
0.6093788875
 40
0.6250038024
 40
0.6406286609
 40
0.6562536286
 40
0.6718786913
 40
0.6875038036
 40
0.7031290727
 40
0.7187544692
 40
0.7343798331
 40
0.7500051416
 40
0.7656304524
 40
0.7812556461
 40
0.7968806415
 40
0.812505619
 40
0.8281307336
 40
0.8437561033
 40
0.859381872
 40
0.8750076652
 40
0.8906328545
 40
0.9062570361
 40
0.921881217
 40
0.9375070208
 40
0.9531360878
 40
0.9687671478
 40
1.0
 40
1.0
 40
1.0
 40
1.0
 10
5.5776978183
 20
3.9543522219
 30
0.0
 10
5.5904435683
 20
3.9543698296
 30
0.0
 10
5.6095842164
 20
3.9553376283
 30
0.0
 10
5.6348985881
 20
3.9584874633
 30
0.0
 10
5.653755525
 20
3.9617800224
 30
0.0
 10
5.6724245435
 20
3.9659931164
 30
0.0
 10
5.6908631542
 20
3.9711144586
 30
0.0
 10
5.7090282572
 20
3.9771331969
 30
0.0
 10
5.7268767209
 20
3.9840361857
 30
0.0
 10
5.7443666233
 20
3.9918043798
 30
0.0
 10
5.7614555043
 20
4.0004192548
 30
0.0
 10
5.7781004755
 20
4.0098627661
 30
0.0
 10
5.7942622889
 20
4.0201104527
 30
0.0
 10
5.8099030702
 20
4.031136703
 30
0.0
 10
5.8249841643
 20
4.0429169335
 30
0.0
 10
5.8394691827
 20
4.0554229384
 30
0.0
 10
5.8533248535
 20
4.0686228998
 30
0.0
 10
5.8665171569
 20
4.0824859586
 30
0.0
 10
5.8790125847
 20
4.0969802682
 30
0.0
 10
5.8907831257
 20
4.1120690778
 30
0.0
 10
5.9018007387
 20
4.1277160747
 30
0.0
 10
5.9120365888
 20
4.1438852126
 30
0.0
 10
5.9214672553
 20
4.1605366962
 30
0.0
 10
5.9300714375
 20
4.1776298381
 30
0.0
 10
5.9378266028
 20
4.1951245544
 30
0.0
 10
5.9447134875
 20
4.2129789327
 30
0.0
 10
5.9507178643
 20
4.231149196
 30
0.0
 10
5.9558244736
 20
4.249592123
 30
0.0
 10
5.9600186504
 20
4.2682639143
 30
0.0
 10
5.9632929069
 20
4.287118952
 30
0.0
 10
5.965639731
 20
4.3061119118
 30
0.0
 10
5.9670506192
 20
4.3251973567
 30
0.0
 10
5.9675232502
 20
4.3443290702
 30
0.0
 10
5.9670583258
 20
4.363460972
 30
0.0
 10
5.9656552687
 20
4.3825470001
 30
0.0
 10
5.9633159115
 20
4.4015408929
 30
0.0
 10
5.9600487383
 20
4.4203971659
 30
0.0
 10
5.9558613831
 20
4.4390704866
 30
0.0
 10
5.9507611728
 20
4.4575151767
 30
0.0
 10
5.9447624457
 20
4.475687292
 30
0.0
 10
5.9378806112
 20
4.493543601
 30
0.0
 10
5.930129943
 20
4.5110403148
 30
0.0
 10
5.9215292918
 20
4.5281352757
 30
0.0
 10
5.9121012944
 20
4.5447883597
 30
0.0
 10
5.901867384
 20
4.5609588859
 30
0.0
 10
5.8908506684
 20
4.5766067472
 30
0.0
 10
5.8790800388
 20
4.5916957568
 30
0.0
 10
5.8665837482
 20
4.6061895812
 30
0.0
 10
5.8533897776
 20
4.6200512742
 30
0.0
 10
5.839531439
 20
4.6332486001
 30
0.0
 10
5.8250430155
 20
4.6457507668
 30
0.0
 10
5.8099579585
 20
4.6575259866
 30
0.0
 10
5.7943124393
 20
4.6685455235
 30
0.0
 10
5.7781453535
 20
4.6787848046
 30
0.0
 10
5.761494815
 20
4.6882183283
 30
0.0
 10
5.7444000053
 20
4.6968212076
 30
0.0
 10
5.7269039394
 20
4.7045752379
 30
0.0
 10
5.7090493381
 20
4.7114619792
 30
0.0
 10
5.6908783492
 20
4.7174623332
 30
0.0
 10
5.6724342366
 20
4.7225627761
 30
0.0
 10
5.6537603605
 20
4.7267525247
 30
0.0
 10
5.6348993423
 20
4.7300193454
 30
0.0
 10
5.6095806706
 20
4.7331313637
 30
0.0
 10
5.5904384371
 20
4.73406682
 30
0.0
 10
5.5776928003
 20
4.7340611432
 30
0.0
 11
5.5776978183
 21
3.9543522219
 31
0.0
 11
5.6158865232
 21
3.9562791087
 31
0.0
 11
5.634876757
 21
3.9586424826
 31
0.0
 11
5.6537259928
 21
3.9619338022
 31
0.0
 11
5.6723871598
 21
3.9661447416
 31
0.0
 11
5.6908176689
 21
3.9712640502
 31
0.0
 11
5.7089750195
 21
3.977280404
 31
0.0
 11
5.7268166351
 21
3.9841802532
 31
0.0
 11
5.7442997838
 21
3.9919454939
 31
0.0
 11
5.7613817147
 21
4.000557466
 31
0.0
 11
5.7780201051
 21
4.0099968884
 31
0.0
 11
5.7941755362
 21
4.0202402702
 31
0.0
 11
5.8098097961
 21
4.0312623709
 31
0.0
 11
5.8248847512
 21
4.0430378405
 31
0.0
 11
5.8393642526
 21
4.0555385631
 31
0.0
 11
5.8532143023
 21
4.0687334263
 31
0.0
 11
5.8664010105
 21
4.0825911664
 31
0.0
 11
5.8788917682
 21
4.0970793493
 31
0.0
 11
5.8906576702
 21
4.1121621532
 31
0.0
 11
5.9016704778
 21
4.1278031472
 31
0.0
 11
5.9119023978
 21
4.1439656138
 31
0.0
 11
5.9213295234
 21
4.1606103351
 31
0.0
 11
5.9299299522
 21
4.1776968038
 31
0.0
 11
5.9376818772
 21
4.1951844678
 31
0.0
 11
5.9445663827
 21
4.2130315237
 31
0.0
 11
5.950568219
 21
4.2311945821
 31
0.0
 11
5.9556723726
 21
4.2496301509
 31
0.0
 11
5.9598653053
 21
4.2682943307
 31
0.0
 11
5.9631383261
 21
4.2871418821
 31
0.0
 11
5.9654837383
 21
4.306127291
 31
0.0
 11
5.96689424
 21
4.3252050087
 31
0.0
 11
5.9673669906
 21
4.3443290999
 31
0.0
 11
5.9669019674
 21
4.3634533844
 31
0.0
 11
5.9654992152
 21
4.3825316803
 31
0.0
 11
5.9631612668
 21
4.4015180133
 31
0.0
 11
5.9598953491
 21
4.4203668013
 31
0.0
 11
5.9557092098
 21
4.4390325057
 31
0.0
 11
5.9506114013
 21
4.4574698099
 31
0.0
 11
5.9446152417
 21
4.4756347122
 31
0.0
 11
5.9377357959
 21
4.4934836929
 31
0.0
 11
5.9299883028
 21
4.5109733067
 31
0.0
 11
5.9213914271
 21
4.52806158
 31
0.0
 11
5.9119669966
 21
4.5447078985
 31
0.0
 11
5.9017369648
 21
4.5608717031
 31
0.0
 11
5.8907250569
 21
4.5765135496
 31
0.0
 11
5.8789590883
 21
4.5915965673
 31
0.0
 11
5.8664674492
 21
4.6060842471
 31
0.0
 11
5.853279042
 21
4.6199405538
 31
0.0
 11
5.8394263734
 21
4.6331327864
 31
0.0
 11
5.8249434966
 21
4.6456296748
 31
0.0
 11
5.8098645383
 21
4.6574000475
 31
0.0
 11
5.7942255795
 21
4.668415436
 31
0.0
 11
5.7780649137
 21
4.6786504309
 31
0.0
 11
5.7614209539
 21
4.6880797887
 31
0.0
 11
5.7443331265
 21
4.6966797322
 31
0.0
 11
5.7268438554
 21
4.7044308237
 31
0.0
 11
5.7089961167
 21
4.7113144244
 31
0.0
 11
5.6908328696
 21
4.7173123401
 31
0.0
 11
5.6723969089
 21
4.7224107575
 31
0.0
 11
5.6537309355
 21
4.7265983533
 31
0.0
 11
5.6348777203
 21
4.7298638788
 31
0.0
 11
5.6158843379
 21
4.7321988703
 31
0.0
 11
5.5776928003
 21
4.7340611432
 31
0.0
  0
LINE
  5
25C
100
AcDbEntity
  8
0
100
AcDbLine
 62
6
  6
CONTINUOUS
 10
5.5776928003
 20
4.7340611432
 11
5.5775131454
 21
4.7340610215
  0
LINE
  5
25D
100
AcDbEntity
  8
0
100
AcDbLine
 62
6
  6
CONTINUOUS
 10
5.5775131454
 20
3.956575252
 11
5.5776980396
 21
3.9565754648
  0
SPLINE
  5
25E
100
AcDbEntity
  8
0
100
AcDbSpline
 62
6
  6
CONTINUOUS
 70
0
 71
3
 72
67
 73
63
 74
61
 42
0.0000001
 43
0.0000001
 44
0.0000000001
 12
1.217245348
 22
0.0016919145
 32
0.0
 13
-1.2172464013
 23
-0.0005462415
 33
0.0
 40
0.0
 40
0.0
 40
0.0
 40
0.0
 40
0.0312337916
 40
0.0468654907
 40
0.0624953172
 40
0.0781218114
 40
0.0937465763
 40
0.1093712156
 40
0.1249968142
 40
0.1406230178
 40
0.1562492037
 40
0.1718749717
 40
0.1875004305
 40
0.2031256863
 40
0.2187508728
 40
0.2343761739
 40
0.250001517
 40
0.265626776
 40
0.2812520201
 40
0.2968773247
 40
0.3125026426
 40
0.3281280363
 40
0.3437535606
 40
0.3593790522
 40
0.3750043812
 40
0.3906296664
 40
0.4062549871
 40
0.4218803666
 40
0.4375059632
 40
0.4531317927
 40
0.468757706
 40
0.4843836635
 40
0.5000097367
 40
0.5156358117
 40
0.5312617744
 40
0.5468876937
 40
0.5625135272
 40
0.5781391204
 40
0.5937644842
 40
0.6093898022
 40
0.625015136
 40
0.6406406037
 40
0.6562663561
 40
0.6718922784
 40
0.6875182197
 40
0.7031442195
 40
0.7187702659
 40
0.734396211
 40
0.7500220284
 40
0.7656477909
 40
0.7812733879
 40
0.7968987224
 40
0.8125239577
 40
0.8437653345
 40
0.8750075729
 40
0.8906327364
 40
0.906256782
 40
0.9218807122
 40
0.9375062873
 40
0.9531352877
 40
0.9687665167
 40
1.0
 40
1.0
 40
1.0
 40
1.0
 10
5.5776980396
 20
3.9565754648
 30
0.0
 10
5.5903711021
 20
3.9565930798
 30
0.0
 10
5.6094025961
 20
3.9575555236
 30
0.0
 10
5.6345726041
 20
3.9606875872
 30
0.0
 10
5.6533220125
 20
3.9639614972
 30
0.0
 10
5.6718845543
 20
3.9681507024
 30
0.0
 10
5.6902179762
 20
3.9732429657
 30
0.0
 10
5.7082794357
 20
3.9792274772
 30
0.0
 10
5.7260260463
 20
3.986091196
 30
0.0
 10
5.7434161338
 20
3.9938151847
 30
0.0
 10
5.7604074928
 20
4.0023810076
 30
0.0
 10
5.7769574762
 20
4.0117707231
 30
0.0
 10
5.7930270334
 20
4.0219600267
 30
0.0
 10
5.8085785034
 20
4.032923415
 30
0.0
 10
5.8235734512
 20
4.044636419
 30
0.0
 10
5.8379756761
 20
4.0570710103
 30
0.0
 10
5.8517521112
 20
4.0701955429
 30
0.0
 10
5.8648689374
 20
4.0839793494
 30
0.0
 10
5.8772929246
 20
4.0983907383
 30
0.0
 10
5.8889962283
 20
4.1133932563
 30
0.0
 10
5.8999509377
 20
4.1289509244
 30
0.0
 10
5.910128376
 20
4.1450279395
 30
0.0
 10
5.9195053923
 20
4.1615846067
 30
0.0
 10
5.9280606737
 20
4.1785804367
 30
0.0
 10
5.9357717086
 20
4.1959755153
 30
0.0
 10
5.9426193623
 20
4.2137281155
 30
0.0
 10
5.9485895012
 20
4.2317947276
 30
0.0
 10
5.9536669553
 20
4.250132424
 30
0.0
 10
5.9578372079
 20
4.268697669
 30
0.0
 10
5.9610928233
 20
4.2874451174
 30
0.0
 10
5.9634262934
 20
4.3063297076
 30
0.0
 10
5.9648291437
 20
4.3253062573
 30
0.0
 10
5.9652991296
 20
4.3443288089
 30
0.0
 10
5.9648369087
 20
4.3633515514
 30
0.0
 10
5.9634418608
 20
4.3823286832
 30
0.0
 10
5.9611158864
 20
4.4012142099
 30
0.0
 10
5.9578674158
 20
4.4199629047
 30
0.0
 10
5.9537039992
 20
4.4385296821
 30
0.0
 10
5.9486329362
 20
4.4568691467
 30
0.0
 10
5.9426684954
 20
4.4749376646
 30
0.0
 10
5.9358258908
 20
4.4926923006
 30
0.0
 10
5.9281192379
 20
4.5100895331
 30
0.0
 10
5.9195673575
 20
4.5270874546
 30
0.0
 10
5.9101928008
 20
4.543646091
 30
0.0
 10
5.9000169954
 20
4.5597249403
 30
0.0
 10
5.8890627303
 20
4.5752839268
 30
0.0
 10
5.8773588069
 20
4.5902870767
 30
0.0
 10
5.8649334804
 20
4.6046984054
 30
0.0
 10
5.8518145833
 20
4.6184812086
 30
0.0
 10
5.8380349344
 20
4.6316031943
 30
0.0
 10
5.8236289713
 20
4.6440338739
 30
0.0
 10
5.8086296379
 20
4.6557421401
 30
0.0
 10
5.787892347
 20
4.6703477311
 30
0.0
 10
5.760663896
 20
4.6866719985
 30
0.0
 10
5.7319628872
 20
4.7002410324
 30
0.0
 10
5.7082977943
 20
4.7093685453
 30
0.0
 10
5.6902306461
 20
4.7153346566
 30
0.0
 10
5.6718923885
 20
4.7204057114
 30
0.0
 10
5.6533255523
 20
4.7245713252
 30
0.0
 10
5.6345725181
 20
4.7278193437
 30
0.0
 10
5.60939844
 20
4.7309135001
 30
0.0
 10
5.5903654332
 20
4.7318435885
 30
0.0
 10
5.5776924849
 20
4.7318379015
 30
0.0
 11
5.5776980396
 21
3.9565754648
 31
0.0
 11
5.6156689434
 21
3.9584916785
 31
0.0
 11
5.6345508943
 21
3.9608417192
 31
0.0
 11
5.653292654
 21
3.9641144034
 31
0.0
 11
5.6718473897
 21
3.9683014637
 31
0.0
 11
5.6901727571
 21
3.9733917019
 31
0.0
 11
5.7082265033
 21
3.9793738463
 31
0.0
 11
5.7259663018
 21
3.9862344416
 31
0.0
 11
5.7433496744
 21
3.9939554901
 31
0.0
 11
5.7603341239
 21
4.0025184273
 31
0.0
 11
5.7768775668
 21
4.0119040845
 31
0.0
 11
5.7929407869
 21
4.0220891082
 31
0.0
 11
5.8084857812
 21
4.0330483737
 31
0.0
 11
5.8234746236
 21
4.0447566501
 31
0.0
 11
5.8378713613
 21
4.057185986
 31
0.0
 11
5.8516422032
 21
4.0703054488
 31
0.0
 11
5.8647534702
 21
4.0840839527
 31
0.0
 11
5.8771727926
 21
4.0984892377
 31
0.0
 11
5.8888714533
 21
4.1134857688
 31
0.0
 11
5.8998213673
 21
4.1290374442
 31
0.0
 11
5.9099949389
 21
4.1451078261
 31
0.0
 11
5.9193684444
 21
4.1616578163
 31
0.0
 11
5.927920001
 21
4.1786470524
 31
0.0
 11
5.9356278233
 21
4.1960351292
 31
0.0
 11
5.942473104
 21
4.213780434
 31
0.0
 11
5.9484407076
 21
4.2318398653
 31
0.0
 11
5.9535157256
 21
4.2501702298
 31
0.0
 11
5.9576847427
 21
4.2687279081
 31
0.0
 11
5.9609391235
 21
4.2874679167
 31
0.0
 11
5.9632711868
 21
4.3063449999
 31
0.0
 11
5.9646736634
 21
4.3253138665
 31
0.0
 11
5.9651437614
 21
4.3443288396
 31
0.0
 11
5.9646814347
 21
4.3633440055
 31
0.0
 11
5.9632867031
 21
4.3823134495
 31
0.0
 11
5.9609621279
 21
4.4011914637
 31
0.0
 11
5.9577148982
 21
4.4199327176
 31
0.0
 11
5.9535526941
 21
4.4384919208
 31
0.0
 11
5.9484840298
 21
4.4568240236
 31
0.0
 11
5.9425221396
 21
4.4748853384
 31
0.0
 11
5.9356819151
 21
4.4926326562
 31
0.0
 11
5.927978433
 21
4.5100228409
 31
0.0
 11
5.919430292
 21
4.5270141511
 31
0.0
 11
5.9100592717
 21
4.5435661054
 31
0.0
 11
5.89988727
 21
4.5596382698
 31
0.0
 11
5.8889377985
 21
4.5751912718
 31
0.0
 11
5.877238539
 21
4.590188481
 31
0.0
 11
5.8648178377
 21
4.6045937039
 31
0.0
 11
5.8517044256
 21
4.6183711047
 31
0.0
 11
5.8379304745
 21
4.6314880434
 31
0.0
 11
5.8235299664
 21
4.643913562
 31
0.0
 11
5.8085369351
 21
4.6556167668
 31
0.0
 11
5.7929871049
 21
4.6665691264
 31
0.0
 11
5.7603697039
 21
4.68612082
 31
0.0
 11
5.7259902318
 21
4.702377979
 31
0.0
 11
5.7082445991
 21
4.7092219979
 31
0.0
 11
5.6901854443
 21
4.7151854904
 31
0.0
 11
5.6718552661
 21
4.7202545668
 31
0.0
 11
5.653296367
 21
4.7244180266
 31
0.0
 11
5.6345511144
 21
4.7276647576
 31
0.0
 11
5.6156662208
 21
4.7299863457
 31
0.0
 11
5.5776924849
 21
4.7318379015
 31
0.0
  0
LINE
  5
25F
100
AcDbEntity
  8
0
100
AcDbLine
 62
6
  6
CONTINUOUS
 10
5.5776924849
 20
4.7318379015
 11
5.5775131454
 21
4.7318377793
  0
LINE
  5
260
100
AcDbEntity
  8
0
100
AcDbLine
 62
6
  6
CONTINUOUS
 10
5.5775131454
 20
3.9587984942
 11
5.5776981555
 21
3.9587987083
  0
SPLINE
  5
261
100
AcDbEntity
  8
0
100
AcDbSpline
 62
6
  6
CONTINUOUS
 70
0
 71
3
 72
39
 73
35
 74
33
 42
0.0000001
 43
0.0000001
 44
0.0000000001
 12
0.1644174652
 22
0.6773461566
 32
0.0
 13
-0.6970154288
 23
-0.0006408477
 33
0.0
 40
0.0
 40
0.0
 40
0.0
 40
0.0
 40
0.0312499985
 40
0.0625003276
 40
0.0937506375
 40
0.1250010308
 40
0.1562513677
 40
0.1875012766
 40
0.2187509371
 40
0.2500004338
 40
0.2812497116
 40
0.3124991694
 40
0.3437488944
 40
0.374998917
 40
0.4062495347
 40
0.437500459
 40
0.4687514041
 40
0.5000025227
 40
0.531253541
 40
0.5625042236
 40
0.5937547553
 40
0.6250048798
 40
0.6562544234
 40
0.687503836
 40
0.7187533537
 40
0.7500033026
 40
0.7812533437
 40
0.8125020935
 40
0.843748854
 40
0.8749967728
 40
0.9062503034
 40
0.9375115361
 40
0.9687675926
 40
1.0
 40
1.0
 40
1.0
 40
1.0
 10
5.9520421389
 20
4.2534794298
 30
0.0
 10
5.9537548208
 20
4.2605351186
 30
0.0
 10
5.9567815183
 20
4.2747467712
 30
0.0
 10
5.9601113377
 20
4.2962837643
 30
0.0
 10
5.9622199146
 20
4.3179752858
 30
0.0
 10
5.9630974285
 20
4.3397511627
 30
0.0
 10
5.9627453274
 20
4.36154178
 30
0.0
 10
5.9611628626
 20
4.3832776079
 30
0.0
 10
5.9583528961
 20
4.4048888207
 30
0.0
 10
5.9543284143
 20
4.4263069478
 30
0.0
 10
5.9490998304
 20
4.4474634051
 30
0.0
 10
5.9426825809
 20
4.46829014
 30
0.0
 10
5.9351006452
 20
4.4887218605
 30
0.0
 10
5.9263752157
 20
4.5086924029
 30
0.0
 10
5.9165338532
 20
4.5281375264
 30
0.0
 10
5.9056110539
 20
4.5469966625
 30
0.0
 10
5.8936386592
 20
4.5652077656
 30
0.0
 10
5.8806551476
 20
4.5827123099
 30
0.0
 10
5.8667046573
 20
4.5994563259
 30
0.0
 10
5.8518289634
 20
4.6153839349
 30
0.0
 10
5.8360761844
 20
4.6304442443
 30
0.0
 10
5.8194987987
 20
4.6445914093
 30
0.0
 10
5.8021473349
 20
4.6577773765
 30
0.0
 10
5.7840779631
 20
4.6699606313
 30
0.0
 10
5.7653494955
 20
4.6811044152
 30
0.0
 10
5.7460196701
 20
4.6911694722
 30
0.0
 10
5.7261518859
 20
4.7001253281
 30
0.0
 10
5.7058109006
 20
4.7079451689
 30
0.0
 10
5.6850601521
 20
4.7146003883
 30
0.0
 10
5.6639652187
 20
4.7200717526
 30
0.0
 10
5.6425913978
 20
4.7243425
 30
0.0
 10
5.6210076914
 20
4.7273943036
 30
0.0
 10
5.5992918124
 20
4.72922205
 30
0.0
 10
5.5847696353
 20
4.7296212098
 30
0.0
 10
5.5775131454
 20
4.7296145381
 30
0.0
 11
5.9520421389
 21
4.2534794298
 31
0.0
 11
5.9565797991
 21
4.2747832758
 31
0.0
 11
5.9599077957
 21
4.2963095083
 31
0.0
 11
5.9620147361
 21
4.3179893254
 31
0.0
 11
5.9628924925
 21
4.3397536481
 31
0.0
 11
5.9625402609
 21
4.3615327762
 31
0.0
 11
5.9609582701
 21
4.3832569285
 31
0.0
 11
5.9581504671
 21
4.4048567014
 31
0.0
 11
5.9541277185
 21
4.4262633936
 31
0.0
 11
5.9489017335
 21
4.4474084027
 31
0.0
 11
5.9424884959
 21
4.4682242182
 31
0.0
 11
5.9349101059
 21
4.4886448918
 31
0.0
 11
5.9261893056
 21
4.508604666
 31
0.0
 11
5.9163536642
 21
4.5280397675
 31
0.0
 11
5.905436134
 21
4.5468886363
 31
0.0
 11
5.8934701648
 21
4.5650899697
 31
0.0
 11
5.8804939634
 21
4.5825855811
 31
0.0
 11
5.86655039
 21
4.5993203335
 31
0.0
 11
5.8516827335
 21
4.6152394344
 31
0.0
 11
5.8359386467
 21
4.6302921462
 31
0.0
 11
5.819369647
 21
4.6444313218
 31
0.0
 11
5.8020276402
 21
4.6576102898
 31
0.0
 11
5.783968148
 21
4.6697873652
 31
0.0
 11
5.765249378
 21
4.6809245667
 31
0.0
 11
5.7459300019
 21
4.6909846073
 31
0.0
 11
5.7260726273
 21
4.6999361533
 31
0.0
 11
5.7057420942
 21
4.7077512488
 31
0.0
 11
5.6850032266
 21
4.7144029607
 31
0.0
 11
5.6639205563
 21
4.7198712399
 31
0.0
 11
5.6425584898
 21
4.7241389773
 31
0.0
 11
5.6209836506
 21
4.7271904863
 31
0.0
 11
5.599274438
 21
4.7290175768
 31
0.0
 11
5.5775131454
 21
4.7296145381
 31
0.0
  0
SPLINE
  5
262
100
AcDbEntity
  8
0
100
AcDbSpline
 62
6
  6
CONTINUOUS
 70
0
 71
3
 72
38
 73
34
 74
32
 42
0.0000001
 43
0.0000001
 44
0.0000000001
 12
0.1359263459
 22
0.6169879575
 32
0.0
 13
0.6038983888
 23
-0.1856255565
 33
0.0
 40
0.0
 40
0.0
 40
0.0
 40
0.0
 40
0.062465594
 40
0.0937286206
 40
0.1249861135
 40
0.1562367239
 40
0.1874843112
 40
0.2187325935
 40
0.2499829909
 40
0.2812343909
 40
0.312485626
 40
0.3437364395
 40
0.3749870273
 40
0.4062374321
 40
0.4374879854
 40
0.4687387405
 40
0.4999894107
 40
0.5312400154
 40
0.56249074
 40
0.5937413962
 40
0.6249919556
 40
0.6562426633
 40
0.6874933663
 40
0.718743929
 40
0.7499946024
 40
0.7812453268
 40
0.8124959122
 40
0.8437465629
 40
0.8749973176
 40
0.9062479508
 40
0.9374985722
 40
0.9687493273
 40
1.0
 40
1.0
 40
1.0
 40
1.0
 10
5.2043885432
 20
4.4273263588
 30
0.0
 10
5.2072187832
 20
4.4401731985
 30
0.0
 10
5.2124704818
 20
4.4592485708
 30
0.0
 10
5.2213972037
 20
4.4840182656
 30
0.0
 10
5.2290483666
 20
4.5022339287
 30
0.0
 10
5.2376290189
 20
4.5200258641
 30
0.0
 10
5.2471151744
 20
4.5373500539
 30
0.0
 10
5.2574840613
 20
4.5541606851
 30
0.0
 10
5.268707703
 20
4.5704140428
 30
0.0
 10
5.2807542892
 20
4.5860679819
 30
0.0
 10
5.2935932847
 20
4.6010790427
 30
0.0
 10
5.307191242
 20
4.6154059202
 30
0.0
 10
5.3215094956
 20
4.62901265
 30
0.0
 10
5.3365107007
 20
4.6418625262
 30
0.0
 10
5.3521563871
 20
4.6539194301
 30
0.0
 10
5.3684028465
 20
4.6651537145
 30
0.0
 10
5.3852068914
 20
4.6755355786
 30
0.0
 10
5.402525323
 20
4.6850345839
 30
0.0
 10
5.4203106327
 20
4.6936275765
 30
0.0
 10
5.4385150905
 20
4.7012927798
 30
0.0
 10
5.4570913673
 20
4.7080069856
 30
0.0
 10
5.4759894146
 20
4.7137533575
 30
0.0
 10
5.4951583693
 20
4.7185186874
 30
0.0
 10
5.5145478303
 20
4.7222879701
 30
0.0
 10
5.5341060737
 20
4.7250506709
 30
0.0
 10
5.5537806326
 20
4.7268023495
 30
0.0
 10
5.5735194031
 20
4.7275369163
 30
0.0
 10
5.5932697445
 20
4.7272504239
 30
0.0
 10
5.6129790788
 20
4.7259469049
 30
0.0
 10
5.6325950645
 20
4.7236294614
 30
0.0
 10
5.6520651984
 20
4.7203012485
 30
0.0
 10
5.6713373939
 20
4.7159743025
 30
0.0
 10
5.6840212078
 20
4.7124312939
 30
0.0
 10
5.6903119515
 20
4.7104976527
 30
0.0
 11
5.2043885432
 21
4.4273263588
 31
0.0
 11
5.2148595138
 21
4.4653766246
 31
0.0
 11
5.2215566215
 21
4.4839580352
 31
0.0
 11
5.2292040979
 21
4.5021651239
 31
0.0
 11
5.2377803692
 21
4.5199487633
 31
0.0
 11
5.2472622224
 21
4.537264343
 31
0.0
 11
5.2576262034
 21
4.5540673213
 31
0.0
 11
5.2688446766
 21
4.5703138841
 31
0.0
 11
5.2808863711
 21
4.5859608503
 31
0.0
 11
5.2937198569
 21
4.6009650993
 31
0.0
 11
5.3073113454
 21
4.61528595
 31
0.0
 11
5.321623356
 21
4.62888654
 31
0.0
 11
5.3366180852
 21
4.641730341
 31
0.0
 11
5.3522564742
 21
4.6537822961
 31
0.0
 11
5.368495791
 21
4.6650116531
 31
0.0
 11
5.3852926353
 21
4.6753884431
 31
0.0
 11
5.402603114
 21
4.6848835704
 31
0.0
 11
5.4203805054
 21
4.6934729514
 31
0.0
 11
5.4385770798
 21
4.701134288
 31
0.0
 11
5.4571449645
 21
4.7078456697
 31
0.0
 11
5.4760345668
 21
4.7135898505
 31
0.0
 11
5.4951951503
 21
4.7183526863
 31
0.0
 11
5.5145759369
 21
4.7221202027
 31
0.0
 11
5.5341254481
 21
4.7248821657
 31
0.0
 11
5.5537913646
 21
4.7266328328
 31
0.0
 11
5.5735213168
 21
4.7273667398
 31
0.0
 11
5.5932628864
 21
4.7270809202
 31
0.0
 11
5.6129635472
 21
4.7257779149
 31
0.0
 11
5.6325707584
 21
4.7234609997
 31
0.0
 11
5.6520321797
 21
4.7201347986
 31
0.0
 11
5.6712963285
 21
4.7158097045
 31
0.0
 11
5.6903119515
 21
4.7104976527
 31
0.0
  0
SPLINE
  5
263
100
AcDbEntity
  8
0
100
AcDbSpline
 62
6
  6
CONTINUOUS
 70
0
 71
3
 72
67
 73
63
 74
61
 42
0.0000001
 43
0.0000001
 44
0.0000000001
 12
-1.2192654762
 22
-0.0011130599
 32
0.0
 13
1.2192654791
 23
0.0011098773
 33
0.0
 40
0.0
 40
0.0
 40
0.0
 40
0.0
 40
0.0312333595
 40
0.0468646738
 40
0.0624938091
 40
0.0781194655
 40
0.0937434058
 40
0.1093673769
 40
0.1249924093
 40
0.1562343873
 40
0.187475692
 40
0.2031009454
 40
0.2187263094
 40
0.2343519413
 40
0.249977744
 40
0.2656036069
 40
0.2812296038
 40
0.2968557096
 40
0.3124817773
 40
0.3281077949
 40
0.3437337993
 40
0.3593596334
 40
0.3749851746
 40
0.3906105552
 40
0.4062358649
 40
0.4218611315
 40
0.4374865226
 40
0.4531120953
 40
0.4687377512
 40
0.4843634993
 40
0.4999894117
 40
0.5156153582
 40
0.5312412167
 40
0.5468670538
 40
0.5624928248
 40
0.5781183845
 40
0.5937437612
 40
0.6093691098
 40
0.6249944504
 40
0.6406198681
 40
0.6562454801
 40
0.6718711585
 40
0.6874967514
 40
0.7031223103
 40
0.7187478413
 40
0.7343732358
 40
0.7499985243
 40
0.7656238102
 40
0.78124903
 40
0.7968741726
 40
0.8124994382
 40
0.8281249352
 40
0.8437507473
 40
0.8593769653
 40
0.8750031868
 40
0.8906287936
 40
0.9062534453
 40
0.9218782429
 40
0.9375047891
 40
0.9531346829
 40
0.9687664004
 40
1.0
 40
1.0
 40
1.0
 40
1.0
 10
5.5775131454
 20
3.9571598762
 30
0.0
 10
5.5648192264
 20
3.957148288
 30
0.0
 10
5.5457542194
 20
3.9580714285
 30
0.0
 10
5.5205370201
 20
3.9611600037
 30
0.0
 10
5.5017514059
 20
3.9644056755
 30
0.0
 10
5.4831520253
 20
3.9685708769
 30
0.0
 10
5.4647814027
 20
3.9736433595
 30
0.0
 10
5.4466821492
 20
3.9796126714
 30
0.0
 10
5.4229747423
 20
3.9887468988
 30
0.0
 10
5.3942217856
 20
4.0023289111
 30
0.0
 10
5.3669433086
 20
4.018671974
 30
0.0
 10
5.3461675143
 20
4.0332959658
 30
0.0
 10
5.331140153
 20
4.0450196909
 30
0.0
 10
5.3167071343
 20
4.0574674078
 30
0.0
 10
5.302901486
 20
4.0706079447
 30
0.0
 10
5.2897577289
 20
4.0844107509
 30
0.0
 10
5.2773087694
 20
4.0988434756
 30
0.0
 10
5.2655825076
 20
4.1138693352
 30
0.0
 10
5.2546072614
 20
4.1294522643
 30
0.0
 10
5.2444119123
 20
4.145556219
 30
0.0
 10
5.2350193279
 20
4.1621410431
 30
0.0
 10
5.2264509734
 20
4.1791661271
 30
0.0
 10
5.2187294417
 20
4.19659139
 30
0.0
 10
5.2118736707
 20
4.2143748368
 30
0.0
 10
5.2058977755
 20
4.2324727953
 30
0.0
 10
5.2008169616
 20
4.2508421901
 30
0.0
 10
5.1966455556
 20
4.2694392993
 30
0.0
 10
5.1933909012
 20
4.2882186666
 30
0.0
 10
5.1910605543
 20
4.3071351641
 30
0.0
 10
5.189662931
 20
4.326143503
 30
0.0
 10
5.18919986
 20
4.3451976014
 30
0.0
 10
5.1896708039
 20
4.3642515557
 30
0.0
 10
5.1910765292
 20
4.3832594295
 30
0.0
 10
5.1934145988
 20
4.402175167
 30
0.0
 10
5.1966765757
 20
4.4209534859
 30
0.0
 10
5.2008550573
 20
4.4395492022
 30
0.0
 10
5.2059425253
 20
4.4579168798
 30
0.0
 10
5.2119243101
 20
4.4760129277
 30
0.0
 10
5.2187853423
 20
4.4937942837
 30
0.0
 10
5.2265115229
 20
4.5112173008
 30
0.0
 10
5.2350834695
 20
4.5282402517
 30
0.0
 10
5.2444787264
 20
4.5448230952
 30
0.0
 10
5.254676025
 20
4.5609251914
 30
0.0
 10
5.265652042
 20
4.5765067998
 30
0.0
 10
5.2773779756
 20
4.5915320239
 30
0.0
 10
5.2898258323
 20
4.6059647374
 30
0.0
 10
5.3029676815
 20
4.6197683828
 30
0.0
 10
5.3167702099
 20
4.6329112327
 30
0.0
 10
5.3311995718
 20
4.6453625908
 30
0.0
 10
5.3462226596
 20
4.6570907797
 30
0.0
 10
5.3618031487
 20
4.668067799
 30
0.0
 10
5.37790253
 20
4.6782690946
 30
0.0
 10
5.394483055
 20
4.6876690536
 30
0.0
 10
5.4115055359
 20
4.6962433623
 30
0.0
 10
5.4289272171
 20
4.7039740567
 30
0.0
 10
5.4467058114
 20
4.7108426459
 30
0.0
 10
5.464799555
 20
4.7168301646
 30
0.0
 10
5.4831654541
 20
4.7219236123
 30
0.0
 10
5.5017605806
 20
4.7261121382
 30
0.0
 10
5.520542557
 20
4.7293834518
 30
0.0
 10
5.5457556624
 20
4.7325096011
 30
0.0
 10
5.5648191288
 20
4.7334648422
 30
0.0
 10
5.5775131454
 20
4.7334763973
 30
0.0
 11
5.5775131454
 21
3.9571598762
 31
0.0
 11
5.5394757348
 21
3.9589974866
 31
0.0
 11
5.5205584195
 21
3.9613148917
 31
0.0
 11
5.5017805676
 21
3.9645593018
 31
0.0
 11
5.4831891341
 21
3.9687223387
 31
0.0
 11
5.464826601
 21
3.9737928353
 31
0.0
 11
5.4467353747
 21
3.9797595358
 31
0.0
 11
5.4289580331
 21
3.9866085803
 31
0.0
 11
5.3945164396
 21
4.0028812111
 31
0.0
 11
5.3618390907
 21
4.0224554342
 31
0.0
 11
5.3462603688
 21
4.0334216083
 31
0.0
 11
5.331239323
 21
4.0451402635
 31
0.0
 11
5.3168117728
 21
4.0575828087
 31
0.0
 11
5.303011836
 21
4.0707182882
 31
0.0
 11
5.2898735788
 21
4.0845156817
 31
0.0
 11
5.2774292561
 21
4.0989422866
 31
0.0
 11
5.2657076687
 21
4.1139621916
 31
0.0
 11
5.2547372291
 21
4.1295391245
 31
0.0
 11
5.2445456957
 21
4.1456363822
 31
0.0
 11
5.2351566521
 21
4.1622145094
 31
0.0
 11
5.2265920415
 21
4.1792329695
 31
0.0
 11
5.2188736962
 21
4.1966511803
 31
0.0
 11
5.2120203005
 21
4.2144273
 31
0.0
 11
5.2060469505
 21
4.2325180507
 31
0.0
 11
5.2009685459
 21
4.250880076
 31
0.0
 11
5.1967983672
 21
4.2694695774
 31
0.0
 11
5.1935449611
 21
4.2882414642
 31
0.0
 11
5.191216014
 21
4.3071504108
 31
0.0
 11
5.189818694
 21
4.3261510432
 31
0.0
 11
5.1893555295
 21
4.3451975561
 31
0.0
 11
5.1898266029
 21
4.3642439164
 31
0.0
 11
5.1912319219
 21
4.3832440939
 31
0.0
 11
5.1935685906
 21
4.4021523105
 31
0.0
 11
5.1968293496
 21
4.4209231669
 31
0.0
 11
5.2010065798
 21
4.4395112957
 31
0.0
 11
5.2060915854
 21
4.4578716334
 31
0.0
 11
5.2120708514
 21
4.4759604796
 31
0.0
 11
5.2189295146
 21
4.4937345152
 31
0.0
 11
5.2266524403
 21
4.511150531
 31
0.0
 11
5.23522067
 21
4.528166866
 31
0.0
 11
5.2446124198
 21
4.5447430034
 31
0.0
 11
5.2548058245
 21
4.5608384633
 31
0.0
 11
5.265777043
 21
4.5764140889
 31
0.0
 11
5.277498343
 21
4.5914333291
 31
0.0
 11
5.2899415376
 21
4.6058599371
 31
0.0
 11
5.3030778038
 21
4.6196582594
 31
0.0
 11
5.3168747095
 21
4.6327960087
 31
0.0
 11
5.3312985512
 21
4.6452420836
 31
0.0
 11
5.3463155042
 21
4.6569655442
 31
0.0
 11
5.3618895147
 21
4.6679384345
 31
0.0
 11
5.3779825553
 21
4.6781354397
 31
0.0
 11
5.3945565258
 21
4.6875313438
 31
0.0
 11
5.4115720813
 21
4.6961027637
 31
0.0
 11
5.428987032
 21
4.7038305074
 31
0.0
 11
5.4467587922
 21
4.7106959655
 31
0.0
 11
5.4648447954
 21
4.7166811214
 31
0.0
 11
5.4832026236
 21
4.7217725375
 31
0.0
 11
5.5017899282
 21
4.7259589115
 31
0.0
 11
5.520564261
 21
4.7292290179
 31
0.0
 11
5.5394785956
 21
4.731574623
 31
0.0
 11
5.5775131454
 21
4.7334763973
 31
0.0
  0
SPLINE
  5
264
100
AcDbEntity
  8
0
100
AcDbSpline
 62
6
  6
CONTINUOUS
 70
0
 71
3
 72
42
 73
38
 74
36
 42
0.0000001
 43
0.0000001
 44
0.0000000001
 12
0.4861635269
 22
0.5232351736
 32
0.0
 13
-0.6709966292
 23
0.2447315783
 33
0.0
 40
0.0
 40
0.0
 40
0.0
 40
0.0
 40
0.0312383789
 40
0.0624999545
 40
0.0781337938
 40
0.0937649348
 40
0.1250172013
 40
0.1562669175
 40
0.1875187018
 40
0.2187725861
 40
0.2500264322
 40
0.2812799218
 40
0.3125337216
 40
0.3437878001
 40
0.3750424546
 40
0.4062968411
 40
0.4375504778
 40
0.4688033794
 40
0.5000546611
 40
0.5313046445
 40
0.5625533835
 40
0.5938008785
 40
0.6250477235
 40
0.6562938049
 40
0.6875395352
 40
0.7187846693
 40
0.7344088344
 40
0.7500330503
 40
0.7812782511
 40
0.8125237832
 40
0.8437688805
 40
0.8750123641
 40
0.9062575101
 40
0.9218839027
 40
0.9375122295
 40
0.9687647271
 40
1.0
 40
1.0
 40
1.0
 40
1.0
 10
5.8423964053
 20
4.1249889776
 30
0.0
 10
5.8474587254
 20
4.1304373172
 30
0.0
 10
5.8572345434
 20
4.1416713097
 30
0.0
 10
5.8685227822
 20
4.1564734563
 30
0.0
 10
5.8769686531
 20
4.1687345728
 30
0.0
 10
5.8850131984
 20
4.1812599052
 30
0.0
 10
5.8943063336
 20
4.1973900015
 30
0.0
 10
5.9041959037
 20
4.2174168404
 30
0.0
 10
5.9127866936
 20
4.2380349839
 30
0.0
 10
5.9200526301
 20
4.2591571948
 30
0.0
 10
5.9259659281
 20
4.2806977063
 30
0.0
 10
5.9305066265
 20
4.3025685435
 30
0.0
 10
5.9336650732
 20
4.3246813267
 30
0.0
 10
5.9354287153
 20
4.3469490051
 30
0.0
 10
5.9357994527
 20
4.369283302
 30
0.0
 10
5.9347796135
 20
4.3915972721
 30
0.0
 10
5.9323749295
 20
4.4138041555
 30
0.0
 10
5.9286041689
 20
4.4358194148
 30
0.0
 10
5.9234822827
 20
4.4575591505
 30
0.0
 10
5.9170349447
 20
4.4789420876
 30
0.0
 10
5.90929191
 20
4.4998896788
 30
0.0
 10
5.9002833891
 20
4.5203240746
 30
0.0
 10
5.8900506058
 20
4.5401728619
 30
0.0
 10
5.8786318023
 20
4.5593634435
 30
0.0
 10
5.8660752153
 20
4.5778284913
 30
0.0
 10
5.8547024001
 20
4.5925587155
 30
0.0
 10
5.8450867742
 20
4.6039148463
 30
0.0
 10
5.8351351741
 20
4.6149777522
 30
0.0
 10
5.8220809117
 20
4.6282405267
 30
0.0
 10
5.8054939977
 20
4.6431895495
 30
0.0
 10
5.7880481559
 20
4.6571265929
 30
0.0
 10
5.7698061287
 20
4.6700029007
 30
0.0
 10
5.7539947454
 20
4.6798163401
 30
0.0
 10
5.7410157029
 20
4.6870970646
 30
0.0
 10
5.7278257986
 20
4.6939924167
 30
0.0
 10
5.7109704102
 20
4.7018779917
 30
0.0
 10
5.6971403062
 20
4.7073865482
 30
0.0
 10
5.6901540519
 20
4.709934634
 30
0.0
 11
5.8423964053
 21
4.1249889776
 31
0.0
 11
5.8570444911
 21
4.1418186236
 31
0.0
 11
5.8705847478
 21
4.1595726212
 31
0.0
 11
5.8769189902
 21
4.1687683696
 31
0.0
 11
5.8829523688
 21
4.1781619696
 31
0.0
 11
5.8940963748
 21
4.1975025292
 31
0.0
 11
5.9039792153
 21
4.217514882
 31
0.0
 11
5.9125656464
 21
4.2381183754
 31
0.0
 11
5.9198271701
 21
4.2592268565
 31
0.0
 11
5.9257371826
 21
4.2807528463
 31
0.0
 11
5.9302762377
 21
4.3026087859
 31
0.0
 11
5.9334325937
 21
4.3247070306
 31
0.0
 11
5.9351965562
 21
4.346959948
 31
0.0
 11
5.9355676871
 21
4.3692799955
 31
0.0
 11
5.9345487865
 21
4.3915796716
 31
0.0
 11
5.9321472078
 21
4.4137725134
 31
0.0
 11
5.9283788749
 21
4.4357740141
 31
0.0
 11
5.9232612516
 21
4.4575001423
 31
0.0
 11
5.9168188534
 21
4.4788699534
 31
0.0
 11
5.9090808384
 21
4.4998045365
 31
0.0
 11
5.9000792337
 21
4.5202267083
 31
0.0
 11
5.8898528139
 21
4.5400633814
 31
0.0
 11
5.8784420905
 21
4.5592426491
 31
0.0
 11
5.8658933611
 21
4.5776971098
 31
0.0
 11
5.8522557629
 21
4.5953616119
 31
0.0
 11
5.8450447846
 21
4.6038781807
 31
0.0
 11
5.8375816785
 21
4.612174747
 31
0.0
 11
5.8219272763
 21
4.6280794802
 31
0.0
 11
5.8053507107
 21
4.6430209956
 31
0.0
 11
5.7879151404
 21
4.6569500456
 31
0.0
 11
5.7696846659
 21
4.6698192302
 31
0.0
 11
5.7507239057
 21
4.681588201
 31
0.0
 11
5.74098994
 21
4.6870485649
 31
0.0
 11
5.7310979227
 21
4.692220073
 31
0.0
 11
5.7108799219
 21
4.7016797733
 31
0.0
 11
5.6901540519
 21
4.709934634
 31
0.0
  0
SPLINE
  5
265
100
AcDbEntity
  8
0
100
AcDbSpline
 62
6
  6
CONTINUOUS
 70
0
 71
3
 72
69
 73
65
 74
63
 42
0.0000001
 43
0.0000001
 44
0.0000000001
 12
1.2716663088
 22
0.0011130156
 32
0.0
 13
-1.2716663115
 23
-0.0011099628
 33
0.0
 40
0.0
 40
0.0
 40
0.0
 40
0.0
 40
0.0312342934
 40
0.0468646972
 40
0.0624925261
 40
0.0781174717
 40
0.0937412908
 40
0.109365648
 40
0.1249909755
 40
0.1406166811
 40
0.1562421996
 40
0.1718674402
 40
0.1874925228
 40
0.2031175306
 40
0.2187426512
 40
0.2343679056
 40
0.2499932214
 40
0.2656186644
 40
0.281244235
 40
0.2968697918
 40
0.3124953069
 40
0.3281208073
 40
0.3437461551
 40
0.3593712765
 40
0.3749963094
 40
0.3906213024
 40
0.4062463119
 40
0.4218714946
 40
0.4374968283
 40
0.4531222529
 40
0.4687478522
 40
0.4843735846
 40
0.4999993118
 40
0.5156250439
 40
0.5312507789
 40
0.5468763687
 40
0.5625017727
 40
0.57812709
 40
0.5937522855
 40
0.6093773677
 40
0.6250024622
 40
0.6406275374
 40
0.6562525587
 40
0.6718776329
 40
0.6875027315
 40
0.703127775
 40
0.7187528436
 40
0.734377947
 40
0.7500030023
 40
0.7656280682
 40
0.7812531785
 40
0.7968782333
 40
0.8125032599
 40
0.8281284396
 40
0.8437538493
 40
0.8593796136
 40
0.8750055865
 40
0.8906312038
 40
0.9062559221
 40
0.9218803074
 40
0.9375059494
 40
0.9531344872
 40
0.9687653607
 40
1.0
 40
1.0
 40
1.0
 40
1.0
 10
5.5775131454
 20
4.749039086
 30
0.0
 10
5.5907530116
 20
4.749050674
 30
0.0
 10
5.6106373765
 20
4.7480876029
 30
0.0
 10
5.6369376923
 20
4.7448653285
 30
0.0
 10
5.6565292429
 20
4.741479241
 30
0.0
 10
5.6759269919
 20
4.737134959
 30
0.0
 10
5.6950869721
 20
4.7318441887
 30
0.0
 10
5.7139636727
 20
4.7256174909
 30
0.0
 10
5.7325124886
 20
4.7184708953
 30
0.0
 10
5.7506890392
 20
4.7104232148
 30
0.0
 10
5.7684480783
 20
4.7014918724
 30
0.0
 10
5.7857461803
 20
4.6916981885
 30
0.0
 10
5.8025429361
 20
4.6810680307
 30
0.0
 10
5.8187973469
 20
4.6696257833
 30
0.0
 10
5.8344694337
 20
4.6573979994
 30
0.0
 10
5.8495230742
 20
4.6444162868
 30
0.0
 10
5.8639216145
 20
4.6307113148
 30
0.0
 10
5.8776286303
 20
4.6163145428
 30
0.0
 10
5.8906129643
 20
4.6012626765
 30
0.0
 10
5.9028435091
 20
4.5855920608
 30
0.0
 10
5.9142885094
 20
4.5693388885
 30
0.0
 10
5.9249219697
 20
4.5525437184
 30
0.0
 10
5.9347192531
 20
4.5352475992
 30
0.0
 10
5.9436545145
 20
4.5174910026
 30
0.0
 10
5.9517069569
 20
4.4993172253
 30
0.0
 10
5.9588589735
 20
4.4807706636
 30
0.0
 10
5.9650914245
 20
4.4618951038
 30
0.0
 10
5.9703891116
 20
4.4427360549
 30
0.0
 10
5.97474157
 20
4.4233402508
 30
0.0
 10
5.9781368487
 20
4.4037539815
 30
0.0
 10
5.9805653746
 20
4.3840243577
 30
0.0
 10
5.9820240547
 20
4.3641993281
 30
0.0
 10
5.9825087922
 20
4.3443265157
 30
0.0
 10
5.9820159404
 20
4.3244539049
 30
0.0
 10
5.9805494188
 20
4.3046294579
 30
0.0
 10
5.9781131705
 20
4.2849007982
 30
0.0
 10
5.9747103588
 20
4.2653158623
 30
0.0
 10
5.9703509684
 20
4.2459216345
 30
0.0
 10
5.9650467725
 20
4.22676436
 30
0.0
 10
5.9588081761
 20
4.2078907564
 30
0.0
 10
5.9516508474
 20
4.1893461602
 30
0.0
 10
5.9435938639
 20
4.1711743857
 30
0.0
 10
5.9346547731
 20
4.1534198882
 30
0.0
 10
5.9248547309
 20
4.1361257303
 30
0.0
 10
5.9142195029
 20
4.11933227
 30
0.0
 10
5.9027734995
 20
4.1030805307
 30
0.0
 10
5.8905431048
 20
4.0874105964
 30
0.0
 10
5.8775599403
 20
4.0723584967
 30
0.0
 10
5.8638546916
 20
4.0579607132
 30
0.0
 10
5.8494587371
 20
4.0442535466
 30
0.0
 10
5.8344086375
 20
4.0312680675
 30
0.0
 10
5.8187405966
 20
4.0190352616
 30
0.0
 10
5.8024906865
 20
4.0075866379
 30
0.0
 10
5.7856991584
 20
3.99694806
 30
0.0
 10
5.7684065696
 20
3.987144248
 30
0.0
 10
5.7506531388
 20
3.9782011913
 30
0.0
 10
5.7324825407
 20
3.970139336
 30
0.0
 10
5.7139396402
 20
3.9629764023
 30
0.0
 10
5.6950684688
 20
3.9567314284
 30
0.0
 10
5.6759135709
 20
3.9514198588
 30
0.0
 10
5.6565202346
 20
3.9470522711
 30
0.0
 10
5.6369323662
 20
3.9436405513
 30
0.0
 10
5.6106360643
 20
3.9403807193
 30
0.0
 10
5.5907531582
 20
3.9393855024
 30
0.0
 10
5.5775131454
 20
3.9393739459
 30
0.0
 11
5.5775131454
 21
4.749039086
 31
0.0
 11
5.6171864366
 21
4.7471213557
 31
0.0
 11
5.6369155221
 21
4.7447037097
 31
0.0
 11
5.6564985984
 21
4.7413192162
 31
0.0
 11
5.6758880665
 21
4.7369770415
 31
0.0
 11
5.6950395158
 21
4.7316882782
 31
0.0
 11
5.7139085123
 21
4.7254643576
 31
0.0
 11
5.7324502197
 21
4.7183208053
 31
0.0
 11
5.7506195307
 21
4.7102759003
 31
0.0
 11
5.7683713982
 21
4.7013480727
 31
0.0
 11
5.7856627112
 21
4.6915587235
 31
0.0
 11
5.8024525789
 21
4.6809326605
 31
0.0
 11
5.818700245
 21
4.6694948965
 31
0.0
 11
5.8343662986
 21
4.6572723943
 31
0.0
 11
5.8494138546
 21
4.6442957763
 31
0.0
 11
5.8638063066
 21
4.6305960688
 31
0.0
 11
5.8775081354
 21
4.6162054129
 31
0.0
 11
5.890487333
 21
4.6011595508
 31
0.0
 11
5.9027125985
 21
4.5854949499
 31
0.0
 11
5.9141532642
 21
4.5692485379
 31
0.0
 11
5.9247826541
 21
4.5524601474
 31
0.0
 11
5.9345756437
 21
4.5351707393
 31
0.0
 11
5.943507405
 21
4.5174214161
 31
0.0
 11
5.9515568956
 21
4.4992550718
 31
0.0
 11
5.958705707
 21
4.4807158472
 31
0.0
 11
5.9649356024
 21
4.461847949
 31
0.0
 11
5.9702315507
 21
4.4426966862
 31
0.0
 11
5.9745820268
 21
4.4233085733
 31
0.0
 11
5.9779757084
 21
4.4037301902
 31
0.0
 11
5.9804037257
 21
4.3840085341
 31
0.0
 11
5.9818617304
 21
4.3641913715
 31
0.0
 11
5.9823458607
 21
4.3443265516
 31
0.0
 11
5.9818536615
 21
4.3244619237
 31
0.0
 11
5.9803877891
 21
4.3046453381
 31
0.0
 11
5.9779520608
 21
4.2849246451
 31
0.0
 11
5.9745509165
 21
4.2653475836
 31
0.0
 11
5.9701934827
 21
4.2459610546
 31
0.0
 11
5.9648910208
 21
4.2268115774
 31
0.0
 11
5.9586550531
 21
4.2079455878
 31
0.0
 11
5.9515009
 21
4.1894082857
 31
0.0
 11
5.9434468357
 21
4.1712439098
 31
0.0
 11
5.9345112927
 21
4.1534966327
 31
0.0
 11
5.9247155392
 21
4.1362091902
 31
0.0
 11
5.9140843605
 21
4.1194225371
 31
0.0
 11
5.9026427743
 21
4.103177507
 31
0.0
 11
5.8904176529
 21
4.087513581
 31
0.0
 11
5.8774395791
 21
4.0724675342
 31
0.0
 11
5.8637395776
 21
4.0580758194
 31
0.0
 11
5.8493497267
 21
4.0443738406
 31
0.0
 11
5.8343056268
 21
4.0313934964
 31
0.0
 11
5.818643613
 21
4.0191659541
 31
0.0
 11
5.8024004919
 21
4.0077216952
 31
0.0
 11
5.7856157768
 21
3.9970872643
 31
0.0
 11
5.7683299446
 21
3.9872878046
 31
0.0
 11
5.7505837036
 21
3.9783481034
 31
0.0
 11
5.7324202821
 21
3.970289072
 31
0.0
 11
5.713884464
 21
3.9631292292
 31
0.0
 11
5.6950210487
 21
3.9568869516
 31
0.0
 11
5.675874611
 21
3.9515773792
 31
0.0
 11
5.6564894664
 21
3.9472119106
 31
0.0
 11
5.6369099326
 21
3.9438017259
 31
0.0
 11
5.6171837215
 21
3.9413558775
 31
0.0
 11
5.5775131454
 21
3.9393739459
 31
0.0
  0
SPLINE
  5
266
100
AcDbEntity
  8
0
100
AcDbSpline
 62
6
  6
CONTINUOUS
 70
0
 71
3
 72
67
 73
63
 74
61
 42
0.0000001
 43
0.0000001
 44
0.0000000001
 12
1.2646585288
 22
0.001113003
 32
0.0
 13
-1.2646585315
 23
-0.0011099343
 33
0.0
 40
0.0
 40
0.0
 40
0.0
 40
0.0
 40
0.0312333712
 40
0.0468647046
 40
0.0624938715
 40
0.0781195599
 40
0.0937435217
 40
0.1093674929
 40
0.124992506
 40
0.1562344358
 40
0.1874757289
 40
0.2031009855
 40
0.2187263536
 40
0.2343519889
 40
0.2499777951
 40
0.2656036617
 40
0.2812296626
 40
0.2968557721
 40
0.3124818424
 40
0.3281078611
 40
0.3437338667
 40
0.3593597055
 40
0.3749852572
 40
0.3906106507
 40
0.4062359654
 40
0.4218612179
 40
0.4374865695
 40
0.4531120877
 40
0.4687376874
 40
0.4843633894
 40
0.4999892669
 40
0.5156151859
 40
0.5312410224
 40
0.5468668419
 40
0.5624925988
 40
0.5781181489
 40
0.593743523
 40
0.6093688747
 40
0.6249942226
 40
0.6406196524
 40
0.6562452816
 40
0.6718709836
 40
0.6874966105
 40
0.7031222138
 40
0.7187477891
 40
0.7343732169
 40
0.7499985197
 40
0.7656238049
 40
0.7812490178
 40
0.7968741557
 40
0.8124994213
 40
0.8281249209
 40
0.843750736
 40
0.8593769561
 40
0.8750031787
 40
0.8906287862
 40
0.9062534386
 40
0.9218782374
 40
0.9375047856
 40
0.9531346821
 40
0.968766402
 40
1.0
 40
1.0
 40
1.0
 40
1.0
 10
5.5775131454
 20
4.7468158436
 30
0.0
 10
5.5906796618
 20
4.7468274312
 30
0.0
 10
5.6104544351
 20
4.7458693224
 30
0.0
 10
5.6366104054
 20
4.7426650554
 30
0.0
 10
5.6560953553
 20
4.7392980637
 30
0.0
 10
5.6753871238
 20
4.7349773475
 30
0.0
 10
5.6944415945
 20
4.7297156226
 30
0.0
 10
5.7132145701
 20
4.7235237412
 30
0.0
 10
5.7378044183
 20
4.7140490595
 30
0.0
 10
5.7676276133
 20
4.6999609959
 30
0.0
 10
5.7959214717
 20
4.6830092198
 30
0.0
 10
5.8174706306
 20
4.6678406216
 30
0.0
 10
5.8330573906
 20
4.655680332
 30
0.0
 10
5.8480276913
 20
4.6427691171
 30
0.0
 10
5.8623472787
 20
4.62913931
 30
0.0
 10
5.8759803516
 20
4.6148225995
 30
0.0
 10
5.8888927736
 20
4.599852533
 30
0.0
 10
5.9010556068
 20
4.5842672624
 30
0.0
 10
5.9124394832
 20
4.5681041974
 30
0.0
 10
5.9230144459
 20
4.5514007205
 30
0.0
 10
5.9327567681
 20
4.5341984738
 30
0.0
 10
5.9416441902
 20
4.5165395768
 30
0.0
 10
5.9496532814
 20
4.4984656012
 30
0.0
 10
5.9567643858
 20
4.4800201038
 30
0.0
 10
5.962962867
 20
4.461248395
 30
0.0
 10
5.96823296
 20
4.4421951665
 30
0.0
 10
5.9725597947
 20
4.422905766
 30
0.0
 10
5.9759357471
 20
4.403427333
 30
0.0
 10
5.9783529839
 20
4.3838066608
 30
0.0
 10
5.9798027832
 20
4.3640907138
 30
0.0
 10
5.9802832587
 20
4.3443272852
 30
0.0
 10
5.97979495
 20
4.324563987
 30
0.0
 10
5.9783370402
 20
4.304848471
 30
0.0
 10
5.97591209
 20
4.285228507
 30
0.0
 10
5.9725288365
 20
4.2657510635
 30
0.0
 10
5.9681949323
 20
4.2464630115
 30
0.0
 10
5.9629181881
 20
4.2274114771
 30
0.0
 10
5.9567138378
 20
4.2086416687
 30
0.0
 10
5.9495974853
 20
4.1901982614
 30
0.0
 10
5.9415837407
 20
4.1721265362
 30
0.0
 10
5.9326927433
 20
4.1544697584
 30
0.0
 10
5.9229477614
 20
4.1372694688
 30
0.0
 10
5.9123708354
 20
4.120567833
 30
0.0
 10
5.9009861783
 20
4.1044060645
 30
0.0
 10
5.8888236728
 20
4.0888214024
 30
0.0
 10
5.8759123569
 20
4.0738513342
 30
0.0
 10
5.8622812026
 20
4.0595337888
 30
0.0
 10
5.8479647655
 20
4.0459016737
 30
0.0
 10
5.8329981466
 20
4.0329868245
 30
0.0
 10
5.817415683
 20
4.0208220933
 30
0.0
 10
5.801255053
 20
4.0094365193
 30
0.0
 10
5.7845561998
 20
3.9988555761
 30
0.0
 10
5.7673582798
 20
3.9891058367
 30
0.0
 10
5.7497019436
 20
3.9802125226
 30
0.0
 10
5.7316315421
 20
3.9721942686
 30
0.0
 10
5.713190939
 20
3.9650702566
 30
0.0
 10
5.6944234558
 20
3.9588601599
 30
0.0
 10
5.6753736902
 20
3.9535774635
 30
0.0
 10
5.6560861718
 20
3.9492334245
 30
0.0
 10
5.6366048599
 20
3.9458407936
 30
0.0
 10
5.6104529873
 20
3.9425989536
 30
0.0
 10
5.5906797574
 20
3.9416087435
 30
0.0
 10
5.5775131454
 20
3.9415971878
 30
0.0
 11
5.5775131454
 21
4.7468158436
 31
0.0
 11
5.6169666383
 21
4.7449086204
 31
0.0
 11
5.6365882009
 21
4.7425044095
 31
0.0
 11
5.6560651051
 21
4.7391387244
 31
0.0
 11
5.675348636
 21
4.7348202536
 31
0.0
 11
5.6943947217
 21
4.7295605885
 31
0.0
 11
5.7131593698
 21
4.723371412
 31
0.0
 11
5.7315984204
 21
4.7162670885
 31
0.0
 11
5.7673219817
 21
4.6993881683
 31
0.0
 11
5.8012156873
 21
4.679084871
 31
0.0
 11
5.8173743212
 21
4.6677103065
 31
0.0
 11
5.8329545305
 21
4.6555552738
 31
0.0
 11
5.8479191595
 21
4.6426494233
 31
0.0
 11
5.8622328234
 21
4.6290248623
 31
0.0
 11
5.8758601908
 21
4.6147137646
 31
0.0
 11
5.8887678037
 21
4.5997500452
 31
0.0
 11
5.9009257895
 21
4.5841709509
 31
0.0
 11
5.9123046805
 21
4.5680141045
 31
0.0
 11
5.9228756835
 21
4.5513175734
 31
0.0
 11
5.9326143329
 21
4.5341222742
 31
0.0
 11
5.9414978719
 21
4.5164702487
 31
0.0
 11
5.9495036569
 21
4.4984035854
 31
0.0
 11
5.9566123004
 21
4.4799656842
 31
0.0
 11
5.9628081444
 21
4.4612014472
 31
0.0
 11
5.9680757371
 21
4.442155859
 31
0.0
 11
5.9724012959
 21
4.4228743534
 31
0.0
 11
5.9757759524
 21
4.4034036848
 31
0.0
 11
5.9781917378
 21
4.3837908497
 31
0.0
 11
5.9796412244
 21
4.3640828965
 31
0.0
 11
5.9801217942
 21
4.3443273338
 31
0.0
 11
5.9796333478
 21
4.3245719119
 31
0.0
 11
5.978175865
 21
4.3048643779
 31
0.0
 11
5.9757523656
 21
4.2852522145
 31
0.0
 11
5.9723703714
 21
4.2657825126
 31
0.0
 11
5.9680377676
 21
4.2465023315
 31
0.0
 11
5.9627635805
 21
4.2274584087
 31
0.0
 11
5.9565618384
 21
4.208696071
 31
0.0
 11
5.949447941
 21
4.1902602582
 31
0.0
 11
5.9414375785
 21
4.1721957926
 31
0.0
 11
5.9325504332
 21
4.1545458793
 31
0.0
 11
5.9228090867
 21
4.1373525491
 31
0.0
 11
5.9122362031
 21
4.1206577951
 31
0.0
 11
5.9008565214
 21
4.1045022283
 31
0.0
 11
5.8886988181
 21
4.0889237704
 31
0.0
 11
5.8757923349
 21
4.0739600337
 31
0.0
 11
5.862166973
 21
4.0596480112
 31
0.0
 11
5.8478563706
 21
4.0460211898
 31
0.0
 11
5.8328954806
 21
4.033111823
 31
0.0
 11
5.8173193817
 21
4.0209519965
 31
0.0
 11
5.8011654708
 21
4.0095707054
 31
0.0
 11
5.7844731938
 21
3.9989942127
 31
0.0
 11
5.7672820722
 21
3.9892486792
 31
0.0
 11
5.7496329197
 21
3.9803583618
 31
0.0
 11
5.7315694999
 21
3.9723431689
 31
0.0
 11
5.7131359862
 21
3.965222405
 31
0.0
 11
5.6943765324
 21
3.9590147593
 31
0.0
 11
5.6753351388
 21
3.9537341704
 31
0.0
 11
5.6560557342
 21
3.9493923638
 31
0.0
 11
5.6365823509
 21
3.946000985
 31
0.0
 11
5.6169637714
 21
3.943568575
 31
0.0
 11
5.5775131454
 21
3.9415971878
 31
0.0
  0
SPLINE
  5
267
100
AcDbEntity
  8
0
100
AcDbSpline
 62
6
  6
CONTINUOUS
 70
0
 71
3
 72
69
 73
65
 74
63
 42
0.0000001
 43
0.0000001
 44
0.0000000001
 12
1.2576986844
 22
0.0011130307
 32
0.0
 13
-1.2576986871
 23
-0.0011099459
 33
0.0
 40
0.0
 40
0.0
 40
0.0
 40
0.0
 40
0.0312328087
 40
0.046863987
 40
0.0624931558
 40
0.0781189151
 40
0.093742903
 40
0.1093667433
 40
0.1249914688
 40
0.1406167499
 40
0.1562420412
 40
0.1718670533
 40
0.1874919418
 40
0.2031168113
 40
0.2187418189
 40
0.2343671216
 40
0.2499926125
 40
0.2656181652
 40
0.281243842
 40
0.2968696217
 40
0.3124953576
 40
0.328121035
 40
0.3437467029
 40
0.3593722203
 40
0.3749974756
 40
0.3906225853
 40
0.4062475947
 40
0.4218724812
 40
0.4374973752
 40
0.4531223444
 40
0.4687473069
 40
0.4843722875
 40
0.4999973928
 40
0.5156225475
 40
0.5312476959
 40
0.5468729296
 40
0.5624981739
 40
0.5781232722
 40
0.5937482642
 40
0.6093732932
 40
0.6249983766
 40
0.6406236172
 40
0.6562491229
 40
0.6718747621
 40
0.687500405
 40
0.7031261108
 40
0.7187518354
 40
0.7343774263
 40
0.750002883
 40
0.7656282716
 40
0.7812534855
 40
0.7968784715
 40
0.8125034434
 40
0.8281285742
 40
0.8437540096
 40
0.8593798826
 40
0.8750057854
 40
0.8906310853
 40
0.9062554233
 40
0.9218798911
 40
0.9375060959
 40
0.9531356415
 40
0.9687670236
 40
1.0
 40
1.0
 40
1.0
 40
1.0
 10
5.5775131454
 20
4.7445926028
 30
0.0
 10
5.5906069662
 20
4.7446041905
 30
0.0
 10
5.6102726176
 20
4.7436514653
 30
0.0
 10
5.6362843534
 20
4.7404649527
 30
0.0
 10
5.6556620506
 20
4.7371165314
 30
0.0
 10
5.6748476646
 20
4.7328195815
 30
0.0
 10
5.6937973447
 20
4.7275867783
 30
0.0
 10
5.7124665531
 20
4.7214292613
 30
0.0
 10
5.7308108658
 20
4.7143609099
 30
0.0
 10
5.7487870086
 20
4.706401254
 30
0.0
 10
5.7663511151
 20
4.6975691111
 30
0.0
 10
5.7834590859
 20
4.6878832613
 30
0.0
 10
5.8000707458
 20
4.6773693578
 30
0.0
 10
5.8161467939
 20
4.6660533937
 30
0.0
 10
5.8316471171
 20
4.6539604976
 30
0.0
 10
5.8465347565
 20
4.6411205198
 30
0.0
 10
5.8607751809
 20
4.6275659696
 30
0.0
 10
5.8743329619
 20
4.61332834
 30
0.0
 10
5.8871740278
 20
4.5984409416
 30
0.0
 10
5.8992696156
 20
4.5829417258
 30
0.0
 10
5.910590568
 20
4.5668679351
 30
0.0
 10
5.9211071031
 20
4.5502567401
 30
0.0
 10
5.9307955534
 20
4.5331494992
 30
0.0
 10
5.9396338321
 20
4.5155881171
 30
0.0
 10
5.9475986734
 20
4.4976139454
 30
0.0
 10
5.9546704527
 20
4.4792702837
 30
0.0
 10
5.9608346378
 20
4.4606022437
 30
0.0
 10
5.9660755875
 20
4.4416543244
 30
0.0
 10
5.9703784686
 20
4.4224716378
 30
0.0
 10
5.9737356912
 20
4.4031010745
 30
0.0
 10
5.9761394981
 20
4.3835891723
 30
0.0
 10
5.9775812772
 20
4.3639826231
 30
0.0
 10
5.9780591954
 20
4.3443289098
 30
0.0
 10
5.9775736902
 20
4.3246753035
 30
0.0
 10
5.9761237961
 20
4.3050691468
 30
0.0
 10
5.9737124521
 20
4.2855578851
 30
0.0
 10
5.9703481805
 20
4.2661882275
 30
0.0
 10
5.9660383078
 20
4.2470068599
 30
0.0
 10
5.960790811
 20
4.2280606214
 30
0.0
 10
5.9546210088
 20
4.2093944063
 30
0.0
 10
5.9475441177
 20
4.1910527284
 30
0.0
 10
5.939574547
 20
4.1730806918
 30
0.0
 10
5.9307327781
 20
4.155521116
 30
0.0
 10
5.9210416794
 20
4.1384154196
 30
0.0
 10
5.9105229395
 20
4.1218056828
 30
0.0
 10
5.8992009451
 20
4.1057327173
 30
0.0
 10
5.8871053954
 20
4.0902335852
 30
0.0
 10
5.8742650743
 20
4.0753456934
 30
0.0
 10
5.8607087947
 20
4.0611068331
 30
0.0
 10
5.8464710739
 20
4.0475496595
 30
0.0
 10
5.8315868534
 20
4.0347058792
 30
0.0
 10
5.8160903283
 20
4.0226081626
 30
0.0
 10
5.8000189101
 20
4.0112854489
 30
0.0
 10
5.7834123091
 20
4.0007629965
 30
0.0
 10
5.7663094367
 20
3.9910671374
 30
0.0
 10
5.748750667
 20
3.9822229522
 30
0.0
 10
5.7307800921
 20
3.9742489788
 30
0.0
 10
5.7124413557
 20
3.9671642815
 30
0.0
 10
5.6937775532
 20
3.9609884337
 30
0.0
 10
5.6748330355
 20
3.9557348803
 30
0.0
 10
5.6556520934
 20
3.9514147946
 30
0.0
 10
5.636278433
 20
3.9480408363
 30
0.0
 10
5.6102710402
 20
3.9448168063
 30
0.0
 10
5.5906070365
 20
3.9438319854
 30
0.0
 10
5.5775131454
 20
3.9438204298
 30
0.0
 11
5.5775131454
 21
4.7445926028
 31
0.0
 11
5.6167488145
 21
4.7426960891
 31
0.0
 11
5.6362622073
 21
4.7403051966
 31
0.0
 11
5.6556319319
 21
4.736958068
 31
0.0
 11
5.6748094254
 21
4.732663341
 31
0.0
 11
5.6937507291
 21
4.7274326248
 31
0.0
 11
5.7124119696
 21
4.721277612
 31
0.0
 11
5.7307491947
 21
4.7142124856
 31
0.0
 11
5.7487183133
 21
4.7062558486
 31
0.0
 11
5.7662752198
 21
4.6974267583
 31
0.0
 11
5.7833764374
 21
4.6877452109
 31
0.0
 11
5.7999814843
 21
4.6772356768
 31
0.0
 11
5.8160507703
 21
4.6659239572
 31
0.0
 11
5.831544874
 21
4.65383609
 31
0.0
 11
5.8464268003
 21
4.6410015027
 31
0.0
 11
5.8606613702
 21
4.6274521597
 31
0.0
 11
5.8742134609
 21
4.6132200988
 31
0.0
 11
5.8870497457
 21
4.5983390151
 31
0.0
 11
5.8991405204
 21
4.5828459485
 31
0.0
 11
5.9104565165
 21
4.5667783409
 31
0.0
 11
5.9209690988
 21
4.5501740492
 31
0.0
 11
5.9306539014
 21
4.5330737271
 31
0.0
 11
5.9394883229
 21
4.5155191842
 31
0.0
 11
5.9474498669
 21
4.4975522747
 31
0.0
 11
5.9545192099
 21
4.4792161568
 31
0.0
 11
5.9606807848
 21
4.4605555334
 31
0.0
 11
5.965919243
 21
4.4416151969
 31
0.0
 11
5.9702208516
 21
4.4224403611
 31
0.0
 11
5.973576788
 21
4.4030775213
 31
0.0
 11
5.9759791587
 21
4.3835734148
 31
0.0
 11
5.9774206306
 21
4.3639748281
 31
0.0
 11
5.9778986246
 21
4.3443289601
 31
0.0
 11
5.9774129591
 21
4.3246832181
 31
0.0
 11
5.9759635586
 21
4.3050850045
 31
0.0
 11
5.9735536306
 21
4.2855814868
 31
0.0
 11
5.9701905648
 21
4.2662195326
 31
0.0
 11
5.9658820229
 21
4.2470459902
 31
0.0
 11
5.9606370979
 21
4.2281073057
 31
0.0
 11
5.954469841
 21
4.2094485336
 31
0.0
 11
5.9473953761
 21
4.1911144268
 31
0.0
 11
5.9394292447
 21
4.1731495708
 31
0.0
 11
5.9305912624
 21
4.155596837
 31
0.0
 11
5.9209037471
 21
4.1384980929
 31
0.0
 11
5.9103890818
 21
4.1218951716
 31
0.0
 11
5.8990720215
 21
4.1058283598
 31
0.0
 11
5.8869812201
 21
4.090335402
 31
0.0
 11
5.8741456944
 21
4.0754538061
 31
0.0
 11
5.8605951823
 21
4.0612204088
 31
0.0
 11
5.8463632452
 21
4.0476684873
 31
0.0
 11
5.8314847064
 21
4.0348301438
 31
0.0
 11
5.8159945037
 21
4.0227373222
 31
0.0
 11
5.7999297947
 21
4.0114188798
 31
0.0
 11
5.783329761
 21
4.0009008597
 31
0.0
 11
5.7662336629
 21
3.9912091955
 31
0.0
 11
5.7486820348
 21
3.9823679904
 31
0.0
 11
5.7307183986
 21
3.9743970551
 31
0.0
 11
5.7123867044
 21
3.9673155854
 31
0.0
 11
5.6937308813
 21
3.9611421792
 31
0.0
 11
5.6747946921
 21
3.9558907189
 31
0.0
 11
5.6556218212
 21
3.951572851
 31
0.0
 11
5.6362560531
 21
3.9482001432
 31
0.0
 11
5.6167458722
 21
3.9457810972
 31
0.0
 11
5.5775131454
 21
3.9438204298
 31
0.0
  0
SPLINE
  5
268
100
AcDbEntity
  8
0
100
AcDbSpline
 62
6
  6
CONTINUOUS
 70
0
 71
3
 72
69
 73
65
 74
63
 42
0.0000001
 43
0.0000001
 44
0.0000000001
 12
1.2507150114
 22
0.0011130409
 32
0.0
 13
-1.2507150142
 23
-0.0011099369
 33
0.0
 40
0.0
 40
0.0
 40
0.0
 40
0.0
 40
0.0312328943
 40
0.0468642548
 40
0.0624937389
 40
0.0781198852
 40
0.0937443135
 40
0.1093686352
 40
0.1249939217
 40
0.1406198057
 40
0.1562456509
 40
0.1718710509
 40
0.187496158
 40
0.2031211311
 40
0.2187461525
 40
0.2343714301
 40
0.2499968949
 40
0.2656224216
 40
0.2812480637
 40
0.2968738252
 40
0.3124995582
 40
0.3281252197
 40
0.3437508708
 40
0.3593763814
 40
0.3750016167
 40
0.3906266862
 40
0.4062516977
 40
0.42187667
 40
0.4375017439
 40
0.4531269543
 40
0.4687521402
 40
0.4843772212
 40
0.5000022988
 40
0.5156273375
 40
0.5312522818
 40
0.5468772456
 40
0.5625022357
 40
0.5781271508
 40
0.5937520439
 40
0.6093770487
 40
0.6250021507
 40
0.6406274012
 40
0.6562529152
 40
0.6718785799
 40
0.6875042527
 40
0.7031299823
 40
0.7187557556
 40
0.734381428
 40
0.7500069789
 40
0.7656324675
 40
0.7812577631
 40
0.7968827536
 40
0.8125076022
 40
0.8281324816
 40
0.8437575094
 40
0.8593828398
 40
0.8750081708
 40
0.8906329473
 40
0.9062568355
 40
0.9218808841
 40
0.9375067111
 40
0.9531359369
 40
0.9687671254
 40
1.0
 40
1.0
 40
1.0
 40
1.0
 10
5.5775131454
 20
4.7423693628
 30
0.0
 10
5.5905342953
 20
4.7423809506
 30
0.0
 10
5.6100908649
 20
4.7414335761
 30
0.0
 10
5.6359584153
 20
4.738264811
 30
0.0
 10
5.6552288913
 20
4.7349350009
 30
0.0
 10
5.6743084409
 20
4.7306618141
 30
0.0
 10
5.6931534164
 20
4.7254578959
 30
0.0
 10
5.7117195556
 20
4.7193343983
 30
0.0
 10
5.7299625803
 20
4.7123048638
 30
0.0
 10
5.7478394513
 20
4.7043888715
 30
0.0
 10
5.7653065816
 20
4.6956054444
 30
0.0
 10
5.7823199822
 20
4.6859731392
 30
0.0
 10
5.7988394473
 20
4.6755171256
 30
0.0
 10
5.8148261458
 20
4.6642636451
 30
0.0
 10
5.830240445
 20
4.6522378921
 30
0.0
 10
5.8450451596
 20
4.639468926
 30
0.0
 10
5.8592061817
 20
4.6259893496
 30
0.0
 10
5.8726886345
 20
4.6118307883
 30
0.0
 10
5.8854582063
 20
4.5970259266
 30
0.0
 10
5.8974862603
 20
4.5816125138
 30
0.0
 10
5.908744121
 20
4.5656278412
 30
0.0
 10
5.9192022382
 20
4.5491088846
 30
0.0
 10
5.9288365012
 20
4.5320964269
 30
0.0
 10
5.9376253228
 20
4.5146323949
 30
0.0
 10
5.9455459375
 20
4.4967580609
 30
0.0
 10
5.9525781528
 20
4.4785161615
 30
0.0
 10
5.9587076911
 20
4.4599516239
 30
0.0
 10
5.9639194176
 20
4.4411087711
 30
0.0
 10
5.9681982291
 20
4.4220323398
 30
0.0
 10
5.9715363607
 20
4.4027689836
 30
0.0
 10
5.9739265328
 20
4.3833651603
 30
0.0
 10
5.9753603201
 20
4.3638673561
 30
0.0
 10
5.9758350793
 20
4.3443227729
 30
0.0
 10
5.9753517701
 20
4.3247784627
 30
0.0
 10
5.9739099359
 20
4.305281422
 30
0.0
 10
5.9715117014
 20
4.285878835
 30
0.0
 10
5.9681656996
 20
4.2666171051
 30
0.0
 10
5.9638796208
 20
4.2475425109
 30
0.0
 10
5.9586611473
 20
4.2287016369
 30
0.0
 10
5.9525252272
 20
4.2101392385
 30
0.0
 10
5.9454873722
 20
4.1918995118
 30
0.0
 10
5.9375620487
 20
4.1740272537
 30
0.0
 10
5.9287690224
 20
4.1565653323
 30
0.0
 10
5.9191313792
 20
4.1395547972
 30
0.0
 10
5.9086710248
 20
4.1230372671
 30
0.0
 10
5.8974116632
 20
4.107053657
 30
0.0
 10
5.8853829099
 20
4.0916407935
 30
0.0
 10
5.8726136768
 20
4.076835635
 30
0.0
 10
5.8591325542
 20
4.0626757885
 30
0.0
 10
5.8449735093
 20
4.049194122
 30
0.0
 10
5.8301716485
 20
4.0364218857
 30
0.0
 10
5.8147612078
 20
4.0243913237
 30
0.0
 10
5.7987789603
 20
4.0131318377
 30
0.0
 10
5.7822646455
 20
4.0026683152
 30
0.0
 10
5.7652571812
 20
3.9930265416
 30
0.0
 10
5.7477964485
 20
3.9842318008
 30
0.0
 10
5.7299261777
 20
3.9763026174
 30
0.0
 10
5.7116898101
 20
3.9692576632
 30
0.0
 10
5.6931302034
 20
3.9631162662
 30
0.0
 10
5.6742913717
 20
3.9578920525
 30
0.0
 10
5.6552173932
 20
3.9535960532
 30
0.0
 10
5.6359516907
 20
3.9502408099
 30
0.0
 10
5.610088974
 20
3.9470346322
 30
0.0
 10
5.5905342871
 20
3.9460552247
 30
0.0
 10
5.5775131454
 20
3.9460436692
 30
0.0
 11
5.5775131454
 21
4.7423693628
 31
0.0
 11
5.6165310636
 21
4.7404835273
 31
0.0
 11
5.6359363382
 21
4.7381059506
 31
0.0
 11
5.655198908
 21
4.7347774074
 31
0.0
 11
5.6742703895
 21
4.7305064369
 31
0.0
 11
5.6931070448
 21
4.7253046069
 31
0.0
 11
5.7116652295
 21
4.7191835627
 31
0.0
 11
5.729901226
 21
4.712157255
 31
0.0
 11
5.747771168
 21
4.7042442938
 31
0.0
 11
5.7652311711
 21
4.6954638515
 31
0.0
 11
5.7822378166
 21
4.6858357611
 31
0.0
 11
5.7987507215
 21
4.6753841693
 31
0.0
 11
5.8147307206
 21
4.6641349526
 31
0.0
 11
5.8301387387
 21
4.6521141129
 31
0.0
 11
5.8449377935
 21
4.6393505667
 31
0.0
 11
5.8590930506
 21
4.6258762216
 31
0.0
 11
5.8725697749
 21
4.6117231226
 31
0.0
 11
5.8853345791
 21
4.5969245508
 31
0.0
 11
5.8973579008
 21
4.5815172952
 31
0.0
 11
5.9086108513
 21
4.5655387627
 31
0.0
 11
5.9190649392
 21
4.5490266174
 31
0.0
 11
5.9286956354
 21
4.5320210865
 31
0.0
 11
5.937480688
 21
4.5145638709
 31
0.0
 11
5.945397911
 21
4.4966967042
 31
0.0
 11
5.9524277211
 21
4.4784623485
 31
0.0
 11
5.9585547273
 21
4.4599052228
 31
0.0
 11
5.9637639184
 21
4.4410698959
 31
0.0
 11
5.9680414349
 21
4.422001256
 31
0.0
 11
5.9713783684
 21
4.4027455627
 31
0.0
 11
5.9737671405
 21
4.3833494441
 31
0.0
 11
5.9752004828
 21
4.3638595479
 31
0.0
 11
5.9756754011
 21
4.3443227926
 31
0.0
 11
5.9751920137
 21
4.3247862938
 31
0.0
 11
5.9737505365
 21
4.305297169
 31
0.0
 11
5.9713537413
 21
4.2859023201
 31
0.0
 11
5.9680090129
 21
4.2666482589
 31
0.0
 11
5.96372422
 21
4.2475814563
 31
0.0
 11
5.958508257
 21
4.2287481064
 31
0.0
 11
5.9523749268
 21
4.2101930786
 31
0.0
 11
5.9453394983
 21
4.1919608464
 31
0.0
 11
5.9374174953
 21
4.1740957778
 31
0.0
 11
5.928628296
 21
4.1566406448
 31
0.0
 11
5.91899427
 21
4.1396369806
 31
0.0
 11
5.9085378743
 21
4.1231262797
 31
0.0
 11
5.8972834419
 21
4.1071487962
 31
0.0
 11
5.8852594618
 21
4.0917420357
 31
0.0
 11
5.8724949813
 21
4.0769431348
 31
0.0
 11
5.8590195302
 21
4.0627887817
 31
0.0
 11
5.8448662846
 21
4.0493122804
 31
0.0
 11
5.8300700859
 21
4.0365453891
 31
0.0
 11
5.8146658363
 21
4.0245197835
 31
0.0
 11
5.7986902955
 21
4.0132645064
 31
0.0
 11
5.7821825359
 21
4.002805322
 31
0.0
 11
5.7651817753
 21
3.9931677883
 31
0.0
 11
5.747728176
 21
3.9843760543
 31
0.0
 11
5.7298648549
 21
3.9764498634
 31
0.0
 11
5.7116355047
 21
3.9694080999
 31
0.0
 11
5.693083801
 21
3.9632691664
 31
0.0
 11
5.6742532608
 21
3.9580470205
 31
0.0
 11
5.6551873156
 21
3.95375322
 31
0.0
 11
5.6359294862
 21
3.9503992411
 31
0.0
 11
5.6165278886
 21
3.9479935908
 31
0.0
 11
5.5775131454
 21
3.9460436692
 31
0.0
  0
SPLINE
  5
269
100
AcDbEntity
  8
0
100
AcDbSpline
 62
6
  6
CONTINUOUS
 70
0
 71
3
 72
67
 73
63
 74
61
 42
0.0000001
 43
0.0000001
 44
0.0000000001
 12
1.2437079805
 22
0.001113029
 32
0.0
 13
-1.2437079833
 23
-0.0011099086
 33
0.0
 40
0.0
 40
0.0
 40
0.0
 40
0.0
 40
0.0312335295
 40
0.0468652461
 40
0.0624951042
 40
0.0781216134
 40
0.0937463881
 40
0.1093710348
 40
0.1249966391
 40
0.1406228556
 40
0.1562490641
 40
0.1718748608
 40
0.187500344
 40
0.2031255963
 40
0.2187507207
 40
0.2343759219
 40
0.2500012081
 40
0.2656265328
 40
0.2812520063
 40
0.2968776409
 40
0.3125033026
 40
0.3281289724
 40
0.3437547015
 40
0.359380347
 40
0.3750057837
 40
0.3906311332
 40
0.4062564837
 40
0.4218818523
 40
0.4375073882
 40
0.4531331231
 40
0.4687589139
 40
0.4843847132
 40
0.5000105852
 40
0.5156364048
 40
0.5312620346
 40
0.546887552
 40
0.5625129936
 40
0.5781382915
 40
0.5937635269
 40
0.6093888533
 40
0.6250142719
 40
0.6406398468
 40
0.6562656987
 40
0.6718917116
 40
0.6875177359
 40
0.7031438137
 40
0.7187699321
 40
0.7343959424
 40
0.7500218172
 40
0.7656476309
 40
0.7812732753
 40
0.7968986537
 40
0.8125239224
 40
0.8437652565
 40
0.8750071601
 40
0.8906321463
 40
0.9062561268
 40
0.9218801529
 40
0.9375059363
 40
0.9531351921
 40
0.9687665546
 40
1.0
 40
1.0
 40
1.0
 40
1.0
 10
5.5775131454
 20
4.7401461204
 30
0.0
 10
5.5904616087
 20
4.7401577084
 30
0.0
 10
5.6099090302
 20
4.7392156995
 30
0.0
 10
5.6356322336
 20
4.7360647166
 30
0.0
 10
5.6547952085
 20
4.7327535597
 30
0.0
 10
5.6737683151
 20
4.7285042579
 30
0.0
 10
5.6925081359
 20
4.7233294144
 30
0.0
 10
5.7109706672
 20
4.7172401485
 30
0.0
 10
5.7291118751
 20
4.710249877
 30
0.0
 10
5.7468889772
 20
4.7023780637
 30
0.0
 10
5.7642586569
 20
4.6936436472
 30
0.0
 10
5.7811771502
 20
4.6840650707
 30
0.0
 10
5.7976044084
 20
4.6736673599
 30
0.0
 10
5.8135017889
 20
4.6624767318
 30
0.0
 10
5.8288298747
 20
4.6505183311
 30
0.0
 10
5.8435516185
 20
4.6378209642
 30
0.0
 10
5.8576331704
 20
4.6244170385
 30
0.0
 10
5.8710398999
 20
4.6103379348
 30
0.0
 10
5.8837378615
 20
4.5956162317
 30
0.0
 10
5.895698569
 20
4.5802893953
 30
0.0
 10
5.9068933917
 20
4.5643943921
 30
0.0
 10
5.9172929195
 20
4.547967977
 30
0.0
 10
5.9268734698
 20
4.5310508774
 30
0.0
 10
5.9356133489
 20
4.5136846381
 30
0.0
 10
5.9434896606
 20
4.4959101951
 30
0.0
 10
5.9504827785
 20
4.4777702501
 30
0.0
 10
5.956578375
 20
4.4593094049
 30
0.0
 10
5.961761105
 20
4.4405716553
 30
0.0
 10
5.966016135
 20
4.4216015556
 30
0.0
 10
5.9693359165
 20
4.4024455133
 30
0.0
 10
5.9717129422
 20
4.3831496521
 30
0.0
 10
5.9731386826
 20
4.3637602004
 30
0.0
 10
5.9736108755
 20
4.3443241672
 30
0.0
 10
5.9731303429
 20
4.324888412
 30
0.0
 10
5.9716965601
 20
4.3054997627
 30
0.0
 10
5.9693116562
 20
4.2862051829
 30
0.0
 10
5.9659842622
 20
4.2670508049
 30
0.0
 10
5.9617220565
 20
4.248082606
 30
0.0
 10
5.9565326768
 20
4.2293468751
 30
0.0
 10
5.9504309547
 20
4.2108881011
 30
0.0
 10
5.9434323436
 20
4.1927502051
 30
0.0
 10
5.9355512433
 20
4.1749777093
 30
0.0
 10
5.9268072398
 20
4.1576132675
 30
0.0
 10
5.9172233276
 20
4.1406976878
 30
0.0
 10
5.9068213393
 20
4.1242723318
 30
0.0
 10
5.8956247702
 20
4.1083779395
 30
0.0
 10
5.8836630868
 20
4.0930511333
 30
0.0
 10
5.8709650923
 20
4.0783286258
 30
0.0
 10
5.8575592267
 20
4.064247809
 30
0.0
 10
5.8434791378
 20
4.0508414223
 30
0.0
 10
5.8287599091
 20
4.0381405523
 30
0.0
 10
5.813435125
 20
4.026176912
 30
0.0
 10
5.7922489034
 20
4.0112511545
 30
0.0
 10
5.764432688
 20
3.9945656871
 30
0.0
 10
5.7351136732
 20
3.9806901378
 30
0.0
 10
5.7109393347
 20
3.9713514415
 30
0.0
 10
5.6924833001
 20
3.9652441938
 30
0.0
 10
5.6737500876
 20
3.9600492779
 30
0.0
 10
5.6547829616
 20
3.9557773396
 30
0.0
 10
5.6356251426
 20
3.9524408408
 30
0.0
 10
5.6099070098
 20
3.9492524985
 30
0.0
 10
5.5904615738
 20
3.9482784663
 30
0.0
 10
5.5775131454
 20
3.9482669109
 30
0.0
 11
5.5775131454
 21
4.7401461204
 31
0.0
 11
5.6163132661
 21
4.7382709795
 31
0.0
 11
5.6356102731
 21
4.7359067439
 31
0.0
 11
5.6547653964
 21
4.7325968391
 31
0.0
 11
5.6737304825
 21
4.7283497446
 31
0.0
 11
5.692462033
 21
4.7231769816
 31
0.0
 11
5.710916646
 21
4.7170901492
 31
0.0
 11
5.7290508559
 21
4.7101030901
 31
0.0
 11
5.7468210638
 21
4.7022342992
 31
0.0
 11
5.7641836542
 21
4.6935028491
 31
0.0
 11
5.781095446
 21
4.6839284478
 31
0.0
 11
5.7975162139
 21
4.6735351283
 31
0.0
 11
5.8134069651
 21
4.6623487269
 31
0.0
 11
5.8287287915
 21
4.6503951921
 31
0.0
 11
5.8434448834
 21
4.6377032373
 31
0.0
 11
5.8575206755
 21
4.6243045335
 31
0.0
 11
5.8709217145
 21
4.6102308986
 31
0.0
 11
5.8836149285
 21
4.5955154457
 31
0.0
 11
5.8955709065
 21
4.5801947207
 31
0.0
 11
5.9067608371
 21
4.5643058317
 31
0.0
 11
5.9171564111
 21
4.5478862163
 31
0.0
 11
5.9267333815
 21
4.5309759758
 31
0.0
 11
5.9354694692
 21
4.5136165022
 31
0.0
 11
5.9433424836
 21
4.495849226
 31
0.0
 11
5.9503331932
 21
4.4777167628
 31
0.0
 11
5.956426225
 21
4.4592632737
 31
0.0
 11
5.9616064653
 21
4.4405330234
 31
0.0
 11
5.9658602383
 21
4.4215706747
 31
0.0
 11
5.9691787841
 21
4.402422251
 31
0.0
 11
5.9715543934
 21
4.3831340666
 31
0.0
 11
5.9729797564
 21
4.3637524689
 31
0.0
 11
5.9734520875
 21
4.3443241801
 31
0.0
 11
5.9729714627
 21
4.3248961599
 31
0.0
 11
5.9715380329
 21
4.3055153685
 31
0.0
 11
5.9691545664
 21
4.2862284961
 31
0.0
 11
5.9658284448
 21
4.2670817572
 31
0.0
 11
5.9615675197
 21
4.2481213177
 31
0.0
 11
5.9563806334
 21
4.2293930786
 31
0.0
 11
5.9502814941
 21
4.2109416388
 31
0.0
 11
5.943285301
 21
4.1928111984
 31
0.0
 11
5.9354074928
 21
4.1750458592
 31
0.0
 11
5.9266673007
 21
4.1576881643
 31
0.0
 11
5.9170869919
 21
4.1407794093
 31
0.0
 11
5.9066889256
 21
4.1243608502
 31
0.0
 11
5.8954972604
 21
4.1084725501
 31
0.0
 11
5.8835403307
 21
4.0931518045
 31
0.0
 11
5.870847062
 21
4.078435517
 31
0.0
 11
5.8574468203
 21
4.0643601782
 31
0.0
 11
5.8433725368
 21
4.0509589384
 31
0.0
 11
5.8286588689
 21
4.03826333
 31
0.0
 11
5.8133405293
 21
4.0263048135
 31
0.0
 11
5.7974540294
 21
4.0151123401
 31
0.0
 11
5.7641323324
 21
3.9951277401
 31
0.0
 11
5.7290125203
 21
3.9785032526
 31
0.0
 11
5.7108850403
 21
3.9715008853
 31
0.0
 11
5.6924371759
 21
3.9653962661
 31
0.0
 11
5.6737121636
 21
3.9602033681
 31
0.0
 11
5.6547530887
 21
3.9559336266
 31
0.0
 11
5.6356031201
 21
3.9525983902
 31
0.0
 11
5.6163100119
 21
3.9502061242
 31
0.0
 11
5.5775131454
 21
3.9482669109
 31
0.0
  0
SPLINE
  5
26A
100
AcDbEntity
  8
0
100
AcDbSpline
 62
6
  6
CONTINUOUS
 70
0
 71
3
 72
69
 73
65
 74
63
 42
0.0000001
 43
0.0000001
 44
0.0000000001
 12
1.2367476509
 22
0.0011130572
 32
0.0
 13
-1.2367476537
 23
-0.00110992
 33
0.0
 40
0.0
 40
0.0
 40
0.0
 40
0.0
 40
0.0312329364
 40
0.0468643508
 40
0.0624939037
 40
0.0781201089
 40
0.0937445831
 40
0.109368935
 40
0.1249942478
 40
0.1406201681
 40
0.1562460672
 40
0.1718715372
 40
0.1874967007
 40
0.203121678
 40
0.2187466093
 40
0.2343716746
 40
0.2499967866
 40
0.2656217975
 40
0.281246761
 40
0.2968717601
 40
0.3124967515
 40
0.3281217971
 40
0.3437469639
 40
0.3593721058
 40
0.3749971066
 40
0.3906220915
 40
0.406247133
 40
0.4218722437
 40
0.4374975715
 40
0.453123131
 40
0.4687487732
 40
0.4843744567
 40
0.5000002553
 40
0.5156260591
 40
0.531251755
 40
0.5468774094
 40
0.5625029721
 40
0.5781282767
 40
0.5937533247
 40
0.6093782993
 40
0.6250032606
 40
0.6406283212
 40
0.6562536359
 40
0.6718791124
 40
0.6875046235
 40
0.7031302238
 40
0.7187558957
 40
0.7343814869
 40
0.7500069704
 40
0.7656324153
 40
0.7812577091
 40
0.7968827585
 40
0.8125077362
 40
0.8281328121
 40
0.8437581013
 40
0.8593837466
 40
0.8750093802
 40
0.8906343557
 40
0.906258229
 40
0.9218820301
 40
0.9375074865
 40
0.9531363298
 40
0.9687672707
 40
1.0
 40
1.0
 40
1.0
 40
1.0
 10
5.5775131454
 20
4.7379228794
 30
0.0
 10
5.5903888989
 20
4.7379344674
 30
0.0
 10
5.60972712
 20
4.7369978394
 30
0.0
 10
5.6353058871
 20
4.7338646574
 30
0.0
 10
5.6543612599
 20
4.7305721678
 30
0.0
 10
5.6732278343
 20
4.7263467979
 30
0.0
 10
5.6918624385
 20
4.7212010748
 30
0.0
 10
5.7102213142
 20
4.7151460492
 30
0.0
 10
5.7282606725
 20
4.7081950707
 30
0.0
 10
5.7459379663
 20
4.7003675025
 30
0.0
 10
5.7632101145
 20
4.6916821808
 30
0.0
 10
5.7800336071
 20
4.6821574494
 30
0.0
 10
5.7963686364
 20
4.6718181728
 30
0.0
 10
5.8121767964
 20
4.6606903778
 30
0.0
 10
5.8274188904
 20
4.6487990374
 30
0.0
 10
5.8420580689
 20
4.6361728441
 30
0.0
 10
5.8560606266
 20
4.6228441097
 30
0.0
 10
5.8693920821
 20
4.6088441353
 30
0.0
 10
5.8820186253
 20
4.5942053089
 30
0.0
 10
5.8939119431
 20
4.5789648439
 30
0.0
 10
5.9050436305
 20
4.5631594281
 30
0.0
 10
5.9153845438
 20
4.5468255881
 30
0.0
 10
5.9249112343
 20
4.5300038292
 30
0.0
 10
5.9336020245
 20
4.5127353809
 30
0.0
 10
5.941434013
 20
4.4950608913
 30
0.0
 10
5.9483879401
 20
4.4770229376
 30
0.0
 10
5.954449454
 20
4.4586658202
 30
0.0
 10
5.9596031065
 20
4.4400332451
 30
0.0
 10
5.9638343021
 20
4.4211695783
 30
0.0
 10
5.967135605
 20
4.4021209823
 30
0.0
 10
5.9694993932
 20
4.3829332975
 30
0.0
 10
5.970917116
 20
4.3636524946
 30
0.0
 10
5.9713867468
 20
4.3443253218
 30
0.0
 10
5.970908968
 20
4.3249983437
 30
0.0
 10
5.9694831629
 20
4.3057181263
 30
0.0
 10
5.9671115155
 20
4.2865314037
 30
0.0
 10
5.9638026753
 20
4.2674841237
 30
0.0
 10
5.9595643404
 20
4.2486221008
 30
0.0
 10
5.9544040541
 20
4.2299914353
 30
0.0
 10
5.9483365044
 20
4.2116363882
 30
0.0
 10
5.9413771587
 20
4.1936005481
 30
0.0
 10
5.933540404
 20
4.17592809
 30
0.0
 10
5.9248456026
 20
4.1586614255
 30
0.0
 10
5.915315625
 20
4.1418410955
 30
0.0
 10
5.9049721662
 20
4.125508209
 30
0.0
 10
5.8938386196
 20
4.1097032399
 30
0.0
 10
5.8819442585
 20
4.0944626149
 30
0.0
 10
5.869317688
 20
4.0798228759
 30
0.0
 10
5.8559871819
 20
4.0658212062
 30
0.0
 10
5.841986308
 20
4.0524901112
 30
0.0
 10
5.8273497602
 20
4.0398604848
 30
0.0
 10
5.8121113715
 20
4.0279642058
 30
0.0
 10
5.7963074969
 20
4.0168303391
 30
0.0
 10
5.7799774209
 20
4.0064835077
 30
0.0
 10
5.7631596388
 20
3.9969491996
 30
0.0
 10
5.745893567
 20
3.988252524
 30
0.0
 10
5.7282225366
 20
3.9804117943
 30
0.0
 10
5.7101896519
 20
3.9734454081
 30
0.0
 10
5.6918373826
 20
3.967372457
 30
0.0
 10
5.6732091913
 20
3.9622066243
 30
0.0
 10
5.6543486306
 20
3.9579586677
 30
0.0
 10
5.6352985076
 20
3.9546408379
 30
0.0
 10
5.6097249518
 20
3.9514703245
 30
0.0
 10
5.5903888136
 20
3.9505017083
 30
0.0
 10
5.5775131454
 20
3.950490153
 30
0.0
 11
5.5775131454
 21
4.7379228794
 31
0.0
 11
5.6160954001
 21
4.7360584494
 31
0.0
 11
5.6352840516
 21
4.7337075704
 31
0.0
 11
5.6543316152
 21
4.7304163268
 31
0.0
 11
5.6731902131
 21
4.7261931513
 31
0.0
 11
5.6918165921
 21
4.7210494963
 31
0.0
 11
5.7101675951
 21
4.7149968916
 31
0.0
 11
5.7281999981
 21
4.7080491073
 31
0.0
 11
5.7458704395
 21
4.7002245429
 31
0.0
 11
5.7631355403
 21
4.6915421709
 31
0.0
 11
5.7799523595
 21
4.6820215947
 31
0.0
 11
5.7962809197
 21
4.6716866903
 31
0.0
 11
5.812082473
 21
4.6605631053
 31
0.0
 11
5.8273183547
 21
4.6486766029
 31
0.0
 11
5.8419519468
 21
4.6360557703
 31
0.0
 11
5.8559488106
 21
4.6227322018
 31
0.0
 11
5.8692746152
 21
4.6087376399
 31
0.0
 11
5.8818964127
 21
4.5941050462
 31
0.0
 11
5.8937850033
 21
4.5788706875
 31
0.0
 11
5.9049118162
 21
4.5630713856
 31
0.0
 11
5.9152488089
 21
4.5467443199
 31
0.0
 11
5.9247719234
 21
4.529929369
 31
0.0
 11
5.9334589211
 21
4.5126676434
 31
0.0
 11
5.9412876749
 21
4.4950003017
 31
0.0
 11
5.9482391943
 21
4.4769697729
 31
0.0
 11
5.9542981289
 21
4.4586199605
 31
0.0
 11
5.9594493336
 21
4.4399948512
 31
0.0
 11
5.963679294
 21
4.4211388863
 31
0.0
 11
5.9669793437
 21
4.4020978587
 31
0.0
 11
5.9693417124
 21
4.3829178112
 31
0.0
 11
5.9707590978
 21
4.3636448247
 31
0.0
 11
5.9712288448
 21
4.3443253572
 31
0.0
 11
5.9707509609
 21
4.3250060828
 31
0.0
 11
5.9693255193
 21
4.3057336753
 31
0.0
 11
5.9669553068
 21
4.2865545802
 31
0.0
 11
5.9636477303
 21
4.2675148547
 31
0.0
 11
5.9594106465
 21
4.2486605184
 31
0.0
 11
5.9542528283
 21
4.2300373201
 31
0.0
 11
5.9481878705
 21
4.2116895849
 31
0.0
 11
5.9412309489
 21
4.193661171
 31
0.0
 11
5.9333974563
 21
4.1759958489
 31
0.0
 11
5.9247064523
 21
4.1587359009
 31
0.0
 11
5.9151800621
 21
4.1419223652
 31
0.0
 11
5.9048405129
 21
4.1255962369
 31
0.0
 11
5.8937118378
 21
4.1097973255
 31
0.0
 11
5.8818221972
 21
4.0945627309
 31
0.0
 11
5.8692003252
 21
4.0799291763
 31
0.0
 11
5.8558754282
 21
4.065932943
 31
0.0
 11
5.8418802938
 21
4.052606961
 31
0.0
 11
5.8272493508
 21
4.0399826249
 31
0.0
 11
5.8120170884
 21
4.0280912475
 31
0.0
 11
5.7962198443
 21
4.0169615429
 31
0.0
 11
5.7798962515
 21
4.0066189967
 31
0.0
 11
5.7630850869
 21
3.9970888927
 31
0.0
 11
5.7458260493
 21
3.9883951719
 31
0.0
 11
5.7281618638
 21
3.9805573693
 31
0.0
 11
5.7101358751
 21
3.9735941172
 31
0.0
 11
5.6917914001
 21
3.9675236399
 31
0.0
 11
5.6731714576
 21
3.9623598474
 31
0.0
 11
5.6543188875
 21
3.9581140574
 31
0.0
 11
5.6352766054
 21
3.9547975036
 31
0.0
 11
5.616091996
 21
3.9524186182
 31
0.0
 11
5.5775131454
 21
3.950490153
 31
0.0
  0
SPLINE
  5
26B
100
AcDbEntity
  8
0
100
AcDbSpline
 62
6
  6
CONTINUOUS
 70
0
 71
3
 72
69
 73
65
 74
63
 42
0.0000001
 43
0.0000001
 44
0.0000000001
 12
1.2297639796
 22
0.0011130673
 32
0.0
 13
-1.2297639825
 23
-0.0011099104
 33
0.0
 40
0.0
 40
0.0
 40
0.0
 40
0.0
 40
0.0312326518
 40
0.0468637092
 40
0.0624928135
 40
0.0781186427
 40
0.0937428357
 40
0.1093670171
 40
0.1249922054
 40
0.1406180023
 40
0.1562437785
 40
0.1718691561
 40
0.1874942775
 40
0.203119261
 40
0.2187442613
 40
0.2343694595
 40
0.2499947757
 40
0.2656200898
 40
0.2812454588
 40
0.296870861
 40
0.3124961364
 40
0.3281212545
 40
0.3437463229
 40
0.3593712965
 40
0.3749961605
 40
0.3906210807
 40
0.4062461018
 40
0.4218712131
 40
0.4374965473
 40
0.4531221111
 40
0.4687477565
 40
0.4843734497
 40
0.4999992587
 40
0.5156250644
 40
0.5312507522
 40
0.5468763946
 40
0.5625019548
 40
0.5781272891
 40
0.5937524163
 40
0.6093774612
 40
0.6250024012
 40
0.6406272757
 40
0.6562522369
 40
0.6718772546
 40
0.6875022738
 40
0.7031274026
 40
0.7187526335
 40
0.7343778435
 40
0.7500030491
 40
0.7656282982
 40
0.7812534556
 40
0.7968784407
 40
0.8125034449
 40
0.8281286215
 40
0.8437540962
 40
0.8593799907
 40
0.8750059031
 40
0.8906312069
 40
0.9062555456
 40
0.9218800057
 40
0.9375061912
 40
0.9531357033
 40
0.9687670525
 40
1.0
 40
1.0
 40
1.0
 40
1.0
 10
5.5775131454
 20
4.7356996396
 30
0.0
 10
5.5903160754
 20
4.7357112276
 30
0.0
 10
5.6095448412
 20
4.7347800661
 30
0.0
 10
5.6349787459
 20
4.7316647709
 30
0.0
 10
5.6539260449
 20
4.7283909923
 30
0.0
 10
5.6726856767
 20
4.7241897505
 30
0.0
 10
5.6912147806
 20
4.7190733581
 30
0.0
 10
5.7094697827
 20
4.713052658
 30
0.0
 10
5.727407189
 20
4.7061411885
 30
0.0
 10
5.7449846374
 20
4.6983581377
 30
0.0
 10
5.7621591945
 20
4.6897220457
 30
0.0
 10
5.778887617
 20
4.6802511902
 30
0.0
 10
5.7951304991
 20
4.6699705486
 30
0.0
 10
5.8108495363
 20
4.6589057627
 30
0.0
 10
5.8260056372
 20
4.6470815288
 30
0.0
 10
5.8405624177
 20
4.6345266924
 30
0.0
 10
5.8544862571
 20
4.621273207
 30
0.0
 10
5.8677427034
 20
4.6073520253
 30
0.0
 10
5.8802982516
 20
4.5927955239
 30
0.0
 10
5.8921247693
 20
4.5776408318
 30
0.0
 10
5.903193863
 20
4.5619244705
 30
0.0
 10
5.9134764888
 20
4.5456828056
 30
0.0
 10
5.9229493988
 20
4.5289561357
 30
0.0
 10
5.9315910551
 20
4.5117853528
 30
0.0
 10
5.9393787068
 20
4.4942107846
 30
0.0
 10
5.9462933874
 20
4.4762747952
 30
0.0
 10
5.952320751
 20
4.4580213981
 30
0.0
 10
5.9574453117
 20
4.439494045
 30
0.0
 10
5.9616526487
 20
4.4207369015
 30
0.0
 10
5.9649353935
 20
4.401795878
 30
0.0
 10
5.9672858744
 20
4.3827165386
 30
0.0
 10
5.9686955631
 20
4.3635445992
 30
0.0
 10
5.9691626139
 20
4.3443265573
 30
0.0
 10
5.9686876081
 20
4.3251087098
 30
0.0
 10
5.967269839
 20
4.3059373723
 30
0.0
 10
5.9649116447
 20
4.2868589966
 30
0.0
 10
5.9616215724
 20
4.2679192512
 30
0.0
 10
5.957407171
 20
4.2491636921
 30
0.0
 10
5.9522759724
 20
4.2306381689
 30
0.0
 10
5.9462427251
 20
4.2123867016
 30
0.0
 10
5.9393227641
 20
4.1944527324
 30
0.0
 10
5.9315303897
 20
4.1768802627
 30
0.0
 10
5.9228849842
 20
4.1597114096
 30
0.0
 10
5.9134091928
 20
4.1429864616
 30
0.0
 10
5.9031244208
 20
4.1267463173
 30
0.0
 10
5.8920542327
 20
4.1110309609
 30
0.0
 10
5.8802276141
 20
4.0958766181
 30
0.0
 10
5.8676727454
 20
4.0813197904
 30
0.0
 10
5.8544177932
 20
4.067397408
 30
0.0
 10
5.8404964576
 20
4.0541414587
 30
0.0
 10
5.8259429261
 20
4.0415829634
 30
0.0
 10
5.8107906412
 20
4.0297539048
 30
0.0
 10
5.7950762058
 20
4.0186825946
 30
0.0
 10
5.7788384687
 20
4.0083937423
 30
0.0
 10
5.7621154947
 20
3.998913101
 30
0.0
 10
5.7449467597
 20
3.9902652146
 30
0.0
 10
5.7273753776
 20
3.9824682053
 30
0.0
 10
5.7094440209
 20
3.9755406984
 30
0.0
 10
5.6911948262
 20
3.9695018247
 30
0.0
 10
5.672671155
 20
3.9643647441
 30
0.0
 10
5.6539163203
 20
3.9601403701
 30
0.0
 10
5.6349730527
 20
3.9568410681
 30
0.0
 10
5.6095433989
 20
3.9536882396
 30
0.0
 10
5.5903161967
 20
3.9527249478
 30
0.0
 10
5.5775131454
 20
3.9527133926
 30
0.0
 11
5.5775131454
 21
4.7356996396
 31
0.0
 11
5.6158771967
 21
4.7338460103
 31
0.0
 11
5.6349570699
 21
4.7315085581
 31
0.0
 11
5.6538965443
 21
4.7282360633
 31
0.0
 11
5.6726482338
 21
4.7240369866
 31
0.0
 11
5.6911691447
 21
4.7189226303
 31
0.0
 11
5.7094163585
 21
4.7129043732
 31
0.0
 11
5.7273468641
 21
4.7059960604
 31
0.0
 11
5.744917484
 21
4.6982159646
 31
0.0
 11
5.7620850235
 21
4.6895828194
 31
0.0
 11
5.7788068304
 21
4.6801161444
 31
0.0
 11
5.7950432603
 21
4.6698398125
 31
0.0
 11
5.8107557042
 21
4.6587791957
 31
0.0
 11
5.8259056702
 21
4.6469598278
 31
0.0
 11
5.8404568755
 21
4.6344102975
 31
0.0
 11
5.8543750172
 21
4.6211619318
 31
0.0
 11
5.867625868
 21
4.6072461598
 31
0.0
 11
5.8801767393
 21
4.5926958337
 31
0.0
 11
5.8919985729
 21
4.5775471646
 31
0.0
 11
5.9030628336
 21
4.5618368474
 31
0.0
 11
5.9133415573
 21
4.5456019363
 31
0.0
 11
5.922810883
 21
4.5288820672
 31
0.0
 11
5.9314487448
 21
4.5117180056
 31
0.0
 11
5.9392332019
 21
4.4941505722
 31
0.0
 11
5.9461454817
 21
4.4762219488
 31
0.0
 11
5.9521702651
 21
4.4579758013
 31
0.0
 11
5.9572924101
 21
4.4394558713
 31
0.0
 11
5.9614985243
 21
4.4207063829
 31
0.0
 11
5.9647800074
 21
4.4017728827
 31
0.0
 11
5.9671290722
 21
4.3827011415
 31
0.0
 11
5.9685384539
 21
4.3635369737
 31
0.0
 11
5.9690056041
 21
4.344326588
 31
0.0
 11
5.9685304779
 21
4.3251164018
 31
0.0
 11
5.9671130981
 21
4.3059528307
 31
0.0
 11
5.9647563229
 21
4.2868820444
 31
0.0
 11
5.9614674924
 21
4.2679498237
 31
0.0
 11
5.9572543425
 21
4.2492019148
 31
0.0
 11
5.9521256135
 21
4.2306837868
 31
0.0
 11
5.9460949192
 21
4.2124395612
 31
0.0
 11
5.9391773497
 21
4.1945129521
 31
0.0
 11
5.9313882355
 21
4.176947569
 31
0.0
 11
5.922746602
 21
4.159785423
 31
0.0
 11
5.913274369
 21
4.1430672725
 31
0.0
 11
5.9029935513
 21
4.1268338313
 31
0.0
 11
5.8919281934
 21
4.1111245073
 31
0.0
 11
5.8801062368
 21
4.0959762015
 31
0.0
 11
5.8675560645
 21
4.0814255308
 31
0.0
 11
5.8543067392
 21
4.0675084904
 31
0.0
 11
5.8403910523
 21
4.0542576659
 31
0.0
 11
5.8258430665
 21
4.0417044807
 31
0.0
 11
5.8106969571
 21
4.0298802012
 31
0.0
 11
5.7949890756
 21
4.0188130617
 31
0.0
 11
5.7787577531
 21
4.0085285379
 31
0.0
 11
5.7620413971
 21
3.9990519988
 31
0.0
 11
5.7448796472
 21
3.9904070271
 31
0.0
 11
5.7273150525
 21
3.9826129876
 31
0.0
 11
5.7093905825
 21
3.9756886358
 31
0.0
 11
5.6911491867
 21
3.9696521512
 31
0.0
 11
5.6726336579
 21
3.9645171151
 31
0.0
 11
5.6538867139
 21
3.9602949077
 31
0.0
 11
5.6349511682
 21
3.9569968329
 31
0.0
 11
5.6158744055
 21
3.9546312112
 31
0.0
 11
5.5775131454
 21
3.9527133926
 31
0.0
  0
SPLINE
  5
26C
100
AcDbEntity
  8
0
100
AcDbSpline
 62
6
  6
CONTINUOUS
 70
0
 71
3
 72
67
 73
63
 74
61
 42
0.0000001
 43
0.0000001
 44
0.0000000001
 12
1.2227572513
 22
0.0011130558
 32
0.0
 13
-1.2227572542
 23
-0.0011098818
 33
0.0
 40
0.0
 40
0.0
 40
0.0
 40
0.0
 40
0.0312332828
 40
0.0468645111
 40
0.062493551
 40
0.0781191526
 40
0.0937430947
 40
0.1093671392
 40
0.1249923015
 40
0.1562345455
 40
0.1874759307
 40
0.2031011719
 40
0.2187265109
 40
0.2343521124
 40
0.2499778803
 40
0.2656037031
 40
0.2812296534
 40
0.2968557054
 40
0.3124817113
 40
0.3281076583
 40
0.3437335866
 40
0.3593593454
 40
0.3749848195
 40
0.3906101591
 40
0.4062354828
 40
0.4218608521
 40
0.4374864506
 40
0.4531122896
 40
0.4687382146
 40
0.4843641829
 40
0.4999902636
 40
0.5156163424
 40
0.5312423055
 40
0.5468682244
 40
0.5624940595
 40
0.5781196613
 40
0.5937450461
 40
0.6093703724
 40
0.6249956631
 40
0.6406209982
 40
0.6562464957
 40
0.6718720254
 40
0.6874974241
 40
0.7031227476
 40
0.7187480576
 40
0.734373307
 40
0.749998572
 40
0.7656239208
 40
0.7812492269
 40
0.7968744186
 40
0.8124996809
 40
0.8281251467
 40
0.8437509229
 40
0.8593771164
 40
0.8750033234
 40
0.8906289207
 40
0.9062535604
 40
0.9218783384
 40
0.9375048594
 40
0.953134724
 40
0.9687664188
 40
1.0
 40
1.0
 40
1.0
 40
1.0
 10
5.5775131454
 20
4.7334763973
 30
0.0
 10
5.5902433864
 20
4.7334879854
 30
0.0
 10
5.6093629239
 20
4.7325621761
 30
0.0
 10
5.6346522314
 20
4.7294647225
 30
0.0
 10
5.6534915422
 20
4.7262097309
 30
0.0
 10
5.6721441279
 20
4.7220326101
 30
0.0
 10
5.6905673678
 20
4.7169455932
 30
0.0
 10
5.7087185219
 20
4.7109591222
 30
0.0
 10
5.7324939846
 20
4.7017986255
 30
0.0
 10
5.7613294651
 20
4.6881776441
 30
0.0
 10
5.788686162
 20
4.6717876725
 30
0.0
 10
5.8095214398
 20
4.6571217489
 30
0.0
 10
5.8245918085
 20
4.6453644576
 30
0.0
 10
5.8390661178
 20
4.6328810985
 30
0.0
 10
5.8529112584
 20
4.619702945
 30
0.0
 10
5.8660926213
 20
4.6058606445
 30
0.0
 10
5.8785771941
 20
4.5913866294
 30
0.0
 10
5.8903369953
 20
4.5763177889
 30
0.0
 10
5.9013436286
 20
4.5606902947
 30
0.0
 10
5.9115681378
 20
4.5445402979
 30
0.0
 10
5.9209875959
 20
4.5279080677
 30
0.0
 10
5.9295804699
 20
4.5108343166
 30
0.0
 10
5.9373240943
 20
4.4933592238
 30
0.0
 10
5.9441995322
 20
4.4755249026
 30
0.0
 10
5.9501925959
 20
4.4573750995
 30
0.0
 10
5.9552879955
 20
4.4389529698
 30
0.0
 10
5.9594713802
 20
4.420302368
 30
0.0
 10
5.9627354087
 20
4.4014689221
 30
0.0
 10
5.9650724932
 20
4.3824979486
 30
0.0
 10
5.9664741593
 20
4.3634349061
 30
0.0
 10
5.9669384932
 20
4.3443260248
 30
0.0
 10
5.9664661192
 20
4.3252173412
 30
0.0
 10
5.9650563751
 20
4.3061549014
 30
0.0
 10
5.9627115217
 20
4.2871848985
 30
0.0
 10
5.9594400781
 20
4.2683527463
 30
0.0
 10
5.9552495887
 20
4.2497037378
 30
0.0
 10
5.9501475333
 20
4.2312834502
 30
0.0
 10
5.9441485122
 20
4.2131356394
 30
0.0
 10
5.9372677705
 20
4.1953034537
 30
0.0
 10
5.9295195148
 20
4.1778306273
 30
0.0
 10
5.9209229986
 20
4.1607590921
 30
0.0
 10
5.911500847
 20
4.1441289675
 30
0.0
 10
5.9012744777
 20
4.1279809538
 30
0.0
 10
5.8902671841
 20
4.1123549356
 30
0.0
 10
5.8785077946
 20
4.0972868945
 30
0.0
 10
5.8660243593
 20
4.0828129976
 30
0.0
 10
5.8528448775
 20
4.0689698775
 30
0.0
 10
5.8390027709
 20
4.0557893672
 30
0.0
 10
5.8245320268
 20
4.0433022958
 30
0.0
 10
5.8094658821
 20
4.0315404739
 30
0.0
 10
5.7938407525
 20
4.020532036
 30
0.0
 10
5.7776952666
 20
4.0103015771
 30
0.0
 10
5.7610672759
 20
4.0008747425
 30
0.0
 10
5.7439960591
 20
3.9922759189
 30
0.0
 10
5.7265244886
 20
3.984523126
 30
0.0
 10
5.7086949822
 20
3.9776349002
 30
0.0
 10
5.6905494287
 20
3.9716302643
 30
0.0
 10
5.6721309445
 20
3.9665222736
 30
0.0
 10
5.6534825851
 20
3.9623217995
 30
0.0
 10
5.6346468451
 20
3.9590411578
 30
0.0
 10
5.609361555
 20
3.9559061152
 30
0.0
 10
5.5902435081
 20
3.9549481892
 30
0.0
 10
5.5775131454
 20
3.954936634
 30
0.0
 11
5.5775131454
 21
4.7334763973
 31
0.0
 11
5.6156593915
 21
4.7316334544
 31
0.0
 11
5.6346307741
 21
4.7293093902
 31
0.0
 11
5.6534622819
 21
4.7260556748
 31
0.0
 11
5.6721068905
 21
4.7218807202
 31
0.0
 11
5.6905220101
 21
4.716795692
 31
0.0
 11
5.7086651218
 21
4.7108118451
 31
0.0
 11
5.7264935122
 21
4.7039431011
 31
0.0
 11
5.7610340279
 21
4.6876237146
 31
0.0
 11
5.7938050201
 21
4.6679933444
 31
0.0
 11
5.8094283263
 21
4.6569957473
 31
0.0
 11
5.8244923549
 21
4.6452435369
 31
0.0
 11
5.8389611815
 21
4.6327653668
 31
0.0
 11
5.8528005962
 21
4.6195922863
 31
0.0
 11
5.8659764418
 21
4.6057554116
 31
0.0
 11
5.8784563644
 21
4.5912875333
 31
0.0
 11
5.8902114785
 21
4.5762246645
 31
0.0
 11
5.9012132926
 21
4.560603184
 31
0.0
 11
5.911433975
 21
4.5444599046
 31
0.0
 11
5.9208498792
 21
4.5278343914
 31
0.0
 11
5.929438995
 21
4.5107672853
 31
0.0
 11
5.9371794292
 21
4.4932992746
 31
0.0
 11
5.9440524747
 21
4.4754723096
 31
0.0
 11
5.9500429751
 21
4.4573297465
 31
0.0
 11
5.9551359621
 21
4.4389150158
 31
0.0
 11
5.9593181275
 21
4.4202720272
 31
0.0
 11
5.9625809089
 21
4.4014460602
 31
0.0
 11
5.9649165868
 21
4.3824826377
 31
0.0
 11
5.9663179344
 21
4.3634273225
 31
0.0
 11
5.9667823748
 21
4.3443260566
 31
0.0
 11
5.9663098879
 21
4.3252249905
 31
0.0
 11
5.9649005202
 21
4.3061702731
 31
0.0
 11
5.9625570811
 21
4.2872078156
 31
0.0
 11
5.9592868779
 21
4.2683831414
 31
0.0
 11
5.9550976314
 21
4.2497417386
 31
0.0
 11
5.9499980263
 21
4.2313288198
 31
0.0
 11
5.9440015529
 21
4.2131882267
 31
0.0
 11
5.9371231965
 21
4.1953633742
 31
0.0
 11
5.9293781733
 21
4.1778975837
 31
0.0
 11
5.9207854005
 21
4.1608326762
 31
0.0
 11
5.911366777
 21
4.1442092634
 31
0.0
 11
5.9011442985
 21
4.128067915
 31
0.0
 11
5.8901418255
 21
4.1124479192
 31
0.0
 11
5.8783871022
 21
4.0973858963
 31
0.0
 11
5.8659083578
 21
4.0829181335
 31
0.0
 11
5.8527344669
 21
4.0690803394
 31
0.0
 11
5.8388979812
 21
4.0559049255
 31
0.0
 11
5.8244327529
 21
4.0434231372
 31
0.0
 11
5.8093727501
 21
4.0316660611
 31
0.0
 11
5.7937541286
 21
4.020661767
 31
0.0
 11
5.7776150121
 21
4.0104356118
 31
0.0
 11
5.760993599
 21
4.0010128487
 31
0.0
 11
5.7439293267
 21
3.9924169227
 31
0.0
 11
5.7264645049
 21
3.9846670863
 31
0.0
 11
5.7086418492
 21
3.9777819995
 31
0.0
 11
5.6905040556
 21
3.9717797355
 31
0.0
 11
5.6720936666
 21
3.9666737807
 31
0.0
 11
5.6534531525
 21
3.9624754635
 31
0.0
 11
5.6346250818
 21
3.9591960352
 31
0.0
 11
5.615656602
 21
3.9568437577
 31
0.0
 11
5.5775131454
 21
3.954936634
 31
0.0
  0
SPLINE
  5
26D
100
AcDbEntity
  8
0
100
AcDbSpline
 62
6
  6
CONTINUOUS
 70
0
 71
3
 72
67
 73
63
 74
61
 42
0.0000001
 43
0.0000001
 44
0.0000000001
 12
1.2157737034
 22
0.0011130635
 32
0.0
 13
-1.2157737064
 23
-0.0011098723
 33
0.0
 40
0.0
 40
0.0
 40
0.0
 40
0.0
 40
0.0312333894
 40
0.0468647994
 40
0.0624941205
 40
0.0781199878
 40
0.0937440872
 40
0.1093680892
 40
0.1249930284
 40
0.1562347281
 40
0.1874759265
 40
0.2031011765
 40
0.2187265433
 40
0.234352178
 40
0.2499779853
 40
0.265603854
 40
0.2812298566
 40
0.2968559668
 40
0.3124820343
 40
0.3281080439
 40
0.343734042
 40
0.3593598857
 40
0.3749854637
 40
0.3906108937
 40
0.4062362202
 40
0.4218614206
 40
0.4374866331
 40
0.4531119534
 40
0.468737334
 40
0.4843628292
 40
0.4999885203
 40
0.5156142744
 40
0.5312399753
 40
0.5468656908
 40
0.5624913677
 40
0.5781168621
 40
0.5937422134
 40
0.6093675692
 40
0.6249929445
 40
0.6406184296
 40
0.6562441404
 40
0.6718699541
 40
0.6874957359
 40
0.7031215386
 40
0.7187473224
 40
0.7343729315
 40
0.7499983623
 40
0.7656237262
 40
0.7812489813
 40
0.7968741373
 40
0.8124994065
 40
0.8281249021
 40
0.8437507129
 40
0.8593769328
 40
0.875003158
 40
0.8906287688
 40
0.9062534241
 40
0.9218782254
 40
0.9375047759
 40
0.9531346748
 40
0.9687663964
 40
1.0
 40
1.0
 40
1.0
 40
1.0
 10
5.5775131454
 20
4.731253156
 30
0.0
 10
5.5901707232
 20
4.7312647443
 30
0.0
 10
5.6091811851
 20
4.7303442937
 30
0.0
 10
5.6343262971
 20
4.7272645888
 30
0.0
 10
5.6530583124
 20
4.7240281936
 30
0.0
 10
5.6716046438
 20
4.7198748531
 30
0.0
 10
5.6899228105
 20
4.7148168501
 30
0.0
 10
5.7079702875
 20
4.7088646802
 30
0.0
 10
5.7316096715
 20
4.6997566562
 30
0.0
 10
5.7602800718
 20
4.6862135456
 30
0.0
 10
5.787480291
 20
4.6699173686
 30
0.0
 10
5.8081965519
 20
4.6553352828
 30
0.0
 10
5.8231808881
 20
4.6436451448
 30
0.0
 10
5.8375725667
 20
4.6312330615
 30
0.0
 10
5.8513386672
 20
4.6181301382
 30
0.0
 10
5.8644447868
 20
4.6043668557
 30
0.0
 10
5.8768580853
 20
4.5899754469
 30
0.0
 10
5.8885507456
 20
4.5749925987
 30
0.0
 10
5.8994945496
 20
4.559454291
 30
0.0
 10
5.9096606999
 20
4.5433964614
 30
0.0
 10
5.9190263626
 20
4.5268591222
 30
0.0
 10
5.9275701578
 20
4.5098827665
 30
0.0
 10
5.9352695722
 20
4.4925073621
 30
0.0
 10
5.9421056783
 20
4.4747747871
 30
0.0
 10
5.9480644212
 20
4.456728646
 30
0.0
 10
5.9531306666
 20
4.4384119497
 30
0.0
 10
5.9572900974
 20
4.4198682993
 30
0.0
 10
5.9605353735
 20
4.4011429931
 30
0.0
 10
5.9628589797
 20
4.3822809797
 30
0.0
 10
5.9642525684
 20
4.3633273807
 30
0.0
 10
5.9647143799
 20
4.3443281232
 30
0.0
 10
5.9642448669
 20
4.3253289643
 30
0.0
 10
5.9628431575
 20
4.3063757184
 30
0.0
 10
5.9605118943
 20
4.2875142934
 30
0.0
 10
5.957259411
 20
4.2687898407
 30
0.0
 10
5.9530929434
 20
4.2502474441
 30
0.0
 10
5.9480200838
 20
4.2319323943
 30
0.0
 10
5.9420555674
 20
4.213888119
 30
0.0
 10
5.9352142658
 20
4.1961576043
 30
0.0
 10
5.9275101686
 20
4.1787844142
 30
0.0
 10
5.9189628287
 20
4.1618100503
 30
0.0
 10
5.9095944998
 20
4.1452744858
 30
0.0
 10
5.899426272
 20
4.1292183133
 30
0.0
 10
5.8884815475
 20
4.1136810887
 30
0.0
 10
5.8767890714
 20
4.0986986254
 30
0.0
 10
5.8643767423
 20
4.0843070217
 30
0.0
 10
5.8512724175
 20
4.0705427701
 30
0.0
 10
5.8375093533
 20
4.057437476
 30
0.0
 10
5.8231212802
 20
4.0450217375
 30
0.0
 10
5.8081412032
 20
4.0333271182
 30
0.0
 10
5.7926053373
 20
4.0223815196
 30
0.0
 10
5.776552071
 20
4.0122094238
 30
0.0
 10
5.7600190382
 20
4.0028363707
 30
0.0
 10
5.7430453143
 20
3.9942865987
 30
0.0
 10
5.7256735323
 20
3.9865780197
 30
0.0
 10
5.7079458582
 20
3.9797290745
 30
0.0
 10
5.6899039365
 20
3.9737586752
 30
0.0
 10
5.6715906383
 20
3.9686797823
 30
0.0
 10
5.6530487675
 20
3.9645032166
 30
0.0
 10
5.6343205804
 20
3.9612412347
 30
0.0
 10
5.6091796826
 20
3.9581239836
 30
0.0
 10
5.59017081
 20
3.9571714313
 30
0.0
 10
5.5775131454
 20
3.9571598762
 30
0.0
 11
5.5775131454
 21
4.731253156
 31
0.0
 11
5.615441664
 21
4.7294208975
 31
0.0
 11
5.6343049226
 21
4.7271101458
 31
0.0
 11
5.6530292227
 21
4.7238750017
 31
0.0
 11
5.6715676614
 21
4.7197238207
 31
0.0
 11
5.6898777946
 21
4.714667797
 31
0.0
 11
5.7079172585
 21
4.7087182092
 31
0.0
 11
5.7256435836
 21
4.701888821
 31
0.0
 11
5.7599862091
 21
4.6856628792
 31
0.0
 11
5.7925698572
 21
4.6661447674
 31
0.0
 11
5.808103963
 21
4.6552100037
 31
0.0
 11
5.8230819988
 21
4.6435249134
 31
0.0
 11
5.8374682265
 21
4.631117991
 31
0.0
 11
5.8512286352
 21
4.6180201135
 31
0.0
 11
5.8643292665
 21
4.6042622234
 31
0.0
 11
5.8767379425
 21
4.5898769176
 31
0.0
 11
5.888425946
 21
4.5749000084
 31
0.0
 11
5.8993649579
 21
4.5593676782
 31
0.0
 11
5.9095272953
 21
4.5433165261
 31
0.0
 11
5.9188894275
 21
4.5267858717
 31
0.0
 11
5.9274294901
 21
4.5098161264
 31
0.0
 11
5.935125724
 21
4.4924477461
 31
0.0
 11
5.9419594739
 21
4.4747224626
 31
0.0
 11
5.9479156909
 21
4.4566834906
 31
0.0
 11
5.9529795301
 21
4.4383741284
 31
0.0
 11
5.9571377275
 21
4.4198380781
 31
0.0
 11
5.9603817555
 21
4.4011202516
 31
0.0
 11
5.96270397
 21
4.3822657866
 31
0.0
 11
5.964097267
 21
4.3633198754
 31
0.0
 11
5.9645591588
 21
4.3443281791
 31
0.0
 11
5.9640894998
 21
4.3253365966
 31
0.0
 11
5.962688232
 21
4.3063910226
 31
0.0
 11
5.960358353
 21
4.2875370928
 31
0.0
 11
5.9571070609
 21
4.2688200867
 31
0.0
 11
5.952941859
 21
4.2502852578
 31
0.0
 11
5.9478714728
 21
4.2319775174
 31
0.0
 11
5.9419094424
 21
4.2139404283
 31
0.0
 11
5.9350704931
 21
4.1962172216
 31
0.0
 11
5.9273696799
 21
4.1788509947
 31
0.0
 11
5.9188260259
 21
4.1618832381
 31
0.0
 11
5.9094611798
 21
4.1453543788
 31
0.0
 11
5.8992968595
 21
4.12930481
 31
0.0
 11
5.8883569104
 21
4.1137735336
 31
0.0
 11
5.8766690349
 21
4.0987970281
 31
0.0
 11
5.8642613422
 21
4.0844115057
 31
0.0
 11
5.8511625916
 21
4.0706525602
 31
0.0
 11
5.8374051387
 21
4.0575523599
 31
0.0
 11
5.8230225771
 21
4.0451418942
 31
0.0
 11
5.8080486219
 21
4.0334519915
 31
0.0
 11
5.7925192172
 21
4.0225105121
 31
0.0
 11
5.7764722747
 21
4.0123426961
 31
0.0
 11
5.7599457791
 21
4.0029736861
 31
0.0
 11
5.7429789603
 21
3.9944267942
 31
0.0
 11
5.7256138888
 21
3.9867211576
 31
0.0
 11
5.7078930289
 21
3.9798753345
 31
0.0
 11
5.6898588258
 21
3.973907291
 31
0.0
 11
5.6715535753
 21
3.968830424
 31
0.0
 11
5.6530195041
 21
3.9646560043
 31
0.0
 11
5.634298938
 21
3.9613952256
 31
0.0
 11
5.6154387708
 21
3.9590562969
 31
0.0
 11
5.5775131454
 21
3.9571598762
 31
0.0
  0
SPLINE
  5
26E
100
AcDbEntity
  8
0
100
AcDbSpline
 62
6
  6
CONTINUOUS
 70
0
 71
3
 72
23
 73
19
 74
17
 42
0.0000001
 43
0.0000001
 44
0.0000000001
 12
-1.0316219635
 22
-0.0009155046
 32
0.0
 13
0.876621826
 23
0.5438555764
 33
0.0
 40
0.0
 40
0.0
 40
0.0
 40
0.0
 40
0.0624995709
 40
0.125000311
 40
0.1875005238
 40
0.2499991011
 40
0.312499183
 40
0.3750007452
 40
0.4375019871
 40
0.5000012607
 40
0.5625003729
 40
0.624999177
 40
0.6874983285
 40
0.7499972454
 40
0.812497955
 40
0.8749997389
 40
0.9375007745
 40
1.0
 40
1.0
 40
1.0
 40
1.0
 10
5.5775131454
 20
3.9460436692
 30
0.0
 10
5.5560211687
 20
3.9460245964
 30
0.0
 10
5.5129526692
 20
3.9494770324
 30
0.0
 10
5.450093492
 20
3.9649909729
 30
0.0
 10
5.3905386849
 20
3.9904330271
 30
0.0
 10
5.3358657084
 20
4.0251367615
 30
0.0
 10
5.2874954873
 20
4.068194756
 30
0.0
 10
5.246691821
 20
4.118482022
 30
0.0
 10
5.2145193999
 20
4.1746838326
 30
0.0
 10
5.1918167122
 20
4.2353317676
 30
0.0
 10
5.1791742987
 20
4.2988426649
 30
0.0
 10
5.1769201433
 20
4.3635602692
 30
0.0
 10
5.1851114163
 20
4.4277967617
 30
0.0
 10
5.2035336171
 20
4.4898785788
 30
0.0
 10
5.231704286
 20
4.5481874059
 30
0.0
 10
5.2688933549
 20
4.6012073022
 30
0.0
 10
5.3141115309
 20
4.6475453517
 30
0.0
 10
5.3488701689
 20
4.6732079092
 30
0.0
 10
5.3671328973
 20
4.6845380933
 30
0.0
 11
5.5775131454
 21
3.9460436692
 31
0.0
 11
5.5132436652
 21
3.9511995148
 31
0.0
 11
5.4506439983
 21
3.9666457466
 31
0.0
 11
5.3913517874
 21
3.991976912
 31
0.0
 11
5.3369166341
 21
4.026528768
 31
0.0
 11
5.2887570435
 21
4.0693991614
 31
0.0
 11
5.2481302865
 21
4.1194679177
 31
0.0
 11
5.2160973403
 21
4.1754255936
 31
0.0
 11
5.1934933636
 21
4.2358091138
 31
0.0
 11
5.1809056597
 21
4.2990438948
 31
0.0
 11
5.1786610427
 21
4.3634799756
 31
0.0
 11
5.1868165585
 21
4.4274376225
 31
0.0
 11
5.2051580789
 21
4.489249033
 31
0.0
 11
5.2332071141
 21
4.5473054877
 31
0.0
 11
5.2702317685
 21
4.6000939163
 31
0.0
 11
5.3152653641
 21
4.6462384604
 31
0.0
 11
5.3671328973
 21
4.6845380933
 31
0.0
  0
SPLINE
  5
26F
100
AcDbEntity
  8
0
100
AcDbSpline
 62
6
  6
CONTINUOUS
 70
0
 71
3
 72
39
 73
35
 74
33
 42
0.0000001
 43
0.0000001
 44
0.0000000001
 12
0.6960019758
 22
0.0006408899
 32
0.0
 13
-0.1642560999
 23
-0.676342439
 33
0.0
 40
0.0
 40
0.0
 40
0.0
 40
0.0
 40
0.0312324286
 40
0.0624886389
 40
0.0937503146
 40
0.12500456
 40
0.1562532959
 40
0.1875008425
 40
0.218750347
 40
0.250001053
 40
0.2812513841
 40
0.3125008597
 40
0.3437500232
 40
0.3749993328
 40
0.4062493582
 40
0.437499887
 40
0.4687505574
 40
0.5000015119
 40
0.5312525648
 40
0.5625034433
 40
0.5937543036
 40
0.6250048736
 40
0.656254829
 40
0.6875044823
 40
0.7187539588
 40
0.7500033955
 40
0.7812530883
 40
0.8125027309
 40
0.8437521362
 40
0.8750015907
 40
0.9062510335
 40
0.937500573
 40
0.968750357
 40
1.0
 40
1.0
 40
1.0
 40
1.0
 10
5.5775131454
 20
4.7290299164
 30
0.0
 10
5.5847590894
 20
4.7290365886
 30
0.0
 10
5.5992601932
 20
4.7286380001
 30
0.0
 10
5.6209446326
 20
4.7268127892
 30
0.0
 10
5.6424972353
 20
4.7237652089
 30
0.0
 10
5.6638403741
 20
4.7195002938
 30
0.0
 10
5.6849050509
 20
4.7140363401
 30
0.0
 10
5.705626023
 20
4.7073902294
 30
0.0
 10
5.7259376638
 20
4.6995809146
 30
0.0
 10
5.7457765821
 20
4.690637118
 30
0.0
 10
5.7650782365
 20
4.6805860662
 30
0.0
 10
5.7837790396
 20
4.669457699
 30
0.0
 10
5.8018214023
 20
4.6572912873
 30
0.0
 10
5.819146965
 20
4.6441238314
 30
0.0
 10
5.8356994117
 20
4.6299963677
 30
0.0
 10
5.851428363
 20
4.6149570332
 30
0.0
 10
5.8662816213
 20
4.5990518534
 30
0.0
 10
5.8802107115
 20
4.5823312866
 30
0.0
 10
5.8931740761
 20
4.5648513132
 30
0.0
 10
5.9051279087
 20
4.5466659832
 30
0.0
 10
5.9160333603
 20
4.5278334596
 30
0.0
 10
5.9258588314
 20
4.5084158587
 30
0.0
 10
5.9345701188
 20
4.4884737633
 30
0.0
 10
5.9421392572
 20
4.468071116
 30
0.0
 10
5.94854531
 20
4.4472740645
 30
0.0
 10
5.9537644882
 20
4.4261478306
 30
0.0
 10
5.9577809777
 20
4.4047603592
 30
0.0
 10
5.9605847209
 20
4.3831803717
 30
0.0
 10
5.9621628809
 20
4.3614763261
 30
0.0
 10
5.9625121352
 20
4.3397178915
 30
0.0
 10
5.9616335366
 20
4.317974378
 30
0.0
 10
5.959525768
 20
4.2963151436
 30
0.0
 10
5.9561984815
 20
4.2748102131
 30
0.0
 10
5.9531746263
 20
4.2606197688
 30
0.0
 10
5.9514636448
 20
4.2535746156
 30
0.0
 11
5.5775131454
 21
4.7290299164
 31
0.0
 11
5.5992428117
 21
4.728433809
 31
0.0
 11
5.6209205575
 21
4.7266092636
 31
0.0
 11
5.6424643071
 21
4.7235619696
 31
0.0
 11
5.6637957439
 21
4.7193000527
 31
0.0
 11
5.6848482102
 21
4.713839194
 31
0.0
 11
5.7055573017
 21
4.7071965408
 31
0.0
 11
5.7258585191
 21
4.6993919808
 31
0.0
 11
5.7456871164
 21
4.6904525349
 31
0.0
 11
5.7649783201
 21
4.680406388
 31
0.0
 11
5.7836693946
 21
4.6692846326
 31
0.0
 11
5.8017018915
 21
4.6571244797
 31
0.0
 11
5.8190179421
 21
4.6439639677
 31
0.0
 11
5.8355620364
 21
4.6298445023
 31
0.0
 11
5.8512823656
 21
4.6148127744
 31
0.0
 11
5.8661275362
 21
4.5989160202
 31
0.0
 11
5.8800497378
 21
4.5822047428
 31
0.0
 11
5.8930058459
 21
4.5647337175
 31
0.0
 11
5.9049531905
 21
4.546558098
 31
0.0
 11
5.9158534121
 21
4.5277358558
 31
0.0
 11
5.9256732148
 21
4.5083282717
 31
0.0
 11
5.9343798032
 21
4.4883969006
 31
0.0
 11
5.9419454295
 21
4.4680053242
 31
0.0
 11
5.9483475001
 21
4.4472191935
 31
0.0
 11
5.9535640261
 21
4.4261043554
 31
0.0
 11
5.9575788548
 21
4.4047282604
 31
0.0
 11
5.9603804636
 21
4.3831596314
 31
0.0
 11
5.9619580634
 21
4.361467265
 31
0.0
 11
5.9623074931
 21
4.3397203809
 31
0.0
 11
5.9614286776
 21
4.3179884596
 31
0.0
 11
5.9593225228
 21
4.2963409249
 31
0.0
 11
5.9559970606
 21
4.2748467316
 31
0.0
 11
5.9514636448
 21
4.2535746156
 31
0.0
  0
LINE
  5
270
100
AcDbEntity
  8
0
100
AcDbLine
 62
6
  6
CONTINUOUS
 10
5.1715693507
 20
4.3444480125
 11
5.171568997
 21
4.3447173012
  0
SPLINE
  5
271
100
AcDbEntity
  8
0
100
AcDbSpline
 62
6
  6
CONTINUOUS
 70
0
 71
3
 72
67
 73
63
 74
61
 42
0.0000001
 43
0.0000001
 44
0.0000000001
 12
-1.268150304
 22
-0.0011129989
 32
0.0
 13
1.2681503067
 23
0.0011099383
 33
0.0
 40
0.0
 40
0.0
 40
0.0
 40
0.0
 40
0.0312332919
 40
0.0468645217
 40
0.0624935546
 40
0.0781191395
 40
0.0937430585
 40
0.1093670771
 40
0.124992211
 40
0.1562344001
 40
0.1874757555
 40
0.2031009912
 40
0.2187263307
 40
0.2343519373
 40
0.249977714
 40
0.2656035507
 40
0.281229521
 40
0.2968555987
 40
0.3124816365
 40
0.3281076228
 40
0.3437335953
 40
0.3593593992
 40
0.3749849156
 40
0.3906102917
 40
0.406235643
 40
0.421861027
 40
0.4374866256
 40
0.4531124561
 40
0.4687383697
 40
0.4843643284
 40
0.4999904021
 40
0.5156164757
 40
0.5312424335
 40
0.546868346
 40
0.5624941743
 40
0.5781197694
 40
0.5937451475
 40
0.6093704686
 40
0.624995758
 40
0.6406210974
 40
0.6562466053
 40
0.67187215
 40
0.6874975663
 40
0.7031229069
 40
0.7187482294
 40
0.7343734811
 40
0.7499987337
 40
0.7656240609
 40
0.7812493443
 40
0.7968745193
 40
0.812499772
 40
0.8281252319
 40
0.8437510024
 40
0.8593771886
 40
0.8750033882
 40
0.8906289786
 40
0.9062536114
 40
0.9218783808
 40
0.9375048913
 40
0.9531347441
 40
0.9687664298
 40
1.0
 40
1.0
 40
1.0
 40
1.0
 10
5.5775131454
 20
3.9415971878
 30
0.0
 10
5.5643103092
 20
3.9415856002
 30
0.0
 10
5.5444810164
 20
3.942546378
 30
0.0
 10
5.5182529661
 20
3.9457595168
 30
0.0
 10
5.4987143661
 20
3.9491358158
 30
0.0
 10
5.4793694468
 20
3.9534684279
 30
0.0
 10
5.4602624044
 20
3.9587446658
 30
0.0
 10
5.4414375593
 20
3.9649537024
 30
0.0
 10
5.4167796582
 20
3.9744546306
 30
0.0
 10
5.3868739336
 20
3.988581635
 30
0.0
 10
5.3585018531
 20
4.0055802976
 30
0.0
 10
5.3368932085
 20
4.0207908037
 30
0.0
 10
5.3212634471
 20
4.032984658
 30
0.0
 10
5.306251842
 20
4.0459314988
 30
0.0
 10
5.2918927423
 20
4.0595989102
 30
0.0
 10
5.2782220551
 20
4.0739551231
 30
0.0
 10
5.2652739986
 20
4.0889664856
 30
0.0
 10
5.2530775942
 20
4.1045947453
 30
0.0
 10
5.2416623032
 20
4.1208023991
 30
0.0
 10
5.231058161
 20
4.1375519573
 30
0.0
 10
5.2212889353
 20
4.1548016483
 30
0.0
 10
5.212376966
 20
4.1725092493
 30
0.0
 10
5.2043457626
 20
4.1906330877
 30
0.0
 10
5.1972149795
 20
4.2091294889
 30
0.0
 10
5.1909993232
 20
4.2279530748
 30
0.0
 10
5.1857146365
 20
4.2470590811
 30
0.0
 10
5.1813758232
 20
4.2664020326
 30
0.0
 10
5.1779905021
 20
4.2859346124
 30
0.0
 10
5.1755665264
 20
4.3056098256
 30
0.0
 10
5.1741126789
 20
4.3253805321
 30
0.0
 10
5.1736309706
 20
4.3451987894
 30
0.0
 10
5.1741207425
 20
4.3650168499
 30
0.0
 10
5.1755826712
 20
4.3847869579
 30
0.0
 10
5.1780144359
 20
4.4044612029
 30
0.0
 10
5.1814071984
 20
4.4239924842
 30
0.0
 10
5.1857531251
 20
4.4433338289
 30
0.0
 10
5.1910444633
 20
4.4624379681
 30
0.0
 10
5.1972660842
 20
4.481259518
 30
0.0
 10
5.2044021701
 20
4.4997537316
 30
0.0
 10
5.212437985
 20
4.5178752536
 30
0.0
 10
5.2213535764
 20
4.5355805871
 30
0.0
 10
5.2311254728
 20
4.5528281227
 30
0.0
 10
5.2417314519
 20
4.5695756505
 30
0.0
 10
5.2531473723
 20
4.5857817877
 30
0.0
 10
5.2653433262
 20
4.6014092129
 30
0.0
 10
5.2782902046
 20
4.6164204205
 30
0.0
 10
5.2919589704
 20
4.6307774128
 30
0.0
 10
5.306314979
 20
4.6444471593
 30
0.0
 10
5.3213229744
 20
4.6573977012
 30
0.0
 10
5.3369484837
 20
4.6695960573
 30
0.0
 10
5.35315375
 20
4.6810130343
 30
0.0
 10
5.3698987033
 20
4.6916231244
 30
0.0
 10
5.3871440785
 20
4.7013997324
 30
0.0
 10
5.4048491417
 20
4.7103175517
 30
0.0
 10
5.4229694258
 20
4.7183578911
 30
0.0
 10
5.4414609333
 20
4.7255015301
 30
0.0
 10
5.460280216
 20
4.7317287396
 30
0.0
 10
5.479382555
 20
4.7370259708
 30
0.0
 10
5.4987232908
 20
4.7413819509
 30
0.0
 10
5.5182583489
 20
4.7447839083
 30
0.0
 10
5.5444823906
 20
4.7480346384
 30
0.0
 10
5.5643101915
 20
4.7490275302
 30
0.0
 10
5.5775131454
 20
4.749039086
 30
0.0
 11
5.5775131454
 21
3.9415971878
 31
0.0
 11
5.5379508237
 21
3.9435097429
 31
0.0
 11
5.5182752195
 21
3.9459206077
 31
0.0
 11
5.4987447109
 21
3.9492955841
 31
0.0
 11
5.4794080655
 21
3.9536259493
 31
0.0
 11
5.4603094458
 21
3.9589001246
 31
0.0
 11
5.4414929403
 21
3.9651064382
 31
0.0
 11
5.4230028419
 21
3.9722304479
 31
0.0
 11
5.3871803422
 21
3.9891560971
 31
0.0
 11
5.353192996
 21
4.0095155081
 31
0.0
 11
5.3369897803
 21
4.020921479
 31
0.0
 11
5.3213665898
 21
4.0331100599
 31
0.0
 11
5.3063606724
 21
4.0460515223
 31
0.0
 11
5.2920075138
 21
4.0597136745
 31
0.0
 11
5.2783425457
 21
4.0740642571
 31
0.0
 11
5.265399312
 21
4.0890692559
 31
0.0
 11
5.2532077706
 21
4.1046913238
 31
0.0
 11
5.2417974784
 21
4.1208927407
 31
0.0
 11
5.2311973025
 21
4.137635332
 31
0.0
 11
5.2214317626
 21
4.1548780589
 31
0.0
 11
5.2125236904
 21
4.17257877
 31
0.0
 11
5.2044957974
 21
4.1906952656
 31
0.0
 11
5.1973674937
 21
4.2091840382
 31
0.0
 11
5.1911544929
 21
4.2280001165
 31
0.0
 11
5.185872312
 21
4.2470984511
 31
0.0
 11
5.1815347652
 21
4.2664335046
 31
0.0
 11
5.1781507355
 21
4.2859583249
 31
0.0
 11
5.1757282179
 21
4.3056257052
 31
0.0
 11
5.1742747051
 21
4.3253883974
 31
0.0
 11
5.1737928843
 21
4.3451987568
 31
0.0
 11
5.1742827717
 21
4.365008918
 31
0.0
 11
5.1757443141
 21
4.384771017
 31
0.0
 11
5.1781746115
 21
4.404437436
 31
0.0
 11
5.1815660859
 21
4.4239609616
 31
0.0
 11
5.1859107244
 21
4.4432944184
 31
0.0
 11
5.1911995234
 21
4.4623909136
 31
0.0
 11
5.1974185003
 21
4.4812049771
 31
0.0
 11
5.2045521115
 21
4.4996915848
 31
0.0
 11
5.2125845763
 21
4.5178058081
 31
0.0
 11
5.2214962845
 21
4.5355042687
 31
0.0
 11
5.2312645207
 21
4.5527448447
 31
0.0
 11
5.2418664684
 21
4.5694854585
 31
0.0
 11
5.2532773893
 21
4.5856853512
 31
0.0
 11
5.2654685031
 21
4.6013065379
 31
0.0
 11
5.2784105185
 21
4.6163113843
 31
0.0
 11
5.292073487
 21
4.6306628479
 31
0.0
 11
5.3064236615
 21
4.6443273077
 31
0.0
 11
5.3214259328
 21
4.6572723695
 31
0.0
 11
5.3370450732
 21
4.6694658009
 31
0.0
 11
5.3532435899
 21
4.6808784815
 31
0.0
 11
5.3699819377
 21
4.6914841096
 31
0.0
 11
5.3872204924
 21
4.701256493
 31
0.0
 11
5.4049183523
 21
4.7101713065
 31
0.0
 11
5.423031636
 21
4.7182085801
 31
0.0
 11
5.441516038
 21
4.7253489636
 31
0.0
 11
5.4603272734
 21
4.7315737121
 31
0.0
 11
5.4794212158
 21
4.7368688322
 31
0.0
 11
5.4987538142
 21
4.7412225754
 31
0.0
 11
5.518280916
 21
4.7446232728
 31
0.0
 11
5.5379536251
 21
4.7470623526
 31
0.0
 11
5.5775131454
 21
4.749039086
 31
0.0
  0
SPLINE
  5
272
100
AcDbEntity
  8
0
100
AcDbSpline
 62
6
  6
CONTINUOUS
 70
0
 71
3
 72
59
 73
55
 74
53
 42
0.0000001
 43
0.0000001
 44
0.0000000001
 12
-1.0382705039
 22
-0.0009162959
 32
0.0
 13
0.8821551783
 23
0.547547916
 33
0.0
 40
0.0
 40
0.0
 40
0.0
 40
0.0
 40
0.0312342827
 40
0.0624910355
 40
0.0781202148
 40
0.0937466868
 40
0.1249897379
 40
0.1562343344
 40
0.187480438
 40
0.2187260381
 40
0.2499714812
 40
0.2812174118
 40
0.3124639826
 40
0.3280905524
 40
0.3437172511
 40
0.3749643941
 40
0.390591072
 40
0.406217748
 40
0.4374644813
 40
0.4530907335
 40
0.4687168508
 40
0.4843428885
 40
0.4999688199
 40
0.5155946576
 40
0.5312205264
 40
0.5468464795
 40
0.5624724823
 40
0.5780985353
 40
0.5937247357
 40
0.6093510792
 40
0.6249774604
 40
0.6406037997
 40
0.6562301429
 40
0.6718565029
 40
0.6874827843
 40
0.703108902
 40
0.7187349104
 40
0.7343609219
 40
0.7499869522
 40
0.7656130192
 40
0.7812392356
 40
0.7968656402
 40
0.8124921357
 40
0.8281186182
 40
0.8437450956
 40
0.8593716081
 40
0.8749980721
 40
0.8906243797
 40
0.9062505268
 40
0.9218766084
 40
0.9375026185
 40
0.9531285134
 40
0.96875434
 40
1.0
 40
1.0
 40
1.0
 40
1.0
 10
5.5775131454
 20
3.9438204298
 30
0.0
 10
5.5667032672
 20
3.9438108898
 30
0.0
 10
5.5450655776
 20
3.9446704205
 30
0.0
 10
5.5181943512
 20
3.947921277
 30
0.0
 10
5.4969084038
 20
3.9518212655
 30
0.0
 10
5.4758026745
 20
3.9565784567
 30
0.0
 10
5.4498075093
 20
3.9641188145
 30
0.0
 10
5.4194529128
 20
3.975660755
 30
0.0
 10
5.3901262561
 20
3.9896140204
 30
0.0
 10
5.3620254932
 20
4.0058956522
 30
0.0
 10
5.3353299138
 20
4.0243917751
 30
0.0
 10
5.310219092
 20
4.0449870007
 30
0.0
 10
5.2907431212
 20
4.0637852583
 30
0.0
 10
5.2761164769
 20
4.0797279444
 30
0.0
 10
5.2621469149
 20
4.0962489887
 30
0.0
 10
5.2491889172
 20
4.1136039649
 30
0.0
 10
5.237320546
 20
4.1316938109
 30
0.0
 10
5.2261939026
 20
4.1502488609
 30
0.0
 10
5.2162000029
 20
4.169463912
 30
0.0
 10
5.207399318
 20
4.1892278113
 30
0.0
 10
5.2014030986
 20
4.2043083237
 30
0.0
 10
5.1960208111
 20
4.2196181642
 30
0.0
 10
5.1912608424
 20
4.2351327808
 30
0.0
 10
5.1871320941
 20
4.2508271085
 30
0.0
 10
5.183641964
 20
4.266675692
 30
0.0
 10
5.1807944481
 20
4.2826522825
 30
0.0
 10
5.1785940068
 20
4.2987308462
 30
0.0
 10
5.1770452792
 20
4.3148853198
 30
0.0
 10
5.1761517073
 20
4.3310893511
 30
0.0
 10
5.1759129371
 20
4.3473163387
 30
0.0
 10
5.1763291187
 20
4.3635397998
 30
0.0
 10
5.1774004587
 20
4.3797332189
 30
0.0
 10
5.1791264559
 20
4.395869981
 30
0.0
 10
5.1815024265
 20
4.4119238764
 30
0.0
 10
5.1845241188
 20
4.4278687733
 30
0.0
 10
5.1881872494
 20
4.4436785357
 30
0.0
 10
5.1924872786
 20
4.4593269781
 30
0.0
 10
5.1974154969
 20
4.4747890273
 30
0.0
 10
5.2029634486
 20
4.4900397066
 30
0.0
 10
5.2091226355
 20
4.5050540469
 30
0.0
 10
5.2158844975
 20
4.5198069246
 30
0.0
 10
5.2232364472
 20
4.5342749272
 30
0.0
 10
5.2311659812
 20
4.5484347186
 30
0.0
 10
5.239660531
 20
4.5622629996
 30
0.0
 10
5.2487077357
 20
4.5757361996
 30
0.0
 10
5.2582915547
 20
4.5888330887
 30
0.0
 10
5.2683956963
 20
4.6015327864
 30
0.0
 10
5.2790038823
 20
4.6138144402
 30
0.0
 10
5.2901001305
 20
4.6256568024
 30
0.0
 10
5.3016655202
 20
4.637041315
 30
0.0
 10
5.3136803612
 20
4.6479500991
 30
0.0
 10
5.3261257541
 20
4.658365666
 30
0.0
 10
5.3432637996
 20
4.6715680645
 30
0.0
 10
5.356709645
 20
4.6806846015
 30
0.0
 10
5.3658974853
 20
4.6863874335
 30
0.0
 11
5.5775131454
 21
3.9438204298
 31
0.0
 11
5.5451089511
 21
3.9451050337
 31
0.0
 11
5.5128910973
 21
3.9490044714
 31
0.0
 11
5.4969294343
 21
3.9519287318
 31
0.0
 11
5.4811019754
 21
3.9554961274
 31
0.0
 11
5.4499477698
 21
3.9645342712
 31
0.0
 11
5.419624853
 21
3.9760623841
 31
0.0
 11
5.3903304626
 21
3.9900021433
 31
0.0
 11
5.3622596349
 21
4.0062647665
 31
0.0
 11
5.3355942184
 21
4.0247414887
 31
0.0
 11
5.3105094081
 21
4.0453137719
 31
0.0
 11
5.2871672462
 21
4.0678449313
 31
0.0
 11
5.2761986664
 21
4.0798001945
 31
0.0
 11
5.2657225829
 21
4.0921894673
 31
0.0
 11
5.246313532
 21
4.1181863318
 31
0.0
 11
5.2374132617
 21
4.1317519829
 31
0.0
 11
5.2290690926
 21
4.1456665968
 31
0.0
 11
5.2140998852
 21
4.1744492904
 31
0.0
 11
5.2075001116
 21
4.1892705707
 31
0.0
 11
5.2015054044
 21
4.2043465882
 31
0.0
 11
5.1961245144
 21
4.2196523438
 31
0.0
 11
5.1913660341
 21
4.2351627732
 31
0.0
 11
5.187238533
 21
4.250852806
 31
0.0
 11
5.1837490739
 21
4.2666969885
 31
0.0
 11
5.1809022982
 21
4.2826692505
 31
0.0
 11
5.1787026293
 21
4.2987434664
 31
0.0
 11
5.177154477
 21
4.3148935089
 31
0.0
 11
5.1762608434
 21
4.3310931087
 31
0.0
 11
5.1760220958
 21
4.3473157299
 31
0.0
 11
5.1764383125
 21
4.3635348073
 31
0.0
 11
5.1775095681
 21
4.379723776
 31
0.0
 11
5.1792347846
 21
4.3958561674
 31
0.0
 11
5.1816100537
 21
4.4119057496
 31
0.0
 11
5.184631041
 21
4.4278463262
 31
0.0
 11
5.1882934121
 21
4.4436517009
 31
0.0
 11
5.1925919778
 21
4.4592959164
 31
0.0
 11
5.1975187826
 21
4.4747537897
 31
0.0
 11
5.2030653121
 21
4.490000294
 31
0.0
 11
5.209223052
 21
4.5050104026
 31
0.0
 11
5.2159828064
 21
4.5197593645
 31
0.0
 11
5.2233326894
 21
4.5342235173
 31
0.0
 11
5.2312601508
 21
4.548379467
 31
0.0
 11
5.2397526405
 21
4.5622038201
 31
0.0
 11
5.2487971651
 21
4.5756734721
 31
0.0
 11
5.2583782914
 21
4.5887669111
 31
0.0
 11
5.2684797518
 21
4.6014631702
 31
0.0
 11
5.2790852779
 21
4.6137412827
 31
0.0
 11
5.2901783485
 21
4.6255805227
 31
0.0
 11
5.3017404573
 21
4.6369620539
 31
0.0
 11
5.313752161
 21
4.6478679321
 31
0.0
 11
5.3261940105
 21
4.6582802184
 31
0.0
 11
5.339046402
 21
4.6681811807
 31
0.0
 11
5.3658974853
 21
4.6863874335
 31
0.0
  0
SPLINE
  5
273
100
AcDbEntity
  8
0
100
AcDbSpline
 62
6
  6
CONTINUOUS
 70
0
 71
3
 72
64
 73
60
 74
58
 42
0.0000001
 43
0.0000001
 44
0.0000000001
 12
-1.026916385
 22
-0.0009164397
 32
0.0
 13
0.8726618752
 23
0.5413126206
 33
0.0
 40
0.0
 40
0.0
 40
0.0
 40
0.0
 40
0.0312331797
 40
0.0624892994
 40
0.0781184061
 40
0.0937448779
 40
0.1249880034
 40
0.1562327174
 40
0.1874789339
 40
0.2031048613
 40
0.2187304858
 40
0.2343559133
 40
0.2499811941
 40
0.2656064412
 40
0.2812318046
 40
0.2968572896
 40
0.3124828437
 40
0.3281084826
 40
0.3437342942
 40
0.3749798114
 40
0.3906057197
 40
0.4062316397
 40
0.4218575445
 40
0.4374833202
 40
0.4531088911
 40
0.4687343409
 40
0.4843597627
 40
0.4999851627
 40
0.5156105757
 40
0.5312361237
 40
0.546861814
 40
0.5624875452
 40
0.5781132375
 40
0.593738935
 40
0.6093646566
 40
0.6249903103
 40
0.6406158107
 40
0.6562412014
 40
0.6718665649
 40
0.687491879
 40
0.7031171193
 40
0.7187423734
 40
0.7343677418
 40
0.7499932122
 40
0.7656187665
 40
0.7812444862
 40
0.7968704205
 40
0.8124964804
 40
0.8281225587
 40
0.8437486528
 40
0.8593748181
 40
0.8750009877
 40
0.8906270567
 40
0.9062530076
 40
0.9218789111
 40
0.9375047232
 40
0.9531303421
 40
0.9687557376
 40
1.0
 40
1.0
 40
1.0
 40
1.0
 10
5.5775131454
 20
3.9482669109
 30
0.0
 10
5.5668218574
 20
3.9482573697
 30
0.0
 10
5.5454213723
 20
3.9491073959
 30
0.0
 10
5.5188446291
 20
3.952322776
 30
0.0
 10
5.4977917328
 20
3.9561803314
 30
0.0
 10
5.4769169321
 20
3.9608859448
 30
0.0
 10
5.451205983
 20
3.9683446303
 30
0.0
 10
5.4211844676
 20
3.9797613355
 30
0.0
 10
5.3970102927
 20
3.9912652536
 30
0.0
 10
5.3782823717
 20
4.0016163029
 30
0.0
 10
5.3645602604
 20
4.0099429637
 30
0.0
 10
5.3511861642
 20
4.0188169053
 30
0.0
 10
5.3381815055
 20
4.0282238618
 30
0.0
 10
5.325568448
 20
4.0381496806
 30
0.0
 10
5.3133673885
 20
4.0485778577
 30
0.0
 10
5.3015973526
 20
4.0594903623
 30
0.0
 10
5.2902776364
 20
4.0708693269
 30
0.0
 10
5.279427554
 20
4.0826976275
 30
0.0
 10
5.2656134205
 20
4.0990383367
 30
0.0
 10
5.2527996547
 20
4.1162043428
 30
0.0
 10
5.241063657
 20
4.1340963046
 30
0.0
 10
5.2328105676
 20
4.1478631841
 30
0.0
 10
5.2251203798
 20
4.1619517404
 30
0.0
 10
5.2180052271
 20
4.176339258
 30
0.0
 10
5.2114777921
 20
4.1910025943
 30
0.0
 10
5.2055495
 20
4.2059180971
 30
0.0
 10
5.2002283802
 20
4.2210607517
 30
0.0
 10
5.19552287
 20
4.236405859
 30
0.0
 10
5.1914415347
 20
4.2519287091
 30
0.0
 10
5.187992046
 20
4.267604172
 30
0.0
 10
5.1851782824
 20
4.2834062189
 30
0.0
 10
5.1830045643
 20
4.2993090062
 30
0.0
 10
5.1814752397
 20
4.3152866668
 30
0.0
 10
5.1805941555
 20
4.3313131418
 30
0.0
 10
5.1803609268
 20
4.3473620884
 30
0.0
 10
5.1807755193
 20
4.3634073087
 30
0.0
 10
5.1818378542
 20
4.3794225977
 30
0.0
 10
5.1835477255
 20
4.3953816433
 30
0.0
 10
5.1859006303
 20
4.411258541
 30
0.0
 10
5.1888922182
 20
4.4270275228
 30
0.0
 10
5.192518105
 20
4.4426628293
 30
0.0
 10
5.1967739339
 20
4.4581385646
 30
0.0
 10
5.2016512092
 20
4.4734298851
 30
0.0
 10
5.207141447
 20
4.4885120877
 30
0.0
 10
5.2132361281
 20
4.503360487
 30
0.0
 10
5.2199268955
 20
4.5179501716
 30
0.0
 10
5.2272014291
 20
4.5322579062
 30
0.0
 10
5.2350472184
 20
4.5462606741
 30
0.0
 10
5.2434517261
 20
4.5599354899
 30
0.0
 10
5.2524027652
 20
4.5732590261
 30
0.0
 10
5.2618847059
 20
4.5862101197
 30
0.0
 10
5.2718812608
 20
4.5987682391
 30
0.0
 10
5.2823762432
 20
4.6109128315
 30
0.0
 10
5.293353809
 20
4.6226229114
 30
0.0
 10
5.3047955491
 20
4.6338797836
 30
0.0
 10
5.3166817259
 20
4.644665939
 30
0.0
 10
5.3289935031
 20
4.6549641508
 30
0.0
 10
5.3459468554
 20
4.6680174638
 30
0.0
 10
5.3592477693
 20
4.6770301052
 30
0.0
 10
5.3683363282
 20
4.6826677431
 30
0.0
 11
5.5775131454
 21
3.9482669109
 31
0.0
 11
5.5454644367
 21
3.9495372815
 31
0.0
 11
5.5135995702
 21
3.9533941675
 31
0.0
 11
5.4978125683
 21
3.9562866405
 31
0.0
 11
5.4821582655
 21
3.9598153486
 31
0.0
 11
5.4513449283
 21
3.9687555443
 31
0.0
 11
5.4213540142
 21
3.9801589912
 31
0.0
 11
5.3923806299
 21
3.9939479557
 31
0.0
 11
5.3783364364
 21
4.0017101504
 31
0.0
 11
5.3646181747
 21
4.0100342329
 31
0.0
 11
5.351247678
 21
4.0189057818
 31
0.0
 11
5.33824676
 21
4.0283103478
 31
0.0
 11
5.3256371541
 21
4.0382333742
 31
0.0
 11
5.31343927
 21
4.0486585397
 31
0.0
 11
5.3016724342
 21
4.0595680783
 31
0.0
 11
5.2903559415
 21
4.0709441817
 31
0.0
 11
5.2795090161
 21
4.0827689751
 31
0.0
 11
5.269149339
 21
4.0950231299
 31
0.0
 11
5.24995638
 21
4.1207364879
 31
0.0
 11
5.2411552918
 21
4.1341540605
 31
0.0
 11
5.2329043783
 21
4.1479168081
 31
0.0
 11
5.2252161896
 21
4.1620016243
 31
0.0
 11
5.2181031392
 21
4.1763853148
 31
0.0
 11
5.2115776251
 21
4.1910446787
 31
0.0
 11
5.2056506885
 21
4.2059559738
 31
0.0
 11
5.2003309788
 21
4.2210945029
 31
0.0
 11
5.1956269021
 21
4.2364354716
 31
0.0
 11
5.191546857
 21
4.2519540835
 31
0.0
 11
5.1880980133
 21
4.2676252038
 31
0.0
 11
5.1852849603
 21
4.283422987
 31
0.0
 11
5.1831119618
 21
4.2993214979
 31
0.0
 11
5.1815832798
 21
4.3152948013
 31
0.0
 11
5.1807021317
 21
4.331316881
 31
0.0
 11
5.1804688974
 21
4.3473615018
 31
0.0
 11
5.1808834797
 21
4.3634023914
 31
0.0
 11
5.1819457814
 21
4.3794132777
 31
0.0
 11
5.1836549002
 21
4.3953679718
 31
0.0
 11
5.1860070817
 21
4.4112405801
 31
0.0
 11
5.1889979411
 21
4.4270052744
 31
0.0
 11
5.1926230932
 21
4.4426362265
 31
0.0
 11
5.1968774933
 21
4.4581077787
 31
0.0
 11
5.2017533528
 21
4.4733949828
 31
0.0
 11
5.2072421699
 21
4.488473075
 31
0.0
 11
5.2133354426
 21
4.5033172917
 31
0.0
 11
5.2200241454
 21
4.5179030878
 31
0.0
 11
5.2272966087
 21
4.5322070223
 31
0.0
 11
5.2351403305
 21
4.546206002
 31
0.0
 11
5.2435428085
 21
4.5598769338
 31
0.0
 11
5.2524912318
 21
4.5731969281
 31
0.0
 11
5.2619704751
 21
4.5861446238
 31
0.0
 11
5.271964362
 21
4.5986993538
 31
0.0
 11
5.2824567109
 21
4.6108404541
 31
0.0
 11
5.293431193
 21
4.6225473989
 31
0.0
 11
5.3048696585
 21
4.6338013652
 31
0.0
 11
5.3167527311
 21
4.6445846774
 31
0.0
 11
5.3290610112
 21
4.6548796816
 31
0.0
 11
5.3417750331
 21
4.6646688162
 31
0.0
 11
5.3683363282
 21
4.6826677431
 31
0.0
  0
SPLINE
  5
274
100
AcDbEntity
  8
0
100
AcDbSpline
 62
6
  6
CONTINUOUS
 70
0
 71
3
 72
43
 73
39
 74
37
 42
0.0000001
 43
0.0000001
 44
0.0000000001
 12
-0.7975640624
 22
-0.000719833
 32
0.0
 13
0.3548617068
 23
0.7142703416
 33
0.0
 40
0.0
 40
0.0
 40
0.0
 40
0.0
 40
0.0312361272
 40
0.0624939282
 40
0.0781257601
 40
0.0937552935
 40
0.1250052215
 40
0.1562528229
 40
0.1875023535
 40
0.218753102
 40
0.2343802922
 40
0.2500072203
 40
0.2812566326
 40
0.312505603
 40
0.3437546432
 40
0.3750038338
 40
0.4062530747
 40
0.4375024888
 40
0.4687516566
 40
0.5000006491
 40
0.5312495171
 40
0.5624983056
 40
0.5937472803
 40
0.6249962903
 40
0.6562456083
 40
0.6874951396
 40
0.718744911
 40
0.749995201
 40
0.7656224831
 40
0.7812499178
 40
0.8125008894
 40
0.8437503337
 40
0.874997409
 40
0.9062464258
 40
0.9218754355
 40
0.9375067849
 40
0.968764003
 40
1.0
 40
1.0
 40
1.0
 40
1.0
 10
5.5775131454
 20
3.9527133926
 30
0.0
 10
5.5692088745
 20
3.9527058976
 30
0.0
 10
5.5525896162
 20
3.9532209146
 30
0.0
 10
5.5318976583
 20
3.9551804757
 30
0.0
 10
5.5154416041
 20
3.9575342795
 30
0.0
 10
5.4990710791
 20
3.9604108536
 30
0.0
 10
5.47879388
 20
3.9649800588
 30
0.0
 10
5.4548614744
 20
3.9719961262
 30
0.0
 10
5.4314235941
 20
3.9805202516
 30
0.0
 10
5.4123795141
 20
3.9888490164
 30
0.0
 10
5.3974870752
 20
3.9962265467
 30
0.0
 10
5.3828373733
 20
4.0040742752
 30
0.0
 10
5.365003796
 20
4.0147507016
 30
0.0
 10
5.34446171
 20
4.0288931027
 30
0.0
 10
5.3248603731
 20
4.0443136142
 30
0.0
 10
5.3062760699
 20
4.0609456436
 30
0.0
 10
5.2887865269
 20
4.0787255836
 30
0.0
 10
5.2724609313
 20
4.0975797684
 30
0.0
 10
5.2573643007
 20
4.1174316602
 30
0.0
 10
5.2435605326
 20
4.1382030918
 30
0.0
 10
5.2311008724
 20
4.1598074436
 30
0.0
 10
5.2200397776
 20
4.1821601887
 30
0.0
 10
5.2104187401
 20
4.2051694623
 30
0.0
 10
5.202277078
 20
4.2287430873
 30
0.0
 10
5.1956497023
 20
4.2527864409
 30
0.0
 10
5.1905588738
 20
4.2772017207
 30
0.0
 10
5.1870302475
 20
4.3018910163
 30
0.0
 10
5.1854000153
 20
4.3226126529
 30
0.0
 10
5.184886359
 20
4.3392243844
 30
0.0
 10
5.1849012764
 20
4.3558442404
 30
0.0
 10
5.185909713
 20
4.3766055356
 30
0.0
 10
5.1886950454
 20
4.4013891876
 30
0.0
 10
5.1930488516
 20
4.4259453947
 30
0.0
 10
5.1979679528
 20
4.4461399831
 30
0.0
 10
5.202665729
 20
4.4620830829
 30
0.0
 10
5.2078690196
 20
4.4778708497
 30
0.0
 10
5.2153062643
 20
4.4972788184
 30
0.0
 10
5.2222266359
 20
4.5123972034
 30
0.0
 10
5.2259214556
 20
4.5198341855
 30
0.0
 11
5.5775131454
 21
3.9527133926
 31
0.0
 11
5.5526122336
 21
3.9534836696
 31
0.0
 11
5.5277931887
 21
3.9558342736
 31
0.0
 11
5.5154514347
 21
3.957599771
 31
0.0
 11
5.5031739572
 21
3.9597570179
 31
0.0
 11
5.4788597519
 21
3.9652357681
 31
0.0
 11
5.4549444157
 21
3.9722472932
 31
0.0
 11
5.4315216013
 21
3.980765113
 31
0.0
 11
5.4086856693
 21
3.990752611
 31
0.0
 11
5.3975173179
 21
3.9962853775
 31
0.0
 11
5.3865308483
 21
4.0021706009
 31
0.0
 11
5.3651466196
 21
4.0149726143
 31
0.0
 11
5.3446185081
 21
4.0291061153
 31
0.0
 11
5.3250299186
 21
4.0445155005
 31
0.0
 11
5.3064585516
 21
4.0611369413
 31
0.0
 11
5.288980549
 21
4.0789045915
 31
0.0
 11
5.272665711
 21
4.0977461126
 31
0.0
 11
5.2575797366
 21
4.1175849745
 31
0.0
 11
5.2437845241
 21
4.1383419542
 31
0.0
 11
5.2313339559
 21
4.1599321949
 31
0.0
 11
5.2202798101
 21
4.1822695593
 31
0.0
 11
5.2106653142
 21
4.2052634901
 31
0.0
 11
5.2025294904
 21
4.2288212736
 31
0.0
 11
5.1959058148
 21
4.2528483407
 31
0.0
 11
5.1908192589
 21
4.2772472846
 31
0.0
 11
5.1872923332
 21
4.3019201818
 31
0.0
 11
5.1853375211
 21
4.3267675234
 31
0.0
 11
5.184952436
 21
4.3392253368
 31
0.0
 11
5.1849635472
 21
4.3516892173
 31
0.0
 11
5.1861723018
 21
4.3765845519
 31
0.0
 11
5.1889565554
 21
4.40135199
 31
0.0
 11
5.1933068793
 21
4.4258909093
 31
0.0
 11
5.1992053569
 21
4.450105967
 31
0.0
 11
5.2027286591
 21
4.46206281
 31
0.0
 11
5.2066308564
 21
4.4739033816
 31
0.0
 11
5.2155512466
 21
4.4971824234
 31
0.0
 11
5.2259214556
 21
4.5198341855
 31
0.0
  0
SPLINE
  5
275
100
AcDbEntity
  8
0
100
AcDbSpline
 62
6
  6
CONTINUOUS
 70
0
 71
3
 72
43
 73
39
 74
37
 42
0.0000001
 43
0.0000001
 44
0.0000000001
 12
-0.8021777341
 22
-0.0007199149
 32
0.0
 13
0.3571161926
 23
0.7183019284
 33
0.0
 40
0.0
 40
0.0
 40
0.0
 40
0.0
 40
0.0312336424
 40
0.0624915836
 40
0.078124442
 40
0.0937551645
 40
0.1250063797
 40
0.1562538439
 40
0.187502548
 40
0.2187531583
 40
0.2500036609
 40
0.2812531479
 40
0.3125020224
 40
0.3281282972
 40
0.3437546051
 40
0.3750034804
 40
0.4062523225
 40
0.4375011709
 40
0.4687502299
 40
0.49999936
 40
0.5312487946
 40
0.5468754777
 40
0.5625020576
 40
0.5937509861
 40
0.6249999324
 40
0.6562490087
 40
0.6874986533
 40
0.7187487136
 40
0.7343757393
 40
0.7500028173
 40
0.7812532168
 40
0.8125034595
 40
0.8437534605
 40
0.8750032519
 40
0.9062524485
 40
0.9375014151
 40
0.9687504812
 40
1.0
 40
1.0
 40
1.0
 40
1.0
 10
5.5775131454
 20
3.950490153
 30
0.0
 10
5.5691615012
 20
3.9504826578
 30
0.0
 10
5.5524467342
 20
3.9510009874
 30
0.0
 10
5.5316354902
 20
3.9529723668
 30
0.0
 10
5.5150836142
 20
3.9553398251
 30
0.0
 10
5.4986174618
 20
3.9582331805
 30
0.0
 10
5.478222546
 20
3.9628299709
 30
0.0
 10
5.4541519239
 20
3.9698872725
 30
0.0
 10
5.4305787238
 20
3.9784618261
 30
0.0
 10
5.4075967227
 20
3.9885153709
 30
0.0
 10
5.3852985239
 20
4.0000071316
 30
0.0
 10
5.3637778196
 20
4.0128943307
 30
0.0
 10
5.3465598045
 20
4.0247504498
 30
0.0
 10
5.3332604302
 20
4.034875348
 30
0.0
 10
5.3202900717
 20
4.0454184335
 30
0.0
 10
5.3047146621
 20
4.0593621364
 30
0.0
 10
5.2871246107
 20
4.0772445342
 30
0.0
 10
5.2707075631
 20
4.096210185
 30
0.0
 10
5.2555261717
 20
4.116178687
 30
0.0
 10
5.2416435453
 20
4.137070739
 30
0.0
 10
5.2312036893
 20
4.1551827409
 30
0.0
 10
5.223554371
 20
4.1700449427
 30
0.0
 10
5.216380528
 20
4.1851422694
 30
0.0
 10
5.2083195892
 20
4.2044308467
 30
0.0
 10
5.2001351425
 20
4.228141686
 30
0.0
 10
5.1934709489
 20
4.2523248
 30
0.0
 10
5.188357793
 20
4.2768823193
 30
0.0
 10
5.1854017661
 20
4.2975780277
 30
0.0
 10
5.1838291032
 20
4.314219475
 30
0.0
 10
5.1827866181
 20
4.3309026159
 30
0.0
 10
5.1824773063
 20
4.3518063242
 30
0.0
 10
5.1836964272
 20
4.3768614052
 30
0.0
 10
5.186506153
 20
4.4017886017
 30
0.0
 10
5.1908897276
 20
4.4264871874
 30
0.0
 10
5.1968312522
 20
4.4508577326
 30
0.0
 10
5.2043089907
 20
4.4748015966
 30
0.0
 10
5.2132874611
 20
4.4982230547
 30
0.0
 10
5.2202542582
 20
4.513427945
 30
0.0
 10
5.2239741612
 20
4.5209101416
 30
0.0
 11
5.5775131454
 21
3.950490153
 31
0.0
 11
5.552470194
 21
3.9512652233
 31
0.0
 11
5.5275075074
 21
3.9536298688
 31
0.0
 11
5.5150935452
 21
3.955405697
 31
0.0
 11
5.5027441157
 21
3.9575756392
 31
0.0
 11
5.4782884444
 21
3.9630871605
 31
0.0
 11
5.4542351145
 21
3.9701400452
 31
0.0
 11
5.4306778567
 21
3.9787080867
 31
0.0
 11
5.407710697
 21
3.9887550747
 31
0.0
 11
5.3854278017
 21
4.000239875
 31
0.0
 11
5.3639208865
 21
4.0131177557
 31
0.0
 11
5.3432751732
 21
4.0273345453
 31
0.0
 11
5.3333015666
 21
4.034927619
 31
0.0
 11
5.3235745522
 21
4.0428341641
 31
0.0
 11
5.3048979871
 21
4.0595538689
 31
0.0
 11
5.2873201177
 21
4.0774250689
 31
0.0
 11
5.2709135493
 21
4.0963772731
 31
0.0
 11
5.2557426586
 21
4.1163325751
 31
0.0
 11
5.2418694481
 21
4.1372109585
 31
0.0
 11
5.2293503011
 21
4.1589286027
 31
0.0
 11
5.2236137895
 21
4.1700743751
 31
0.0
 11
5.2182340327
 21
4.1813965635
 31
0.0
 11
5.2085676627
 21
4.2045250317
 31
0.0
 11
5.200388537
 21
4.2282203345
 31
0.0
 11
5.1937295021
 21
4.2523870048
 31
0.0
 11
5.1886188224
 21
4.2769282865
 31
0.0
 11
5.1850747078
 21
4.3017446021
 31
0.0
 11
5.1838953815
 21
4.3142246618
 31
0.0
 11
5.1831134542
 21
4.3267359503
 31
0.0
 11
5.1827423554
 21
4.3518015882
 31
0.0
 11
5.1839615355
 21
4.3768401825
 31
0.0
 11
5.1867684763
 21
4.4017506015
 31
0.0
 11
5.1911494282
 21
4.4264327148
 31
0.0
 11
5.197087312
 21
4.4507867098
 31
0.0
 11
5.2045590983
 21
4.4747144906
 31
0.0
 11
5.2135326965
 21
4.4981205758
 31
0.0
 11
5.2239741612
 21
4.5209101416
 31
0.0
  0
SPLINE
  5
276
100
AcDbEntity
  8
0
100
AcDbSpline
 62
6
  6
CONTINUOUS
 70
0
 71
3
 72
42
 73
38
 74
36
 42
0.0000001
 43
0.0000001
 44
0.0000000001
 12
-0.7929857076
 22
-0.0007197835
 32
0.0
 13
0.3527417549
 23
0.7102113101
 33
0.0
 40
0.0
 40
0.0
 40
0.0
 40
0.0
 40
0.0312336285
 40
0.0624910746
 40
0.0781234519
 40
0.0937535753
 40
0.125003651
 40
0.1562502774
 40
0.1874985773
 40
0.2187488981
 40
0.2499991513
 40
0.2656258977
 40
0.2812525044
 40
0.3125015496
 40
0.3437507097
 40
0.3750004326
 40
0.4062503441
 40
0.4375004437
 40
0.4687506617
 40
0.5000005627
 40
0.5312503115
 40
0.5468770388
 40
0.5625036245
 40
0.5937525496
 40
0.6250015264
 40
0.6562507198
 40
0.6875005933
 40
0.7187509341
 40
0.7500013817
 40
0.7812520808
 40
0.8125026413
 40
0.8437530013
 40
0.8750031607
 40
0.9062526972
 40
0.9375018983
 40
0.9687509331
 40
1.0
 40
1.0
 40
1.0
 40
1.0
 10
5.5775131454
 20
3.954936634
 30
0.0
 10
5.569257205
 20
3.9549291401
 30
0.0
 10
5.552734101
 20
3.9554412302
 30
0.0
 10
5.5321615353
 20
3.9573893678
 30
0.0
 10
5.5157996526
 20
3.9597290496
 30
0.0
 10
5.4995226447
 20
3.9625884725
 30
0.0
 10
5.4793618272
 20
3.9671312373
 30
0.0
 10
5.455567185
 20
3.9741058799
 30
0.0
 10
5.4322637628
 20
3.9825802864
 30
0.0
 10
5.4095445895
 20
3.9925159148
 30
0.0
 10
5.3911733299
 20
4.0019815664
 30
0.0
 10
5.3768626816
 20
4.010242604
 30
0.0
 10
5.3628217893
 20
4.0189536015
 30
0.0
 10
5.345799219
 20
4.030671307
 30
0.0
 10
5.3263092044
 20
4.0460013703
 30
0.0
 10
5.3078313939
 20
4.06253838
 30
0.0
 10
5.2904391138
 20
4.0802138125
 30
0.0
 10
5.2742065373
 20
4.0989600624
 30
0.0
 10
5.2591948429
 20
4.1186975847
 30
0.0
 10
5.2454669745
 20
4.1393480679
 30
0.0
 10
5.2351428975
 20
4.1572506471
 30
0.0
 10
5.2275780382
 20
4.1719410088
 30
0.0
 10
5.2204831307
 20
4.1868637983
 30
0.0
 10
5.2125102213
 20
4.2059295312
 30
0.0
 10
5.2044138098
 20
4.2293667486
 30
0.0
 10
5.1978199427
 20
4.2532710833
 30
0.0
 10
5.1927589033
 20
4.277546399
 30
0.0
 10
5.1892453689
 20
4.3020938465
 30
0.0
 10
5.1872983741
 20
4.3268152129
 30
0.0
 10
5.1869242629
 20
4.3516102582
 30
0.0
 10
5.1881215559
 20
4.3763792522
 30
0.0
 10
5.1908911303
 20
4.4010218781
 30
0.0
 10
5.1952162211
 20
4.4254392166
 30
0.0
 10
5.2010812975
 20
4.4495327858
 30
0.0
 10
5.2084648185
 20
4.4732050887
 30
0.0
 10
5.2173316818
 20
4.4963614286
 30
0.0
 10
5.2242127326
 20
4.5113946501
 30
0.0
 10
5.2278870161
 20
4.5187924637
 30
0.0
 11
5.5775131454
 21
3.954936634
 31
0.0
 11
5.5527571546
 21
3.9557023928
 31
0.0
 11
5.5280808333
 21
3.9580391779
 31
0.0
 11
5.5158094345
 21
3.9597941583
 31
0.0
 11
5.5036018917
 21
3.9619386333
 31
0.0
 11
5.479427025
 21
3.9673854232
 31
0.0
 11
5.4556494833
 21
3.974355692
 31
0.0
 11
5.432361783
 21
3.9828235678
 31
0.0
 11
5.409657006
 21
3.9927530408
 31
0.0
 11
5.387628451
 21
4.0041038751
 31
0.0
 11
5.3768963371
 21
4.0102988918
 31
0.0
 11
5.3663664977
 21
4.016831597
 31
0.0
 11
5.3459553537
 21
4.0308828032
 31
0.0
 11
5.3264780482
 21
4.0462024078
 31
0.0
 11
5.308012382
 21
4.0627280546
 31
0.0
 11
5.2906324464
 21
4.0803922296
 31
0.0
 11
5.2744100376
 21
4.099125251
 31
0.0
 11
5.2594087567
 21
4.1188498259
 31
0.0
 11
5.2456901544
 21
4.139486802
 31
0.0
 11
5.2333099114
 21
4.1609532511
 31
0.0
 11
5.2276367572
 21
4.171970122
 31
0.0
 11
5.2223161938
 21
4.183161411
 31
0.0
 11
5.2127553666
 21
4.2060226677
 31
0.0
 11
5.2046642624
 21
4.2294445066
 31
0.0
 11
5.1980754701
 21
4.2533326802
 31
0.0
 11
5.1930168525
 21
4.2775915784
 31
0.0
 11
5.1895064662
 21
4.3021227688
 31
0.0
 11
5.1875605253
 21
4.3268274167
 31
0.0
 11
5.1871861649
 21
4.3516059568
 31
0.0
 11
5.188383609
 21
4.3763582674
 31
0.0
 11
5.1911503977
 21
4.4009844272
 31
0.0
 11
5.1954729299
 21
4.4253854662
 31
0.0
 11
5.2013344079
 21
4.4494627081
 31
0.0
 11
5.208712063
 21
4.4731191561
 31
0.0
 11
5.2175741331
 21
4.4962603424
 31
0.0
 11
5.2278870161
 21
4.5187924637
 31
0.0
  0
SPLINE
  5
277
100
AcDbEntity
  8
0
100
AcDbSpline
 62
6
  6
CONTINUOUS
 70
0
 71
3
 72
37
 73
33
 74
31
 42
0.0000001
 43
0.0000001
 44
0.0000000001
 12
-0.0598430043
 22
0.6394268152
 32
0.0
 13
0.6422207497
 23
0.0005879651
 33
0.0
 40
0.0
 40
0.0
 40
0.0
 40
0.0
 40
0.0624717699
 40
0.0937323214
 40
0.1249864489
 40
0.1562359493
 40
0.1874845226
 40
0.2499648959
 40
0.2812162906
 40
0.3124675711
 40
0.3437188798
 40
0.3749703063
 40
0.4062220894
 40
0.4374740142
 40
0.4687258262
 40
0.4999775975
 40
0.5312291163
 40
0.5624801796
 40
0.5937310269
 40
0.6249817306
 40
0.6562324282
 40
0.6874835068
 40
0.7187350805
 40
0.7499873228
 40
0.7812397342
 40
0.8124910369
 40
0.8437405662
 40
0.874990937
 40
0.9062458188
 40
0.9375068716
 40
0.9687633744
 40
1.0
 40
1.0
 40
1.0
 40
1.0
 10
5.1932570113
 20
4.3091557518
 30
0.0
 10
5.1920108452
 20
4.3224711268
 30
0.0
 10
5.1911822704
 20
4.3425674433
 30
0.0
 10
5.1921624853
 20
4.369313887
 30
0.0
 10
5.1939422288
 20
4.3893170327
 30
0.0
 10
5.1967586431
 20
4.4091978329
 30
0.0
 10
5.2018844533
 20
4.4354660947
 30
0.0
 10
5.2090555242
 20
4.4613021784
 30
0.0
 10
5.2182001978
 20
4.4864560878
 30
0.0
 10
5.2260334455
 20
4.5049450892
 30
0.0
 10
5.2348153428
 20
4.5230019344
 30
0.0
 10
5.2445242532
 20
4.5405781347
 30
0.0
 10
5.2551341842
 20
4.5576256177
 30
0.0
 10
5.2666142695
 20
4.574099799
 30
0.0
 10
5.2789354144
 20
4.5899548253
 30
0.0
 10
5.2920642021
 20
4.6051476598
 30
0.0
 10
5.3059632866
 20
4.6196389108
 30
0.0
 10
5.3205969468
 20
4.6333877449
 30
0.0
 10
5.3359252124
 20
4.6463573196
 30
0.0
 10
5.3519054922
 20
4.6585143585
 30
0.0
 10
5.3684963969
 20
4.6698239979
 30
0.0
 10
5.3856524661
 20
4.6802566822
 30
0.0
 10
5.4033269069
 20
4.6897855945
 30
0.0
 10
5.4214734009
 20
4.6983822805
 30
0.0
 10
5.4400416241
 20
4.7060252334
 30
0.0
 10
5.4589806321
 20
4.7126949748
 30
0.0
 10
5.4782403869
 20
4.7183709304
 30
0.0
 10
5.4977695599
 20
4.7230395067
 30
0.0
 10
5.5175171343
 20
4.7266887286
 30
0.0
 10
5.5374292981
 20
4.7293055316
 30
0.0
 10
5.5574458175
 20
4.7308862566
 30
0.0
 10
5.570826209
 20
4.731247034
 30
0.0
 10
5.5775131454
 20
4.731253156
 30
0.0
 11
5.1932570113
 21
4.3091557518
 31
0.0
 11
5.1916009714
 21
4.3492422432
 31
0.0
 11
5.1923366512
 21
4.3693049427
 31
0.0
 11
5.1941151645
 21
4.3892980511
 31
0.0
 11
5.1969301162
 21
4.4091687396
 31
0.0
 11
5.2007740077
 21
4.4288656635
 31
0.0
 11
5.2115049875
 21
4.4675303596
 31
0.0
 11
5.2183624603
 21
4.486392812
 31
0.0
 11
5.2261915506
 21
4.5048730567
 31
0.0
 11
5.2349698248
 21
4.5229217887
 31
0.0
 11
5.2446743735
 21
4.5404899303
 31
0.0
 11
5.255279186
 21
4.5575300304
 31
0.0
 11
5.2667544608
 21
4.5739966262
 31
0.0
 11
5.2790700363
 21
4.5898444778
 31
0.0
 11
5.2921926396
 21
4.6050307887
 31
0.0
 11
5.3060858086
 21
4.6195152665
 31
0.0
 11
5.3207127704
 21
4.6332579187
 31
0.0
 11
5.3360339155
 21
4.6462219245
 31
0.0
 11
5.3520072571
 21
4.6583731216
 31
0.0
 11
5.368590496
 21
4.6696777781
 31
0.0
 11
5.3857387214
 21
4.6801059736
 31
0.0
 11
5.4034054124
 21
4.6896301371
 31
0.0
 11
5.4215436655
 21
4.6982233128
 31
0.0
 11
5.4401037344
 21
4.705863149
 31
0.0
 11
5.4590345199
 21
4.7125294847
 31
0.0
 11
5.4782849909
 21
4.7182029601
 31
0.0
 11
5.497804612
 21
4.7228693338
 31
0.0
 11
5.517543046
 21
4.7265164101
 31
0.0
 11
5.5374483098
 21
4.7291329979
 31
0.0
 11
5.5574595942
 21
4.7307132624
 31
0.0
 11
5.5775131454
 21
4.731253156
 31
0.0
  0
ENDSEC
  0
SECTION
  2
OBJECTS
  0
DICTIONARY
  5
C
100
AcDbDictionary
280
0
281
1
  3
ACAD_GROUP
350
D
  3
ACAD_MLINESTYLE
350
17
  3
ACAD_LAYOUT
350
1A
  3
ACAD_PLOTSETTINGS
350
19
  3
ACAD_PLOTSTYLENAME
350
E
  0
DICTIONARY
  5
D
102
{ACAD_REACTORS
330
C
102
}
100
AcDbDictionary
280
0
281
1
  0
ACDBDICTIONARYWDFLT
  5
E
102
{ACAD_REACTORS
330
C
102
}
100
AcDbDictionary
281
1
  3
Normal
350
F
100
AcDbDictionaryWithDefault
340
F
  0
DICTIONARY
  5
17
102
{ACAD_REACTORS
330
C
102
}
100
AcDbDictionary
280
0
281
1
  3
Standard
350
18
  0
DICTIONARY
  5
19
102
{ACAD_REACTORS
330
C
102
}
100
AcDbDictionary
281
1
  0
DICTIONARY
  5
1A
102
{ACAD_REACTORS
330
C
102
}
100
AcDbDictionary
281
1
  3
Model
350
278
  3
Layout1
350
279
  0
ACDBPLACEHOLDER
  5
F
102
{ACAD_REACTORS
330
E
102
}
  0
MLINESTYLE
  5
18
102
{ACAD_REACTORS
330
17
102
}
100
AcDbMlineStyle
  2
STANDARD
 70
0
  3

 62
256
 51
90.0
 52
90.0
 71
2
 49
0.5
 62
256
  6
BYLAYER
 49
-0.5
 62
256
  6
BYLAYER
  0
LAYOUT
  5
278
102
{ACAD_REACTORS
330
1A
102
}
100
AcDbPlotSettings
  1

  2
none_device
  4
ISO_A4_(297.00_x_210.00_MM)
  6

 40
0.0
 41
0.0
 42
0.0
 43
0.0
 44
297.0
 45
210.0
 46
0.0
 47
0.0
 48
0.0
 49
0.0
140
0.0
141
0.0
142
1.0
143
1.0
 70
1024
 72
0
 73
0
 74
0
  7

 75
0
147
1.0
148
0.0
149
0.0
100
AcDbLayout
  1
Model
 70
0
 71
0
 10
0.0
 20
0.0
 11
11.6929133858
 21
8.2677165354
 12
0.0
 22
0.0
 32
0.0
 14
0.0
 24
0.0
 34
0.0
 15
0.0
 25
0.0
 35
0.0
146
0.0
 13
0.0
 23
0.0
 33
0.0
 16
1.0
 26
0.0
 36
0.0
 17
0.0
 27
1.0
 37
0.0
 76
0
330
203
345
0
346
0
  0
LAYOUT
  5
279
102
{ACAD_REACTORS
330
1A
102
}
100
AcDbPlotSettings
  1

  2
none_device
  4
ISO_A4_(297.00_x_210.00_MM)
  6

 40
0.0
 41
0.0
 42
0.0
 43
0.0
 44
297.0
 45
210.0
 46
0.0
 47
0.0
 48
0.0
 49
0.0
140
0.0
141
0.0
142
1.0
143
1.0
 70
0
 72
0
 73
0
 74
0
  7

 75
0
147
1.0
148
0.0
149
0.0
100
AcDbLayout
  1
Layout1
 70
0
 71
1
 10
0.0
 20
0.0
 11
11.6929133858
 21
8.2677165354
 12
0.0
 22
0.0
 32
0.0
 14
0.0
 24
0.0
 34
0.0
 15
0.0
 25
0.0
 35
0.0
146
0.0
 13
0.0
 23
0.0
 33
0.0
 16
1.0
 26
0.0
 36
0.0
 17
0.0
 27
1.0
 37
0.0
 76
0
330
204
345
0
346
0
  0
ENDSEC
  0
EOF
