999
DXF file: 517-36_FRONT.dxf
999
Pro/ENGINEER 2009300 by Parametric Technology Corporation
  0
SECTION
  2
HEADER
  9
$ACADVER
  1
AC1015
  9
$DWGCODEPAGE
  3
ANSI_1252
  9
$EXTMAX
 10
46.811023622
 20
33.1102362205
 30
0.0
  9
$EXTMIN
 10
0.0
 20
0.0
 30
0.0
  9
$LIMMIN
 10
0.0
 20
0.0
  9
$LIMMAX
 10
46.811023622
 20
33.1102362205
  9
$VIEWCTR
 10
23.405511811
 20
16.5551181102
  9
$VIEWSIZE
 40
33.1102362205
  9
$CLAYER
  8
0
  9
$LTSCALE
 40
2.5746062992
  9
$CELTYPE
  6
BYLAYER
  9
$DIMSCALE
 40
1.0
  9
$DIMASZ
 40
0.1
  9
$DIMEXO
 40
0.2925688976
  9
$DIMDLI
 40
1.7788188976
  9
$DIMEXE
 40
0.8425984252
  9
$DIMCEN
 40
0.4212992126
  9
$DIMLFAC
 40
1.0
  9
$DIMBLK
  1
_FILLED
  9
$DIMTXT
 40
0.08
  9
$DIMTOL
 70
1
  9
$DIMLIM
 70
0
  9
$DIMTFAC
 40
1.0
  9
$DIMTP
 40
0.01
  9
$DIMTM
 40
0.01
  9
$PDMODE
 70
3
  9
$PDSIZE
 40
0.06
  9
$HANDSEED
  5
26D
  9
$TILEMODE
 70
1
  9
$MEASUREMENT
 70
0
  9
$INSUNITS
 70
1
  0
ENDSEC
  0
SECTION
  2
CLASSES
  0
CLASS
  1
ACDBDICTIONARYWDFLT
  2
AcDbDictionaryWithDefault
  3
AutoCAD 2000
 90
0
280
0
281
0
  0
CLASS
  1
ACDBPLACEHOLDER
  2
AcDbPlaceHolder
  3
AutoCAD 2000
 90
0
280
0
281
0
  0
CLASS
  1
LAYOUT
  2
AcDbLayout
  3
AutoCAD 2000
 90
0
280
0
281
0
  0
ENDSEC
  0
SECTION
  2
TABLES
  0
TABLE
  2
VPORT
  5
8
100
AcDbSymbolTable
 70
2
  0
VPORT
  5
1F4
100
AcDbSymbolTableRecord
100
AcDbViewportTableRecord
  2
*ACTIVE
 70
0
 10
0.0
 20
0.0
 11
1.0
 21
1.0
 12
23.405511811
 22
16.5551181102
 13
0.0
 23
0.0
 14
1.0
 24
1.0
 15
0.0
 25
0.0
 16
0.0
 26
0.0
 36
1.0
 17
0.0
 27
0.0
 37
0.0
 40
33.1102362205
 41
1.4137931034
 42
50.0
 43
0.0
 44
0.0
 50
0.0
 51
0.0
 71
0
 72
100
 73
1
 74
1
 75
0
 76
0
 77
0
 78
0
  0
ENDTAB
  0
TABLE
  2
LTYPE
  5
5
100
AcDbSymbolTable
 70
6
  0
LTYPE
  5
14
100
AcDbSymbolTableRecord
100
AcDbLinetypeTableRecord
  2
BYBLOCK
 70
0
  3

 72
65
 73
0
 40
0.0
  0
LTYPE
  5
15
100
AcDbSymbolTableRecord
100
AcDbLinetypeTableRecord
  2
BYLAYER
 70
0
  3

 72
65
 73
0
 40
0.0
  0
LTYPE
  5
16
100
AcDbSymbolTableRecord
100
AcDbLinetypeTableRecord
  2
CONTINUOUS
 70
64
  3
Solid line
 72
65
 73
0
 40
0.0
  0
LTYPE
  5
1F5
100
AcDbSymbolTableRecord
100
AcDbLinetypeTableRecord
  2
CENTER
 70
64
  3
____ _ ____ _ ____ _ ____ _ ____ _ ____ _ ____
 72
65
 73
4
 40
0.6
 49
0.375
 74
0
 49
-0.075
 74
0
 49
0.075
 74
0
 49
-0.075
 74
0
  0
LTYPE
  5
1F6
100
AcDbSymbolTableRecord
100
AcDbLinetypeTableRecord
  2
HIDDEN
 70
64
  3
- - - - - - - - - - - - - - - - - - - -
 72
65
 73
2
 40
0.2
 49
0.1
 74
0
 49
-0.1
 74
0
  0
LTYPE
  5
1F7
100
AcDbSymbolTableRecord
100
AcDbLinetypeTableRecord
  2
PHANTOM
 70
64
  3
_____ _ _ _____ _ _ _____ _ _ _____
 72
65
 73
6
 40
0.8
 49
0.45
 74
0
 49
-0.05
 74
0
 49
0.1
 74
0
 49
-0.05
 74
0
 49
0.1
 74
0
 49
-0.05
 74
0
  0
LTYPE
  5
1F8
100
AcDbSymbolTableRecord
100
AcDbLinetypeTableRecord
  2
DOT
 70
64
  3
. . . . . . . . . . . . . . . . . . . .
 72
65
 73
2
 40
0.2
 49
0.1
 74
0
 49
-0.1
 74
0
  0
LTYPE
  5
1F9
100
AcDbSymbolTableRecord
100
AcDbLinetypeTableRecord
  2
DASHED
 70
64
  3
- - - - - - - - - - - - - - - - - - - -
 72
65
 73
2
 40
0.2
 49
0.1
 74
0
 49
-0.1
 74
0
  0
ENDTAB
  0
TABLE
  2
LAYER
  5
2
100
AcDbSymbolTable
 70
36
  0
LAYER
  5
10
100
AcDbSymbolTableRecord
100
AcDbLayerTableRecord
  2
0
 70
0
 62
7
  6
CONTINUOUS
370
-3
390
F
  0
LAYER
  5
1FA
100
AcDbSymbolTableRecord
100
AcDbLayerTableRecord
  2
DEFAULT_1
 70
0
 62
7
  6
CENTER
370
-3
390
F
  0
LAYER
  5
1FB
100
AcDbSymbolTableRecord
100
AcDbLayerTableRecord
  2
DEFAULT_2
 70
0
 62
8
  6
HIDDEN
370
-3
390
F
  0
LAYER
  5
1FC
100
AcDbSymbolTableRecord
100
AcDbLayerTableRecord
  2
DEFAULT_3
 70
0
 62
7
  6
PHANTOM
370
-3
390
F
  0
LAYER
  5
1FD
100
AcDbSymbolTableRecord
100
AcDbLayerTableRecord
  2
50558-36
 70
0
 62
7
  6
CONTINUOUS
370
-3
390
F
  0
LAYER
  5
1FE
100
AcDbSymbolTableRecord
100
AcDbLayerTableRecord
  2
91251
 70
0
 62
7
  6
CONTINUOUS
370
-3
390
F
  0
LAYER
  5
1FF
100
AcDbSymbolTableRecord
100
AcDbLayerTableRecord
  2
ALL_ASSEMBLY_MEMBERS
 70
0
 62
7
  6
CONTINUOUS
370
-3
390
F
  0
LAYER
  5
200
100
AcDbSymbolTableRecord
100
AcDbLayerTableRecord
  2
ALL_ASSEMBLY_MEMBERS_1
 70
0
 62
7
  6
CONTINUOUS
370
-3
390
F
  0
LAYER
  5
201
100
AcDbSymbolTableRecord
100
AcDbLayerTableRecord
  2
DEFAULT_COORDINATE_SYSTEM
 70
0
 62
7
  6
CONTINUOUS
370
-3
390
F
  0
LAYER
  5
202
100
AcDbSymbolTableRecord
100
AcDbLayerTableRecord
  2
DEFAULT_DATUM_AXES
 70
0
 62
7
  6
CONTINUOUS
370
-3
390
F
  0
LAYER
  5
203
100
AcDbSymbolTableRecord
100
AcDbLayerTableRecord
  2
DEFAULT_DATUM_CURVES
 70
0
 62
7
  6
CONTINUOUS
370
-3
390
F
  0
LAYER
  5
204
100
AcDbSymbolTableRecord
100
AcDbLayerTableRecord
  2
DEFAULT_DATUM_PLANES
 70
0
 62
7
  6
CONTINUOUS
370
-3
390
F
  0
LAYER
  5
205
100
AcDbSymbolTableRecord
100
AcDbLayerTableRecord
  2
INTF_91251
 70
0
 62
7
  6
CONTINUOUS
370
-3
390
F
  0
ENDTAB
  0
TABLE
  2
STYLE
  5
3
100
AcDbSymbolTable
 70
1
  0
STYLE
  5
11
100
AcDbSymbolTableRecord
100
AcDbTextStyleTableRecord
  2
STANDARD
 70
0
 40
0.0
 41
0.8
 50
0.0
 71
0
 42
0.2
  3
txt
  4

  0
STYLE
  5
206
100
AcDbSymbolTableRecord
100
AcDbTextStyleTableRecord
  2
TEXTSTYLE_1
 70
0
 40
0.0
 41
0.8
 50
0.0
 71
0
 42
0.2
  3
gdt
  4

  0
ENDTAB
  0
TABLE
  2
VIEW
  5
6
100
AcDbSymbolTable
 70
0
  0
ENDTAB
  0
TABLE
  2
UCS
  5
7
100
AcDbSymbolTable
 70
0
  0
ENDTAB
  0
TABLE
  2
APPID
  5
9
100
AcDbSymbolTable
 70
1
  0
APPID
  5
207
100
AcDbSymbolTableRecord
100
AcDbRegAppTableRecord
  2
ACAD
 70
0
  0
ENDTAB
  0
TABLE
  2
BLOCK_RECORD
  5
1
100
AcDbSymbolTable
 70
0
  0
BLOCK_RECORD
  5
208
100
AcDbSymbolTableRecord
100
AcDbBlockTableRecord
  2
*Model_Space
  0
BLOCK_RECORD
  5
209
100
AcDbSymbolTableRecord
100
AcDbBlockTableRecord
  2
*Paper_Space
  0
ENDTAB
  0
TABLE
  2
DIMSTYLE
  5
A
100
AcDbSymbolTable
 70
1
100
AcDbDimStyleTable
 71
0
  0
DIMSTYLE
105
20A
100
AcDbSymbolTableRecord
100
AcDbDimStyleTableRecord
  2
STANDARD
 70
0
  3

  4

 40
1.0
 41
0.1
 42
0.0625
 43
0.38
 44
0.18
 45
0.0
 46
0.0
 47
0.01
 48
0.01
140
0.08
141
0.09
142
0.0
143
25.4
144
1.0
145
0.0
146
1.0
147
0.09
 71
1.0
 72
0.0
 73
1
 74
1
 75
0
 76
0
 77
0
 78
4
170
0
171
2
172
0
173
0
174
0
175
0
176
0
177
0
178
0
270
2
271
2
272
2
273
2
274
2
275
0
280
0
281
0
282
0
283
1
284
4
285
0
286
0
287
3
288
0
340
11
  0
ENDTAB
  0
ENDSEC
  0
SECTION
  2
BLOCKS
  0
BLOCK
  5
20
100
AcDbEntity
  8
0
100
AcDbBlockBegin
  2
*Model_Space
 70
0
 10
0.0
 20
0.0
 30
0.0
  3
*Model_Space
  1

  0
ENDBLK
  5
21
100
AcDbEntity
  8
0
100
AcDbBlockEnd
  0
BLOCK
  5
1C
100
AcDbEntity
  8
0
100
AcDbBlockBegin
  2
*Paper_Space
 70
0
 10
0.0
 20
0.0
 30
0.0
  3
*Paper_Space
  1

  0
ENDBLK
  5
1D
100
AcDbEntity
  8
0
100
AcDbBlockEnd
  0
ENDSEC
  0
SECTION
  2
ENTITIES
  0
LINE
  5
20B
100
AcDbEntity
  8
0
100
AcDbLine
 62
9
  6
CONTINUOUS
 10
22.5448225484
 20
15.9035373179
 11
22.5448225484
 21
15.9191230317
  0
LINE
  5
20C
100
AcDbEntity
  8
0
100
AcDbLine
 62
9
  6
CONTINUOUS
 10
22.5448225484
 20
16.7325373179
 11
22.5448225484
 21
16.7485373179
  0
CIRCLE
  5
20D
100
AcDbEntity
  8
0
100
AcDbCircle
 62
7
  6
CONTINUOUS
 10
22.5448225484
 20
16.3260373179
 40
1.1800000459
  0
CIRCLE
  5
20E
100
AcDbEntity
  8
0
100
AcDbCircle
 62
7
  6
CONTINUOUS
 10
22.5448225484
 20
16.3260373179
 40
1.0000026738
  0
CIRCLE
  5
20F
100
AcDbEntity
  8
0
100
AcDbCircle
 62
9
  6
CONTINUOUS
 10
22.5448225484
 20
16.3260373179
 40
0.8130026738
  0
CIRCLE
  5
210
100
AcDbEntity
  8
0
100
AcDbCircle
 62
7
  6
CONTINUOUS
 10
22.5448225484
 20
16.3260373179
 40
0.741
  0
CIRCLE
  5
211
100
AcDbEntity
  8
0
100
AcDbCircle
 62
7
  6
CONTINUOUS
 10
22.5448225484
 20
16.3260373179
 40
0.4225
  0
ARC
  5
212
100
AcDbEntity
  8
0
100
AcDbCircle
 62
6
  6
CONTINUOUS
 10
22.5166654304
 20
16.3783433843
 40
0.3984095119
100
AcDbArc
 50
317.1123971428
 51
322.2013216568
  0
ARC
  5
213
100
AcDbEntity
  8
0
100
AcDbCircle
 62
6
  6
CONTINUOUS
 10
22.5442440081
 20
16.3273949631
 40
0.3867379186
100
AcDbArc
 50
275.7553595996
 51
288.0563620212
  0
ARC
  5
214
100
AcDbEntity
  8
0
100
AcDbCircle
 62
6
  6
CONTINUOUS
 10
22.5447805066
 20
16.3266125291
 40
0.3860225028
100
AcDbArc
 50
208.8198993289
 51
226.2694243099
  0
ARC
  5
215
100
AcDbEntity
  8
0
100
AcDbCircle
 62
6
  6
CONTINUOUS
 10
22.5465985652
 20
16.3266635953
 40
0.3854958034
100
AcDbArc
 50
182.4575475611
 51
193.432114202
  0
ARC
  5
216
100
AcDbEntity
  8
0
100
AcDbCircle
 62
6
  6
CONTINUOUS
 10
22.5444762975
 20
16.326130645
 40
0.385472817
100
AcDbArc
 50
243.6646405932
 51
270.0212529715
  0
ARC
  5
217
100
AcDbEntity
  8
0
100
AcDbCircle
 62
6
  6
CONTINUOUS
 10
22.5462236725
 20
16.3271205418
 40
0.3852737144
100
AcDbArc
 50
199.7230715655
 51
211.464691754
  0
ARC
  5
218
100
AcDbEntity
  8
0
100
AcDbCircle
 62
6
  6
CONTINUOUS
 10
22.543811389
 20
16.323302494
 40
0.3850817841
100
AcDbArc
 50
55.6253951343
 51
66.7634836188
  0
ARC
  5
219
100
AcDbEntity
  8
0
100
AcDbCircle
 62
6
  6
CONTINUOUS
 10
22.5464584518
 20
16.3239732083
 40
0.3849960394
100
AcDbArc
 50
114.4645459193
 51
130.6361376359
  0
ARC
  5
21A
100
AcDbEntity
  8
0
100
AcDbCircle
 62
6
  6
CONTINUOUS
 10
22.5447351706
 20
16.3277729441
 40
0.3848916053
100
AcDbArc
 50
252.2767647778
 51
270.0130072429
  0
ARC
  5
21B
100
AcDbEntity
  8
0
100
AcDbCircle
 62
6
  6
CONTINUOUS
 10
22.5442380347
 20
16.327459891
 40
0.384577916
100
AcDbArc
 50
275.7397951087
 51
288.1362131075
  0
ARC
  5
21C
100
AcDbEntity
  8
0
100
AcDbCircle
 62
6
  6
CONTINUOUS
 10
22.5453022461
 20
16.3270274658
 40
0.3844618472
100
AcDbArc
 50
217.2391932589
 51
230.0002414296
  0
ARC
  5
21D
100
AcDbEntity
  8
0
100
AcDbCircle
 62
6
  6
CONTINUOUS
 10
22.5432457697
 20
16.3248410318
 40
0.3843636536
100
AcDbArc
 50
19.3038591753
 51
31.2528294889
  0
ARC
  5
21E
100
AcDbEntity
  8
0
100
AcDbCircle
 62
6
  6
CONTINUOUS
 10
22.5435450069
 20
16.3268342908
 40
0.3843305357
100
AcDbArc
 50
306.30566084
 51
319.8483021431
  0
ARC
  5
21F
100
AcDbEntity
  8
0
100
AcDbCircle
 62
6
  6
CONTINUOUS
 10
22.5431217932
 20
16.3259600937
 40
0.3843105963
100
AcDbArc
 50
343.6461714279
 51
354.6117723224
  0
ARC
  5
220
100
AcDbEntity
  8
0
100
AcDbCircle
 62
6
  6
CONTINUOUS
 10
22.5435660378
 20
16.325505858
 40
0.383858673
100
AcDbArc
 50
0.6079874667
 51
12.6272758623
  0
ARC
  5
221
100
AcDbEntity
  8
0
100
AcDbCircle
 62
6
  6
CONTINUOUS
 10
22.5448829034
 20
16.3263027597
 40
0.383773317
100
AcDbArc
 50
173.4076741138
 51
179.0617005847
  0
ARC
  5
222
100
AcDbEntity
  8
0
100
AcDbCircle
 62
6
  6
CONTINUOUS
 10
22.5444093406
 20
16.324278312
 40
0.3836204269
100
AcDbArc
 50
270.0617148318
 51
275.777470516
  0
ARC
  5
223
100
AcDbEntity
  8
0
100
AcDbCircle
 62
6
  6
CONTINUOUS
 10
22.5445775284
 20
16.3263179988
 40
0.3834622719
100
AcDbArc
 50
234.7374397672
 51
249.7916065416
  0
ARC
  5
224
100
AcDbEntity
  8
0
100
AcDbCircle
 62
6
  6
CONTINUOUS
 10
22.5444345251
 20
16.3258205433
 40
0.3830094537
100
AcDbArc
 50
324.3829826734
 51
337.5644783385
  0
ARC
  5
225
100
AcDbEntity
  8
0
100
AcDbCircle
 62
6
  6
CONTINUOUS
 10
22.5444979886
 20
16.3258912966
 40
0.3830064089
100
AcDbArc
 50
288.1722996207
 51
306.2742999134
  0
ARC
  5
226
100
AcDbEntity
  8
0
100
AcDbCircle
 62
6
  6
CONTINUOUS
 10
22.5447549133
 20
16.3257856838
 40
0.3826683152
100
AcDbArc
 50
354.6148092642
 51
359.1444049964
  0
ARC
  5
227
100
AcDbEntity
  8
0
100
AcDbCircle
 62
6
  6
CONTINUOUS
 10
22.5441881452
 20
16.3256113707
 40
0.3826609291
100
AcDbArc
 50
229.9917382684
 51
234.0241598327
  0
ARC
  5
228
100
AcDbEntity
  8
0
100
AcDbCircle
 62
6
  6
CONTINUOUS
 10
22.5438289183
 20
16.3260461828
 40
0.3826584996
100
AcDbArc
 50
193.4385295979
 51
198.0306395008
  0
ARC
  5
229
100
AcDbEntity
  8
0
100
AcDbCircle
 62
6
  6
CONTINUOUS
 10
22.5448225484
 20
16.3260373179
 40
0.382150196
100
AcDbArc
 50
72.8571188442
 51
167.5227907532
  0
ARC
  5
22A
100
AcDbEntity
  8
0
100
AcDbCircle
 62
6
  6
CONTINUOUS
 10
22.5434406625
 20
16.3254825612
 40
0.3820449349
100
AcDbArc
 50
211.4730183089
 51
217.223686579
  0
ARC
  5
22B
100
AcDbEntity
  8
0
100
AcDbCircle
 62
6
  6
CONTINUOUS
 10
22.5455917271
 20
16.3254464413
 40
0.3817970791
100
AcDbArc
 50
337.5500938805
 51
342.4724107314
  0
ARC
  5
22C
100
AcDbEntity
  8
0
100
AcDbCircle
 62
6
  6
CONTINUOUS
 10
22.545561399
 20
16.3251440326
 40
0.3816994255
100
AcDbArc
 50
319.8470614787
 51
324.367026754
  0
ARC
  5
22D
100
AcDbEntity
  8
0
100
AcDbCircle
 62
6
  6
CONTINUOUS
 10
22.5443772104
 20
16.3245132982
 40
0.3816322094
100
AcDbArc
 50
270.0668601728
 51
275.7632479629
  0
ARC
  5
22E
100
AcDbEntity
  8
0
100
AcDbCircle
 62
6
  6
CONTINUOUS
 10
22.5457490888
 20
16.3259787759
 40
0.3816250407
100
AcDbArc
 50
12.6296409093
 51
19.2668901353
  0
ARC
  5
22F
100
AcDbEntity
  8
0
100
AcDbCircle
 62
6
  6
CONTINUOUS
 10
22.5425387895
 20
16.3256622598
 40
0.3813128951
100
AcDbArc
 50
198.0357871991
 51
199.7036613683
  0
ARC
  5
230
100
AcDbEntity
  8
0
100
AcDbCircle
 62
6
  6
CONTINUOUS
 10
22.5431958169
 20
16.3242853378
 40
0.3810048809
100
AcDbArc
 50
234.027781932
 51
234.7306250892
  0
ARC
  5
231
100
AcDbEntity
  8
0
100
AcDbCircle
 62
6
  6
CONTINUOUS
 10
22.5459300558
 20
16.3268005318
 40
0.3809984955
100
AcDbArc
 50
31.2540768119
 51
55.591359559
  0
ARC
  5
232
100
AcDbEntity
  8
0
100
AcDbCircle
 62
6
  6
CONTINUOUS
 10
22.5420889345
 20
16.3263880817
 40
0.3809783276
100
AcDbArc
 50
179.0676496806
 51
182.4417226824
  0
ARC
  5
233
100
AcDbEntity
  8
0
100
AcDbCircle
 62
6
  6
CONTINUOUS
 10
22.5454970125
 20
16.3273381148
 40
0.3807084937
100
AcDbArc
 50
66.7569713773
 51
72.8993234046
  0
ARC
  5
234
100
AcDbEntity
  8
0
100
AcDbCircle
 62
6
  6
CONTINUOUS
 10
22.5471330915
 20
16.3460922915
 40
0.3806033771
100
AcDbArc
 50
170.5471017856
 51
188.0670159392
  0
ARC
  5
235
100
AcDbEntity
  8
0
100
AcDbCircle
 62
6
  6
CONTINUOUS
 10
22.5434920384
 20
16.323480688
 40
0.380424654
100
AcDbArc
 50
249.797414298
 51
252.258312778
  0
ARC
  5
236
100
AcDbEntity
  8
0
100
AcDbCircle
 62
6
  6
CONTINUOUS
 10
22.547223797
 20
16.3257264319
 40
0.3801988226
100
AcDbArc
 50
359.1477774947
 51
0.5805980858
  0
ARC
  5
237
100
AcDbEntity
  8
0
100
AcDbCircle
 62
6
  6
CONTINUOUS
 10
22.5471797375
 20
16.3249069471
 40
0.3801203218
100
AcDbArc
 50
342.477866187
 51
343.6262673053
  0
ARC
  5
238
100
AcDbEntity
  8
0
100
AcDbCircle
 62
6
  6
CONTINUOUS
 10
22.5429966248
 20
16.3281878426
 40
0.3795432122
100
AcDbArc
 50
130.6539129622
 51
131.5749000269
  0
ARC
  5
239
100
AcDbEntity
  8
0
100
AcDbCircle
 62
6
  6
CONTINUOUS
 10
22.5281568147
 20
16.336728622
 40
0.3773287548
100
AcDbArc
 50
67.2017769164
 51
69.9591759172
  0
ARC
  5
23A
100
AcDbEntity
  8
0
100
AcDbCircle
 62
6
  6
CONTINUOUS
 10
22.5375201755
 20
16.3450054594
 40
0.3709331686
100
AcDbArc
 50
188.1091714925
 51
189.2167438917
  0
ARC
  5
23B
100
AcDbEntity
  8
0
100
AcDbCircle
 62
6
  6
CONTINUOUS
 10
22.5609351094
 20
16.3445357933
 40
0.3675439377
100
AcDbArc
 50
233.6939611365
 51
236.3209582014
  0
ARC
  5
23C
100
AcDbEntity
  8
0
100
AcDbCircle
 62
6
  6
CONTINUOUS
 10
22.5600190607
 20
16.3434738055
 40
0.3661462972
100
AcDbArc
 50
218.5440928686
 51
233.7055072581
  0
ARC
  5
23D
100
AcDbEntity
  8
0
100
AcDbCircle
 62
7
  6
CONTINUOUS
 10
22.5373101951
 20
16.3461472616
 40
0.3644911064
100
AcDbArc
 50
287.7445529054
 51
292.0222928726
  0
ARC
  5
23E
100
AcDbEntity
  8
0
100
AcDbCircle
 62
7
  6
CONTINUOUS
 10
22.5379372064
 20
16.3446010152
 40
0.3628225685
100
AcDbArc
 50
292.0220605031
 51
293.7790136654
  0
ARC
  5
23F
100
AcDbEntity
  8
0
100
AcDbCircle
 62
7
  6
CONTINUOUS
 10
22.5381991213
 20
16.3428761342
 40
0.3611057863
100
AcDbArc
 50
278.4972676156
 51
287.7620358751
  0
ARC
  5
240
100
AcDbEntity
  8
0
100
AcDbCircle
 62
7
  6
CONTINUOUS
 10
22.5410812206
 20
16.3378618644
 40
0.3553878591
100
AcDbArc
 50
293.7532479308
 51
304.5523996687
  0
ARC
  5
241
100
AcDbEntity
  8
0
100
AcDbCircle
 62
6
  6
CONTINUOUS
 10
22.5394066131
 20
16.330381254
 40
0.3531599403
100
AcDbArc
 50
315.0087751301
 51
320.3716176614
  0
ARC
  5
242
100
AcDbEntity
  8
0
100
AcDbCircle
 62
6
  6
CONTINUOUS
 10
22.5405451199
 20
16.3292196045
 40
0.3515334871
100
AcDbArc
 50
310.1946136409
 51
315.0114829185
  0
ARC
  5
243
100
AcDbEntity
  8
0
100
AcDbCircle
 62
6
  6
CONTINUOUS
 10
22.5437012077
 20
16.3309725073
 40
0.3515163235
100
AcDbArc
 50
275.4237677888
 51
288.4357857574
  0
ARC
  5
244
100
AcDbEntity
  8
0
100
AcDbCircle
 62
7
  6
CONTINUOUS
 10
22.5399155124
 20
16.3326059425
 40
0.3506947597
100
AcDbArc
 50
275.8799881164
 51
278.4678590076
  0
ARC
  5
245
100
AcDbEntity
  8
0
100
AcDbCircle
 62
6
  6
CONTINUOUS
 10
22.5413108724
 20
16.3313524515
 40
0.3504762646
100
AcDbArc
 50
292.9058019743
 51
301.6163418572
  0
ARC
  5
246
100
AcDbEntity
  8
0
100
AcDbCircle
 62
6
  6
CONTINUOUS
 10
22.5453355296
 20
16.3318172996
 40
0.3501466772
100
AcDbArc
 50
263.6420291316
 51
270.0809761
  0
ARC
  5
247
100
AcDbEntity
  8
0
100
AcDbCircle
 62
6
  6
CONTINUOUS
 10
22.5449688694
 20
16.3271436725
 40
0.3474831024
100
AcDbArc
 50
288.4371433421
 51
292.0266460511
  0
ARC
  5
248
100
AcDbEntity
  8
0
100
AcDbCircle
 62
6
  6
CONTINUOUS
 10
22.5452886797
 20
16.3285803267
 40
0.3469097776
100
AcDbArc
 50
270.0894694186
 51
271.1047186607
  0
ARC
  5
249
100
AcDbEntity
  8
0
100
AcDbCircle
 62
6
  6
CONTINUOUS
 10
22.5435538036
 20
16.3256550913
 40
0.3468689478
100
AcDbArc
 50
305.5673474178
 51
310.1949907941
  0
ARC
  5
24A
100
AcDbEntity
  8
0
100
AcDbCircle
 62
7
  6
CONTINUOUS
 10
22.5460291829
 20
16.3301385781
 40
0.3462207496
100
AcDbArc
 50
304.602899732
 51
305.3271756543
  0
ARC
  5
24B
100
AcDbEntity
  8
0
100
AcDbCircle
 62
6
  6
CONTINUOUS
 10
22.5429942593
 20
16.3274284983
 40
0.3462065284
100
AcDbArc
 50
288.9287570287
 51
292.9019335149
  0
ARC
  5
24C
100
AcDbEntity
  8
0
100
AcDbCircle
 62
6
  6
CONTINUOUS
 10
22.5210463495
 20
16.3233244412
 40
0.3436711825
100
AcDbArc
 50
266.134612554
 51
267.0161267977
  0
ARC
  5
24D
100
AcDbEntity
  8
0
100
AcDbCircle
 62
6
  6
CONTINUOUS
 10
22.5465400553
 20
16.3232310773
 40
0.3432668354
100
AcDbArc
 50
292.0284598246
 51
294.6809687936
  0
ARC
  5
24E
100
AcDbEntity
  8
0
100
AcDbCircle
 62
6
  6
CONTINUOUS
 10
22.545792902
 20
16.3225962737
 40
0.3430784163
100
AcDbArc
 50
304.6940166473
 51
305.5603056773
  0
ARC
  5
24F
100
AcDbEntity
  8
0
100
AcDbCircle
 62
6
  6
CONTINUOUS
 10
22.5454130854
 20
16.3246816585
 40
0.343009439
100
AcDbArc
 50
271.096497506
 51
276.5966886436
  0
ARC
  5
250
100
AcDbEntity
  8
0
100
AcDbCircle
 62
7
  6
CONTINUOUS
 10
22.5480768556
 20
16.3273102185
 40
0.3427291405
100
AcDbArc
 50
305.3213015534
 51
309.4338690462
  0
ARC
  5
251
100
AcDbEntity
  8
0
100
AcDbCircle
 62
7
  6
CONTINUOUS
 10
22.5448225484
 20
16.3260373179
 40
0.34125
100
AcDbArc
 50
275.2923329217
 51
320.3174961251
  0
ARC
  5
252
100
AcDbEntity
  8
0
100
AcDbCircle
 62
6
  6
CONTINUOUS
 10
22.5448225484
 20
16.3260373179
 40
0.34125
100
AcDbArc
 50
320.3174961251
 51
275.2923329217
  0
ARC
  5
253
100
AcDbEntity
  8
0
100
AcDbCircle
 62
6
  6
CONTINUOUS
 10
22.5470908276
 20
16.3207065237
 40
0.3407858864
100
AcDbArc
 50
302.5379523928
 51
304.6954415028
  0
ARC
  5
254
100
AcDbEntity
  8
0
100
AcDbCircle
 62
6
  6
CONTINUOUS
 10
22.5447933074
 20
16.3221456042
 40
0.3406257221
100
AcDbArc
 50
284.308288871
 51
288.9307703675
  0
ARC
  5
255
100
AcDbEntity
  8
0
100
AcDbCircle
 62
6
  6
CONTINUOUS
 10
22.5481460969
 20
16.3197257974
 40
0.3394111465
100
AcDbArc
 50
294.68170453
 51
296.9509829582
  0
ARC
  5
256
100
AcDbEntity
  8
0
100
AcDbCircle
 62
6
  6
CONTINUOUS
 10
22.5489081767
 20
16.3178618667
 40
0.3374102639
100
AcDbArc
 50
300.5736596098
 51
302.5376012914
  0
ARC
  5
257
100
AcDbEntity
  8
0
100
AcDbCircle
 62
6
  6
CONTINUOUS
 10
22.5413224652
 20
16.3191758088
 40
0.337191152
100
AcDbArc
 50
270.7796016418
 51
275.8759611918
  0
ARC
  5
258
100
AcDbEntity
  8
0
100
AcDbCircle
 62
7
  6
CONTINUOUS
 10
22.5519609912
 20
16.3225432385
 40
0.3365801723
100
AcDbArc
 50
309.4386321389
 51
311.6596932089
  0
ARC
  5
259
100
AcDbEntity
  8
0
100
AcDbCircle
 62
6
  6
CONTINUOUS
 10
22.5463366821
 20
16.3164861704
 40
0.3347621083
100
AcDbArc
 50
276.6007986604
 51
284.3005018125
  0
ARC
  5
25A
100
AcDbEntity
  8
0
100
AcDbCircle
 62
6
  6
CONTINUOUS
 10
22.5503711089
 20
16.3153961013
 40
0.3345431851
100
AcDbArc
 50
296.9510388874
 51
300.5727435846
  0
ARC
  5
25B
100
AcDbEntity
  8
0
100
AcDbCircle
 62
6
  6
CONTINUOUS
 10
22.520260218
 20
16.3133133057
 40
0.3336298433
100
AcDbArc
 50
261.3915764437
 51
266.1534117801
  0
ARC
  5
25C
100
AcDbEntity
  8
0
100
AcDbCircle
 62
6
  6
CONTINUOUS
 10
22.5827881391
 20
16.3336110175
 40
0.3184569368
100
AcDbArc
 50
334.5640447284
 51
340.1967313236
  0
ARC
  5
25D
100
AcDbEntity
  8
0
100
AcDbCircle
 62
6
  6
CONTINUOUS
 10
22.5396182687
 20
16.3001472545
 40
0.3181405652
100
AcDbArc
 50
251.8412324076
 51
252.8129868083
  0
ARC
  5
25E
100
AcDbEntity
  8
0
100
AcDbCircle
 62
6
  6
CONTINUOUS
 10
22.5382235177
 20
16.2959983715
 40
0.3137704622
100
AcDbArc
 50
256.5035238369
 51
257.7544648386
  0
ARC
  5
25F
100
AcDbEntity
  8
0
100
AcDbCircle
 62
6
  6
CONTINUOUS
 10
22.5381115333
 20
16.2951973126
 40
0.3129664346
100
AcDbArc
 50
252.8087371116
 51
255.4141890154
  0
ARC
  5
260
100
AcDbEntity
  8
0
100
AcDbCircle
 62
6
  6
CONTINUOUS
 10
22.5375086195
 20
16.2930134628
 40
0.310701137
100
AcDbArc
 50
255.4203712174
 51
256.5032511289
  0
SPLINE
  5
261
100
AcDbEntity
  8
0
100
AcDbSpline
 62
6
  6
CONTINUOUS
 70
0
 71
3
 72
9
 73
5
 74
3
 42
0.0000001
 43
0.0000001
 44
0.0000000001
 12
-0.0726971871
 22
-0.0110220803
 32
0.0
 13
-0.0734282714
 23
0.0038283445
 33
0.0
 40
0.0
 40
0.0
 40
0.0
 40
0.0
 40
0.249637305
 40
1.0
 40
1.0
 40
1.0
 40
1.0
 10
22.5765208145
 20
15.983842534
 30
0.0
 10
22.5704715046
 20
15.9829253599
 30
0.0
 10
22.5461546984
 20
15.9798405733
 30
0.0
 10
22.5215225345
 20
15.9791616502
 30
0.0
 10
22.5031565893
 20
15.9801191991
 30
0.0
 11
22.5765208145
 21
15.983842534
 31
0.0
 11
22.5583110879
 21
15.9815351347
 31
0.0
 11
22.5031565893
 21
15.9801191991
 31
0.0
  0
SPLINE
  5
262
100
AcDbEntity
  8
0
100
AcDbSpline
 62
6
  6
CONTINUOUS
 70
0
 71
3
 72
9
 73
5
 74
3
 42
0.0000001
 43
0.0000001
 44
0.0000000001
 12
-0.1109977297
 22
0.0168462006
 32
0.0
 13
-0.0997486092
 23
0.0515218929
 33
0.0
 40
0.0
 40
0.0
 40
0.0
 40
0.0
 40
0.4998022548
 40
1.0
 40
1.0
 40
1.0
 40
1.0
 10
22.470322267
 20
15.9834420075
 30
0.0
 10
22.4518299618
 20
15.9862485972
 30
0.0
 10
22.4152580027
 20
15.9950759849
 30
0.0
 10
22.3806161923
 20
16.0096855692
 30
0.0
 10
22.3639848492
 20
16.0182759474
 30
0.0
 11
22.470322267
 21
15.9834420075
 31
0.0
 11
22.4157546221
 21
15.9965168997
 31
0.0
 11
22.3639848492
 21
16.0182759474
 31
0.0
  0
SPLINE
  5
263
100
AcDbEntity
  8
0
100
AcDbSpline
 62
6
  6
CONTINUOUS
 70
0
 71
3
 72
11
 73
7
 74
5
 42
0.0000001
 43
0.0000001
 44
0.0000000001
 12
-0.3029646132
 22
0.1564864963
 32
0.0
 13
-0.0546156367
 23
0.3365898285
 33
0.0
 40
0.0
 40
0.0
 40
0.0
 40
0.0
 40
0.2500139086
 40
0.4999663403
 40
0.7499775267
 40
1.0
 40
1.0
 40
1.0
 40
1.0
 10
22.3639848492
 20
16.0182759474
 30
0.0
 10
22.3387363935
 20
16.0313172143
 30
0.0
 10
22.2911296936
 20
16.0634856179
 30
0.0
 10
22.2331991688
 20
16.1270620061
 30
0.0
 10
22.1915268265
 20
16.2022755397
 30
0.0
 10
22.1759276518
 20
16.257541547
 30
0.0
 10
22.1713759396
 20
16.2855932208
 30
0.0
 11
22.3639848492
 21
16.0182759474
 31
0.0
 11
22.2933713406
 21
16.0660437694
 31
0.0
 11
22.2359127308
 21
16.1289958677
 31
0.0
 11
22.1945735092
 21
16.2035541865
 31
0.0
 11
22.1713759396
 21
16.2855932208
 31
0.0
  0
SPLINE
  5
264
100
AcDbEntity
  8
0
100
AcDbSpline
 62
7
  6
CONTINUOUS
 70
0
 71
3
 72
9
 73
5
 74
3
 42
0.0000001
 43
0.0000001
 44
0.0000000001
 12
-0.0312269571
 22
-0.0377153279
 32
0.0
 13
-0.0365804136
 23
-0.032549073
 33
0.0
 40
0.0
 40
0.0
 40
0.0
 40
0.0
 40
0.7495754211
 40
1.0
 40
1.0
 40
1.0
 40
1.0
 10
22.8097058081
 20
16.1062639691
 30
0.0
 10
22.8019034883
 20
16.0968404748
 30
0.0
 10
22.7907342461
 20
16.0848713261
 30
0.0
 10
22.7787410395
 20
16.0737992091
 30
0.0
 10
22.7756874946
 20
16.0710821798
 30
0.0
 11
22.8097058081
 21
16.1062639691
 31
0.0
 11
22.7846961541
 21
16.0794009246
 31
0.0
 11
22.7756874946
 21
16.0710821798
 31
0.0
  0
SPLINE
  5
265
100
AcDbEntity
  8
0
100
AcDbSpline
 62
6
  6
CONTINUOUS
 70
0
 71
3
 72
8
 73
4
 74
2
 42
0.0000001
 43
0.0000001
 44
0.0000000001
 12
-0.0745579158
 22
-0.0010144623
 32
0.0
 13
-0.0728679987
 23
0.0158166592
 33
0.0
 40
0.0
 40
0.0
 40
0.0
 40
0.0
 40
1.0
 40
1.0
 40
1.0
 40
1.0
 10
22.5458737304
 20
15.9820141401
 30
0.0
 10
22.5210210918
 20
15.981675986
 30
0.0
 10
22.4959616587
 20
15.9840947088
 30
0.0
 10
22.4716723258
 20
15.9893669285
 30
0.0
 11
22.5458737304
 21
15.9820141401
 31
0.0
 11
22.4716723258
 21
15.9893669285
 31
0.0
  0
SPLINE
  5
266
100
AcDbEntity
  8
0
100
AcDbSpline
 62
6
  6
CONTINUOUS
 70
0
 71
3
 72
9
 73
5
 74
3
 42
0.0000001
 43
0.0000001
 44
0.0000000001
 12
-0.0883482736
 22
0.0289757535
 32
0.0
 13
-0.077373202
 23
0.0515596677
 33
0.0
 40
0.0
 40
0.0
 40
0.0
 40
0.0
 40
0.2501388769
 40
1.0
 40
1.0
 40
1.0
 40
1.0
 10
22.4404693802
 20
15.9978511791
 30
0.0
 10
22.4331029343
 20
16.0002671666
 30
0.0
 10
22.4040096566
 20
16.0109933159
 30
0.0
 10
22.3764569871
 20
16.0257939943
 30
0.0
 10
22.3571172684
 20
16.0386815244
 30
0.0
 11
22.4404693802
 21
15.9978511791
 31
0.0
 11
22.4186446097
 21
16.0058881616
 31
0.0
 11
22.3571172684
 21
16.0386815244
 31
0.0
  0
SPLINE
  5
267
100
AcDbEntity
  8
0
100
AcDbSpline
 62
6
  6
CONTINUOUS
 70
0
 71
3
 72
9
 73
5
 74
3
 42
0.0000001
 43
0.0000001
 44
0.0000000001
 12
-0.071580363
 22
-0.0865943312
 32
0.0
 13
-0.0956737853
 23
-0.0588969726
 33
0.0
 40
0.0
 40
0.0
 40
0.0
 40
0.0
 40
0.4996980435
 40
1.0
 40
1.0
 40
1.0
 40
1.0
 10
22.8096973032
 20
16.1062591001
 30
0.0
 10
22.7977744474
 20
16.0918354274
 30
0.0
 10
22.7714133512
 20
16.0649586472
 30
0.0
 10
22.7410401606
 20
16.0427425718
 30
0.0
 10
22.7250848999
 20
16.0329204816
 30
0.0
 11
22.8096973032
 21
16.1062591001
 31
0.0
 11
22.7704274585
 21
16.0661386477
 31
0.0
 11
22.7250848999
 21
16.0329204816
 31
0.0
  0
SPLINE
  5
268
100
AcDbEntity
  8
0
100
AcDbSpline
 62
6
  6
CONTINUOUS
 70
0
 71
3
 72
11
 73
7
 74
5
 42
0.0000001
 43
0.0000001
 44
0.0000000001
 12
0.0512997374
 22
0.2340748041
 32
0.0
 13
0.1792640893
 23
0.1590190657
 33
0.0
 40
0.0
 40
0.0
 40
0.0
 40
0.0
 40
0.2498202003
 40
0.4998367379
 40
0.7499457978
 40
1.0
 40
1.0
 40
1.0
 40
1.0
 10
22.1717189567
 20
16.4085967667
 30
0.0
 10
22.1759908603
 20
16.4280889715
 30
0.0
 10
22.1876668658
 20
16.4664769132
 30
0.0
 10
22.2140184035
 20
16.5205338302
 30
0.0
 10
22.2483788079
 20
16.569907988
 30
0.0
 10
22.2761903844
 20
16.5988654334
 30
0.0
 10
22.2911322974
 20
16.6121198953
 30
0.0
 11
22.1717189567
 21
16.4085967667
 31
0.0
 11
22.1891329282
 21
16.4658725074
 31
0.0
 11
22.2153481152
 21
16.5197441708
 31
0.0
 11
22.2496072526
 21
16.5689210023
 31
0.0
 11
22.2911322974
 21
16.6121198953
 31
0.0
  0
SPLINE
  5
269
100
AcDbEntity
  8
0
100
AcDbSpline
 62
6
  6
CONTINUOUS
 70
0
 71
3
 72
15
 73
11
 74
9
 42
0.0000001
 43
0.0000001
 44
0.0000000001
 12
0.5112755219
 22
-0.2148800256
 32
0.0
 13
-0.1880980109
 23
-0.5217233203
 33
0.0
 40
0.0
 40
0.0
 40
0.0
 40
0.0
 40
0.12497485
 40
0.2500575866
 40
0.3750205528
 40
0.5000098052
 40
0.6249786927
 40
0.7498962561
 40
0.8749611375
 40
1.0
 40
1.0
 40
1.0
 40
1.0
 10
22.6743668006
 20
16.6845786316
 30
0.0
 10
22.6956656612
 20
16.6756270986
 30
0.0
 10
22.7367522245
 20
16.6537881845
 30
0.0
 10
22.7912914871
 20
16.6103773539
 30
0.0
 10
22.8368768375
 20
16.5575947813
 30
0.0
 10
22.8717855073
 20
16.4972481969
 30
0.0
 10
22.8947797986
 20
16.4314224648
 30
0.0
 10
22.9046521565
 20
16.3623728765
 30
0.0
 10
22.9013354956
 20
16.2927366908
 30
0.0
 10
22.8902518458
 20
16.2474657137
 30
0.0
 10
22.882411992
 20
16.2257204836
 30
0.0
 11
22.6743668006
 21
16.6845786316
 31
0.0
 11
22.7355553478
 21
16.6520224597
 31
0.0
 11
22.7898146734
 21
16.6088001742
 31
0.0
 11
22.8350968416
 21
16.5563353831
 31
0.0
 11
22.8698017291
 21
16.4963302107
 31
0.0
 11
22.892594996
 21
16.4308783105
 31
0.0
 11
22.9024526701
 21
16.3623045123
 31
0.0
 11
22.8991168663
 21
16.2930243635
 31
0.0
 11
22.882411992
 21
16.2257204836
 31
0.0
  0
SPLINE
  5
26A
100
AcDbEntity
  8
0
100
AcDbSpline
 62
6
  6
CONTINUOUS
 70
0
 71
3
 72
8
 73
4
 74
2
 42
0.0000001
 43
0.0000001
 44
0.0000000001
 12
-0.031710924
 22
-0.0665971019
 32
0.0
 13
-0.0451713811
 23
-0.0583121172
 33
0.0
 40
0.0
 40
0.0
 40
0.0
 40
0.0
 40
1.0
 40
1.0
 40
1.0
 40
1.0
 10
22.8703757526
 20
16.1968331498
 30
0.0
 10
22.8598054446
 20
16.1746341158
 30
0.0
 10
22.8465334629
 20
16.1536000183
 30
0.0
 10
22.8314763359
 20
16.1341626459
 30
0.0
 11
22.8703757526
 21
16.1968331498
 31
0.0
 11
22.8314763359
 21
16.1341626459
 31
0.0
  0
ENDSEC
  0
SECTION
  2
OBJECTS
  0
DICTIONARY
  5
C
100
AcDbDictionary
280
0
281
1
  3
ACAD_GROUP
350
D
  3
ACAD_MLINESTYLE
350
17
  3
ACAD_LAYOUT
350
1A
  3
ACAD_PLOTSETTINGS
350
19
  3
ACAD_PLOTSTYLENAME
350
E
  0
DICTIONARY
  5
D
102
{ACAD_REACTORS
330
C
102
}
100
AcDbDictionary
280
0
281
1
  0
ACDBDICTIONARYWDFLT
  5
E
102
{ACAD_REACTORS
330
C
102
}
100
AcDbDictionary
281
1
  3
Normal
350
F
100
AcDbDictionaryWithDefault
340
F
  0
DICTIONARY
  5
17
102
{ACAD_REACTORS
330
C
102
}
100
AcDbDictionary
280
0
281
1
  3
Standard
350
18
  0
DICTIONARY
  5
19
102
{ACAD_REACTORS
330
C
102
}
100
AcDbDictionary
281
1
  0
DICTIONARY
  5
1A
102
{ACAD_REACTORS
330
C
102
}
100
AcDbDictionary
281
1
  3
Model
350
26B
  3
Layout1
350
26C
  0
ACDBPLACEHOLDER
  5
F
102
{ACAD_REACTORS
330
E
102
}
  0
MLINESTYLE
  5
18
102
{ACAD_REACTORS
330
17
102
}
100
AcDbMlineStyle
  2
STANDARD
 70
0
  3

 62
256
 51
90.0
 52
90.0
 71
2
 49
0.5
 62
256
  6
BYLAYER
 49
-0.5
 62
256
  6
BYLAYER
  0
LAYOUT
  5
26B
102
{ACAD_REACTORS
330
1A
102
}
100
AcDbPlotSettings
  1

  2
none_device
  4
ISO_A0_(1189.00_x_841.00_MM)
  6

 40
0.0
 41
0.0
 42
0.0
 43
0.0
 44
1189.0
 45
841.0
 46
0.0
 47
0.0
 48
0.0
 49
0.0
140
0.0
141
0.0
142
1.0
143
1.0
 70
1024
 72
0
 73
0
 74
0
  7

 75
0
147
1.0
148
0.0
149
0.0
100
AcDbLayout
  1
Model
 70
0
 71
0
 10
0.0
 20
0.0
 11
46.811023622
 21
33.1102362205
 12
0.0
 22
0.0
 32
0.0
 14
0.0
 24
0.0
 34
0.0
 15
0.0
 25
0.0
 35
0.0
146
0.0
 13
0.0
 23
0.0
 33
0.0
 16
1.0
 26
0.0
 36
0.0
 17
0.0
 27
1.0
 37
0.0
 76
0
330
208
345
0
346
0
  0
LAYOUT
  5
26C
102
{ACAD_REACTORS
330
1A
102
}
100
AcDbPlotSettings
  1

  2
none_device
  4
ISO_A0_(1189.00_x_841.00_MM)
  6

 40
0.0
 41
0.0
 42
0.0
 43
0.0
 44
1189.0
 45
841.0
 46
0.0
 47
0.0
 48
0.0
 49
0.0
140
0.0
141
0.0
142
1.0
143
1.0
 70
0
 72
0
 73
0
 74
0
  7

 75
0
147
1.0
148
0.0
149
0.0
100
AcDbLayout
  1
Layout1
 70
0
 71
1
 10
0.0
 20
0.0
 11
46.811023622
 21
33.1102362205
 12
0.0
 22
0.0
 32
0.0
 14
0.0
 24
0.0
 34
0.0
 15
0.0
 25
0.0
 35
0.0
146
0.0
 13
0.0
 23
0.0
 33
0.0
 16
1.0
 26
0.0
 36
0.0
 17
0.0
 27
1.0
 37
0.0
 76
0
330
209
345
0
346
0
  0
ENDSEC
  0
EOF
