  0
SECTION
  2
HEADER
  9
$ACADVER
  1
AC1015
  9
$DWGCODEPAGE
  3
ANSI_1252
  9
$EXTMAX
 10
46.811023622
 20
33.1102362205
 30
0.0
  9
$EXTMIN
 10
0.0
 20
0.0
 30
0.0
  9
$LIMMIN
 10
0.0
 20
0.0
  9
$LIMMAX
 10
46.811023622
 20
33.1102362205
  9
$VIEWCTR
 10
23.405511811
 20
16.5551181102
  9
$VIEWSIZE
 40
33.1102362205
  9
$CLAYER
  8
0
  9
$LTSCALE
 40
2.5746062992
  9
$CELTYPE
  6
BYLAYER
  9
$DIMSCALE
 40
1.0
  9
$DIMASZ
 40
0.1
  9
$DIMEXO
 40
0.2925688976
  9
$DIMDLI
 40
1.7788188976
  9
$DIMEXE
 40
0.8425984252
  9
$DIMCEN
 40
0.4212992126
  9
$DIMLFAC
 40
1.0
  9
$DIMBLK
  1
_FILLED
  9
$DIMTXT
 40
0.08
  9
$DIMTOL
 70
1
  9
$DIMLIM
 70
0
  9
$DIMTFAC
 40
1.0
  9
$DIMTP
 40
0.01
  9
$DIMTM
 40
0.01
  9
$PDMODE
 70
3
  9
$PDSIZE
 40
0.06
  9
$HANDSEED
  5
38E
  9
$TILEMODE
 70
1
  9
$MEASUREMENT
 70
0
  9
$INSUNITS
 70
1
  0
ENDSEC
  0
SECTION
  2
CLASSES
  0
CLASS
  1
ACDBDICTIONARYWDFLT
  2
AcDbDictionaryWithDefault
  3
AutoCAD 2000
 90
0
280
0
281
0
  0
CLASS
  1
ACDBPLACEHOLDER
  2
AcDbPlaceHolder
  3
AutoCAD 2000
 90
0
280
0
281
0
  0
CLASS
  1
LAYOUT
  2
AcDbLayout
  3
AutoCAD 2000
 90
0
280
0
281
0
  0
ENDSEC
  0
SECTION
  2
TABLES
  0
TABLE
  2
VPORT
  5
8
100
AcDbSymbolTable
 70
2
  0
VPORT
  5
1F4
100
AcDbSymbolTableRecord
100
AcDbViewportTableRecord
  2
*ACTIVE
 70
0
 10
0.0
 20
0.0
 11
1.0
 21
1.0
 12
23.405511811
 22
16.5551181102
 13
0.0
 23
0.0
 14
1.0
 24
1.0
 15
0.0
 25
0.0
 16
0.0
 26
0.0
 36
1.0
 17
0.0
 27
0.0
 37
0.0
 40
33.1102362205
 41
1.4137931034
 42
50.0
 43
0.0
 44
0.0
 50
0.0
 51
0.0
 71
0
 72
100
 73
1
 74
1
 75
0
 76
0
 77
0
 78
0
  0
ENDTAB
  0
TABLE
  2
LTYPE
  5
5
100
AcDbSymbolTable
 70
6
  0
LTYPE
  5
14
100
AcDbSymbolTableRecord
100
AcDbLinetypeTableRecord
  2
BYBLOCK
 70
0
  3

 72
65
 73
0
 40
0.0
  0
LTYPE
  5
15
100
AcDbSymbolTableRecord
100
AcDbLinetypeTableRecord
  2
BYLAYER
 70
0
  3

 72
65
 73
0
 40
0.0
  0
LTYPE
  5
16
100
AcDbSymbolTableRecord
100
AcDbLinetypeTableRecord
  2
CONTINUOUS
 70
64
  3
Solid line
 72
65
 73
0
 40
0.0
  0
LTYPE
  5
1F5
100
AcDbSymbolTableRecord
100
AcDbLinetypeTableRecord
  2
CENTER
 70
64
  3
____ _ ____ _ ____ _ ____ _ ____ _ ____ _ ____
 72
65
 73
4
 40
0.6
 49
0.375
 74
0
 49
-0.075
 74
0
 49
0.075
 74
0
 49
-0.075
 74
0
  0
LTYPE
  5
1F6
100
AcDbSymbolTableRecord
100
AcDbLinetypeTableRecord
  2
HIDDEN
 70
64
  3
- - - - - - - - - - - - - - - - - - - -
 72
65
 73
2
 40
0.2
 49
0.1
 74
0
 49
-0.1
 74
0
  0
LTYPE
  5
1F7
100
AcDbSymbolTableRecord
100
AcDbLinetypeTableRecord
  2
PHANTOM
 70
64
  3
_____ _ _ _____ _ _ _____ _ _ _____
 72
65
 73
6
 40
0.8
 49
0.45
 74
0
 49
-0.05
 74
0
 49
0.1
 74
0
 49
-0.05
 74
0
 49
0.1
 74
0
 49
-0.05
 74
0
  0
LTYPE
  5
1F8
100
AcDbSymbolTableRecord
100
AcDbLinetypeTableRecord
  2
DOT
 70
64
  3
. . . . . . . . . . . . . . . . . . . .
 72
65
 73
2
 40
0.2
 49
0.1
 74
0
 49
-0.1
 74
0
  0
LTYPE
  5
1F9
100
AcDbSymbolTableRecord
100
AcDbLinetypeTableRecord
  2
DASHED
 70
64
  3
- - - - - - - - - - - - - - - - - - - -
 72
65
 73
2
 40
0.2
 49
0.1
 74
0
 49
-0.1
 74
0
  0
ENDTAB
  0
TABLE
  2
LAYER
  5
2
100
AcDbSymbolTable
 70
36
  0
LAYER
  5
10
100
AcDbSymbolTableRecord
100
AcDbLayerTableRecord
  2
0
 70
0
 62
7
  6
CONTINUOUS
370
-3
390
F
  0
LAYER
  5
1FA
100
AcDbSymbolTableRecord
100
AcDbLayerTableRecord
  2
DEFAULT_1
 70
0
 62
7
  6
CENTER
370
-3
390
F
  0
LAYER
  5
1FB
100
AcDbSymbolTableRecord
100
AcDbLayerTableRecord
  2
DEFAULT_2
 70
0
 62
8
  6
HIDDEN
370
-3
390
F
  0
LAYER
  5
1FC
100
AcDbSymbolTableRecord
100
AcDbLayerTableRecord
  2
DEFAULT_3
 70
0
 62
7
  6
PHANTOM
370
-3
390
F
  0
LAYER
  5
1FD
100
AcDbSymbolTableRecord
100
AcDbLayerTableRecord
  2
DEFAULT_COORDINATE_SYSTEM
 70
0
 62
7
  6
CONTINUOUS
370
-3
390
F
  0
LAYER
  5
1FE
100
AcDbSymbolTableRecord
100
AcDbLayerTableRecord
  2
DEFAULT_DATUM_AXES
 70
0
 62
7
  6
CONTINUOUS
370
-3
390
F
  0
LAYER
  5
1FF
100
AcDbSymbolTableRecord
100
AcDbLayerTableRecord
  2
DEFAULT_DATUM_CURVES
 70
0
 62
7
  6
CONTINUOUS
370
-3
390
F
  0
LAYER
  5
200
100
AcDbSymbolTableRecord
100
AcDbLayerTableRecord
  2
DEFAULT_DATUM_PLANES
 70
0
 62
7
  6
CONTINUOUS
370
-3
390
F
  0
ENDTAB
  0
TABLE
  2
STYLE
  5
3
100
AcDbSymbolTable
 70
1
  0
STYLE
  5
11
100
AcDbSymbolTableRecord
100
AcDbTextStyleTableRecord
  2
STANDARD
 70
0
 40
0.0
 41
0.8
 50
0.0
 71
0
 42
0.2
  3
txt
  4

  0
STYLE
  5
201
100
AcDbSymbolTableRecord
100
AcDbTextStyleTableRecord
  2
TEXTSTYLE_1
 70
0
 40
0.0
 41
0.8
 50
0.0
 71
0
 42
0.2
  3
gdt
  4

  0
ENDTAB
  0
TABLE
  2
VIEW
  5
6
100
AcDbSymbolTable
 70
0
  0
ENDTAB
  0
TABLE
  2
UCS
  5
7
100
AcDbSymbolTable
 70
0
  0
ENDTAB
  0
TABLE
  2
APPID
  5
9
100
AcDbSymbolTable
 70
1
  0
APPID
  5
202
100
AcDbSymbolTableRecord
100
AcDbRegAppTableRecord
  2
ACAD
 70
0
  0
ENDTAB
  0
TABLE
  2
BLOCK_RECORD
  5
1
100
AcDbSymbolTable
 70
0
  0
BLOCK_RECORD
  5
203
100
AcDbSymbolTableRecord
100
AcDbBlockTableRecord
  2
*Model_Space
  0
BLOCK_RECORD
  5
204
100
AcDbSymbolTableRecord
100
AcDbBlockTableRecord
  2
*Paper_Space
  0
ENDTAB
  0
TABLE
  2
DIMSTYLE
  5
A
100
AcDbSymbolTable
 70
1
100
AcDbDimStyleTable
 71
0
  0
DIMSTYLE
105
205
100
AcDbSymbolTableRecord
100
AcDbDimStyleTableRecord
  2
STANDARD
 70
0
  3

  4

 40
1.0
 41
0.1
 42
0.0625
 43
0.38
 44
0.18
 45
0.0
 46
0.0
 47
0.01
 48
0.01
140
0.08
141
0.09
142
0.0
143
25.4
144
1.0
145
0.0
146
1.0
147
0.09
 71
1.0
 72
0.0
 73
1
 74
1
 75
0
 76
0
 77
0
 78
4
170
0
171
2
172
0
173
0
174
0
175
0
176
0
177
0
178
0
270
2
271
2
272
2
273
2
274
2
275
0
280
0
281
0
282
0
283
1
284
4
285
0
286
0
287
3
288
0
340
11
  0
ENDTAB
  0
ENDSEC
  0
SECTION
  2
BLOCKS
  0
BLOCK
  5
20
100
AcDbEntity
  8
0
100
AcDbBlockBegin
  2
*Model_Space
 70
0
 10
0.0
 20
0.0
 30
0.0
  3
*Model_Space
  1

  0
ENDBLK
  5
21
100
AcDbEntity
  8
0
100
AcDbBlockEnd
  0
BLOCK
  5
1C
100
AcDbEntity
  8
0
100
AcDbBlockBegin
  2
*Paper_Space
 70
0
 10
0.0
 20
0.0
 30
0.0
  3
*Paper_Space
  1

  0
ENDBLK
  5
1D
100
AcDbEntity
  8
0
100
AcDbBlockEnd
  0
ENDSEC
  0
SECTION
  2
ENTITIES
  0
LINE
  5
206
100
AcDbEntity
  8
0
100
AcDbLine
 62
7
  6
CONTINUOUS
 10
23.6779462359
 20
16.8206735167
 11
23.6779462359
 21
16.8190348988
  0
CIRCLE
  5
207
100
AcDbEntity
  8
0
100
AcDbCircle
 62
6
  6
CONTINUOUS
 10
23.6779462359
 20
16.4141735167
 40
1.1800000459
  0
CIRCLE
  5
208
100
AcDbEntity
  8
0
100
AcDbCircle
 62
6
  6
CONTINUOUS
 10
23.6779462359
 20
16.4141735167
 40
1.0000026738
  0
CIRCLE
  5
209
100
AcDbEntity
  8
0
100
AcDbCircle
 62
9
  6
CONTINUOUS
 10
23.6779462359
 20
16.4141735167
 40
0.8130026738
  0
CIRCLE
  5
20A
100
AcDbEntity
  8
0
100
AcDbCircle
 62
6
  6
CONTINUOUS
 10
23.6779462359
 20
16.4141735167
 40
0.741
  0
CIRCLE
  5
20B
100
AcDbEntity
  8
0
100
AcDbCircle
 62
7
  6
CONTINUOUS
 10
23.6779462359
 20
16.4141735167
 40
0.4225
  0
ARC
  5
20C
100
AcDbEntity
  8
0
100
AcDbCircle
 62
6
  6
CONTINUOUS
 10
23.6783156473
 20
16.4140890258
 40
0.406575517
100
AcDbArc
 50
90.1846585536
 51
121.748595712
  0
ARC
  5
20D
100
AcDbEntity
  8
0
100
AcDbCircle
 62
6
  6
CONTINUOUS
 10
23.6779462359
 20
16.4141735167
 40
0.4065
100
AcDbArc
 50
121.6824507201
 51
90.1347254765
  0
ARC
  5
20E
100
AcDbEntity
  8
0
100
AcDbCircle
 62
6
  6
CONTINUOUS
 10
23.6781764227
 20
16.4144617294
 40
0.4061780201
100
AcDbArc
 50
121.7595592097
 51
180.0168637885
  0
ARC
  5
20F
100
AcDbEntity
  8
0
100
AcDbCircle
 62
6
  6
CONTINUOUS
 10
23.677672532
 20
16.4144378211
 40
0.405654403
100
AcDbArc
 50
180.0135079906
 51
269.9072471429
  0
ARC
  5
210
100
AcDbEntity
  8
0
100
AcDbCircle
 62
6
  6
CONTINUOUS
 10
23.6783151639
 20
16.4140911798
 40
0.4049347518
100
AcDbArc
 50
90.1981504301
 51
121.7682273616
  0
ARC
  5
211
100
AcDbEntity
  8
0
100
AcDbCircle
 62
6
  6
CONTINUOUS
 10
23.678349048
 20
16.4142989453
 40
0.404771175
100
AcDbArc
 50
121.7877887103
 51
153.5582362398
  0
ARC
  5
212
100
AcDbEntity
  8
0
100
AcDbCircle
 62
6
  6
CONTINUOUS
 10
23.6783126716
 20
16.4141047567
 40
0.4043366454
100
AcDbArc
 50
90.1848804926
 51
121.775220338
  0
ARC
  5
213
100
AcDbEntity
  8
0
100
AcDbCircle
 62
6
  6
CONTINUOUS
 10
23.678304735
 20
16.4143380465
 40
0.4041286579
100
AcDbArc
 50
121.791680578
 51
153.5578482955
  0
ARC
  5
214
100
AcDbEntity
  8
0
100
AcDbCircle
 62
6
  6
CONTINUOUS
 10
23.6777286174
 20
16.4145056723
 40
0.4040953286
100
AcDbArc
 50
153.5453102271
 51
269.8862589257
  0
ARC
  5
215
100
AcDbEntity
  8
0
100
AcDbCircle
 62
6
  6
CONTINUOUS
 10
23.6798023531
 20
16.4148298395
 40
0.403949489
100
AcDbArc
 50
187.6421972341
 51
189.2167480489
  0
ARC
  5
216
100
AcDbEntity
  8
0
100
AcDbCircle
 62
6
  6
CONTINUOUS
 10
23.6797261341
 20
16.4142304348
 40
0.4038757021
100
AcDbArc
 50
170.7021838711
 51
171.9194768051
  0
ARC
  5
217
100
AcDbEntity
  8
0
100
AcDbCircle
 62
6
  6
CONTINUOUS
 10
23.6777335907
 20
16.4145075476
 40
0.4035142646
100
AcDbArc
 50
153.5432866507
 51
269.8982325204
  0
ARC
  5
218
100
AcDbEntity
  8
0
100
AcDbCircle
 62
6
  6
CONTINUOUS
 10
23.6792186112
 20
16.413909583
 40
0.4034948622
100
AcDbArc
 50
153.5654181279
 51
154.6669639473
  0
ARC
  5
219
100
AcDbEntity
  8
0
100
AcDbCircle
 62
6
  6
CONTINUOUS
 10
23.6796891756
 20
16.4142511288
 40
0.4032522264
100
AcDbArc
 50
170.2911363302
 51
172.3283409276
  0
ARC
  5
21A
100
AcDbEntity
  8
0
100
AcDbCircle
 62
6
  6
CONTINUOUS
 10
23.6795934944
 20
16.4147897897
 40
0.4031550175
100
AcDbArc
 50
187.3928693948
 51
189.475551266
  0
ARC
  5
21B
100
AcDbEntity
  8
0
100
AcDbCircle
 62
6
  6
CONTINUOUS
 10
23.6794270771
 20
16.4138168178
 40
0.4031367615
100
AcDbArc
 50
153.5736490358
 51
155.2910726124
  0
ARC
  5
21C
100
AcDbEntity
  8
0
100
AcDbCircle
 62
6
  6
CONTINUOUS
 10
23.679095225
 20
16.4134748051
 40
0.4030677024
100
AcDbArc
 50
137.389062786
 51
138.4439689905
  0
ARC
  5
21D
100
AcDbEntity
  8
0
100
AcDbCircle
 62
6
  6
CONTINUOUS
 10
23.6788099686
 20
16.4150314036
 40
0.4030659978
100
AcDbArc
 50
204.639654108
 51
204.9588846681
  0
ARC
  5
21E
100
AcDbEntity
  8
0
100
AcDbCircle
 62
6
  6
CONTINUOUS
 10
23.679068424
 20
16.4151382715
 40
0.4027595769
100
AcDbArc
 50
204.1197296651
 51
205.8139199206
  0
ARC
  5
21F
100
AcDbEntity
  8
0
100
AcDbCircle
 62
6
  6
CONTINUOUS
 10
23.6783121543
 20
16.4141070678
 40
0.4026957248
100
AcDbArc
 50
90.1983945069
 51
121.7952589901
  0
ARC
  5
220
100
AcDbEntity
  8
0
100
AcDbCircle
 62
6
  6
CONTINUOUS
 10
23.6783379368
 20
16.4143074101
 40
0.4025345707
100
AcDbArc
 50
121.8134028717
 51
153.5601231238
  0
ARC
  5
221
100
AcDbEntity
  8
0
100
AcDbCircle
 62
6
  6
CONTINUOUS
 10
23.6783313131
 20
16.4151270503
 40
0.4021519291
100
AcDbArc
 50
220.906976204
 51
221.2440764118
  0
ARC
  5
222
100
AcDbEntity
  8
0
100
AcDbCircle
 62
6
  6
CONTINUOUS
 10
23.6783141011
 20
16.4141002676
 40
0.4021178648
100
AcDbArc
 50
90.1867555076
 51
121.80384815
  0
ARC
  5
223
100
AcDbEntity
  8
0
100
AcDbCircle
 62
6
  6
CONTINUOUS
 10
23.6776232058
 20
16.4143532254
 40
0.4017007459
100
AcDbArc
 50
204.9426149295
 51
269.900785528
  0
ARC
  5
224
100
AcDbEntity
  8
0
100
AcDbCircle
 62
6
  6
CONTINUOUS
 10
23.6779714223
 20
16.4147734257
 40
0.4013597318
100
AcDbArc
 50
121.8129179916
 51
137.4168868889
  0
ARC
  5
225
100
AcDbEntity
  8
0
100
AcDbCircle
 62
6
  6
CONTINUOUS
 10
23.6772513943
 20
16.4147788057
 40
0.4013449024
100
AcDbArc
 50
154.6589556783
 51
170.7223603504
  0
ARC
  5
226
100
AcDbEntity
  8
0
100
AcDbCircle
 62
6
  6
CONTINUOUS
 10
23.6797695782
 20
16.4139728546
 40
0.4011710733
100
AcDbArc
 50
161.9362459747
 51
162.6731870554
  0
ARC
  5
227
100
AcDbEntity
  8
0
100
AcDbCircle
 62
6
  6
CONTINUOUS
 10
23.6775896557
 20
16.41427295
 40
0.4010313074
100
AcDbArc
 50
221.222180868
 51
269.9152848199
  0
ARC
  5
228
100
AcDbEntity
  8
0
100
AcDbCircle
 62
6
  6
CONTINUOUS
 10
23.6769166091
 20
16.4142067573
 40
0.4010012316
100
AcDbArc
 50
189.1949115601
 51
204.6453408038
  0
ARC
  5
229
100
AcDbEntity
  8
0
100
AcDbCircle
 62
6
  6
CONTINUOUS
 10
23.6766933531
 20
16.4145398445
 40
0.400829558
100
AcDbArc
 50
171.9023287759
 51
187.6602131198
  0
ARC
  5
22A
100
AcDbEntity
  8
0
100
AcDbCircle
 62
6
  6
CONTINUOUS
 10
23.6794337008
 20
16.4145285987
 40
0.4007540408
100
AcDbArc
 50
180.1015962936
 51
180.9783190039
  0
ARC
  5
22B
100
AcDbEntity
  8
0
100
AcDbCircle
 62
6
  6
CONTINUOUS
 10
23.6784977831
 20
16.4138877723
 40
0.4007522946
100
AcDbArc
 50
118.4113500899
 51
121.8297495973
  0
ARC
  5
22C
100
AcDbEntity
  8
0
100
AcDbCircle
 62
6
  6
CONTINUOUS
 10
23.6783397035
 20
16.4139943662
 40
0.4005885578
100
AcDbArc
 50
90.2040967529
 51
118.3987172586
  0
ARC
  5
22D
100
AcDbEntity
  8
0
100
AcDbCircle
 62
6
  6
CONTINUOUS
 10
23.6770690291
 20
16.4148263559
 40
0.4005726194
100
AcDbArc
 50
155.2812637946
 51
170.3090331003
  0
ARC
  5
22E
100
AcDbEntity
  8
0
100
AcDbCircle
 62
6
  6
CONTINUOUS
 10
23.6771387435
 20
16.41514466
 40
0.4004956244
100
AcDbArc
 50
138.4370631663
 51
153.4374587222
  0
ARC
  5
22F
100
AcDbEntity
  8
0
100
AcDbCircle
 62
6
  6
CONTINUOUS
 10
23.6770535018
 20
16.4140051984
 40
0.4004524691
100
AcDbArc
 50
205.7935156707
 51
220.905386116
  0
ARC
  5
230
100
AcDbEntity
  8
0
100
AcDbCircle
 62
6
  6
CONTINUOUS
 10
23.676842344
 20
16.4141995812
 40
0.4003442607
100
AcDbArc
 50
189.457054525
 51
204.1273061495
  0
ARC
  5
231
100
AcDbEntity
  8
0
100
AcDbCircle
 62
6
  6
CONTINUOUS
 10
23.6767873081
 20
16.4145314294
 40
0.4003389285
100
AcDbArc
 50
172.3126557558
 51
187.4078775665
  0
ARC
  5
232
100
AcDbEntity
  8
0
100
AcDbCircle
 62
6
  6
CONTINUOUS
 10
23.6783198193
 20
16.4143292832
 40
0.4002844849
100
AcDbArc
 50
122.6430849134
 51
153.5714506284
  0
ARC
  5
233
100
AcDbEntity
  8
0
100
AcDbCircle
 62
6
  6
CONTINUOUS
 10
23.6780696681
 20
16.4145901674
 40
0.3999297399
100
AcDbArc
 50
121.8307103829
 51
122.6330682694
  0
ARC
  5
234
100
AcDbEntity
  8
0
100
AcDbCircle
 62
6
  6
CONTINUOUS
 10
23.6785460055
 20
16.4143946238
 40
0.3998770285
100
AcDbArc
 50
153.4680217919
 51
161.9393382809
  0
ARC
  5
235
100
AcDbEntity
  8
0
100
AcDbCircle
 62
6
  6
CONTINUOUS
 10
23.6778419978
 20
16.4145348696
 40
0.399754264
100
AcDbArc
 50
153.5673559635
 51
240.4101688675
  0
ARC
  5
236
100
AcDbEntity
  8
0
100
AcDbCircle
 62
6
  6
CONTINUOUS
 10
23.6776676406
 20
16.4146177284
 40
0.3997407148
100
AcDbArc
 50
240.4377655004
 51
269.8907549256
  0
ARC
  5
237
100
AcDbEntity
  8
0
100
AcDbCircle
 62
6
  6
CONTINUOUS
 10
23.678290705
 20
16.4142723283
 40
0.3997315855
100
AcDbArc
 50
90.1695668856
 51
121.8141410811
  0
ARC
  5
238
100
AcDbEntity
  8
0
100
AcDbCircle
 62
6
  6
CONTINUOUS
 10
23.6782077185
 20
16.4144021412
 40
0.3995715211
100
AcDbArc
 50
121.8138419747
 51
153.4473177879
  0
ARC
  5
239
100
AcDbEntity
  8
0
100
AcDbCircle
 62
6
  6
CONTINUOUS
 10
23.6776700163
 20
16.4144331345
 40
0.3989820205
100
AcDbArc
 50
180.968936453
 51
269.9174961385
  0
ARC
  5
23A
100
AcDbEntity
  8
0
100
AcDbCircle
 62
6
  6
CONTINUOUS
 10
23.6771871167
 20
16.4146381915
 40
0.3985076707
100
AcDbArc
 50
162.6539256842
 51
180.1179258166
  0
ARC
  5
23B
100
AcDbEntity
  8
0
100
AcDbCircle
 62
6
  6
CONTINUOUS
 10
23.6782907558
 20
16.4142722148
 40
0.3980930909
100
AcDbArc
 50
90.1377783202
 51
121.8180021606
  0
ARC
  5
23C
100
AcDbEntity
  8
0
100
AcDbCircle
 62
6
  6
CONTINUOUS
 10
23.6780638437
 20
16.4145096391
 40
0.397755747
100
AcDbArc
 50
125.5081748886
 51
153.4809711557
  0
ARC
  5
23D
100
AcDbEntity
  8
0
100
AcDbCircle
 62
6
  6
CONTINUOUS
 10
23.6783094652
 20
16.4141257764
 40
0.3976460896
100
AcDbArc
 50
90.1876745575
 51
121.8599900616
  0
ARC
  5
23E
100
AcDbEntity
  8
0
100
AcDbCircle
 62
6
  6
CONTINUOUS
 10
23.6778585394
 20
16.4145356171
 40
0.3975479963
100
AcDbArc
 50
153.4711101877
 51
234.3998930638
  0
ARC
  5
23F
100
AcDbEntity
  8
0
100
AcDbCircle
 62
6
  6
CONTINUOUS
 10
23.6782924831
 20
16.4143515135
 40
0.3974408384
100
AcDbArc
 50
121.8750881994
 51
153.5782475572
  0
ARC
  5
240
100
AcDbEntity
  8
0
100
AcDbCircle
 62
6
  6
CONTINUOUS
 10
23.6793539581
 20
16.4132419952
 40
0.3973285934
100
AcDbArc
 50
137.5069863642
 51
137.8628024076
  0
ARC
  5
241
100
AcDbEntity
  8
0
100
AcDbCircle
 62
6
  6
CONTINUOUS
 10
23.6798420613
 20
16.4142439839
 40
0.3973166793
100
AcDbArc
 50
169.7244499574
 51
170.7169070791
  0
ARC
  5
242
100
AcDbEntity
  8
0
100
AcDbCircle
 62
6
  6
CONTINUOUS
 10
23.6775772512
 20
16.4142195658
 40
0.3971197488
100
AcDbArc
 50
234.4063472526
 51
269.9635588106
  0
ARC
  5
243
100
AcDbEntity
  8
0
100
AcDbCircle
 62
6
  6
CONTINUOUS
 10
23.6793489731
 20
16.4138671875
 40
0.396961245
100
AcDbArc
 50
153.142603436
 51
153.9772831912
  0
ARC
  5
244
100
AcDbEntity
  8
0
100
AcDbCircle
 62
6
  6
CONTINUOUS
 10
23.6794682749
 20
16.4131593274
 40
0.3968842757
100
AcDbArc
 50
136.571074468
 51
138.4148298403
  0
ARC
  5
245
100
AcDbEntity
  8
0
100
AcDbCircle
 62
6
  6
CONTINUOUS
 10
23.677731903
 20
16.4145064699
 40
0.39684308
100
AcDbArc
 50
153.5622694458
 51
269.8965887579
  0
ARC
  5
246
100
AcDbEntity
  8
0
100
AcDbCircle
 62
6
  6
CONTINUOUS
 10
23.679627782
 20
16.4142673825
 40
0.3965196761
100
AcDbArc
 50
169.4314199804
 51
171.0597607223
  0
ARC
  5
247
100
AcDbEntity
  8
0
100
AcDbCircle
 62
6
  6
CONTINUOUS
 10
23.679357781
 20
16.4138711073
 40
0.396382607
100
AcDbArc
 50
152.7079272923
 51
154.4048293162
  0
ARC
  5
248
100
AcDbEntity
  8
0
100
AcDbCircle
 62
6
  6
CONTINUOUS
 10
23.6776366231
 20
16.4139918593
 40
0.3963016966
100
AcDbArc
 50
270.1801059155
 51
329.5106219996
  0
ARC
  5
249
100
AcDbEntity
  8
0
100
AcDbCircle
 62
6
  6
CONTINUOUS
 10
23.6792872272
 20
16.4147535352
 40
0.3961771513
100
AcDbArc
 50
186.255747414
 51
187.5074435142
  0
ARC
  5
24A
100
AcDbEntity
  8
0
100
AcDbCircle
 62
6
  6
CONTINUOUS
 10
23.6789336345
 20
16.4147143874
 40
0.3958213983
100
AcDbArc
 50
185.4247084701
 51
186.2556916975
  0
ARC
  5
24B
100
AcDbEntity
  8
0
100
AcDbCircle
 62
6
  6
CONTINUOUS
 10
23.6781484301
 20
16.4138275211
 40
0.3957471722
100
AcDbArc
 50
329.4935297098
 51
89.8927397163
  0
ARC
  5
24C
100
AcDbEntity
  8
0
100
AcDbCircle
 62
6
  6
CONTINUOUS
 10
23.6782412328
 20
16.414400698
 40
0.3957290587
100
AcDbArc
 50
90.1920565482
 51
137.5218609498
  0
ARC
  5
24D
100
AcDbEntity
  8
0
100
AcDbCircle
 62
6
  6
CONTINUOUS
 10
23.6785369584
 20
16.4148848621
 40
0.3955029094
100
AcDbArc
 50
203.2394614096
 51
203.6276399558
  0
ARC
  5
24E
100
AcDbEntity
  8
0
100
AcDbCircle
 62
6
  6
CONTINUOUS
 10
23.6807151856
 20
16.4136656592
 40
0.3954901538
100
AcDbArc
 50
161.837548571
 51
162.2628083901
  0
ARC
  5
24F
100
AcDbEntity
  8
0
100
AcDbCircle
 62
6
  6
CONTINUOUS
 10
23.6796010714
 20
16.4130423086
 40
0.3954224715
100
AcDbArc
 50
134.226653832
 51
139.7537680824
  0
ARC
  5
250
100
AcDbEntity
  8
0
100
AcDbCircle
 62
6
  6
CONTINUOUS
 10
23.6782408945
 20
16.4143999185
 40
0.395144854
100
AcDbArc
 50
90.1798863546
 51
136.5793661807
  0
ARC
  5
251
100
AcDbEntity
  8
0
100
AcDbCircle
 62
6
  6
CONTINUOUS
 10
23.676751683
 20
16.4167991086
 40
0.3951344872
100
AcDbArc
 50
121.8215466454
 51
125.5461115009
  0
ARC
  5
252
100
AcDbEntity
  8
0
100
AcDbCircle
 62
6
  6
CONTINUOUS
 10
23.6776681782
 20
16.4144261966
 40
0.3951129874
100
AcDbArc
 50
185.417612956
 51
269.8924673388
  0
ARC
  5
253
100
AcDbEntity
  8
0
100
AcDbCircle
 62
6
  6
CONTINUOUS
 10
23.6796868355
 20
16.414256296
 40
0.3949410637
100
AcDbArc
 50
167.981158283
 51
172.9339921519
  0
ARC
  5
254
100
AcDbEntity
  8
0
100
AcDbCircle
 62
6
  6
CONTINUOUS
 10
23.6794780126
 20
16.4147754973
 40
0.3947305263
100
AcDbArc
 50
185.4114209472
 51
189.7404364537
  0
ARC
  5
255
100
AcDbEntity
  8
0
100
AcDbCircle
 62
6
  6
CONTINUOUS
 10
23.6776365182
 20
16.4139920257
 40
0.3946632921
100
AcDbArc
 50
270.1939348772
 51
329.4962728535
  0
ARC
  5
256
100
AcDbEntity
  8
0
100
AcDbCircle
 62
6
  6
CONTINUOUS
 10
23.6792776334
 20
16.4139114206
 40
0.3946543063
100
AcDbArc
 50
150.9740331666
 51
156.0235332637
  0
ARC
  5
257
100
AcDbEntity
  8
0
100
AcDbCircle
 62
6
  6
CONTINUOUS
 10
23.6797800706
 20
16.4139376403
 40
0.3945166319
100
AcDbArc
 50
162.2590568094
 51
167.4267322999
  0
ARC
  5
258
100
AcDbEntity
  8
0
100
AcDbCircle
 62
6
  6
CONTINUOUS
 10
23.6770670091
 20
16.4148554092
 40
0.3944770823
100
AcDbArc
 50
153.9608524558
 51
169.7399328454
  0
ARC
  5
259
100
AcDbEntity
  8
0
100
AcDbCircle
 62
6
  6
CONTINUOUS
 10
23.6776296819
 20
16.4143643853
 40
0.3944585761
100
AcDbArc
 50
203.6111952303
 51
269.9106071558
  0
ARC
  5
25A
100
AcDbEntity
  8
0
100
AcDbCircle
 62
6
  6
CONTINUOUS
 10
23.6771720268
 20
16.4151085442
 40
0.3944583281
100
AcDbArc
 50
137.8512179956
 51
153.1605976164
  0
ARC
  5
25B
100
AcDbEntity
  8
0
100
AcDbCircle
 62
6
  6
CONTINUOUS
 10
23.6768168604
 20
16.4145351271
 40
0.3942830909
100
AcDbArc
 50
170.687746119
 51
185.4450516222
  0
ARC
  5
25C
100
AcDbEntity
  8
0
100
AcDbCircle
 62
6
  6
CONTINUOUS
 10
23.6790208373
 20
16.414387455
 40
0.3942623532
100
AcDbArc
 50
167.6550522097
 51
167.9796470373
  0
ARC
  5
25D
100
AcDbEntity
  8
0
100
AcDbCircle
 62
6
  6
CONTINUOUS
 10
23.6773709807
 20
16.4143624874
 40
0.3942263957
100
AcDbArc
 50
187.4874845494
 51
203.236565447
  0
ARC
  5
25E
100
AcDbEntity
  8
0
100
AcDbCircle
 62
6
  6
CONTINUOUS
 10
23.6785532222
 20
16.4137863268
 40
0.3941968772
100
AcDbArc
 50
117.8558131742
 51
122.9042430743
  0
ARC
  5
25F
100
AcDbEntity
  8
0
100
AcDbCircle
 62
6
  6
CONTINUOUS
 10
23.6788102831
 20
16.4150016776
 40
0.3941614468
100
AcDbArc
 50
202.0781601433
 51
206.3984841046
  0
ARC
  5
260
100
AcDbEntity
  8
0
100
AcDbCircle
 62
6
  6
CONTINUOUS
 10
23.6785413564
 20
16.4153089226
 40
0.394119438
100
AcDbArc
 50
218.982571334
 51
223.1266761237
  0
ARC
  5
261
100
AcDbEntity
  8
0
100
AcDbCircle
 62
6
  6
CONTINUOUS
 10
23.6781483017
 20
16.4138274644
 40
0.394108698
100
AcDbArc
 50
329.4791200965
 51
89.8791005034
  0
ARC
  5
262
100
AcDbEntity
  8
0
100
AcDbCircle
 62
6
  6
CONTINUOUS
 10
23.6776516287
 20
16.4139672625
 40
0.394051641
100
AcDbArc
 50
270.1791712756
 51
329.4856954556
  0
ARC
  5
263
100
AcDbEntity
  8
0
100
AcDbCircle
 62
6
  6
CONTINUOUS
 10
23.6771270729
 20
16.4148233911
 40
0.3939594198
100
AcDbArc
 50
154.3895996255
 51
169.4442060632
  0
ARC
  5
264
100
AcDbEntity
  8
0
100
AcDbCircle
 62
6
  6
CONTINUOUS
 10
23.678342049
 20
16.4139922975
 40
0.3939212573
100
AcDbArc
 50
90.2083892319
 51
117.8426549908
  0
ARC
  5
265
100
AcDbEntity
  8
0
100
AcDbCircle
 62
6
  6
CONTINUOUS
 10
23.6770090931
 20
16.4145458713
 40
0.3938895455
100
AcDbArc
 50
171.0405816431
 51
185.4267711512
  0
ARC
  5
266
100
AcDbEntity
  8
0
100
AcDbCircle
 62
6
  6
CONTINUOUS
 10
23.6786411401
 20
16.414685948
 40
0.3938889387
100
AcDbArc
 50
184.9687632739
 51
185.4099332311
  0
ARC
  5
267
100
AcDbEntity
  8
0
100
AcDbCircle
 62
6
  6
CONTINUOUS
 10
23.6770873227
 20
16.4151676627
 40
0.3937704051
100
AcDbArc
 50
138.4034598424
 51
152.7241014224
  0
ARC
  5
268
100
AcDbEntity
  8
0
100
AcDbCircle
 62
6
  6
CONTINUOUS
 10
23.6806091238
 20
16.4136994685
 40
0.3937403309
100
AcDbArc
 50
160.270071059
 51
163.7542691524
  0
ARC
  5
269
100
AcDbEntity
  8
0
100
AcDbCircle
 62
6
  6
CONTINUOUS
 10
23.6801214438
 20
16.4130954094
 40
0.3935698508
100
AcDbArc
 50
143.2285910574
 51
145.9365901412
  0
ARC
  5
26A
100
AcDbEntity
  8
0
100
AcDbCircle
 62
6
  6
CONTINUOUS
 10
23.6781521026
 20
16.4138301239
 40
0.3935217803
100
AcDbArc
 50
329.465899532
 51
89.8939902563
  0
ARC
  5
26B
100
AcDbEntity
  8
0
100
AcDbCircle
 62
6
  6
CONTINUOUS
 10
23.6787925949
 20
16.4143312385
 40
0.3934558854
100
AcDbArc
 50
153.6049081964
 51
161.8423719501
  0
ARC
  5
26C
100
AcDbEntity
  8
0
100
AcDbCircle
 62
6
  6
CONTINUOUS
 10
23.6785121132
 20
16.4145229707
 40
0.3931706158
100
AcDbArc
 50
179.7182638303
 51
179.9366266662
  0
ARC
  5
26D
100
AcDbEntity
  8
0
100
AcDbCircle
 62
6
  6
CONTINUOUS
 10
23.677903038
 20
16.4145692169
 40
0.3931479058
100
AcDbArc
 50
223.1115914848
 51
236.1567333828
  0
ARC
  5
26E
100
AcDbEntity
  8
0
100
AcDbCircle
 62
6
  6
CONTINUOUS
 10
23.6782600656
 20
16.4143686906
 40
0.3929638421
100
AcDbArc
 50
90.1679546227
 51
153.5752817255
  0
ARC
  5
26F
100
AcDbEntity
  8
0
100
AcDbCircle
 62
6
  6
CONTINUOUS
 10
23.6776117975
 20
16.4143770903
 40
0.3928283821
100
AcDbArc
 50
237.1577876458
 51
269.8997836385
  0
ARC
  5
270
100
AcDbEntity
  8
0
100
AcDbCircle
 62
6
  6
CONTINUOUS
 10
23.679677721
 20
16.4139593382
 40
0.3927734181
100
AcDbArc
 50
163.7526537945
 51
167.4497537548
  0
ARC
  5
271
100
AcDbEntity
  8
0
100
AcDbCircle
 62
6
  6
CONTINUOUS
 10
23.6778219478
 20
16.4150159091
 40
0.3927672936
100
AcDbArc
 50
122.9121191466
 51
134.2414877906
  0
ARC
  5
272
100
AcDbEntity
  8
0
100
AcDbCircle
 62
6
  6
CONTINUOUS
 10
23.6776424783
 20
16.4139818601
 40
0.3924288705
100
AcDbArc
 50
270.1944103932
 51
329.4714620814
  0
ARC
  5
273
100
AcDbEntity
  8
0
100
AcDbCircle
 62
6
  6
CONTINUOUS
 10
23.6776753643
 20
16.4144415632
 40
0.3923211785
100
AcDbArc
 50
179.924602905
 51
269.9112410737
  0
ARC
  5
274
100
AcDbEntity
  8
0
100
AcDbCircle
 62
6
  6
CONTINUOUS
 10
23.6792223349
 20
16.4148682141
 40
0.3922750726
100
AcDbArc
 50
195.6338981818
 51
198.7106590504
  0
ARC
  5
275
100
AcDbEntity
  8
0
100
AcDbCircle
 62
6
  6
CONTINUOUS
 10
23.6770076433
 20
16.4142423534
 40
0.392205584
100
AcDbArc
 50
189.7247309
 51
202.0743495879
  0
ARC
  5
276
100
AcDbEntity
  8
0
100
AcDbCircle
 62
6
  6
CONTINUOUS
 10
23.6770018198
 20
16.4139834118
 40
0.3920888459
100
AcDbArc
 50
206.3826990206
 51
218.9735301011
  0
ARC
  5
277
100
AcDbEntity
  8
0
100
AcDbCircle
 62
6
  6
CONTINUOUS
 10
23.6771916814
 20
16.4137230793
 40
0.3920489816
100
AcDbArc
 50
236.1742113551
 51
237.1575362384
  0
ARC
  5
278
100
AcDbEntity
  8
0
100
AcDbCircle
 62
6
  6
CONTINUOUS
 10
23.6786982648
 20
16.4138019925
 40
0.3920401111
100
AcDbArc
 50
125.9925109966
 51
128.0461124805
  0
ARC
  5
279
100
AcDbEntity
  8
0
100
AcDbCircle
 62
6
  6
CONTINUOUS
 10
23.6767950916
 20
16.4149302669
 40
0.3919720232
100
AcDbArc
 50
156.0124415457
 51
167.6630045792
  0
ARC
  5
27A
100
AcDbEntity
  8
0
100
AcDbCircle
 62
6
  6
CONTINUOUS
 10
23.67815199
 20
16.4138300719
 40
0.3918832844
100
AcDbArc
 50
329.452738859
 51
89.8804088818
  0
ARC
  5
27B
100
AcDbEntity
  8
0
100
AcDbCircle
 62
6
  6
CONTINUOUS
 10
23.6776398712
 20
16.4139917399
 40
0.3918530149
100
AcDbArc
 50
270.1863514206
 51
329.4853240895
  0
ARC
  5
27C
100
AcDbEntity
  8
0
100
AcDbCircle
 62
6
  6
CONTINUOUS
 10
23.676609362
 20
16.4145396191
 40
0.3918521231
100
AcDbArc
 50
172.9197509595
 51
184.9731788596
  0
ARC
  5
27D
100
AcDbEntity
  8
0
100
AcDbCircle
 62
6
  6
CONTINUOUS
 10
23.6767855663
 20
16.4153828588
 40
0.3917613001
100
AcDbArc
 50
139.7490089407
 51
150.9853617637
  0
ARC
  5
27E
100
AcDbEntity
  8
0
100
AcDbCircle
 62
6
  6
CONTINUOUS
 10
23.6785800398
 20
16.4141040574
 40
0.3917279707
100
AcDbArc
 50
145.932527871
 51
153.5654230142
  0
ARC
  5
27F
100
AcDbEntity
  8
0
100
AcDbCircle
 62
6
  6
CONTINUOUS
 10
23.6770159771
 20
16.4146024213
 40
0.3916741138
100
AcDbArc
 50
167.4336265054
 51
179.7288098793
  0
ARC
  5
280
100
AcDbEntity
  8
0
100
AcDbCircle
 62
6
  6
CONTINUOUS
 10
23.6785659458
 20
16.4145231239
 40
0.3915857965
100
AcDbArc
 50
177.8957242282
 51
181.2584825347
  0
ARC
  5
281
100
AcDbEntity
  8
0
100
AcDbCircle
 62
6
  6
CONTINUOUS
 10
23.6782828469
 20
16.4142770483
 40
0.3914132708
100
AcDbArc
 50
90.138917853
 51
125.9841772327
  0
ARC
  5
282
100
AcDbEntity
  8
0
100
AcDbCircle
 62
6
  6
CONTINUOUS
 10
23.678252707
 20
16.4147543194
 40
0.3913310113
100
AcDbArc
 50
213.6615847986
 51
215.9495116114
  0
ARC
  5
283
100
AcDbEntity
  8
0
100
AcDbCircle
 62
6
  6
CONTINUOUS
 10
23.6781502102
 20
16.4138293899
 40
0.3912984189
100
AcDbArc
 50
329.4678620429
 51
89.8912251566
  0
ARC
  5
284
100
AcDbEntity
  8
0
100
AcDbCircle
 62
6
  6
CONTINUOUS
 10
23.678210496
 20
16.414647717
 40
0.3912412514
100
AcDbArc
 50
185.2687925564
 51
195.6427348365
  0
ARC
  5
285
100
AcDbEntity
  8
0
100
AcDbCircle
 62
6
  6
CONTINUOUS
 10
23.6778977618
 20
16.4145336835
 40
0.3908926455
100
AcDbArc
 50
215.9654573329
 51
233.3084576973
  0
ARC
  5
286
100
AcDbEntity
  8
0
100
AcDbCircle
 62
6
  6
CONTINUOUS
 10
23.6782320265
 20
16.4143974133
 40
0.3906974738
100
AcDbArc
 50
90.1828169477
 51
153.5861779305
  0
ARC
  5
287
100
AcDbEntity
  8
0
100
AcDbCircle
 62
6
  6
CONTINUOUS
 10
23.6776723902
 20
16.4145011746
 40
0.3906919744
100
AcDbArc
 50
181.2581424524
 51
185.2546391728
  0
ARC
  5
288
100
AcDbEntity
  8
0
100
AcDbCircle
 62
6
  6
CONTINUOUS
 10
23.6775845858
 20
16.4142469486
 40
0.3904772545
100
AcDbArc
 50
233.3201668006
 51
269.9588742742
  0
ARC
  5
289
100
AcDbEntity
  8
0
100
AcDbCircle
 62
6
  6
CONTINUOUS
 10
23.6775439793
 20
16.4151069343
 40
0.390301026
100
AcDbArc
 50
128.0307297999
 51
143.2386262615
  0
ARC
  5
28A
100
AcDbEntity
  8
0
100
AcDbCircle
 62
6
  6
CONTINUOUS
 10
23.677300573
 20
16.4142427463
 40
0.3902551015
100
AcDbArc
 50
198.7141926581
 51
213.6765540956
  0
ARC
  5
28B
100
AcDbEntity
  8
0
100
AcDbCircle
 62
6
  6
CONTINUOUS
 10
23.6776441694
 20
16.4139846088
 40
0.3902065242
100
AcDbArc
 50
270.2001733146
 51
329.4678003799
  0
ARC
  5
28C
100
AcDbEntity
  8
0
100
AcDbCircle
 62
6
  6
CONTINUOUS
 10
23.6776531726
 20
16.4145421789
 40
0.3900855255
100
AcDbArc
 50
167.6049486503
 51
185.3750051439
  0
ARC
  5
28D
100
AcDbEntity
  8
0
100
AcDbCircle
 62
6
  6
CONTINUOUS
 10
23.6776637994
 20
16.4144224221
 40
0.390076331
100
AcDbArc
 50
185.3573462873
 51
269.9013176993
  0
ARC
  5
28E
100
AcDbEntity
  8
0
100
AcDbCircle
 62
6
  6
CONTINUOUS
 10
23.6769100811
 20
16.4151337775
 40
0.3897742522
100
AcDbArc
 50
153.5916812917
 51
160.2849704419
  0
ARC
  5
28F
100
AcDbEntity
  8
0
100
AcDbCircle
 62
6
  6
CONTINUOUS
 10
23.6766672247
 20
16.4146559578
 40
0.3896834835
100
AcDbArc
 50
167.4535481268
 51
177.9049911184
  0
ARC
  5
290
100
AcDbEntity
  8
0
100
AcDbCircle
 62
6
  6
CONTINUOUS
 10
23.6781502527
 20
16.4138293641
 40
0.389659802
100
AcDbArc
 50
329.4496594903
 51
89.9282781152
  0
ARC
  5
291
100
AcDbEntity
  8
0
100
AcDbCircle
 62
6
  6
CONTINUOUS
 10
23.6776429486
 20
16.4139856306
 40
0.3896234606
100
AcDbArc
 50
270.1862512898
 51
329.4555427925
  0
ARC
  5
292
100
AcDbEntity
  8
0
100
AcDbCircle
 62
6
  6
CONTINUOUS
 10
23.677149103
 20
16.4148273582
 40
0.3895317899
100
AcDbArc
 50
153.5719574841
 51
167.6300027298
  0
ARC
  5
293
100
AcDbEntity
  8
0
100
AcDbCircle
 62
6
  6
CONTINUOUS
 10
23.6763232905
 20
16.4135447348
 40
0.3892664424
100
AcDbArc
 50
8.7858402803
 51
9.3267493592
  0
ARC
  5
294
100
AcDbEntity
  8
0
100
AcDbCircle
 62
6
  6
CONTINUOUS
 10
23.6781489447
 20
16.4138298781
 40
0.389076784
100
AcDbArc
 50
329.4374293382
 51
89.9428102657
  0
ARC
  5
295
100
AcDbEntity
  8
0
100
AcDbCircle
 62
6
  6
CONTINUOUS
 10
23.6782373535
 20
16.4144045689
 40
0.3890565533
100
AcDbArc
 50
90.1462614779
 51
167.5895725386
  0
ARC
  5
296
100
AcDbEntity
  8
0
100
AcDbCircle
 62
6
  6
CONTINUOUS
 10
23.6760791291
 20
16.4141171353
 40
0.3889242508
100
AcDbArc
 50
348.4276248073
 51
350.4057231782
  0
ARC
  5
297
100
AcDbEntity
  8
0
100
AcDbCircle
 62
6
  6
CONTINUOUS
 10
23.6762056566
 20
16.4135132595
 40
0.3888014364
100
AcDbArc
 50
8.1089376319
 51
10.0930199516
  0
ARC
  5
298
100
AcDbEntity
  8
0
100
AcDbCircle
 62
6
  6
CONTINUOUS
 10
23.6769819304
 20
16.413286443
 40
0.388718686
100
AcDbArc
 50
28.7345257102
 51
28.9300470105
  0
ARC
  5
299
100
AcDbEntity
  8
0
100
AcDbCircle
 62
6
  6
CONTINUOUS
 10
23.6782304422
 20
16.4144137451
 40
0.3884613856
100
AcDbArc
 50
90.131458809
 51
167.586522183
  0
ARC
  5
29A
100
AcDbEntity
  8
0
100
AcDbCircle
 62
6
  6
CONTINUOUS
 10
23.6776637321
 20
16.414422414
 40
0.388437682
100
AcDbArc
 50
185.3431248027
 51
269.9388286596
  0
ARC
  5
29B
100
AcDbEntity
  8
0
100
AcDbCircle
 62
6
  6
CONTINUOUS
 10
23.6771094334
 20
16.4128338895
 40
0.3882927549
100
AcDbArc
 50
48.3373330626
 51
48.8099949924
  0
ARC
  5
29C
100
AcDbEntity
  8
0
100
AcDbCircle
 62
6
  6
CONTINUOUS
 10
23.6802385015
 20
16.4143637205
 40
0.388202363
100
AcDbArc
 50
167.6645178718
 51
185.2908542063
  0
ARC
  5
29D
100
AcDbEntity
  8
0
100
AcDbCircle
 62
6
  6
CONTINUOUS
 10
23.6769603066
 20
16.4142665499
 40
0.3881262154
100
AcDbArc
 50
329.4447849262
 51
329.8524794713
  0
ARC
  5
29E
100
AcDbEntity
  8
0
100
AcDbCircle
 62
6
  6
CONTINUOUS
 10
23.6770284437
 20
16.4132967478
 40
0.3880894189
100
AcDbArc
 50
28.1909943746
 51
29.3694619462
  0
ARC
  5
29F
100
AcDbEntity
  8
0
100
AcDbCircle
 62
6
  6
CONTINUOUS
 10
23.6770572917
 20
16.4142093704
 40
0.3880136294
100
AcDbArc
 50
329.2367322977
 51
329.4447753856
  0
ARC
  5
2A0
100
AcDbEntity
  8
0
100
AcDbCircle
 62
6
  6
CONTINUOUS
 10
23.6772017555
 20
16.4145725506
 40
0.3879975997
100
AcDbArc
 50
167.5809328069
 51
185.3715518021
  0
ARC
  5
2A1
100
AcDbEntity
  8
0
100
AcDbCircle
 62
6
  6
CONTINUOUS
 10
23.6776465613
 20
16.4139795674
 40
0.3879781881
100
AcDbArc
 50
270.1481918834
 51
329.4392935067
  0
ARC
  5
2A2
100
AcDbEntity
  8
0
100
AcDbCircle
 62
6
  6
CONTINUOUS
 10
23.6777047545
 20
16.4145390008
 40
0.3879136215
100
AcDbArc
 50
167.5878991935
 51
185.3045343604
  0
ARC
  5
2A3
100
AcDbEntity
  8
0
100
AcDbCircle
 62
6
  6
CONTINUOUS
 10
23.6792917915
 20
16.4147567201
 40
0.3878735263
100
AcDbArc
 50
185.3491272942
 51
188.506662361
  0
ARC
  5
2A4
100
AcDbEntity
  8
0
100
AcDbCircle
 62
6
  6
CONTINUOUS
 10
23.6776654926
 20
16.4144225834
 40
0.3878544237
100
AcDbArc
 50
185.4900101308
 51
269.9539316838
  0
ARC
  5
2A5
100
AcDbEntity
  8
0
100
AcDbCircle
 62
6
  6
CONTINUOUS
 10
23.6788825457
 20
16.4144164017
 40
0.3874514089
100
AcDbArc
 50
167.4276108728
 51
167.5926111309
  0
ARC
  5
2A6
100
AcDbEntity
  8
0
100
AcDbCircle
 62
6
  6
CONTINUOUS
 10
23.6776415476
 20
16.4139849114
 40
0.3874008286
100
AcDbArc
 50
270.1333573403
 51
329.2210597835
  0
ARC
  5
2A7
100
AcDbEntity
  8
0
100
AcDbCircle
 62
6
  6
CONTINUOUS
 10
23.6760108904
 20
16.4141316372
 40
0.3873553241
100
AcDbArc
 50
347.2409212218
 51
352.0859166816
  0
ARC
  5
2A8
100
AcDbEntity
  8
0
100
AcDbCircle
 62
6
  6
CONTINUOUS
 10
23.6782882047
 20
16.4140241686
 40
0.3872162064
100
AcDbArc
 50
28.9280100158
 51
90.0002590339
  0
ARC
  5
2A9
100
AcDbEntity
  8
0
100
AcDbCircle
 62
6
  6
CONTINUOUS
 10
23.6761678175
 20
16.4135082676
 40
0.3872009307
100
AcDbArc
 50
6.7861051912
 51
11.5606921146
  0
ARC
  5
2AA
100
AcDbEntity
  8
0
100
AcDbCircle
 62
6
  6
CONTINUOUS
 10
23.6783828776
 20
16.4136189231
 40
0.3871553293
100
AcDbArc
 50
329.42984675
 51
349.2198873178
  0
ARC
  5
2AB
100
AcDbEntity
  8
0
100
AcDbCircle
 62
6
  6
CONTINUOUS
 10
23.6785037648
 20
16.4138037269
 40
0.3870722133
100
AcDbArc
 50
349.281640331
 51
8.7972523074
  0
ARC
  5
2AC
100
AcDbEntity
  8
0
100
AcDbCircle
 62
6
  6
CONTINUOUS
 10
23.6784126472
 20
16.4146690601
 40
0.3869900385
100
AcDbArc
 50
184.299376804
 51
185.3483395521
  0
ARC
  5
2AD
100
AcDbEntity
  8
0
100
AcDbCircle
 62
6
  6
CONTINUOUS
 10
23.678307937
 20
16.4147912685
 40
0.3869472923
100
AcDbArc
 50
201.493077582
 51
204.7148590871
  0
ARC
  5
2AE
100
AcDbEntity
  8
0
100
AcDbCircle
 62
6
  6
CONTINUOUS
 10
23.6783422089
 20
16.4145400082
 40
0.3868971226
100
AcDbArc
 50
165.3203973809
 51
167.4280589988
  0
ARC
  5
2AF
100
AcDbEntity
  8
0
100
AcDbCircle
 62
6
  6
CONTINUOUS
 10
23.6786519201
 20
16.4140517399
 40
0.3868864489
100
AcDbArc
 50
9.3085464201
 51
28.7540438592
  0
ARC
  5
2B0
100
AcDbEntity
  8
0
100
AcDbCircle
 62
6
  6
CONTINUOUS
 10
23.6773361356
 20
16.4156409863
 40
0.386847161
100
AcDbArc
 50
270.0903617474
 51
289.7144567547
  0
ARC
  5
2B1
100
AcDbEntity
  8
0
100
AcDbCircle
 62
6
  6
CONTINUOUS
 10
23.6769881863
 20
16.4126930556
 40
0.3868399608
100
AcDbArc
 50
46.2945026956
 51
49.8637961636
  0
ARC
  5
2B2
100
AcDbEntity
  8
0
100
AcDbCircle
 62
6
  6
CONTINUOUS
 10
23.678235862
 20
16.4144045477
 40
0.3868328452
100
AcDbArc
 50
90.0946577277
 51
165.2969966351
  0
ARC
  5
2B3
100
AcDbEntity
  8
0
100
AcDbCircle
 62
6
  6
CONTINUOUS
 10
23.6767014817
 20
16.4144164701
 40
0.3867867204
100
AcDbArc
 50
329.4318569471
 51
331.889954438
  0
ARC
  5
2B4
100
AcDbEntity
  8
0
100
AcDbCircle
 62
6
  6
CONTINUOUS
 10
23.6783694825
 20
16.4136145853
 40
0.3865803475
100
AcDbArc
 50
329.8311442238
 51
348.4324975036
  0
ARC
  5
2B5
100
AcDbEntity
  8
0
100
AcDbCircle
 62
6
  6
CONTINUOUS
 10
23.6770279498
 20
16.4145318942
 40
0.3865734542
100
AcDbArc
 50
309.1286578752
 51
311.2735720818
  0
ARC
  5
2B6
100
AcDbEntity
  8
0
100
AcDbCircle
 62
6
  6
CONTINUOUS
 10
23.6783014623
 20
16.4140841385
 40
0.3865730632
100
AcDbArc
 50
48.8209149558
 51
90.0526487583
  0
ARC
  5
2B7
100
AcDbEntity
  8
0
100
AcDbCircle
 62
6
  6
CONTINUOUS
 10
23.680231623
 20
16.4143642875
 40
0.3865569224
100
AcDbArc
 50
167.6313822384
 51
185.2949211743
  0
ARC
  5
2B8
100
AcDbEntity
  8
0
100
AcDbCircle
 62
6
  6
CONTINUOUS
 10
23.6769818431
 20
16.413269638
 40
0.3865046722
100
AcDbArc
 50
26.6116693188
 51
30.6151187425
  0
ARC
  5
2B9
100
AcDbEntity
  8
0
100
AcDbCircle
 62
6
  6
CONTINUOUS
 10
23.676630514
 20
16.414445776
 40
0.3862778429
100
AcDbArc
 50
329.4291866967
 51
332.499397073
  0
ARC
  5
2BA
100
AcDbEntity
  8
0
100
AcDbCircle
 62
6
  6
CONTINUOUS
 10
23.678238815
 20
16.4143976594
 40
0.3862546898
100
AcDbArc
 50
90.043398886
 51
167.6060640247
  0
ARC
  5
2BB
100
AcDbEntity
  8
0
100
AcDbCircle
 62
6
  6
CONTINUOUS
 10
23.6780697898
 20
16.4128017055
 40
0.3862245207
100
AcDbArc
 50
69.0109039102
 51
90.0183290511
  0
ARC
  5
2BC
100
AcDbEntity
  8
0
100
AcDbCircle
 62
6
  6
CONTINUOUS
 10
23.6768970758
 20
16.4146832102
 40
0.3861886536
100
AcDbArc
 50
308.7974292407
 51
312.3794922623
  0
ARC
  5
2BD
100
AcDbEntity
  8
0
100
AcDbCircle
 62
6
  6
CONTINUOUS
 10
23.6787764475
 20
16.4141056855
 40
0.3861666317
100
AcDbArc
 50
10.0733259692
 51
28.2077304001
  0
ARC
  5
2BE
100
AcDbEntity
  8
0
100
AcDbCircle
 62
6
  6
CONTINUOUS
 10
23.6772467707
 20
16.41409677
 40
0.3861546255
100
AcDbArc
 50
328.1787321889
 51
329.4315536703
  0
ARC
  5
2BF
100
AcDbEntity
  8
0
100
AcDbCircle
 62
6
  6
CONTINUOUS
 10
23.6786956846
 20
16.4142931653
 40
0.3861470934
100
AcDbArc
 50
29.3619432301
 51
48.3692340575
  0
ARC
  5
2C0
100
AcDbEntity
  8
0
100
AcDbCircle
 62
6
  6
CONTINUOUS
 10
23.6775055526
 20
16.4144414372
 40
0.3861002354
100
AcDbArc
 50
218.7524743484
 51
220.2473042948
  0
ARC
  5
2C1
100
AcDbEntity
  8
0
100
AcDbCircle
 62
6
  6
CONTINUOUS
 10
23.6775978234
 20
16.4142863863
 40
0.3860687788
100
AcDbArc
 50
220.22089373
 51
270.0010840234
  0
ARC
  5
2C2
100
AcDbEntity
  8
0
100
AcDbCircle
 62
6
  6
CONTINUOUS
 10
23.6789342455
 20
16.4138111813
 40
0.3860581157
100
AcDbArc
 50
350.3798714697
 51
8.1222858221
  0
ARC
  5
2C3
100
AcDbEntity
  8
0
100
AcDbCircle
 62
6
  6
CONTINUOUS
 10
23.6775416608
 20
16.4143285897
 40
0.3860577729
100
AcDbArc
 50
204.7000304289
 51
218.736058866
  0
ARC
  5
2C4
100
AcDbEntity
  8
0
100
AcDbCircle
 62
6
  6
CONTINUOUS
 10
23.6774536368
 20
16.4143715814
 40
0.3859986377
100
AcDbArc
 50
188.4904838643
 51
201.4815743314
  0
ARC
  5
2C5
100
AcDbEntity
  8
0
100
AcDbCircle
 62
6
  6
CONTINUOUS
 10
23.6776100072
 20
16.4140791258
 40
0.3858615536
100
AcDbArc
 50
270.100955552
 51
309.1040390374
  0
ARC
  5
2C6
100
AcDbEntity
  8
0
100
AcDbCircle
 62
6
  6
CONTINUOUS
 10
23.6772246672
 20
16.4145719085
 40
0.3857967948
100
AcDbArc
 50
167.5622643373
 51
184.2982157645
  0
ARC
  5
2C7
100
AcDbEntity
  8
0
100
AcDbCircle
 62
6
  6
CONTINUOUS
 10
23.677659448
 20
16.4144171658
 40
0.3856243074
100
AcDbArc
 50
185.3340944869
 51
270.0426108833
  0
ARC
  5
2C8
100
AcDbEntity
  8
0
100
AcDbCircle
 62
6
  6
CONTINUOUS
 10
23.677373466
 20
16.4140109916
 40
0.3854170278
100
AcDbArc
 50
327.8997982561
 51
329.4286637618
  0
ARC
  5
2C9
100
AcDbEntity
  8
0
100
AcDbCircle
 62
6
  6
CONTINUOUS
 10
23.6794192531
 20
16.4142842596
 40
0.385195899
100
AcDbArc
 50
167.5664337007
 51
170.0385996403
  0
ARC
  5
2CA
100
AcDbEntity
  8
0
100
AcDbCircle
 62
6
  6
CONTINUOUS
 10
23.6776613601
 20
16.4139115306
 40
0.3851099251
100
AcDbArc
 50
290.3499567667
 51
308.7807442144
  0
ARC
  5
2CB
100
AcDbEntity
  8
0
100
AcDbCircle
 62
6
  6
CONTINUOUS
 10
23.6782751829
 20
16.4134628987
 40
0.3849451762
100
AcDbArc
 50
311.2390094096
 51
328.1781883885
  0
ARC
  5
2CC
100
AcDbEntity
  8
0
100
AcDbCircle
 62
6
  6
CONTINUOUS
 10
23.6779153237
 20
16.413788
 40
0.3848413101
100
AcDbArc
 50
312.3573430489
 51
327.8850524571
  0
ARC
  5
2CD
100
AcDbEntity
  8
0
100
AcDbCircle
 62
6
  6
CONTINUOUS
 10
23.6781515735
 20
16.4138371611
 40
0.3846245658
100
AcDbArc
 50
332.4751892125
 51
88.2818573105
  0
ARC
  5
2CE
100
AcDbEntity
  8
0
100
AcDbCircle
 62
6
  6
CONTINUOUS
 10
23.6784437199
 20
16.414371733
 40
0.3846194606
100
AcDbArc
 50
49.868367872
 51
66.9091924202
  0
ARC
  5
2CF
100
AcDbEntity
  8
0
100
AcDbCircle
 62
6
  6
CONTINUOUS
 10
23.6782390465
 20
16.4143974203
 40
0.3846164473
100
AcDbArc
 50
90.0436182401
 51
167.5726200922
  0
ARC
  5
2D0
100
AcDbEntity
  8
0
100
AcDbCircle
 62
6
  6
CONTINUOUS
 10
23.6786215459
 20
16.4140146982
 40
0.3845697509
100
AcDbArc
 50
128.7332965699
 51
146.8552653348
  0
ARC
  5
2D1
100
AcDbEntity
  8
0
100
AcDbCircle
 62
6
  6
CONTINUOUS
 10
23.6787885647
 20
16.4144220875
 40
0.3845503273
100
AcDbArc
 50
165.9184885153
 51
167.5662554228
  0
ARC
  5
2D2
100
AcDbEntity
  8
0
100
AcDbCircle
 62
6
  6
CONTINUOUS
 10
23.6788246469
 20
16.4134581085
 40
0.3844619703
100
AcDbArc
 50
331.8668480419
 51
347.2462078199
  0
ARC
  5
2D3
100
AcDbEntity
  8
0
100
AcDbCircle
 62
6
  6
CONTINUOUS
 10
23.6787645576
 20
16.4143217268
 40
0.3844353329
100
AcDbArc
 50
30.6154831002
 51
46.3181711174
  0
ARC
  5
2D4
100
AcDbEntity
  8
0
100
AcDbCircle
 62
6
  6
CONTINUOUS
 10
23.678501178
 20
16.4146689945
 40
0.3843233265
100
AcDbArc
 50
66.8996917109
 51
68.9712361419
  0
ARC
  5
2D5
100
AcDbEntity
  8
0
100
AcDbCircle
 62
6
  6
CONTINUOUS
 10
23.6784790475
 20
16.4143534317
 40
0.3842625792
100
AcDbArc
 50
146.885937447
 51
150.4088211323
  0
ARC
  5
2D6
100
AcDbEntity
  8
0
100
AcDbCircle
 62
6
  6
CONTINUOUS
 10
23.6790415228
 20
16.4141981506
 40
0.3842472808
100
AcDbArc
 50
11.5457839304
 51
26.6254571855
  0
ARC
  5
2D7
100
AcDbEntity
  8
0
100
AcDbCircle
 62
6
  6
CONTINUOUS
 10
23.6782969252
 20
16.4142227775
 40
0.3842119359
100
AcDbArc
 50
90.0522958129
 51
127.7765386982
  0
ARC
  5
2D8
100
AcDbEntity
  8
0
100
AcDbCircle
 62
6
  6
CONTINUOUS
 10
23.679271434
 20
16.4138171702
 40
0.3840825613
100
AcDbArc
 50
352.0654101192
 51
6.7950549432
  0
ARC
  5
2D9
100
AcDbEntity
  8
0
100
AcDbCircle
 62
6
  6
CONTINUOUS
 10
23.6776594933
 20
16.4144172223
 40
0.3839857778
100
AcDbArc
 50
185.3382019352
 51
270.0427859566
  0
ARC
  5
2DA
100
AcDbEntity
  8
0
100
AcDbCircle
 62
6
  6
CONTINUOUS
 10
23.6780404648
 20
16.4148382131
 40
0.3835633948
100
AcDbArc
 50
127.8025749078
 51
128.7425561732
  0
ARC
  5
2DB
100
AcDbEntity
  8
0
100
AcDbCircle
 62
6
  6
CONTINUOUS
 10
23.6778053098
 20
16.4146018049
 40
0.3835542766
100
AcDbArc
 50
150.391385516
 51
165.9087920151
  0
ARC
  5
2DC
100
AcDbEntity
  8
0
100
AcDbCircle
 62
6
  6
CONTINUOUS
 10
23.6776469675
 20
16.4139734567
 40
0.3835255104
100
AcDbArc
 50
270.0447066535
 51
329.4329738785
  0
ARC
  5
2DD
100
AcDbEntity
  8
0
100
AcDbCircle
 62
6
  6
CONTINUOUS
 10
23.6781650895
 20
16.413379776
 40
0.3834218104
100
AcDbArc
 50
72.8750382308
 51
89.9586134132
  0
ARC
  5
2DE
100
AcDbEntity
  8
0
100
AcDbCircle
 62
6
  6
CONTINUOUS
 10
23.6776643939
 20
16.4144205842
 40
0.3834058579
100
AcDbArc
 50
185.2949093247
 51
270.0421184807
  0
ARC
  5
2DF
100
AcDbEntity
  8
0
100
AcDbCircle
 62
6
  6
CONTINUOUS
 10
23.6783251949
 20
16.4121593139
 40
0.3832360004
100
AcDbArc
 50
289.7508457597
 51
290.3480037514
  0
ARC
  5
2E0
100
AcDbEntity
  8
0
100
AcDbCircle
 62
6
  6
CONTINUOUS
 10
23.6780817628
 20
16.4138104187
 40
0.3830508449
100
AcDbArc
 50
329.4208988709
 51
72.8441584691
  0
ARC
  5
2E1
100
AcDbEntity
  8
0
100
AcDbCircle
 62
6
  6
CONTINUOUS
 10
23.6776408031
 20
16.4139859279
 40
0.3829554505
100
AcDbArc
 50
270.0456956977
 51
329.3905037246
  0
ARC
  5
2E2
100
AcDbEntity
  8
0
100
AcDbCircle
 62
6
  6
CONTINUOUS
 10
23.676994138
 20
16.4145682122
 40
0.3827583143
100
AcDbArc
 50
170.0176673512
 51
185.326172586
  0
ARC
  5
2E3
100
AcDbEntity
  8
0
100
AcDbCircle
 62
6
  6
CONTINUOUS
 10
23.6780935904
 20
16.4138146632
 40
0.382457984
100
AcDbArc
 50
329.3780473545
 51
72.8940599767
  0
ARC
  5
2E4
100
AcDbEntity
  8
0
100
AcDbCircle
 62
6
  6
CONTINUOUS
 10
23.6779462359
 20
16.4141735167
 40
0.3821502168
100
AcDbArc
 50
72.8571188854
 51
167.5227908049
  0
ARC
  5
2E5
100
AcDbEntity
  8
0
100
AcDbCircle
 62
6
  6
CONTINUOUS
 10
23.6782876513
 20
16.4187323903
 40
0.37970887
100
AcDbArc
 50
88.2802343181
 51
90.0515175324
  0
ARC
  5
2E6
100
AcDbEntity
  8
0
100
AcDbCircle
 62
6
  6
CONTINUOUS
 10
23.6761808095
 20
16.4423013216
 40
0.3633493866
100
AcDbArc
 50
317.1652212187
 51
324.9269696434
  0
ARC
  5
2E7
100
AcDbEntity
  8
0
100
AcDbCircle
 62
6
  6
CONTINUOUS
 10
23.6776385816
 20
16.4139678744
 40
0.3442812846
100
AcDbArc
 50
275.3790375485
 51
320.3765727042
  0
ARC
  5
2E8
100
AcDbEntity
  8
0
100
AcDbCircle
 62
6
  6
CONTINUOUS
 10
23.6779087217
 20
16.4113760363
 40
0.3416813142
100
AcDbArc
 50
271.3319921392
 51
275.341892389
  0
CIRCLE
  5
2E9
100
AcDbEntity
  8
0
100
AcDbCircle
 62
6
  6
CONTINUOUS
 10
23.6779462359
 20
16.4141735167
 40
0.34125
  0
SPLINE
  5
2EA
100
AcDbEntity
  8
0
100
AcDbSpline
 62
6
  6
CONTINUOUS
 70
0
 71
3
 72
26
 73
22
 74
20
 42
0.0000001
 43
0.0000001
 44
0.0000000001
 12
-0.1125931945
 22
-0.6745721193
 32
0.0
 13
0.6761764174
 23
0.1025193839
 33
0.0
 40
0.0
 40
0.0
 40
0.0
 40
0.0
 40
0.0623752818
 40
0.1249161011
 40
0.1874757106
 40
0.2499864104
 40
0.3124700673
 40
0.3749614124
 40
0.4374655021
 40
0.4999466241
 40
0.5624050999
 40
0.6248913786
 40
0.6874386697
 40
0.7500094209
 40
0.7812786821
 40
0.8125227119
 40
0.8437551229
 40
0.8750018441
 40
0.9062753596
 40
0.9375629117
 40
1.0
 40
1.0
 40
1.0
 40
1.0
 10
23.3048216337
 20
16.4967375491
 30
0.0
 10
23.302480623
 20
16.4827120071
 30
0.0
 10
23.2993833525
 20
16.4543327586
 30
0.0
 10
23.2995152462
 20
16.4115095041
 30
0.0
 10
23.3044801331
 20
16.3689340247
 30
0.0
 10
23.3143000797
 20
16.3272245147
 30
0.0
 10
23.3288049794
 20
16.2869205291
 30
0.0
 10
23.347865698
 20
16.2485593336
 30
0.0
 10
23.3712457092
 20
16.2126682859
 30
0.0
 10
23.3986366541
 20
16.1797407417
 30
0.0
 10
23.4297580958
 20
16.150317486
 30
0.0
 10
23.4641350842
 20
16.124753296
 30
0.0
 10
23.5012665496
 20
16.1033450741
 30
0.0
 10
23.5341121631
 20
16.0892388212
 30
0.0
 10
23.561267168
 20
16.0804833652
 30
0.0
 10
23.5820042041
 20
16.0752506489
 30
0.0
 10
23.6030427885
 20
16.0714289636
 30
0.0
 10
23.6243013909
 20
16.0690737631
 30
0.0
 10
23.6456786857
 20
16.0680931225
 30
0.0
 10
23.6741834523
 20
16.068512198
 30
0.0
 10
23.6954977507
 20
16.0706448009
 30
0.0
 10
23.7095705796
 20
16.0727784716
 30
0.0
 11
23.3048216337
 21
16.4967375491
 31
0.0
 11
23.3001816359
 21
16.4543319379
 31
0.0
 11
23.3003206436
 21
16.4115602432
 31
0.0
 11
23.3052917118
 21
16.3690652419
 31
0.0
 11
23.3150832793
 21
16.3274503321
 31
0.0
 11
23.3295636124
 21
16.2872456749
 31
0.0
 11
23.3485842442
 21
16.2489734987
 31
0.0
 11
23.3719181135
 21
16.2131570283
 31
0.0
 11
23.3992623175
 21
16.1803204504
 31
0.0
 11
23.4302937825
 21
16.150966215
 31
0.0
 11
23.4645789705
 21
16.1254559496
 31
0.0
 11
23.5016403404
 21
16.1040954558
 31
0.0
 11
23.5409811629
 21
16.0872583413
 31
0.0
 11
23.5613369473
 21
16.0807033624
 31
0.0
 11
23.5820578776
 21
16.0754850286
 31
0.0
 11
23.6030751136
 21
16.0716739611
 31
0.0
 11
23.6243129931
 21
16.0693034969
 31
0.0
 11
23.6456779491
 21
16.0683091078
 31
0.0
 11
23.6670735119
 21
16.0686104017
 31
0.0
 11
23.7095705796
 21
16.0727784716
 31
0.0
  0
LINE
  5
2EB
100
AcDbEntity
  8
0
100
AcDbLine
 62
6
  6
CONTINUOUS
 10
23.6779462359
 20
16.814588416
 11
23.6776018261
 21
16.8145879611
  0
LINE
  5
2EC
100
AcDbEntity
  8
0
100
AcDbLine
 62
6
  6
CONTINUOUS
 10
23.6776018261
 20
16.8145879611
 11
23.6772573224
 21
16.814587205
  0
LINE
  5
2ED
100
AcDbEntity
  8
0
100
AcDbLine
 62
6
  6
CONTINUOUS
 10
23.6772573224
 20
16.814587205
 11
23.6769127253
 21
16.8145861474
  0
LINE
  5
2EE
100
AcDbEntity
  8
0
100
AcDbLine
 62
6
  6
CONTINUOUS
 10
23.6769054475
 20
16.0148706951
 11
23.6772524746
 21
16.0148702363
  0
LINE
  5
2EF
100
AcDbEntity
  8
0
100
AcDbLine
 62
6
  6
CONTINUOUS
 10
23.6772524746
 20
16.0148702363
 11
23.6775994044
 21
16.014870084
  0
LINE
  5
2F0
100
AcDbEntity
  8
0
100
AcDbLine
 62
6
  6
CONTINUOUS
 10
23.6775994044
 20
16.014870084
 11
23.6779462359
 21
16.0148702381
  0
LINE
  5
2F1
100
AcDbEntity
  8
0
100
AcDbLine
 62
6
  6
CONTINUOUS
 10
23.6779462359
 20
16.8190348988
 11
23.6776024888
 21
16.81903445
  0
LINE
  5
2F2
100
AcDbEntity
  8
0
100
AcDbLine
 62
6
  6
CONTINUOUS
 10
23.6776024888
 20
16.81903445
 11
23.677258649
 21
16.8190337045
  0
LINE
  5
2F3
100
AcDbEntity
  8
0
100
AcDbLine
 62
6
  6
CONTINUOUS
 10
23.677258649
 20
16.8190337045
 11
23.6769147179
 21
16.8190326619
  0
LINE
  5
2F4
100
AcDbEntity
  8
0
100
AcDbLine
 62
6
  6
CONTINUOUS
 10
23.6769264514
 20
16.0104241693
 11
23.6772664698
 21
16.0104237402
  0
LINE
  5
2F5
100
AcDbEntity
  8
0
100
AcDbLine
 62
6
  6
CONTINUOUS
 10
23.6772664698
 20
16.0104237402
 11
23.6776063984
 21
16.010423602
  0
LINE
  5
2F6
100
AcDbEntity
  8
0
100
AcDbLine
 62
6
  6
CONTINUOUS
 10
23.6776063984
 20
16.010423602
 11
23.6779462359
 21
16.0104237544
  0
LINE
  5
2F7
100
AcDbEntity
  8
0
100
AcDbLine
 62
6
  6
CONTINUOUS
 10
23.6779462359
 20
16.8168116583
 11
23.6776034943
 21
16.8168112088
  0
LINE
  5
2F8
100
AcDbEntity
  8
0
100
AcDbLine
 62
6
  6
CONTINUOUS
 10
23.6776034943
 20
16.8168112088
 11
23.677260661
 21
16.8168104627
  0
LINE
  5
2F9
100
AcDbEntity
  8
0
100
AcDbLine
 62
6
  6
CONTINUOUS
 10
23.677260661
 20
16.8168104627
 11
23.6769177365
 21
16.8168094198
  0
LINE
  5
2FA
100
AcDbEntity
  8
0
100
AcDbLine
 62
6
  6
CONTINUOUS
 10
23.6769276036
 20
16.0126474114
 11
23.6772672385
 21
16.0126469813
  0
LINE
  5
2FB
100
AcDbEntity
  8
0
100
AcDbLine
 62
6
  6
CONTINUOUS
 10
23.6772672385
 20
16.0126469813
 11
23.6776067826
 21
16.0126468429
  0
LINE
  5
2FC
100
AcDbEntity
  8
0
100
AcDbLine
 62
6
  6
CONTINUOUS
 10
23.6776067826
 20
16.0126468429
 11
23.6779462359
 21
16.0126469962
  0
LINE
  5
2FD
100
AcDbEntity
  8
0
100
AcDbLine
 62
6
  6
CONTINUOUS
 10
23.6779462359
 20
16.8123651753
 11
23.6773334682
 21
16.8123641547
  0
LINE
  5
2FE
100
AcDbEntity
  8
0
100
AcDbLine
 62
6
  6
CONTINUOUS
 10
23.6773246715
 20
16.0170934169
 11
23.6779462359
 21
16.0170934777
  0
LINE
  5
2FF
100
AcDbEntity
  8
0
100
AcDbLine
 62
6
  6
CONTINUOUS
 10
23.6779462359
 20
16.8079186929
 11
23.6776006901
 21
16.8079182283
  0
LINE
  5
300
100
AcDbEntity
  8
0
100
AcDbLine
 62
6
  6
CONTINUOUS
 10
23.6776006901
 20
16.8079182283
 11
23.677255048
 21
16.8079174554
  0
LINE
  5
301
100
AcDbEntity
  8
0
100
AcDbLine
 62
6
  6
CONTINUOUS
 10
23.677255048
 20
16.8079174554
 11
23.67690931
 21
16.8079163739
  0
LINE
  5
302
100
AcDbEntity
  8
0
100
AcDbLine
 62
6
  6
CONTINUOUS
 10
23.676924684
 20
16.0215403907
 11
23.6772652949
 21
16.0215399476
  0
LINE
  5
303
100
AcDbEntity
  8
0
100
AcDbLine
 62
6
  6
CONTINUOUS
 10
23.6772652949
 20
16.0215399476
 11
23.6776058126
 21
16.0215398045
  0
LINE
  5
304
100
AcDbEntity
  8
0
100
AcDbLine
 62
6
  6
CONTINUOUS
 10
23.6776058126
 20
16.0215398045
 11
23.6779462359
 21
16.0215399614
  0
LINE
  5
305
100
AcDbEntity
  8
0
100
AcDbLine
 62
6
  6
CONTINUOUS
 10
23.6779462359
 20
16.8101419351
 11
23.6776024856
 21
16.8101414763
  0
LINE
  5
306
100
AcDbEntity
  8
0
100
AcDbLine
 62
6
  6
CONTINUOUS
 10
23.6776024856
 20
16.8101414763
 11
23.6772586412
 21
16.8101407141
  0
LINE
  5
307
100
AcDbEntity
  8
0
100
AcDbLine
 62
6
  6
CONTINUOUS
 10
23.6772586412
 20
16.8101407141
 11
23.6769147033
 21
16.8101396482
  0
LINE
  5
308
100
AcDbEntity
  8
0
100
AcDbLine
 62
6
  6
CONTINUOUS
 10
23.676926637
 20
16.0193171433
 11
23.6772665958
 21
16.0193167047
  0
LINE
  5
309
100
AcDbEntity
  8
0
100
AcDbLine
 62
6
  6
CONTINUOUS
 10
23.6772665958
 20
16.0193167047
 11
23.6776064622
 21
16.0193165635
  0
LINE
  5
30A
100
AcDbEntity
  8
0
100
AcDbLine
 62
6
  6
CONTINUOUS
 10
23.6776064622
 20
16.0193165635
 11
23.6779462359
 21
16.0193167194
  0
LINE
  5
30B
100
AcDbEntity
  8
0
100
AcDbLine
 62
6
  6
CONTINUOUS
 10
23.6779462359
 20
16.8056954519
 11
23.6773338247
 21
16.8056944136
  0
LINE
  5
30C
100
AcDbEntity
  8
0
100
AcDbLine
 62
6
  6
CONTINUOUS
 10
23.6773043046
 20
16.0237631545
 11
23.6779462359
 21
16.023763201
  0
LINE
  5
30D
100
AcDbEntity
  8
0
100
AcDbLine
 62
6
  6
CONTINUOUS
 10
23.6779462359
 20
16.8012489697
 11
23.6775967608
 21
16.8012484899
  0
LINE
  5
30E
100
AcDbEntity
  8
0
100
AcDbLine
 62
6
  6
CONTINUOUS
 10
23.6776051279
 20
16.0282095251
 11
23.6779462359
 21
16.0282096846
  0
LINE
  5
30F
100
AcDbEntity
  8
0
100
AcDbLine
 62
6
  6
CONTINUOUS
 10
23.6779462359
 20
16.8034722119
 11
23.6775952512
 21
16.803471732
  0
LINE
  5
310
100
AcDbEntity
  8
0
100
AcDbLine
 62
6
  6
CONTINUOUS
 10
23.6775952512
 20
16.803471732
 11
23.6772441643
 21
16.8034709301
  0
LINE
  5
311
100
AcDbEntity
  8
0
100
AcDbLine
 62
6
  6
CONTINUOUS
 10
23.6772490216
 20
16.0259864436
 11
23.6775976797
 21
16.0259862839
  0
LINE
  5
312
100
AcDbEntity
  8
0
100
AcDbLine
 62
6
  6
CONTINUOUS
 10
23.6775976797
 20
16.0259862839
 11
23.6779462359
 21
16.0259864425
  0
LINE
  5
313
100
AcDbEntity
  8
0
100
AcDbLine
 62
6
  6
CONTINUOUS
 10
23.6779462359
 20
16.0104237544
 11
23.6782897442
 21
16.010424204
  0
LINE
  5
314
100
AcDbEntity
  8
0
100
AcDbLine
 62
6
  6
CONTINUOUS
 10
23.6782897442
 20
16.010424204
 11
23.6786333449
 21
16.0104249508
  0
LINE
  5
315
100
AcDbEntity
  8
0
100
AcDbLine
 62
6
  6
CONTINUOUS
 10
23.6786333449
 20
16.0104249508
 11
23.6789770369
 21
16.0104259949
  0
SPLINE
  5
316
100
AcDbEntity
  8
0
100
AcDbSpline
 62
6
  6
CONTINUOUS
 70
0
 71
3
 72
39
 73
35
 74
33
 42
0.0000001
 43
0.0000001
 44
0.0000000001
 12
1.264091132
 22
0.0043867384
 32
0.0
 13
-1.2640969472
 23
0.00213107
 33
0.0
 40
0.0
 40
0.0
 40
0.0
 40
0.0
 40
0.0311845239
 40
0.0624507548
 40
0.0937412237
 40
0.1250105529
 40
0.156259171
 40
0.1874987239
 40
0.2187406256
 40
0.2499898676
 40
0.2812406368
 40
0.3124881267
 40
0.3437349184
 40
0.3749817577
 40
0.4062281672
 40
0.4374778282
 40
0.4687304113
 40
0.4999831931
 40
0.5312383269
 40
0.5624959791
 40
0.5937514267
 40
0.6250035665
 40
0.656255635
 40
0.6875066091
 40
0.7187569234
 40
0.7500093539
 40
0.7812596113
 40
0.812502431
 40
0.8437428761
 40
0.874991943
 40
0.9062608404
 40
0.937550432
 40
0.9688159087
 40
1.0
 40
1.0
 40
1.0
 40
1.0
 10
23.6789770369
 20
16.0104259949
 30
0.0
 10
23.6921170636
 20
16.0104715943
 30
0.0
 10
23.7184446802
 20
16.0118678114
 30
0.0
 10
23.7575568131
 20
16.0177902602
 30
0.0
 10
23.7959510857
 20
16.027484613
 30
0.0
 10
23.8331958582
 20
16.0409134811
 30
0.0
 10
23.8689254605
 20
16.0579165854
 30
0.0
 10
23.9028192788
 20
16.0783135363
 30
0.0
 10
23.9345465321
 20
16.1019413633
 30
0.0
 10
23.9638141341
 20
16.128560401
 30
0.0
 10
23.9903604135
 20
16.1578975555
 30
0.0
 10
24.0139022708
 20
16.1896965415
 30
0.0
 10
24.0342039643
 20
16.2236528208
 30
0.0
 10
24.0511057792
 20
16.2594221063
 30
0.0
 10
24.0644266829
 20
16.2966762111
 30
0.0
 10
24.0740186739
 20
16.335061762
 30
0.0
 10
24.079829782
 20
16.3742003162
 30
0.0
 10
24.0817916619
 20
16.4137231308
 30
0.0
 10
24.0798448656
 20
16.4532486954
 30
0.0
 10
24.0740530729
 20
16.4923956633
 30
0.0
 10
24.0644767397
 20
16.5307925532
 30
0.0
 10
24.0511640925
 20
16.5680572554
 30
0.0
 10
24.0342684687
 20
16.6038365921
 30
0.0
 10
24.0139694764
 20
16.6378006722
 30
0.0
 10
23.9904267473
 20
16.6696037675
 30
0.0
 10
23.963876051
 20
16.6989403068
 30
0.0
 10
23.9346008924
 20
16.7255535546
 30
0.0
 10
23.9028634882
 20
16.749170101
 30
0.0
 10
23.8689570852
 20
16.7695484576
 30
0.0
 10
23.8332142324
 20
16.7865250848
 30
0.0
 10
23.7959572116
 20
16.799919641
 30
0.0
 10
23.7575522426
 20
16.8095693304
 30
0.0
 10
23.71843236
 20
16.8154365214
 30
0.0
 10
23.6921027115
 20
16.8167890961
 30
0.0
 10
23.6789628067
 20
16.8168112479
 30
0.0
 11
23.6789770369
 21
16.0104259949
 31
0.0
 11
23.7183426701
 21
16.0125016532
 31
0.0
 11
23.7574212447
 21
16.0184160605
 31
0.0
 11
23.7957691618
 21
16.0281101484
 31
0.0
 11
23.8329547052
 21
16.0415138861
 31
0.0
 11
23.8686245978
 21
16.0584848771
 31
0.0
 11
23.9024573576
 21
16.0788513925
 31
0.0
 11
23.934133592
 21
16.1024374322
 31
0.0
 11
23.9633598228
 21
16.1290127124
 31
0.0
 11
23.9898606557
 21
16.1583090681
 31
0.0
 11
24.0133625695
 21
16.1900565586
 31
0.0
 11
24.033637345
 21
16.2239550374
 31
0.0
 11
24.0505089631
 21
16.2596695531
 31
0.0
 11
24.0638046942
 21
16.2968630841
 31
0.0
 11
24.0733881892
 21
16.3351856173
 31
0.0
 11
24.079188196
 21
16.3742638939
 31
0.0
 11
24.0811402237
 21
16.4137222416
 31
0.0
 11
24.0792041395
 21
16.4531843515
 31
0.0
 11
24.073422075
 21
16.4922717644
 31
0.0
 11
24.0638535104
 21
16.5306055675
 31
0.0
 11
24.0505668052
 21
16.5678100156
 31
0.0
 11
24.0337009614
 21
16.6035345686
 31
0.0
 11
24.0134287227
 21
16.6374407245
 31
0.0
 11
23.9899259488
 21
16.6691920205
 31
0.0
 11
23.9634209319
 21
16.6984874229
 31
0.0
 11
23.9341874471
 21
16.7250566318
 31
0.0
 11
23.9025011184
 21
16.7486310528
 31
0.0
 11
23.8686558637
 21
16.7689789862
 31
0.0
 11
23.8329727929
 21
16.7859235739
 31
0.0
 11
23.7957752901
 21
16.7992924726
 31
0.0
 11
23.7574172127
 21
16.8089417354
 31
0.0
 11
23.7183312817
 21
16.8148009032
 31
0.0
 11
23.6789628067
 21
16.8168112479
 31
0.0
  0
LINE
  5
317
100
AcDbEntity
  8
0
100
AcDbLine
 62
6
  6
CONTINUOUS
 10
23.6789628067
 20
16.8168112479
 11
23.67862386
 21
16.8168116744
  0
LINE
  5
318
100
AcDbEntity
  8
0
100
AcDbLine
 62
6
  6
CONTINUOUS
 10
23.67862386
 20
16.8168116744
 11
23.6782850029
 21
16.8168118112
  0
LINE
  5
319
100
AcDbEntity
  8
0
100
AcDbLine
 62
6
  6
CONTINUOUS
 10
23.6782850029
 20
16.8168118112
 11
23.6779462359
 21
16.8168116583
  0
LINE
  5
31A
100
AcDbEntity
  8
0
100
AcDbLine
 62
6
  6
CONTINUOUS
 10
23.6779462359
 20
16.0126469962
 11
23.6782914177
 21
16.0126474512
  0
LINE
  5
31B
100
AcDbEntity
  8
0
100
AcDbLine
 62
6
  6
CONTINUOUS
 10
23.6782914177
 20
16.0126474512
 11
23.6786366935
 21
16.012648208
  0
LINE
  5
31C
100
AcDbEntity
  8
0
100
AcDbLine
 62
6
  6
CONTINUOUS
 10
23.6786366935
 20
16.012648208
 11
23.6789820631
 21
16.0126492668
  0
SPLINE
  5
31D
100
AcDbEntity
  8
0
100
AcDbSpline
 62
6
  6
CONTINUOUS
 70
0
 71
3
 72
39
 73
35
 74
33
 42
0.0000001
 43
0.0000001
 44
0.0000000001
 12
1.2570864454
 22
0.0044030171
 32
0.0
 13
-1.257092248
 23
0.0021904135
 33
0.0
 40
0.0
 40
0.0
 40
0.0
 40
0.0
 40
0.0311849347
 40
0.0624522673
 40
0.093744528
 40
0.1250159373
 40
0.1562663122
 40
0.1875071672
 40
0.2187497037
 40
0.2499995537
 40
0.2812515517
 40
0.3125012003
 40
0.3437508464
 40
0.3750004666
 40
0.4062482605
 40
0.4374971264
 40
0.468747326
 40
0.4999960411
 40
0.5312450488
 40
0.562495847
 40
0.5937454222
 40
0.6249940668
 40
0.6562443967
 40
0.6874942068
 40
0.7187432232
 40
0.7499938844
 40
0.7812421232
 40
0.8124834518
 40
0.843724087
 40
0.874975294
 40
0.906249027
 40
0.9375444053
 40
0.9688141827
 40
1.0
 40
1.0
 40
1.0
 40
1.0
 10
23.6789820631
 20
16.0126492668
 30
0.0
 10
23.6920494494
 20
16.0126950361
 30
0.0
 10
23.7182317693
 20
16.0140845286
 30
0.0
 10
23.757128309
 20
16.0199758761
 30
0.0
 10
23.7953115887
 20
16.0296179994
 30
0.0
 10
23.8323519461
 20
16.0429740374
 30
0.0
 10
23.8678847093
 20
16.0598855902
 30
0.0
 10
23.9015912472
 20
16.0801715502
 30
0.0
 10
23.9331433644
 20
16.1036693616
 30
0.0
 10
23.9622481648
 20
16.1301432145
 30
0.0
 10
23.988646731
 20
16.1593205475
 30
0.0
 10
24.012059322
 20
16.1909457248
 30
0.0
 10
24.0322476981
 20
16.224718252
 30
0.0
 10
24.0490543416
 20
16.2602931861
 30
0.0
 10
24.0623027944
 20
16.2973418483
 30
0.0
 10
24.0718393321
 20
16.3355146362
 30
0.0
 10
24.0776139948
 20
16.374433825
 30
0.0
 10
24.0795644277
 20
16.4137322492
 30
0.0
 10
24.0776307745
 20
16.4530317494
 30
0.0
 10
24.0718725642
 20
16.4919540776
 30
0.0
 10
24.0623504836
 20
16.5301314883
 30
0.0
 10
24.0491134256
 20
16.5671853246
 30
0.0
 10
24.0323155322
 20
16.6027652857
 30
0.0
 10
24.0121330072
 20
16.6365415626
 30
0.0
 10
23.9887232613
 20
16.6681680742
 30
0.0
 10
23.962324564
 20
16.6973434729
 30
0.0
 10
23.9332162632
 20
16.7238111984
 30
0.0
 10
23.9016568321
 20
16.7472973827
 30
0.0
 10
23.8679405554
 20
16.7675670193
 30
0.0
 10
23.8323951634
 20
16.7844555792
 30
0.0
 10
23.7953397299
 20
16.7977784521
 30
0.0
 10
23.7571420638
 20
16.807378087
 30
0.0
 10
23.7182346947
 20
16.8132175767
 30
0.0
 10
23.6920484934
 20
16.8145652017
 30
0.0
 10
23.678980677
 20
16.8145879717
 30
0.0
 11
23.6789820631
 21
16.0126492668
 31
0.0
 11
23.7181300065
 21
16.0147148494
 31
0.0
 11
23.7569931975
 21
16.0205980915
 31
0.0
 11
23.7951305472
 21
16.030240039
 31
0.0
 11
23.8321121482
 21
16.0435713642
 31
0.0
 11
23.8675856676
 21
16.0604507666
 31
0.0
 11
23.9012316544
 21
16.0807064384
 31
0.0
 11
23.9327325121
 21
16.1041629229
 31
0.0
 11
23.9617961158
 21
16.1305928284
 31
0.0
 11
23.9881496959
 21
16.1597292991
 31
0.0
 11
24.0115220522
 21
16.1913037511
 31
0.0
 11
24.0316841366
 21
16.22501878
 31
0.0
 11
24.0484616269
 21
16.2605395638
 31
0.0
 11
24.0616840103
 21
16.2975287306
 31
0.0
 11
24.0712122229
 21
16.3356384265
 31
0.0
 11
24.0769766798
 21
16.3744976407
 31
0.0
 11
24.0789170913
 21
16.413732264
 31
0.0
 11
24.0769934225
 21
16.4529680802
 31
0.0
 11
24.0712451388
 21
16.4918304506
 31
0.0
 11
24.0617312079
 21
16.5299446336
 31
0.0
 11
24.0485202306
 21
16.5669390113
 31
0.0
 11
24.0317513292
 21
16.6024648371
 31
0.0
 11
24.0115949716
 21
16.6361835301
 31
0.0
 11
23.9882254658
 21
16.6677591033
 31
0.0
 11
23.9618718463
 21
16.6968932727
 31
0.0
 11
23.9328049683
 21
16.723316566
 31
0.0
 11
23.9012973222
 21
16.7467613878
 31
0.0
 11
23.8676416406
 21
16.767000411
 31
0.0
 11
23.8321557537
 21
16.7838562356
 31
0.0
 11
23.7951592304
 21
16.797154731
 31
0.0
 11
23.7570071645
 21
16.8067543565
 31
0.0
 11
23.718133008
 21
16.8125854557
 31
0.0
 11
23.678980677
 21
16.8145879717
 31
0.0
  0
LINE
  5
31E
100
AcDbEntity
  8
0
100
AcDbLine
 62
6
  6
CONTINUOUS
 10
23.678980677
 20
16.8145879717
 11
23.6786357678
 21
16.8145884217
  0
LINE
  5
31F
100
AcDbEntity
  8
0
100
AcDbLine
 62
6
  6
CONTINUOUS
 10
23.6786357678
 20
16.8145884217
 11
23.6782909539
 21
16.8145885698
  0
LINE
  5
320
100
AcDbEntity
  8
0
100
AcDbLine
 62
6
  6
CONTINUOUS
 10
23.6782909539
 20
16.8145885698
 11
23.6779462359
 21
16.814588416
  0
LINE
  5
321
100
AcDbEntity
  8
0
100
AcDbLine
 62
6
  6
CONTINUOUS
 10
23.6779462359
 20
16.0148702381
 11
23.6782895026
 21
16.0148706923
  0
LINE
  5
322
100
AcDbEntity
  8
0
100
AcDbLine
 62
6
  6
CONTINUOUS
 10
23.6782895026
 20
16.0148706923
 11
23.6786328629
 21
16.0148714464
  0
LINE
  5
323
100
AcDbEntity
  8
0
100
AcDbLine
 62
6
  6
CONTINUOUS
 10
23.6786328629
 20
16.0148714464
 11
23.6789763157
 21
16.0148725009
  0
SPLINE
  5
324
100
AcDbEntity
  8
0
100
AcDbSpline
 62
6
  6
CONTINUOUS
 70
0
 71
3
 72
39
 73
35
 74
33
 42
0.0000001
 43
0.0000001
 44
0.0000000001
 12
1.2500971476
 22
0.0043839567
 32
0.0
 13
-1.2501028377
 23
0.0022344826
 33
0.0
 40
0.0
 40
0.0
 40
0.0
 40
0.0
 40
0.0311844629
 40
0.0624504943
 40
0.0937407386
 40
0.1250099935
 40
0.1562586312
 40
0.1874979914
 40
0.2187391884
 40
0.2499874526
 40
0.2812377713
 40
0.3124862665
 40
0.3437354825
 40
0.3749848653
 40
0.4062325707
 40
0.4374815568
 40
0.4687316893
 40
0.4999801946
 40
0.531229124
 40
0.5624795758
 40
0.5937284725
 40
0.6249764528
 40
0.6562258641
 40
0.6874743936
 40
0.7187221657
 40
0.749971624
 40
0.7812190112
 40
0.812461051
 40
0.8437049278
 40
0.8749609464
 40
0.9062404426
 40
0.9375406051
 40
0.9688132276
 40
1.0
 40
1.0
 40
1.0
 40
1.0
 10
23.6789763157
 20
16.0148725009
 30
0.0
 10
23.6919708518
 20
16.0149180713
 30
0.0
 10
23.7180068544
 20
16.0162996083
 30
0.0
 10
23.7566856631
 20
16.0221573817
 30
0.0
 10
23.7946544756
 20
16.0317452667
 30
0.0
 10
23.8314864826
 20
16.0450263752
 30
0.0
 10
23.866820215
 20
16.0618416708
 30
0.0
 10
23.9003384818
 20
16.0820126363
 30
0.0
 10
23.9317142438
 20
16.1053779064
 30
0.0
 10
23.9606578403
 20
16.131700945
 30
0.0
 10
23.9869105273
 20
16.160712884
 30
0.0
 10
24.010192052
 20
16.1921611952
 30
0.0
 10
24.0302703633
 20
16.2257436245
 30
0.0
 10
24.0469870925
 20
16.2611188247
 30
0.0
 10
24.0601629232
 20
16.2979610734
 30
0.0
 10
24.0696492243
 20
16.3359208153
 30
0.0
 10
24.0753960357
 20
16.3746229551
 30
0.0
 10
24.0773374287
 20
16.4137027057
 30
0.0
 10
24.075416828
 20
16.4527834737
 30
0.0
 10
24.0696952933
 20
16.491489601
 30
0.0
 10
24.0602292144
 20
16.5294548778
 30
0.0
 10
24.0470677052
 20
16.5663023366
 30
0.0
 10
24.0303682898
 20
16.6016854745
 30
0.0
 10
24.010302136
 20
16.6352749033
 30
0.0
 10
23.9870247368
 20
16.6667251993
 30
0.0
 10
23.9607783987
 20
16.6957414109
 30
0.0
 10
23.9318360773
 20
16.7220659159
 30
0.0
 10
23.9004517303
 20
16.7454232184
 30
0.0
 10
23.8669220706
 20
16.7655856257
 30
0.0
 10
23.831571126
 20
16.7823872187
 30
0.0
 10
23.7947161237
 20
16.7956395979
 30
0.0
 10
23.7567259481
 20
16.8051891559
 30
0.0
 10
23.7180318029
 20
16.8109996165
 30
0.0
 10
23.6919896682
 20
16.8123414755
 30
0.0
 10
23.6789941107
 20
16.8123647042
 30
0.0
 11
23.6789763157
 21
16.0148725009
 31
0.0
 11
23.7179060206
 21
16.016926393
 31
0.0
 11
23.7565515931
 21
16.0227762491
 31
0.0
 11
23.7944744862
 21
16.0323638628
 31
0.0
 11
23.8312479809
 21
16.0456200387
 31
0.0
 11
23.8665227978
 21
16.0624036348
 31
0.0
 11
23.8999808145
 21
16.0825445618
 31
0.0
 11
23.9313060218
 21
16.10586851
 31
0.0
 11
23.9602083712
 21
16.1321481509
 31
0.0
 11
23.9864157699
 21
16.1611194858
 31
0.0
 11
24.0096580581
 21
16.1925166819
 31
0.0
 11
24.0297100855
 21
16.2260424106
 31
0.0
 11
24.0463972198
 21
16.2613639921
 31
0.0
 11
24.059547841
 21
16.2981467587
 31
0.0
 11
24.0690258624
 21
16.3360440269
 31
0.0
 11
24.074761864
 21
16.3746865695
 31
0.0
 11
24.0766937738
 21
16.4137026763
 31
0.0
 11
24.074783397
 21
16.4527203742
 31
0.0
 11
24.0690710557
 21
16.4913668249
 31
0.0
 11
24.0596131877
 21
16.5292690126
 31
0.0
 11
24.0464782724
 21
16.5660577554
 31
0.0
 11
24.0298069805
 21
16.6013868566
 31
0.0
 11
24.0097667625
 21
16.634918646
 31
0.0
 11
23.9865303053
 21
16.6663190333
 31
0.0
 11
23.9603281604
 21
16.6952936697
 31
0.0
 11
23.9314270614
 21
16.7215730561
 31
0.0
 11
23.9000953457
 21
16.7448900252
 31
0.0
 11
23.8666253109
 21
16.7650219307
 31
0.0
 11
23.8313331068
 21
16.7817904462
 31
0.0
 11
23.7945362218
 21
16.7950194461
 31
0.0
 11
23.7565909762
 21
16.8045691393
 31
0.0
 11
23.7179298342
 21
16.8103709801
 31
0.0
 11
23.6789941107
 21
16.8123647042
 31
0.0
  0
LINE
  5
325
100
AcDbEntity
  8
0
100
AcDbLine
 62
6
  6
CONTINUOUS
 10
23.6789941107
 20
16.8123647042
 11
23.6786447194
 21
16.8123651729
  0
LINE
  5
326
100
AcDbEntity
  8
0
100
AcDbLine
 62
6
  6
CONTINUOUS
 10
23.6786447194
 20
16.8123651729
 11
23.6782954273
 21
16.8123653299
  0
LINE
  5
327
100
AcDbEntity
  8
0
100
AcDbLine
 62
6
  6
CONTINUOUS
 10
23.6782954273
 20
16.8123653299
 11
23.6779462359
 21
16.8123651753
  0
LINE
  5
328
100
AcDbEntity
  8
0
100
AcDbLine
 62
6
  6
CONTINUOUS
 10
23.6779462359
 20
16.0170934777
 11
23.6782890926
 21
16.0170939337
  0
LINE
  5
329
100
AcDbEntity
  8
0
100
AcDbLine
 62
6
  6
CONTINUOUS
 10
23.6782890926
 20
16.0170939337
 11
23.6786320427
 21
16.0170946906
  0
LINE
  5
32A
100
AcDbEntity
  8
0
100
AcDbLine
 62
6
  6
CONTINUOUS
 10
23.6786320427
 20
16.0170946906
 11
23.6789750851
 21
16.0170957488
  0
SPLINE
  5
32B
100
AcDbEntity
  8
0
100
AcDbSpline
 62
6
  6
CONTINUOUS
 70
0
 71
3
 72
39
 73
35
 74
33
 42
0.0000001
 43
0.0000001
 44
0.0000000001
 12
1.2431442601
 22
0.0043801214
 32
0.0
 13
-1.2431501273
 23
0.0021442441
 33
0.0
 40
0.0
 40
0.0
 40
0.0
 40
0.0
 40
0.0311843767
 40
0.0624501406
 40
0.0937399384
 40
0.1250086763
 40
0.1562571861
 40
0.1874973868
 40
0.2187410702
 40
0.2499931165
 40
0.2812471598
 40
0.3124977106
 40
0.3437473125
 40
0.374997608
 40
0.4062488062
 40
0.4375046862
 40
0.4687633303
 40
0.5000189792
 40
0.5312709828
 40
0.5625219781
 40
0.5937700893
 40
0.6250156818
 40
0.6562624356
 40
0.6875096539
 40
0.7187580634
 40
0.7500100908
 40
0.7812604395
 40
0.8125027719
 40
0.843741823
 40
0.8749895137
 40
0.9062581448
 40
0.9375486847
 40
0.9688153192
 40
1.0
 40
1.0
 40
1.0
 40
1.0
 10
23.6789750851
 20
16.0170957488
 30
0.0
 10
23.6918973114
 20
16.0171412793
 30
0.0
 10
23.7177883362
 20
16.0185155781
 30
0.0
 10
23.7562515934
 20
16.0243413737
 30
0.0
 10
23.7940085769
 20
16.0338764013
 30
0.0
 10
23.8306352181
 20
16.0470836918
 30
0.0
 10
23.8657724632
 20
16.0638056028
 30
0.0
 10
23.8991050229
 20
16.0838658548
 30
0.0
 10
23.9303072325
 20
16.1071048876
 30
0.0
 10
23.9590911152
 20
16.1332862869
 30
0.0
 10
23.9851992418
 20
16.162140781
 30
0.0
 10
24.008353796
 20
16.1934154971
 30
0.0
 10
24.0283197526
 20
16.2268133253
 30
0.0
 10
24.0449407812
 20
16.2619952595
 30
0.0
 10
24.0580418058
 20
16.2986381585
 30
0.0
 10
24.0674710293
 20
16.3363960574
 30
0.0
 10
24.0731804438
 20
16.3748930678
 30
0.0
 10
24.0751109366
 20
16.413763129
 30
0.0
 10
24.0731979041
 20
16.4526311116
 30
0.0
 10
24.0674972231
 20
16.4911216443
 30
0.0
 10
24.0580768484
 20
16.5288726293
 30
0.0
 10
24.0449879073
 20
16.5655124043
 30
0.0
 10
24.0283745585
 20
16.6006928202
 30
0.0
 10
24.0084142871
 20
16.634090163
 30
0.0
 10
23.9852635035
 20
16.6653644867
 30
0.0
 10
23.959153743
 20
16.6942145352
 30
0.0
 10
23.9303647285
 20
16.7203873939
 30
0.0
 10
23.8991550148
 20
16.7436137332
 30
0.0
 10
23.8658126167
 20
16.763655392
 30
0.0
 10
23.8306637553
 20
16.7803514581
 30
0.0
 10
23.7940244977
 20
16.7935243254
 30
0.0
 10
23.7562555075
 20
16.8030154534
 30
0.0
 10
23.7177830818
 20
16.8087876521
 30
0.0
 10
23.6918890593
 20
16.8101192217
 30
0.0
 10
23.678966646
 20
16.8101415108
 30
0.0
 11
23.6789750851
 21
16.0170957488
 31
0.0
 11
23.7176881279
 21
16.0191388754
 31
0.0
 11
23.7561183334
 21
16.0249567967
 31
0.0
 11
23.7938296312
 21
16.0344914908
 31
0.0
 11
23.8303979042
 21
16.0476739689
 31
0.0
 11
23.8654762794
 21
16.0643643719
 31
0.0
 11
23.8987485944
 21
16.084394664
 31
0.0
 11
23.9299007609
 21
16.1075924733
 31
0.0
 11
23.958644208
 21
16.1337309088
 31
0.0
 11
23.9847079965
 21
16.1625454082
 31
0.0
 11
24.0078227368
 21
16.1937698839
 31
0.0
 11
24.0277621137
 21
16.2271103802
 31
0.0
 11
24.0443538174
 21
16.2622380019
 31
0.0
 11
24.0574291153
 21
16.2988215804
 31
0.0
 11
24.0668507527
 21
16.3365178221
 31
0.0
 11
24.0725507504
 21
16.3749567473
 31
0.0
 11
24.0744703563
 21
16.4137648221
 31
0.0
 11
24.07256654
 21
16.4525691377
 31
0.0
 11
24.0668769504
 21
16.4909999927
 31
0.0
 11
24.0574650466
 21
16.5286887116
 31
0.0
 11
24.0444006758
 21
16.5652687938
 31
0.0
 11
24.0278169204
 21
16.6003952998
 31
0.0
 11
24.00788302
 21
16.6337356184
 31
0.0
 11
23.9847714207
 21
16.6649591072
 31
0.0
 11
23.9587063849
 21
16.6937690991
 31
0.0
 11
23.9299580175
 21
16.7198989852
 31
0.0
 11
23.8987983166
 21
16.7430838598
 31
0.0
 11
23.8655163355
 21
16.7630953135
 31
0.0
 11
23.8304266724
 21
16.7797595984
 31
0.0
 11
23.7938461045
 21
16.7929075276
 31
0.0
 11
23.7561227959
 21
16.8023983727
 31
0.0
 11
23.7176834016
 21
16.808162573
 31
0.0
 11
23.678966646
 21
16.8101415108
 31
0.0
  0
LINE
  5
32C
100
AcDbEntity
  8
0
100
AcDbLine
 62
6
  6
CONTINUOUS
 10
23.678966646
 20
16.8101415108
 11
23.678626417
 21
16.8101419492
  0
LINE
  5
32D
100
AcDbEntity
  8
0
100
AcDbLine
 62
6
  6
CONTINUOUS
 10
23.678626417
 20
16.8101419492
 11
23.6782862801
 21
16.8101420906
  0
LINE
  5
32E
100
AcDbEntity
  8
0
100
AcDbLine
 62
6
  6
CONTINUOUS
 10
23.6782862801
 20
16.8101420906
 11
23.6779462359
 21
16.8101419351
  0
LINE
  5
32F
100
AcDbEntity
  8
0
100
AcDbLine
 62
6
  6
CONTINUOUS
 10
23.6779462359
 20
16.0193167194
 11
23.6782882023
 21
16.0193171762
  0
LINE
  5
330
100
AcDbEntity
  8
0
100
AcDbLine
 62
6
  6
CONTINUOUS
 10
23.6782882023
 20
16.0193171762
 11
23.6786302616
 21
16.0193179342
  0
LINE
  5
331
100
AcDbEntity
  8
0
100
AcDbLine
 62
6
  6
CONTINUOUS
 10
23.6786302616
 20
16.0193179342
 11
23.6789724134
 21
16.0193189933
  0
LINE
  5
332
100
AcDbEntity
  8
0
100
AcDbLine
 62
6
  6
CONTINUOUS
 10
23.6789798716
 20
16.8079182431
 11
23.6786352295
 21
16.8079186994
  0
LINE
  5
333
100
AcDbEntity
  8
0
100
AcDbLine
 62
6
  6
CONTINUOUS
 10
23.6786352295
 20
16.8079186994
 11
23.6782906842
 21
16.8079188493
  0
LINE
  5
334
100
AcDbEntity
  8
0
100
AcDbLine
 62
6
  6
CONTINUOUS
 10
23.6782906842
 20
16.8079188493
 11
23.6779462359
 21
16.8079186929
  0
LINE
  5
335
100
AcDbEntity
  8
0
100
AcDbLine
 62
6
  6
CONTINUOUS
 10
23.6779462359
 20
16.0215399614
 11
23.6782887534
 21
16.0215404219
  0
LINE
  5
336
100
AcDbEntity
  8
0
100
AcDbLine
 62
6
  6
CONTINUOUS
 10
23.6782887534
 20
16.0215404219
 11
23.6786313654
 21
16.0215411862
  0
LINE
  5
337
100
AcDbEntity
  8
0
100
AcDbLine
 62
6
  6
CONTINUOUS
 10
23.6786313654
 20
16.0215411862
 11
23.6789740708
 21
16.0215422545
  0
LINE
  5
338
100
AcDbEntity
  8
0
100
AcDbLine
 62
6
  6
CONTINUOUS
 10
23.6789699147
 20
16.8056950174
 11
23.678628594
 21
16.8056954644
  0
LINE
  5
339
100
AcDbEntity
  8
0
100
AcDbLine
 62
6
  6
CONTINUOUS
 10
23.678628594
 20
16.8056954644
 11
23.6782873673
 21
16.8056956092
  0
LINE
  5
33A
100
AcDbEntity
  8
0
100
AcDbLine
 62
6
  6
CONTINUOUS
 10
23.6782873673
 20
16.8056956092
 11
23.6779462359
 21
16.8056954519
  0
LINE
  5
33B
100
AcDbEntity
  8
0
100
AcDbLine
 62
6
  6
CONTINUOUS
 10
23.6779462359
 20
16.023763201
 11
23.6782998787
 21
16.0237636845
  0
LINE
  5
33C
100
AcDbEntity
  8
0
100
AcDbLine
 62
6
  6
CONTINUOUS
 10
23.6782998787
 20
16.0237636845
 11
23.678653626
 21
16.0237644939
  0
LINE
  5
33D
100
AcDbEntity
  8
0
100
AcDbLine
 62
6
  6
CONTINUOUS
 10
23.678653626
 20
16.0237644939
 11
23.6790074766
 21
16.0237656296
  0
LINE
  5
33E
100
AcDbEntity
  8
0
100
AcDbLine
 62
6
  6
CONTINUOUS
 10
23.6786380012
 20
16.8034722159
 11
23.6782920688
 21
16.8034723701
  0
LINE
  5
33F
100
AcDbEntity
  8
0
100
AcDbLine
 62
6
  6
CONTINUOUS
 10
23.6782920688
 20
16.8034723701
 11
23.6779462359
 21
16.8034722119
  0
LINE
  5
340
100
AcDbEntity
  8
0
100
AcDbLine
 62
6
  6
CONTINUOUS
 10
23.6779462359
 20
16.0259864425
 11
23.6782981062
 21
16.0259869254
  0
LINE
  5
341
100
AcDbEntity
  8
0
100
AcDbLine
 62
6
  6
CONTINUOUS
 10
23.6782981062
 20
16.0259869254
 11
23.6786500797
 21
16.025987733
  0
LINE
  5
342
100
AcDbEntity
  8
0
100
AcDbLine
 62
6
  6
CONTINUOUS
 10
24.0587066717
 20
16.341205084
 11
24.0588224819
 21
16.3418155326
  0
LINE
  5
343
100
AcDbEntity
  8
0
100
AcDbLine
 62
6
  6
CONTINUOUS
 10
23.6782864541
 20
16.8012491288
 11
23.6779462359
 21
16.8012489697
  0
LINE
  5
344
100
AcDbEntity
  8
0
100
AcDbLine
 62
6
  6
CONTINUOUS
 10
23.6779462359
 20
16.0282096846
 11
23.6782899116
 21
16.0282101552
  0
LINE
  5
345
100
AcDbEntity
  8
0
100
AcDbLine
 62
6
  6
CONTINUOUS
 10
23.6779462359
 20
16.816227034
 11
23.6785450985
 21
16.8162271076
  0
LINE
  5
346
100
AcDbEntity
  8
0
100
AcDbLine
 62
6
  6
CONTINUOUS
 10
23.6785450985
 20
16.8162271076
 11
23.678889989
 21
16.8162267384
  0
SPLINE
  5
347
100
AcDbEntity
  8
0
100
AcDbSpline
 62
6
  6
CONTINUOUS
 70
0
 71
3
 72
39
 73
35
 74
33
 42
0.0000001
 43
0.0000001
 44
0.0000000001
 12
1.2624197634
 22
-0.0019013734
 32
0.0
 13
-1.2624144894
 23
-0.0041147483
 33
0.0
 40
0.0
 40
0.0
 40
0.0
 40
0.0
 40
0.0311855728
 40
0.0624552483
 40
0.0937506504
 40
0.1250244586
 40
0.1562757126
 40
0.1875163753
 40
0.2187577139
 40
0.2500059646
 40
0.2812566452
 40
0.3125056818
 40
0.3437555094
 40
0.3750058588
 40
0.406254523
 40
0.4375041163
 40
0.4687549334
 40
0.5000039602
 40
0.5312526943
 40
0.5625029128
 40
0.5937517966
 40
0.6249996099
 40
0.6562492498
 40
0.6874989139
 40
0.7187485831
 40
0.750000601
 40
0.7812504629
 40
0.812493008
 40
0.8437338887
 40
0.8749843078
 40
0.9062557883
 40
0.937548073
 40
0.9688153064
 40
1.0
 40
1.0
 40
1.0
 40
1.0
 10
23.678889989
 20
16.8162267384
 30
0.0
 10
23.6920130834
 20
16.8162069733
 30
0.0
 10
23.7183104293
 20
16.8148595906
 30
0.0
 10
23.7573837832
 20
16.8090035685
 30
0.0
 10
23.7957452279
 20
16.7993708142
 30
0.0
 10
23.8329602429
 20
16.7859983568
 30
0.0
 10
23.868659189
 20
16.7690441963
 30
0.0
 10
23.9025215221
 20
16.7486938567
 30
0.0
 10
23.9342180428
 20
16.7251125877
 30
0.0
 10
23.9634530303
 20
16.6985363182
 30
0.0
 10
23.9899668492
 20
16.6692401802
 30
0.0
 10
24.0134789067
 20
16.6374818982
 30
0.0
 10
24.0337497384
 20
16.603564102
 30
0.0
 10
24.0506212105
 20
16.5678344531
 30
0.0
 10
24.0639163354
 20
16.5306242578
 30
0.0
 10
24.0734802153
 20
16.4922853837
 30
0.0
 10
24.0792637182
 20
16.4531982081
 30
0.0
 10
24.0812058869
 20
16.4137321457
 30
0.0
 10
24.0792469179
 20
16.3742671614
 30
0.0
 10
24.073446938
 20
16.3351831322
 30
0.0
 10
24.0638685812
 20
16.2968488908
 30
0.0
 10
24.0505620475
 20
16.2596438795
 30
0.0
 10
24.0336818091
 20
16.2239192692
 30
0.0
 10
24.0134051111
 20
16.1900052325
 30
0.0
 10
23.9898901945
 20
16.1582482908
 30
0.0
 10
23.9633764899
 20
16.1289502244
 30
0.0
 10
23.934144989
 20
16.1023678312
 30
0.0
 10
23.9024557743
 20
16.0787749357
 30
0.0
 10
23.8686031732
 20
16.058408281
 30
0.0
 10
23.8329168585
 20
16.0414311339
 30
0.0
 10
23.7957169308
 20
16.028025502
 30
0.0
 10
23.7573698792
 20
16.0183502553
 30
0.0
 10
23.7183073538
 20
16.0124423667
 30
0.0
 10
23.6920138839
 20
16.0110531054
 30
0.0
 10
23.6788912143
 20
16.011010333
 30
0.0
 11
23.678889989
 21
16.8162267384
 31
0.0
 11
23.718208378
 21
16.8142246709
 31
0.0
 11
23.7572483712
 21
16.8083770971
 31
0.0
 11
23.7955640405
 21
16.7987443462
 31
0.0
 11
23.8327198921
 21
16.7853963199
 31
0.0
 11
23.8683590615
 21
16.7684750528
 31
0.0
 11
23.9021605257
 21
16.7481554599
 31
0.0
 11
23.9338050019
 21
16.7246157217
 31
0.0
 11
23.9629983775
 21
16.6980840926
 31
0.0
 11
23.9894669198
 21
16.6688293695
 31
0.0
 11
24.0129385368
 21
16.6371222411
 31
0.0
 11
24.0331830799
 21
16.6032622933
 31
0.0
 11
24.0500254314
 21
16.5675870251
 31
0.0
 11
24.0632943481
 21
16.5304365534
 31
0.0
 11
24.0728500382
 21
16.4921611953
 31
0.0
 11
24.0786235704
 21
16.4531342497
 31
0.0
 11
24.0805557086
 21
16.4137321602
 31
0.0
 11
24.0786068063
 21
16.3743312661
 31
0.0
 11
24.0728170779
 21
16.335307484
 31
0.0
 11
24.0632470864
 21
16.2970366225
 31
0.0
 11
24.0499667485
 21
16.2598913726
 31
0.0
 11
24.0331157931
 21
16.2242211582
 31
0.0
 11
24.0128655085
 21
16.1903648845
 31
0.0
 11
23.9893910262
 21
16.1586588835
 31
0.0
 11
23.9629225065
 21
16.1294018635
 31
0.0
 11
23.9337323904
 21
16.1028636246
 31
0.0
 11
23.9020946928
 21
16.0793122256
 31
0.0
 11
23.8683029173
 21
16.0589759907
 31
0.0
 11
23.8326761173
 21
16.04203115
 31
0.0
 11
23.7955352009
 21
16.0286502896
 31
0.0
 11
23.7572342569
 21
16.0189752112
 31
0.0
 11
23.7182052289
 21
16.013075485
 31
0.0
 11
23.6788912143
 21
16.011010333
 31
0.0
  0
LINE
  5
348
100
AcDbEntity
  8
0
100
AcDbLine
 62
6
  6
CONTINUOUS
 10
23.6788912143
 20
16.011010333
 11
23.6785458776
 21
16.0110093577
  0
LINE
  5
349
100
AcDbEntity
  8
0
100
AcDbLine
 62
6
  6
CONTINUOUS
 10
23.6785458776
 20
16.0110093577
 11
23.6779462359
 21
16.0110083782
  0
LINE
  5
34A
100
AcDbEntity
  8
0
100
AcDbLine
 62
6
  6
CONTINUOUS
 10
23.9426312027
 20
16.1952649585
 11
23.942264023
 21
16.1948691971
  0
LINE
  5
34B
100
AcDbEntity
  8
0
100
AcDbLine
 62
6
  6
CONTINUOUS
 10
23.6779462359
 20
16.8140037932
 11
23.678552872
 21
16.814003862
  0
LINE
  5
34C
100
AcDbEntity
  8
0
100
AcDbLine
 62
6
  6
CONTINUOUS
 10
23.678552872
 20
16.814003862
 11
23.678902244
 21
16.8140034769
  0
SPLINE
  5
34D
100
AcDbEntity
  8
0
100
AcDbSpline
 62
6
  6
CONTINUOUS
 70
0
 71
3
 72
39
 73
35
 74
33
 42
0.0000001
 43
0.0000001
 44
0.0000000001
 12
1.2554310457
 22
-0.0019415899
 32
0.0
 13
-1.2554258608
 23
-0.0040973587
 33
0.0
 40
0.0
 40
0.0
 40
0.0
 40
0.0
 40
0.0311865187
 40
0.0624590328
 40
0.0937592155
 40
0.1250387889
 40
0.1562948576
 40
0.1875387658
 40
0.2187808192
 40
0.2500282194
 40
0.2812776973
 40
0.3125254899
 40
0.3437740368
 40
0.3750234676
 40
0.4062714677
 40
0.4375203824
 40
0.4687708533
 40
0.5000198019
 40
0.5312683263
 40
0.562518478
 40
0.5937674822
 40
0.6250152071
 40
0.6562646096
 40
0.6875138434
 40
0.7187623586
 40
0.7500126972
 40
0.7812609738
 40
0.8125021798
 40
0.8437415655
 40
0.8749902468
 40
0.9062595722
 40
0.9375498419
 40
0.968815776
 40
1.0
 40
1.0
 40
1.0
 40
1.0
 10
23.678902244
 20
16.8140034769
 30
0.0
 10
23.6919530852
 20
16.8139832931
 30
0.0
 10
23.718106384
 20
16.8126417515
 30
0.0
 10
23.7569665595
 20
16.8068148602
 30
0.0
 10
23.7951205795
 20
16.7972322742
 30
0.0
 10
23.8321352497
 20
16.7839304058
 30
0.0
 10
23.8676398349
 20
16.7670632762
 30
0.0
 10
23.9013156316
 20
16.7468202206
 30
0.0
 10
23.9328371563
 20
16.723367901
 30
0.0
 10
23.9619062386
 20
16.6969349004
 30
0.0
 10
23.9882677642
 20
16.6677979873
 30
0.0
 10
24.0116475586
 20
16.636215965
 30
0.0
 10
24.0318021004
 20
16.602485047
 30
0.0
 10
24.0485751684
 20
16.5669522385
 30
0.0
 10
24.0617948315
 20
16.5299484338
 30
0.0
 10
24.0713027937
 20
16.4918216954
 30
0.0
 10
24.0770496925
 20
16.4529507118
 30
0.0
 10
24.078978888
 20
16.4137033658
 30
0.0
 10
24.0770290363
 20
16.3744570302
 30
0.0
 10
24.0712569679
 20
16.3355900199
 30
0.0
 10
24.0617289107
 20
16.2974687875
 30
0.0
 10
24.0484950611
 20
16.2604701452
 30
0.0
 10
24.031704781
 20
16.2249452264
 30
0.0
 10
24.0115381936
 20
16.1912212408
 30
0.0
 10
23.9881543929
 20
16.1596411098
 30
0.0
 10
23.9617865994
 20
16.1305083908
 30
0.0
 10
23.93271633
 20
16.1040767631
 30
0.0
 10
23.9012034976
 20
16.0806163503
 30
0.0
 10
23.8675391852
 20
16.0603646366
 30
0.0
 10
23.8320519159
 20
16.0434836925
 30
0.0
 10
23.7950603499
 20
16.030152928
 30
0.0
 10
23.7569277658
 20
16.0205318659
 30
0.0
 10
23.7180829619
 20
16.0146574993
 30
0.0
 10
23.6919357978
 20
16.0132761595
 30
0.0
 10
23.6788859706
 20
16.0132335685
 30
0.0
 11
23.678902244
 21
16.8140034769
 31
0.0
 11
23.7180040482
 21
16.8120103148
 31
0.0
 11
23.7568310719
 21
16.806192102
 31
0.0
 11
23.794939988
 21
16.7966093775
 31
0.0
 11
23.8318962905
 21
16.7833309344
 31
0.0
 11
23.8673418649
 21
16.7664970428
 31
0.0
 11
23.9009577672
 21
16.7462846242
 31
0.0
 11
23.9324263964
 21
16.722872801
 31
0.0
 11
23.9614540651
 21
16.6964851308
 31
0.0
 11
23.9877712019
 21
16.6673899823
 31
0.0
 11
24.0111098505
 21
16.6358580807
 31
0.0
 11
24.031238334
 21
16.6021850677
 31
0.0
 11
24.0479831534
 21
16.5667065427
 31
0.0
 11
24.0611760927
 21
16.5297617172
 31
0.0
 11
24.0706758022
 21
16.4916983569
 31
0.0
 11
24.0764134669
 21
16.4528873227
 31
0.0
 11
24.0783323909
 21
16.4137033344
 31
0.0
 11
24.0763920651
 21
16.3745209332
 31
0.0
 11
24.0706308556
 21
16.3357137922
 31
0.0
 11
24.0611111175
 21
16.2976553204
 31
0.0
 11
24.047902601
 21
16.2607164281
 31
0.0
 11
24.0311420487
 21
16.2252453721
 31
0.0
 11
24.0110018664
 21
16.1915783501
 31
0.0
 11
23.9876574987
 21
16.1600495535
 31
0.0
 11
23.9613351954
 21
16.1309576219
 31
0.0
 11
23.9323063618
 21
16.1045695974
 31
0.0
 11
23.9008443395
 21
16.081150678
 31
0.0
 11
23.8672405523
 21
16.0609291334
 31
0.0
 11
23.8318124694
 21
16.0440800437
 31
0.0
 11
23.7948796718
 21
16.0307742738
 31
0.0
 11
23.7567931859
 21
16.0211534745
 31
0.0
 11
23.7179817671
 21
16.0152870818
 31
0.0
 11
23.6788859706
 21
16.0132335685
 31
0.0
  0
LINE
  5
34E
100
AcDbEntity
  8
0
100
AcDbLine
 62
6
  6
CONTINUOUS
 10
23.6788859706
 20
16.0132335685
 11
23.6785425504
 21
16.0132325971
  0
LINE
  5
34F
100
AcDbEntity
  8
0
100
AcDbLine
 62
6
  6
CONTINUOUS
 10
23.6785425504
 20
16.0132325971
 11
23.6779462359
 21
16.0132316202
  0
LINE
  5
350
100
AcDbEntity
  8
0
100
AcDbLine
 62
6
  6
CONTINUOUS
 10
23.6779462359
 20
16.0132316202
 11
23.6773437005
 21
16.0132315489
  0
LINE
  5
351
100
AcDbEntity
  8
0
100
AcDbLine
 62
6
  6
CONTINUOUS
 10
23.6773437005
 20
16.0132315489
 11
23.6769966925
 21
16.0132319256
  0
LINE
  5
352
100
AcDbEntity
  8
0
100
AcDbLine
 62
6
  6
CONTINUOUS
 10
23.3184152155
 20
16.5932316563
 11
23.3189162426
 21
16.5942362955
  0
LINE
  5
353
100
AcDbEntity
  8
0
100
AcDbLine
 62
6
  6
CONTINUOUS
 10
23.6770033712
 20
16.8162250807
 11
23.6773479354
 21
16.816226055
  0
LINE
  5
354
100
AcDbEntity
  8
0
100
AcDbLine
 62
6
  6
CONTINUOUS
 10
23.6773479354
 20
16.816226055
 11
23.6779462359
 21
16.816227034
  0
LINE
  5
355
100
AcDbEntity
  8
0
100
AcDbLine
 62
6
  6
CONTINUOUS
 10
23.6779462359
 20
16.8117805532
 11
23.6785369027
 21
16.811780633
  0
LINE
  5
356
100
AcDbEntity
  8
0
100
AcDbLine
 62
6
  6
CONTINUOUS
 10
23.6785369027
 20
16.811780633
 11
23.6788770708
 21
16.8117802744
  0
SPLINE
  5
357
100
AcDbEntity
  8
0
100
AcDbSpline
 62
6
  6
CONTINUOUS
 70
0
 71
3
 72
39
 73
35
 74
33
 42
0.0000001
 43
0.0000001
 44
0.0000000001
 12
1.2484775255
 22
-0.0018586613
 32
0.0
 13
-1.248472215
 23
-0.0040883504
 33
0.0
 40
0.0
 40
0.0
 40
0.0
 40
0.0
 40
0.0311843534
 40
0.0624507685
 40
0.0937414276
 40
0.1250106651
 40
0.1562591405
 40
0.1874986679
 40
0.2187406989
 40
0.2499901536
 40
0.2812411801
 40
0.3124889049
 40
0.343735898
 40
0.3749828199
 40
0.4062290167
 40
0.4374781044
 40
0.4687299634
 40
0.4999820979
 40
0.5312368004
 40
0.5624941793
 40
0.5937495342
 40
0.6250018725
 40
0.6562543295
 40
0.68750566
 40
0.7187561034
 40
0.7500084074
 40
0.781258503
 40
0.8125013863
 40
0.8437423235
 40
0.8749920846
 40
0.906261525
 40
0.9375510635
 40
0.9688161612
 40
1.0
 40
1.0
 40
1.0
 40
1.0
 10
23.6788770708
 20
16.8117802744
 30
0.0
 10
23.6918547256
 20
16.811760954
 30
0.0
 10
23.7178597983
 20
16.8104296543
 30
0.0
 10
23.7564981542
 20
16.8046409533
 30
0.0
 10
23.7944310677
 20
16.7951164766
 30
0.0
 10
23.8312302482
 20
16.7818933636
 30
0.0
 10
23.8665331238
 20
16.7651310708
 30
0.0
 10
23.900021864
 20
16.7450085282
 30
0.0
 10
23.9313686094
 20
16.7216875596
 30
0.0
 10
23.9602835509
 20
16.6954066801
 30
0.0
 10
23.9865074374
 20
16.6664364619
 30
0.0
 10
24.0097597369
 20
16.635030824
 30
0.0
 10
24.0298083704
 20
16.6014924219
 30
0.0
 10
24.0464956801
 20
16.5661622792
 30
0.0
 10
24.0596426171
 20
16.529365369
 30
0.0
 10
24.0691044512
 20
16.491451824
 30
0.0
 10
24.0748303343
 20
16.4527956456
 30
0.0
 10
24.076752418
 20
16.4137611385
 30
0.0
 10
24.0748142865
 20
16.3747253294
 30
0.0
 10
24.0690799031
 20
16.3360645378
 30
0.0
 10
24.0596081562
 20
16.2981455975
 30
0.0
 10
24.0464472034
 20
16.2613457909
 30
0.0
 10
24.0297510924
 20
16.2260126264
 30
0.0
 10
24.0096964312
 20
16.192471764
 30
0.0
 10
23.9864408424
 20
16.1610644089
 30
0.0
 10
23.960218709
 20
16.132090246
 30
0.0
 10
23.9313088918
 20
16.105802222
 30
0.0
 10
23.8999694023
 20
16.0824697978
 30
0.0
 10
23.8664901283
 20
16.0623291133
 30
0.0
 10
23.8311985299
 20
16.0455409154
 30
0.0
 10
23.7944120241
 20
16.0322829718
 30
0.0
 10
23.7564913646
 20
16.0227147496
 30
0.0
 10
23.7178625138
 20
16.0168730113
 30
0.0
 10
23.6918606963
 20
16.0154993067
 30
0.0
 10
23.6788833109
 20
16.0154568099
 30
0.0
 11
23.6788770708
 21
16.8117802744
 31
0.0
 11
23.7177597741
 21
16.8098017749
 31
0.0
 11
23.7563648398
 21
16.804021115
 31
0.0
 11
23.7942517899
 21
16.7944969297
 31
0.0
 11
23.8309921374
 21
16.7812988579
 31
0.0
 11
23.8662357521
 21
16.7645684463
 31
0.0
 11
23.8996639737
 21
16.7444761218
 31
0.0
 11
23.9309603044
 21
16.7211967099
 31
0.0
 11
23.9598342747
 21
16.6949591742
 31
0.0
 11
23.9860131464
 21
16.6660293583
 31
0.0
 11
24.0092261287
 21
16.634674879
 31
0.0
 11
24.0292482136
 21
16.6011936788
 31
0.0
 11
24.0459056871
 21
16.5659176771
 31
0.0
 11
24.0590279969
 21
16.5291807465
 31
0.0
 11
24.0684814794
 21
16.4913295858
 31
0.0
 11
24.0741963176
 21
16.4527330926
 31
0.0
 11
24.0761090573
 21
16.4137623736
 31
0.0
 11
24.0741816938
 21
16.3747891651
 31
0.0
 11
24.0684567942
 21
16.336187196
 31
0.0
 11
24.0589928325
 21
16.2983305888
 31
0.0
 11
24.0458579284
 21
16.2615900165
 31
0.0
 11
24.0291910483
 21
16.2263108152
 31
0.0
 11
24.009162741
 21
16.1928270268
 31
0.0
 11
23.9859468514
 21
16.1614704766
 31
0.0
 11
23.9597697201
 21
16.1325369352
 31
0.0
 11
23.9309010204
 21
16.106292411
 31
0.0
 11
23.8996121099
 21
16.0830012446
 31
0.0
 11
23.8661929689
 21
16.0628904063
 31
0.0
 11
23.8309600684
 21
16.0461337058
 31
0.0
 11
23.7942319742
 21
16.0329008261
 31
0.0
 11
23.7563574679
 21
16.0233329855
 31
0.0
 11
23.7177620721
 21
16.0174991077
 31
0.0
 11
23.6788833109
 21
16.0154568099
 31
0.0
  0
LINE
  5
358
100
AcDbEntity
  8
0
100
AcDbLine
 62
6
  6
CONTINUOUS
 10
23.6788833109
 20
16.0154568099
 11
23.6785408628
 21
16.0154558378
  0
LINE
  5
359
100
AcDbEntity
  8
0
100
AcDbLine
 62
6
  6
CONTINUOUS
 10
23.6785408628
 20
16.0154558378
 11
23.6779462359
 21
16.0154548597
  0
LINE
  5
35A
100
AcDbEntity
  8
0
100
AcDbLine
 62
6
  6
CONTINUOUS
 10
23.6779462359
 20
16.8095573109
 11
23.6785446312
 21
16.8095573862
  0
LINE
  5
35B
100
AcDbEntity
  8
0
100
AcDbLine
 62
6
  6
CONTINUOUS
 10
23.6785446312
 20
16.8095573862
 11
23.6788892544
 21
16.809557012
  0
LINE
  5
35C
100
AcDbEntity
  8
0
100
AcDbLine
 62
6
  6
CONTINUOUS
 10
23.67888241
 20
16.0176800593
 11
23.6785402911
 21
16.0176790835
  0
LINE
  5
35D
100
AcDbEntity
  8
0
100
AcDbLine
 62
6
  6
CONTINUOUS
 10
23.6785402911
 20
16.0176790835
 11
23.6779462359
 21
16.0176781013
  0
LINE
  5
35E
100
AcDbEntity
  8
0
100
AcDbLine
 62
6
  6
CONTINUOUS
 10
23.6779462359
 20
16.0087851364
 11
23.6773558487
 21
16.0087850579
  0
LINE
  5
35F
100
AcDbEntity
  8
0
100
AcDbLine
 62
6
  6
CONTINUOUS
 10
23.6773558487
 20
16.0087850579
 11
23.6770158439
 21
16.0087854091
  0
LINE
  5
360
100
AcDbEntity
  8
0
100
AcDbLine
 62
6
  6
CONTINUOUS
 10
23.6770052679
 20
16.8206715909
 11
23.677349138
 21
16.8206725513
  0
LINE
  5
361
100
AcDbEntity
  8
0
100
AcDbLine
 62
6
  6
CONTINUOUS
 10
23.677349138
 20
16.8206725513
 11
23.6779462359
 21
16.8206735167
  0
LINE
  5
362
100
AcDbEntity
  8
0
100
AcDbLine
 62
6
  6
CONTINUOUS
 10
23.6779462359
 20
16.8073340698
 11
23.6785388685
 21
16.8073341493
  0
LINE
  5
363
100
AcDbEntity
  8
0
100
AcDbLine
 62
6
  6
CONTINUOUS
 10
23.6785388685
 20
16.8073341493
 11
23.6788801714
 21
16.8073337833
  0
LINE
  5
364
100
AcDbEntity
  8
0
100
AcDbLine
 62
6
  6
CONTINUOUS
 10
23.6788839214
 20
16.0199033179
 11
23.6785412492
 21
16.0199023337
  0
LINE
  5
365
100
AcDbEntity
  8
0
100
AcDbLine
 62
6
  6
CONTINUOUS
 10
23.6785412492
 20
16.0199023337
 11
23.6779462359
 21
16.0199013435
  0
SPLINE
  5
366
100
AcDbEntity
  8
0
100
AcDbSpline
 62
6
  6
CONTINUOUS
 70
0
 71
3
 72
28
 73
24
 74
22
 42
0.0000001
 43
0.0000001
 44
0.0000000001
 12
0.4859401
 22
0.5229947096
 32
0.0
 13
-0.6706882582
 23
0.2446191067
 33
0.0
 40
0.0
 40
0.0
 40
0.0
 40
0.0
 40
0.0623951902
 40
0.0936854384
 40
0.1249839332
 40
0.1562692835
 40
0.1875340226
 40
0.2187908939
 40
0.2500513662
 40
0.3125592966
 40
0.3750612772
 40
0.4375483368
 40
0.5000256257
 40
0.562513751
 40
0.6250127394
 40
0.656270961
 40
0.6875217943
 40
0.7499960678
 40
0.8125029886
 40
0.8437924813
 40
0.8750939669
 40
0.9376377933
 40
1.0
 40
1.0
 40
1.0
 40
1.0
 10
23.9422647629
 20
16.1948687263
 30
0.0
 10
23.9523715379
 20
16.2057461778
 30
0.0
 10
23.9665754511
 20
16.2230253788
 30
0.0
 10
23.9832580242
 20
16.2476645805
 30
0.0
 10
23.9945931226
 20
16.2669334197
 30
0.0
 10
24.0046463427
 20
16.2868939884
 30
0.0
 10
24.0133223733
 20
16.307480518
 30
0.0
 10
24.0206035207
 20
16.3285943164
 30
0.0
 10
24.0284564203
 20
16.3573091271
 30
0.0
 10
24.0348063957
 20
16.3940600678
 30
0.0
 10
24.0368822693
 20
16.4387408982
 30
0.0
 10
24.0334628588
 20
16.483333837
 30
0.0
 10
24.0245861883
 20
16.5271672333
 30
0.0
 10
24.0103421361
 20
16.5695591354
 30
0.0
 10
23.9942739855
 20
16.6031984385
 30
0.0
 10
23.9790624125
 20
16.6287814277
 30
0.0
 10
23.9623269403
 20
16.6533878935
 30
0.0
 10
23.9386670216
 20
16.682188652
 30
0.0
 10
23.9117367328
 20
16.7079702408
 30
0.0
 10
23.8884581101
 20
16.72655116
 30
0.0
 10
23.8641039523
 20
16.7437135972
 30
0.0
 10
23.8318739749
 20
16.7624100545
 30
0.0
 10
23.8045290091
 20
16.7742608287
 30
0.0
 10
23.7905871425
 20
16.7793458245
 30
0.0
 11
23.9422647629
 21
16.1948687263
 31
0.0
 11
23.970537744
 21
16.2292901034
 31
0.0
 11
23.9830577896
 21
16.2477900333
 31
0.0
 11
23.9943814255
 21
16.2670523612
 31
0.0
 11
24.004419567
 21
16.2870042647
 31
0.0
 11
24.0130909447
 21
16.3075710554
 31
0.0
 11
24.0203715081
 21
16.3286643803
 31
0.0
 11
24.0262626429
 21
16.3501898125
 31
0.0
 11
24.0338826314
 21
16.39415918
 31
0.0
 11
24.0359663075
 21
16.4387310178
 31
0.0
 11
24.0325529818
 21
16.4832101043
 31
0.0
 11
24.0236924647
 21
16.526924048
 31
0.0
 11
24.0095039273
 21
16.5692181755
 31
0.0
 11
23.9902760648
 21
16.6094809263
 31
0.0
 11
23.9788705518
 21
16.6286614441
 31
0.0
 11
23.9663250511
 21
16.647110103
 31
0.0
 11
23.9380195883
 21
16.6815778616
 31
0.0
 11
23.9057841491
 21
16.7124353022
 31
0.0
 11
23.8883267592
 21
16.7263713844
 31
0.0
 11
23.8700622416
 21
16.7392463531
 31
0.0
 11
23.831442017
 21
16.7616547346
 31
0.0
 11
23.7905871425
 21
16.7793458245
 31
0.0
  0
LINE
  5
367
100
AcDbEntity
  8
0
100
AcDbLine
 62
6
  6
CONTINUOUS
 10
23.6779462359
 20
16.80511083
 11
23.6785470381
 21
16.8051109045
  0
LINE
  5
368
100
AcDbEntity
  8
0
100
AcDbLine
 62
6
  6
CONTINUOUS
 10
23.6785470381
 20
16.8051109045
 11
23.6788930502
 21
16.8051105215
  0
LINE
  5
369
100
AcDbEntity
  8
0
100
AcDbLine
 62
6
  6
CONTINUOUS
 10
23.6789143956
 20
16.0221266725
 11
23.6785605805
 21
16.022125627
  0
LINE
  5
36A
100
AcDbEntity
  8
0
100
AcDbLine
 62
6
  6
CONTINUOUS
 10
23.6785605805
 20
16.022125627
 11
23.6779462359
 21
16.022124583
  0
LINE
  5
36B
100
AcDbEntity
  8
0
100
AcDbLine
 62
6
  6
CONTINUOUS
 10
23.6779462359
 20
16.8028875878
 11
23.6785372825
 21
16.8028876691
  0
LINE
  5
36C
100
AcDbEntity
  8
0
100
AcDbLine
 62
6
  6
CONTINUOUS
 10
23.6789095412
 20
16.0243499091
 11
23.6785575008
 21
16.0243488666
  0
LINE
  5
36D
100
AcDbEntity
  8
0
100
AcDbLine
 62
6
  6
CONTINUOUS
 10
23.6785575008
 20
16.0243488666
 11
23.6779462359
 21
16.0243478244
  0
LINE
  5
36E
100
AcDbEntity
  8
0
100
AcDbLine
 62
6
  6
CONTINUOUS
 10
23.6785432621
 20
16.026572079
 11
23.6779462359
 21
16.0265710667
  0
LINE
  5
36F
100
AcDbEntity
  8
0
100
AcDbLine
 62
6
  6
CONTINUOUS
 10
23.6779462359
 20
16.0176781013
 11
23.6773557465
 21
16.0176780212
  0
LINE
  5
370
100
AcDbEntity
  8
0
100
AcDbLine
 62
6
  6
CONTINUOUS
 10
23.6773557465
 20
16.0176780212
 11
23.6770156804
 21
16.0176783804
  0
LINE
  5
371
100
AcDbEntity
  8
0
100
AcDbLine
 62
6
  6
CONTINUOUS
 10
23.6770069333
 20
16.8117785903
 11
23.6773501959
 21
16.8117795689
  0
LINE
  5
372
100
AcDbEntity
  8
0
100
AcDbLine
 62
6
  6
CONTINUOUS
 10
23.6773501959
 20
16.8117795689
 11
23.6779462359
 21
16.8117805532
  0
LINE
  5
373
100
AcDbEntity
  8
0
100
AcDbLine
 62
6
  6
CONTINUOUS
 10
23.6771081437
 20
16.8073324113
 11
23.6779462359
 21
16.8073340698
  0
LINE
  5
374
100
AcDbEntity
  8
0
100
AcDbLine
 62
6
  6
CONTINUOUS
 10
23.6779462359
 20
16.022124583
 11
23.677067612
 21
16.0221247886
  0
LINE
  5
375
100
AcDbEntity
  8
0
100
AcDbLine
 62
6
  6
CONTINUOUS
 10
23.6779462359
 20
16.0199013435
 11
23.6773548339
 21
16.0199012633
  0
LINE
  5
376
100
AcDbEntity
  8
0
100
AcDbLine
 62
6
  6
CONTINUOUS
 10
23.6773548339
 20
16.0199012633
 11
23.6770142408
 21
16.019901626
  0
LINE
  5
377
100
AcDbEntity
  8
0
100
AcDbLine
 62
6
  6
CONTINUOUS
 10
23.6770002569
 20
16.8095553146
 11
23.677345961
 21
16.8095563107
  0
LINE
  5
378
100
AcDbEntity
  8
0
100
AcDbLine
 62
6
  6
CONTINUOUS
 10
23.677345961
 20
16.8095563107
 11
23.6779462359
 21
16.8095573109
  0
LINE
  5
379
100
AcDbEntity
  8
0
100
AcDbLine
 62
6
  6
CONTINUOUS
 10
23.6779462359
 20
16.0243478244
 11
23.6773407015
 21
16.024347753
  0
LINE
  5
37A
100
AcDbEntity
  8
0
100
AcDbLine
 62
6
  6
CONTINUOUS
 10
23.6773407015
 20
16.024347753
 11
23.6769919617
 21
16.0243481458
  0
LINE
  5
37B
100
AcDbEntity
  8
0
100
AcDbLine
 62
6
  6
CONTINUOUS
 10
23.676985357
 20
16.8051087597
 11
23.6773365101
 21
16.8051097947
  0
LINE
  5
37C
100
AcDbEntity
  8
0
100
AcDbLine
 62
6
  6
CONTINUOUS
 10
23.6773365101
 20
16.8051097947
 11
23.6779462359
 21
16.80511083
  0
LINE
  5
37D
100
AcDbEntity
  8
0
100
AcDbLine
 62
6
  6
CONTINUOUS
 10
23.6779462359
 20
16.0265710667
 11
23.6773536428
 21
16.0265709861
  0
LINE
  5
37E
100
AcDbEntity
  8
0
100
AcDbLine
 62
6
  6
CONTINUOUS
 10
23.2915833735
 20
16.3773150424
 11
23.2914860718
 21
16.3783367996
  0
LINE
  5
37F
100
AcDbEntity
  8
0
100
AcDbLine
 62
6
  6
CONTINUOUS
 10
23.2914860718
 20
16.3783367996
 11
23.291454297
 21
16.3786767982
  0
LINE
  5
380
100
AcDbEntity
  8
0
100
AcDbLine
 62
6
  6
CONTINUOUS
 10
23.6773391329
 20
16.8028865531
 11
23.6779462359
 21
16.8028875878
  0
LINE
  5
381
100
AcDbEntity
  8
0
100
AcDbLine
 62
6
  6
CONTINUOUS
 10
23.6771077009
 20
16.8140021633
 11
23.6779462359
 21
16.8140037932
  0
LINE
  5
382
100
AcDbEntity
  8
0
100
AcDbLine
 62
6
  6
CONTINUOUS
 10
23.6779462359
 20
16.0154548597
 11
23.6770955017
 21
16.0154550245
  0
LINE
  5
383
100
AcDbEntity
  8
0
100
AcDbLine
 62
6
  6
CONTINUOUS
 10
23.6779462359
 20
16.0110083782
 11
23.6773565215
 21
16.0110082989
  0
LINE
  5
384
100
AcDbEntity
  8
0
100
AcDbLine
 62
6
  6
CONTINUOUS
 10
23.6773565215
 20
16.0110082989
 11
23.6770169043
 21
16.0110086509
  0
LINE
  5
385
100
AcDbEntity
  8
0
100
AcDbLine
 62
6
  6
CONTINUOUS
 10
23.6770079419
 20
16.8184483488
 11
23.6773508344
 21
16.8184493098
  0
LINE
  5
386
100
AcDbEntity
  8
0
100
AcDbLine
 62
6
  6
CONTINUOUS
 10
23.6773508344
 20
16.8184493098
 11
23.6779462359
 21
16.8184502764
  0
LINE
  5
387
100
AcDbEntity
  8
0
100
AcDbLine
 62
6
  6
CONTINUOUS
 10
23.6779462359
 20
16.8184502764
 11
23.6785347575
 21
16.8184503563
  0
LINE
  5
388
100
AcDbEntity
  8
0
100
AcDbLine
 62
6
  6
CONTINUOUS
 10
23.6785347575
 20
16.8184503563
 11
23.6788736871
 21
16.8184500073
  0
SPLINE
  5
389
100
AcDbEntity
  8
0
100
AcDbSpline
 62
6
  6
CONTINUOUS
 70
0
 71
3
 72
39
 73
35
 74
33
 42
0.0000001
 43
0.0000001
 44
0.0000000001
 12
1.2694224313
 22
-0.0018472173
 32
0.0
 13
-1.2694171546
 23
-0.0040998887
 33
0.0
 40
0.0
 40
0.0
 40
0.0
 40
0.0
 40
0.0311838594
 40
0.0624492412
 40
0.0937388578
 40
0.1250078236
 40
0.1562569326
 40
0.187497402
 40
0.2187402297
 40
0.2499904989
 40
0.281242949
 40
0.3124932834
 40
0.3437442748
 40
0.3749963617
 40
0.4062485196
 40
0.4375039843
 40
0.4687616552
 40
0.5000168079
 40
0.5312696084
 40
0.5625222098
 40
0.5937718879
 40
0.6250183154
 40
0.6562651736
 40
0.6875119833
 40
0.7187594945
 40
0.7500102842
 40
0.7812595381
 40
0.8125014476
 40
0.8437410248
 40
0.874989686
 40
0.9062590853
 40
0.9375495791
 40
0.9688157132
 40
1.0
 40
1.0
 40
1.0
 40
1.0
 10
23.6788736871
 20
16.8184500073
 30
0.0
 10
23.6920688507
 20
16.8184308062
 30
0.0
 10
23.7185095926
 20
16.8170783775
 30
0.0
 10
23.7577953637
 20
16.8111945318
 30
0.0
 10
23.7963639935
 20
16.8015116182
 30
0.0
 10
23.8337804606
 20
16.7880673677
 30
0.0
 10
23.8696767428
 20
16.771025072
 30
0.0
 10
23.9037290904
 20
16.7505659599
 30
0.0
 10
23.9356034679
 20
16.7268542719
 30
0.0
 10
23.9650052075
 20
16.7001324459
 30
0.0
 10
23.9916709257
 20
16.67067515
 30
0.0
 10
24.0153158584
 20
16.6387402733
 30
0.0
 10
24.0357030596
 20
16.6046346813
 30
0.0
 10
24.0526721743
 20
16.5687056737
 30
0.0
 10
24.0660427991
 20
16.5312846276
 30
0.0
 10
24.0756608482
 20
16.4927262897
 30
0.0
 10
24.0814778636
 20
16.4534144946
 30
0.0
 10
24.0834331207
 20
16.4137223981
 30
0.0
 10
24.0814626501
 20
16.3740330665
 30
0.0
 10
24.075626168
 20
16.3347297316
 30
0.0
 10
24.065992325
 20
16.2961827988
 30
0.0
 10
24.0526133336
 20
16.2587724218
 30
0.0
 10
24.0356379181
 20
16.2228535469
 30
0.0
 10
24.0152479146
 20
16.1887558413
 30
0.0
 10
23.991603762
 20
16.15682516
 30
0.0
 10
23.9649423766
 20
16.1273673365
 30
0.0
 10
23.9355481182
 20
16.1006398111
 30
0.0
 10
23.9036838251
 20
16.0769169368
 30
0.0
 10
23.8696440062
 20
16.0564393247
 30
0.0
 10
23.8337609238
 20
16.0393706481
 30
0.0
 10
23.7963566585
 20
16.0258921876
 30
0.0
 10
23.7577986891
 20
16.0161647041
 30
0.0
 10
23.7185206414
 20
16.0102256927
 30
0.0
 10
23.6920819193
 20
16.0088296829
 30
0.0
 10
23.6788866298
 20
16.0087870655
 30
0.0
 11
23.6788736871
 21
16.8184500073
 31
0.0
 11
23.7184081545
 21
16.8164399638
 31
0.0
 11
23.7576598245
 21
16.8105641977
 31
0.0
 11
23.7961813827
 21
16.8008817015
 31
0.0
 11
23.8335380753
 21
16.7874631729
 31
0.0
 11
23.8693743051
 21
16.7704530707
 31
0.0
 11
23.9033652292
 21
16.7500245117
 31
0.0
 11
23.9351882764
 21
16.7263551207
 31
0.0
 11
23.9645481544
 21
16.6996775393
 31
0.0
 11
23.9911679927
 21
16.6702615632
 31
0.0
 11
24.0147727724
 21
16.6383787037
 31
0.0
 11
24.0351330979
 21
16.6043313005
 31
0.0
 11
24.052072301
 21
16.5684573229
 31
0.0
 11
24.0654168575
 21
16.531096798
 31
0.0
 11
24.0750271002
 21
16.492601833
 31
0.0
 11
24.0808343443
 21
16.4533498616
 31
0.0
 11
24.0827788406
 21
16.4137215055
 31
0.0
 11
24.0808182666
 21
16.3740969313
 31
0.0
 11
24.0749929354
 21
16.3348541459
 31
0.0
 11
24.0653676283
 21
16.2963705168
 31
0.0
 11
24.0520139321
 21
16.2590209828
 31
0.0
 11
24.0350688472
 21
16.223157124
 31
0.0
 11
24.0147058847
 21
16.1891174834
 31
0.0
 11
23.9911018728
 21
16.1572385147
 31
0.0
 11
23.9644861337
 21
16.1278216719
 31
0.0
 11
23.9351334335
 21
16.101138109
 31
0.0
 11
23.9033204146
 21
16.0774571933
 31
0.0
 11
23.8693419297
 21
16.0570101473
 31
0.0
 11
23.833518828
 21
16.0399737388
 31
0.0
 11
23.7961740474
 21
16.02652047
 31
0.0
 11
23.7576626115
 21
16.0167932429
 31
0.0
 11
23.7184182706
 21
16.0108623297
 31
0.0
 11
23.6788866298
 21
16.0087870655
 31
0.0
  0
LINE
  5
38A
100
AcDbEntity
  8
0
100
AcDbLine
 62
6
  6
CONTINUOUS
 10
23.6788866298
 20
16.0087870655
 11
23.6785429695
 21
16.0087861035
  0
LINE
  5
38B
100
AcDbEntity
  8
0
100
AcDbLine
 62
6
  6
CONTINUOUS
 10
23.6785429695
 20
16.0087861035
 11
23.6779462359
 21
16.0087851364
  0
ENDSEC
  0
SECTION
  2
OBJECTS
  0
DICTIONARY
  5
C
100
AcDbDictionary
280
0
281
1
  3
ACAD_GROUP
350
D
  3
ACAD_MLINESTYLE
350
17
  3
ACAD_LAYOUT
350
1A
  3
ACAD_PLOTSETTINGS
350
19
  3
ACAD_PLOTSTYLENAME
350
E
  0
DICTIONARY
  5
D
102
{ACAD_REACTORS
330
C
102
}
100
AcDbDictionary
280
0
281
1
  0
ACDBDICTIONARYWDFLT
  5
E
102
{ACAD_REACTORS
330
C
102
}
100
AcDbDictionary
281
1
  3
Normal
350
F
100
AcDbDictionaryWithDefault
340
F
  0
DICTIONARY
  5
17
102
{ACAD_REACTORS
330
C
102
}
100
AcDbDictionary
280
0
281
1
  3
Standard
350
18
  0
DICTIONARY
  5
19
102
{ACAD_REACTORS
330
C
102
}
100
AcDbDictionary
281
1
  0
DICTIONARY
  5
1A
102
{ACAD_REACTORS
330
C
102
}
100
AcDbDictionary
281
1
  3
Model
350
38C
  3
Layout1
350
38D
  0
ACDBPLACEHOLDER
  5
F
102
{ACAD_REACTORS
330
E
102
}
  0
MLINESTYLE
  5
18
102
{ACAD_REACTORS
330
17
102
}
100
AcDbMlineStyle
  2
STANDARD
 70
0
  3

 62
256
 51
90.0
 52
90.0
 71
2
 49
0.5
 62
256
  6
BYLAYER
 49
-0.5
 62
256
  6
BYLAYER
  0
LAYOUT
  5
38C
102
{ACAD_REACTORS
330
1A
102
}
100
AcDbPlotSettings
  1

  2
none_device
  4
ISO_A0_(1189.00_x_841.00_MM)
  6

 40
0.0
 41
0.0
 42
0.0
 43
0.0
 44
1189.0
 45
841.0
 46
0.0
 47
0.0
 48
0.0
 49
0.0
140
0.0
141
0.0
142
1.0
143
1.0
 70
1024
 72
0
 73
0
 74
0
  7

 75
0
147
1.0
148
0.0
149
0.0
100
AcDbLayout
  1
Model
 70
0
 71
0
 10
0.0
 20
0.0
 11
46.811023622
 21
33.1102362205
 12
0.0
 22
0.0
 32
0.0
 14
0.0
 24
0.0
 34
0.0
 15
0.0
 25
0.0
 35
0.0
146
0.0
 13
0.0
 23
0.0
 33
0.0
 16
1.0
 26
0.0
 36
0.0
 17
0.0
 27
1.0
 37
0.0
 76
0
330
203
345
0
346
0
  0
LAYOUT
  5
38D
102
{ACAD_REACTORS
330
1A
102
}
100
AcDbPlotSettings
  1

  2
none_device
  4
ISO_A0_(1189.00_x_841.00_MM)
  6

 40
0.0
 41
0.0
 42
0.0
 43
0.0
 44
1189.0
 45
841.0
 46
0.0
 47
0.0
 48
0.0
 49
0.0
140
0.0
141
0.0
142
1.0
143
1.0
 70
0
 72
0
 73
0
 74
0
  7

 75
0
147
1.0
148
0.0
149
0.0
100
AcDbLayout
  1
Layout1
 70
0
 71
1
 10
0.0
 20
0.0
 11
46.811023622
 21
33.1102362205
 12
0.0
 22
0.0
 32
0.0
 14
0.0
 24
0.0
 34
0.0
 15
0.0
 25
0.0
 35
0.0
146
0.0
 13
0.0
 23
0.0
 33
0.0
 16
1.0
 26
0.0
 36
0.0
 17
0.0
 27
1.0
 37
0.0
 76
0
330
204
345
0
346
0
  0
ENDSEC
  0
EOF
