  0
SECTION
  2
HEADER
  9
$ACADVER
  1
AC1015
  9
$DWGCODEPAGE
  3
ANSI_1252
  9
$EXTMAX
 10
11.6929133858
 20
8.2677165354
 30
0.0
  9
$EXTMIN
 10
0.0
 20
0.0
 30
0.0
  9
$LIMMIN
 10
0.0
 20
0.0
  9
$LIMMAX
 10
11.6929133858
 20
8.2677165354
  9
$VIEWCTR
 10
5.8464566929
 20
4.1338582677
  9
$VIEWSIZE
 40
8.2677165354
  9
$CLAYER
  8
0
  9
$LTSCALE
 40
0.6431102362
  9
$CELTYPE
  6
BYLAYER
  9
$DIMSCALE
 40
1.0
  9
$DIMASZ
 40
0.1
  9
$DIMEXO
 40
0.0730807087
  9
$DIMDLI
 40
0.4443307087
  9
$DIMEXE
 40
0.2104724409
  9
$DIMCEN
 40
0.1052362205
  9
$DIMLFAC
 40
1.0
  9
$DIMBLK
  1
_FILLED
  9
$DIMTXT
 40
0.08
  9
$DIMTOL
 70
1
  9
$DIMLIM
 70
0
  9
$DIMTFAC
 40
1.0
  9
$DIMTP
 40
0.01
  9
$DIMTM
 40
0.01
  9
$PDMODE
 70
3
  9
$PDSIZE
 40
0.06
  9
$HANDSEED
  5
2BC
  9
$TILEMODE
 70
1
  9
$MEASUREMENT
 70
0
  9
$INSUNITS
 70
1
  0
ENDSEC
  0
SECTION
  2
CLASSES
  0
CLASS
  1
ACDBDICTIONARYWDFLT
  2
AcDbDictionaryWithDefault
  3
AutoCAD 2000
 90
0
280
0
281
0
  0
CLASS
  1
ACDBPLACEHOLDER
  2
AcDbPlaceHolder
  3
AutoCAD 2000
 90
0
280
0
281
0
  0
CLASS
  1
LAYOUT
  2
AcDbLayout
  3
AutoCAD 2000
 90
0
280
0
281
0
  0
ENDSEC
  0
SECTION
  2
TABLES
  0
TABLE
  2
VPORT
  5
8
100
AcDbSymbolTable
 70
2
  0
VPORT
  5
1F4
100
AcDbSymbolTableRecord
100
AcDbViewportTableRecord
  2
*ACTIVE
 70
0
 10
0.0
 20
0.0
 11
1.0
 21
1.0
 12
5.8464566929
 22
4.1338582677
 13
0.0
 23
0.0
 14
1.0
 24
1.0
 15
0.0
 25
0.0
 16
0.0
 26
0.0
 36
1.0
 17
0.0
 27
0.0
 37
0.0
 40
8.2677165354
 41
1.4142857143
 42
50.0
 43
0.0
 44
0.0
 50
0.0
 51
0.0
 71
0
 72
100
 73
1
 74
1
 75
0
 76
0
 77
0
 78
0
  0
ENDTAB
  0
TABLE
  2
LTYPE
  5
5
100
AcDbSymbolTable
 70
6
  0
LTYPE
  5
14
100
AcDbSymbolTableRecord
100
AcDbLinetypeTableRecord
  2
BYBLOCK
 70
0
  3

 72
65
 73
0
 40
0.0
  0
LTYPE
  5
15
100
AcDbSymbolTableRecord
100
AcDbLinetypeTableRecord
  2
BYLAYER
 70
0
  3

 72
65
 73
0
 40
0.0
  0
LTYPE
  5
16
100
AcDbSymbolTableRecord
100
AcDbLinetypeTableRecord
  2
CONTINUOUS
 70
64
  3
Solid line
 72
65
 73
0
 40
0.0
  0
LTYPE
  5
1F5
100
AcDbSymbolTableRecord
100
AcDbLinetypeTableRecord
  2
CENTER
 70
64
  3
____ _ ____ _ ____ _ ____ _ ____ _ ____ _ ____
 72
65
 73
4
 40
0.6
 49
0.375
 74
0
 49
-0.075
 74
0
 49
0.075
 74
0
 49
-0.075
 74
0
  0
LTYPE
  5
1F6
100
AcDbSymbolTableRecord
100
AcDbLinetypeTableRecord
  2
HIDDEN
 70
64
  3
- - - - - - - - - - - - - - - - - - - -
 72
65
 73
2
 40
0.2
 49
0.1
 74
0
 49
-0.1
 74
0
  0
LTYPE
  5
1F7
100
AcDbSymbolTableRecord
100
AcDbLinetypeTableRecord
  2
PHANTOM
 70
64
  3
_____ _ _ _____ _ _ _____ _ _ _____
 72
65
 73
6
 40
0.8
 49
0.45
 74
0
 49
-0.05
 74
0
 49
0.1
 74
0
 49
-0.05
 74
0
 49
0.1
 74
0
 49
-0.05
 74
0
  0
LTYPE
  5
1F8
100
AcDbSymbolTableRecord
100
AcDbLinetypeTableRecord
  2
DOT
 70
64
  3
. . . . . . . . . . . . . . . . . . . .
 72
65
 73
2
 40
0.2
 49
0.1
 74
0
 49
-0.1
 74
0
  0
LTYPE
  5
1F9
100
AcDbSymbolTableRecord
100
AcDbLinetypeTableRecord
  2
DASHED
 70
64
  3
- - - - - - - - - - - - - - - - - - - -
 72
65
 73
2
 40
0.2
 49
0.1
 74
0
 49
-0.1
 74
0
  0
ENDTAB
  0
TABLE
  2
LAYER
  5
2
100
AcDbSymbolTable
 70
36
  0
LAYER
  5
10
100
AcDbSymbolTableRecord
100
AcDbLayerTableRecord
  2
0
 70
0
 62
7
  6
CONTINUOUS
370
-3
390
F
  0
LAYER
  5
1FA
100
AcDbSymbolTableRecord
100
AcDbLayerTableRecord
  2
DEFAULT_1
 70
0
 62
7
  6
CENTER
370
-3
390
F
  0
LAYER
  5
1FB
100
AcDbSymbolTableRecord
100
AcDbLayerTableRecord
  2
DEFAULT_2
 70
0
 62
8
  6
HIDDEN
370
-3
390
F
  0
LAYER
  5
1FC
100
AcDbSymbolTableRecord
100
AcDbLayerTableRecord
  2
DEFAULT_3
 70
0
 62
7
  6
PHANTOM
370
-3
390
F
  0
LAYER
  5
1FD
100
AcDbSymbolTableRecord
100
AcDbLayerTableRecord
  2
DEFAULT_COORDINATE_SYSTEM
 70
0
 62
7
  6
CONTINUOUS
370
-3
390
F
  0
LAYER
  5
1FE
100
AcDbSymbolTableRecord
100
AcDbLayerTableRecord
  2
DEFAULT_DATUM_AXES
 70
0
 62
7
  6
CONTINUOUS
370
-3
390
F
  0
LAYER
  5
1FF
100
AcDbSymbolTableRecord
100
AcDbLayerTableRecord
  2
DEFAULT_DATUM_CURVES
 70
0
 62
7
  6
CONTINUOUS
370
-3
390
F
  0
LAYER
  5
200
100
AcDbSymbolTableRecord
100
AcDbLayerTableRecord
  2
DEFAULT_DATUM_PLANES
 70
0
 62
7
  6
CONTINUOUS
370
-3
390
F
  0
ENDTAB
  0
TABLE
  2
STYLE
  5
3
100
AcDbSymbolTable
 70
1
  0
STYLE
  5
11
100
AcDbSymbolTableRecord
100
AcDbTextStyleTableRecord
  2
STANDARD
 70
0
 40
0.0
 41
0.8
 50
0.0
 71
0
 42
0.2
  3
txt
  4

  0
STYLE
  5
201
100
AcDbSymbolTableRecord
100
AcDbTextStyleTableRecord
  2
TEXTSTYLE_1
 70
0
 40
0.0
 41
0.8
 50
0.0
 71
0
 42
0.2
  3
gdt
  4

  0
ENDTAB
  0
TABLE
  2
VIEW
  5
6
100
AcDbSymbolTable
 70
0
  0
ENDTAB
  0
TABLE
  2
UCS
  5
7
100
AcDbSymbolTable
 70
0
  0
ENDTAB
  0
TABLE
  2
APPID
  5
9
100
AcDbSymbolTable
 70
1
  0
APPID
  5
202
100
AcDbSymbolTableRecord
100
AcDbRegAppTableRecord
  2
ACAD
 70
0
  0
ENDTAB
  0
TABLE
  2
BLOCK_RECORD
  5
1
100
AcDbSymbolTable
 70
0
  0
BLOCK_RECORD
  5
203
100
AcDbSymbolTableRecord
100
AcDbBlockTableRecord
  2
*Model_Space
  0
BLOCK_RECORD
  5
204
100
AcDbSymbolTableRecord
100
AcDbBlockTableRecord
  2
*Paper_Space
  0
ENDTAB
  0
TABLE
  2
DIMSTYLE
  5
A
100
AcDbSymbolTable
 70
1
100
AcDbDimStyleTable
 71
0
  0
DIMSTYLE
105
205
100
AcDbSymbolTableRecord
100
AcDbDimStyleTableRecord
  2
STANDARD
 70
0
  3

  4

 40
1.0
 41
0.1
 42
0.0625
 43
0.38
 44
0.18
 45
0.0
 46
0.0
 47
0.01
 48
0.01
140
0.08
141
0.09
142
0.0
143
25.4
144
1.0
145
0.0
146
1.0
147
0.09
 71
1.0
 72
0.0
 73
1
 74
1
 75
0
 76
0
 77
0
 78
4
170
0
171
2
172
0
173
0
174
0
175
0
176
0
177
0
178
0
270
2
271
2
272
2
273
2
274
2
275
0
280
0
281
0
282
0
283
1
284
4
285
0
286
0
287
3
288
0
340
11
  0
ENDTAB
  0
ENDSEC
  0
SECTION
  2
BLOCKS
  0
BLOCK
  5
20
100
AcDbEntity
  8
0
100
AcDbBlockBegin
  2
*Model_Space
 70
0
 10
0.0
 20
0.0
 30
0.0
  3
*Model_Space
  1

  0
ENDBLK
  5
21
100
AcDbEntity
  8
0
100
AcDbBlockEnd
  0
BLOCK
  5
1C
100
AcDbEntity
  8
0
100
AcDbBlockBegin
  2
*Paper_Space
 70
0
 10
0.0
 20
0.0
 30
0.0
  3
*Paper_Space
  1

  0
ENDBLK
  5
1D
100
AcDbEntity
  8
0
100
AcDbBlockEnd
  0
ENDSEC
  0
SECTION
  2
ENTITIES
  0
LINE
  5
206
100
AcDbEntity
  8
0
100
AcDbLine
 62
6
  6
CONTINUOUS
 10
5.9405562721
 20
4.6100325595
 11
5.9405562721
 21
4.6083939416
  0
CIRCLE
  5
207
100
AcDbEntity
  8
0
100
AcDbCircle
 62
6
  6
CONTINUOUS
 10
5.9405562721
 20
4.2035325595
 40
1.1800000459
  0
CIRCLE
  5
208
100
AcDbEntity
  8
0
100
AcDbCircle
 62
6
  6
CONTINUOUS
 10
5.9405562721
 20
4.2035325595
 40
1.0000026738
  0
CIRCLE
  5
209
100
AcDbEntity
  8
0
100
AcDbCircle
 62
9
  6
CONTINUOUS
 10
5.9405562721
 20
4.2035325595
 40
0.8130026738
  0
CIRCLE
  5
20A
100
AcDbEntity
  8
0
100
AcDbCircle
 62
6
  6
CONTINUOUS
 10
5.9405562721
 20
4.2035325595
 40
0.741
  0
CIRCLE
  5
20B
100
AcDbEntity
  8
0
100
AcDbCircle
 62
6
  6
CONTINUOUS
 10
5.9405562721
 20
4.2035325595
 40
0.4225
  0
CIRCLE
  5
20C
100
AcDbEntity
  8
0
100
AcDbCircle
 62
6
  6
CONTINUOUS
 10
5.9405562721
 20
4.2035325595
 40
0.4065
  0
ARC
  5
20D
100
AcDbEntity
  8
0
100
AcDbCircle
 62
6
  6
CONTINUOUS
 10
5.9408884797
 20
4.2036699873
 40
0.4024981969
100
AcDbArc
 50
90.0806005159
 51
121.8081150802
  0
ARC
  5
20E
100
AcDbEntity
  8
0
100
AcDbCircle
 62
6
  6
CONTINUOUS
 10
5.940888844
 20
4.2036686331
 40
0.4019149773
100
AcDbArc
 50
90.0719225013
 51
121.8091578372
  0
ARC
  5
20F
100
AcDbEntity
  8
0
100
AcDbCircle
 62
6
  6
CONTINUOUS
 10
5.9408888876
 20
4.2036684559
 40
0.4002765445
100
AcDbArc
 50
90.0810060283
 51
121.8152257696
  0
ARC
  5
210
100
AcDbEntity
  8
0
100
AcDbCircle
 62
6
  6
CONTINUOUS
 10
5.940759675
 20
4.2038355042
 40
0.4000661608
100
AcDbArc
 50
121.8121131246
 51
144.347372
  0
ARC
  5
211
100
AcDbEntity
  8
0
100
AcDbCircle
 62
6
  6
CONTINUOUS
 10
5.9408915068
 20
4.203658739
 40
0.3997023805
100
AcDbArc
 50
90.0698498975
 51
121.7936999496
  0
ARC
  5
212
100
AcDbEntity
  8
0
100
AcDbCircle
 62
6
  6
CONTINUOUS
 10
5.9403513428
 20
4.2040582299
 40
0.3996041889
100
AcDbArc
 50
144.3602412559
 51
155.8753977723
  0
ARC
  5
213
100
AcDbEntity
  8
0
100
AcDbCircle
 62
6
  6
CONTINUOUS
 10
5.9408915255
 20
4.2036586875
 40
0.3980638197
100
AcDbArc
 50
90.0779498013
 51
121.8152901097
  0
ARC
  5
214
100
AcDbEntity
  8
0
100
AcDbCircle
 62
6
  6
CONTINUOUS
 10
5.9408900338
 20
4.2036631006
 40
0.397474174
100
AcDbArc
 50
90.0726371611
 51
121.8282406919
  0
ARC
  5
215
100
AcDbEntity
  8
0
100
AcDbCircle
 62
6
  6
CONTINUOUS
 10
5.9408713719
 20
4.2037188813
 40
0.3957783694
100
AcDbArc
 50
90.079035945
 51
153.5873034899
  0
ARC
  5
216
100
AcDbEntity
  8
0
100
AcDbCircle
 62
6
  6
CONTINUOUS
 10
5.9408722792
 20
4.2037173851
 40
0.395195402
100
AcDbArc
 50
90.0704178727
 51
153.5843449295
  0
ARC
  5
217
100
AcDbEntity
  8
0
100
AcDbCircle
 62
6
  6
CONTINUOUS
 10
5.9408722592
 20
4.2037174041
 40
0.3935567642
100
AcDbArc
 50
90.0795243104
 51
153.5759955457
  0
ARC
  5
218
100
AcDbEntity
  8
0
100
AcDbCircle
 62
6
  6
CONTINUOUS
 10
5.9408672221
 20
4.2037246508
 40
0.3929642719
100
AcDbArc
 50
90.0673022054
 51
153.5530942331
  0
ARC
  5
219
100
AcDbEntity
  8
0
100
AcDbCircle
 62
6
  6
CONTINUOUS
 10
5.940867174
 20
4.2037247424
 40
0.3913255572
100
AcDbArc
 50
90.0754479749
 51
153.5748908528
  0
ARC
  5
21A
100
AcDbEntity
  8
0
100
AcDbCircle
 62
6
  6
CONTINUOUS
 10
5.9408616103
 20
4.2037337817
 40
0.3907304809
100
AcDbArc
 50
90.0700831182
 51
153.5592044089
  0
ARC
  5
21B
100
AcDbEntity
  8
0
100
AcDbCircle
 62
6
  6
CONTINUOUS
 10
5.9402544987
 20
4.203322197
 40
0.3879707384
100
AcDbArc
 50
270.0791405862
 51
340.2290586857
  0
ARC
  5
21C
100
AcDbEntity
  8
0
100
AcDbCircle
 62
6
  6
CONTINUOUS
 10
5.9402547272
 20
4.2033217313
 40
0.3873856291
100
AcDbArc
 50
270.070047537
 51
340.2355369742
  0
ARC
  5
21D
100
AcDbEntity
  8
0
100
AcDbCircle
 62
6
  6
CONTINUOUS
 10
5.9408457281
 20
4.2037636933
 40
0.3868359981
100
AcDbArc
 50
90.0775068396
 51
167.5734178415
  0
ARC
  5
21E
100
AcDbEntity
  8
0
100
AcDbCircle
 62
6
  6
CONTINUOUS
 10
5.9405155064
 20
4.2038877752
 40
0.3864784495
100
AcDbArc
 50
167.5808474443
 51
185.3309198758
  0
ARC
  5
21F
100
AcDbEntity
  8
0
100
AcDbCircle
 62
6
  6
CONTINUOUS
 10
5.9408467417
 20
4.2037624029
 40
0.3862530966
100
AcDbArc
 50
90.0682675787
 51
167.5659779215
  0
ARC
  5
220
100
AcDbEntity
  8
0
100
AcDbCircle
 62
6
  6
CONTINUOUS
 10
5.9402809146
 20
4.2037863171
 40
0.3862266583
100
AcDbArc
 50
185.3191675137
 51
270.0072610005
  0
ARC
  5
221
100
AcDbEntity
  8
0
100
AcDbCircle
 62
6
  6
CONTINUOUS
 10
5.9407881449
 20
4.2038800756
 40
0.3861646264
100
AcDbArc
 50
167.5811557461
 51
185.3177513018
  0
ARC
  5
222
100
AcDbEntity
  8
0
100
AcDbCircle
 62
6
  6
CONTINUOUS
 10
5.9402547816
 20
4.2033216489
 40
0.3857469221
100
AcDbArc
 50
270.079456876
 51
340.2511612181
  0
ARC
  5
223
100
AcDbEntity
  8
0
100
AcDbCircle
 62
6
  6
CONTINUOUS
 10
5.9402764945
 20
4.2037872434
 40
0.3856406683
100
AcDbArc
 50
185.3582457398
 51
270.0195351719
  0
ARC
  5
224
100
AcDbEntity
  8
0
100
AcDbCircle
 62
6
  6
CONTINUOUS
 10
5.9407867145
 20
4.2024560239
 40
0.385347097
100
AcDbArc
 50
85.0165153443
 51
85.968723473
  0
ARC
  5
225
100
AcDbEntity
  8
0
100
AcDbCircle
 62
6
  6
CONTINUOUS
 10
5.9402551181
 20
4.2033210312
 40
0.3851617243
100
AcDbArc
 50
270.070200206
 51
340.2524491376
  0
ARC
  5
226
100
AcDbEntity
  8
0
100
AcDbCircle
 62
6
  6
CONTINUOUS
 10
5.9405336709
 20
4.2027850057
 40
0.3851090625
100
AcDbArc
 50
61.8060278971
 51
62.3984566688
  0
ARC
  5
227
100
AcDbEntity
  8
0
100
AcDbCircle
 62
6
  6
CONTINUOUS
 10
5.9403977759
 20
4.2029843162
 40
0.3850494222
100
AcDbArc
 50
38.3896990698
 51
38.9600099298
  0
ARC
  5
228
100
AcDbEntity
  8
0
100
AcDbCircle
 62
6
  6
CONTINUOUS
 10
5.9404463664
 20
4.2031113238
 40
0.3849446407
100
AcDbArc
 50
26.8434061215
 51
27.167557122
  0
ARC
  5
229
100
AcDbEntity
  8
0
100
AcDbCircle
 62
6
  6
CONTINUOUS
 10
5.9405910913
 20
4.2030500794
 40
0.3848608022
100
AcDbArc
 50
50.1792526188
 51
50.6460647519
  0
ARC
  5
22A
100
AcDbEntity
  8
0
100
AcDbCircle
 62
6
  6
CONTINUOUS
 10
5.9405820145
 20
4.2031724681
 40
0.3847972689
100
AcDbArc
 50
340.2568230827
 51
26.8444032601
  0
ARC
  5
22B
100
AcDbEntity
  8
0
100
AcDbCircle
 62
6
  6
CONTINUOUS
 10
5.9408467808
 20
4.2037623712
 40
0.3846145307
100
AcDbArc
 50
90.0432760034
 51
167.5658758593
  0
ARC
  5
22C
100
AcDbEntity
  8
0
100
AcDbCircle
 62
6
  6
CONTINUOUS
 10
5.940787514
 20
4.2038801092
 40
0.3845253837
100
AcDbArc
 50
167.5811063688
 51
185.3425037064
  0
ARC
  5
22D
100
AcDbEntity
  8
0
100
AcDbCircle
 62
6
  6
CONTINUOUS
 10
5.9409608961
 20
4.2033014992
 40
0.3844988634
100
AcDbArc
 50
90.0602947266
 51
96.7044407935
  0
ARC
  5
22E
100
AcDbEntity
  8
0
100
AcDbCircle
 62
6
  6
CONTINUOUS
 10
5.9413280013
 20
4.2037293485
 40
0.384497939
100
AcDbArc
 50
166.9141218485
 51
168.051572976
  0
ARC
  5
22F
100
AcDbEntity
  8
0
100
AcDbCircle
 62
6
  6
CONTINUOUS
 10
5.9408509406
 20
4.2033204937
 40
0.3844893086
100
AcDbArc
 50
73.3218393693
 51
74.2281892106
  0
ARC
  5
230
100
AcDbEntity
  8
0
100
AcDbCircle
 62
6
  6
CONTINUOUS
 10
5.9410601878
 20
4.2034317752
 40
0.3842519972
100
AcDbArc
 50
27.1668368801
 51
38.3987413402
  0
ARC
  5
231
100
AcDbEntity
  8
0
100
AcDbCircle
 62
6
  6
CONTINUOUS
 10
5.9409508809
 20
4.2035747049
 40
0.3842178637
100
AcDbArc
 50
74.232227673
 51
85.0264122753
  0
ARC
  5
232
100
AcDbEntity
  8
0
100
AcDbCircle
 62
6
  6
CONTINUOUS
 10
5.9410520276
 20
4.2035253951
 40
0.3842003063
100
AcDbArc
 50
38.9586146816
 51
50.1866548999
  0
ARC
  5
233
100
AcDbEntity
  8
0
100
AcDbCircle
 62
6
  6
CONTINUOUS
 10
5.9410580744
 20
4.203631859
 40
0.3841146432
100
AcDbArc
 50
50.6448982974
 51
61.8152882424
  0
ARC
  5
234
100
AcDbEntity
  8
0
100
AcDbCircle
 62
6
  6
CONTINUOUS
 10
5.9409968777
 20
4.2037037094
 40
0.3840802464
100
AcDbArc
 50
62.3961945605
 51
73.3262873152
  0
ARC
  5
235
100
AcDbEntity
  8
0
100
AcDbCircle
 62
6
  6
CONTINUOUS
 10
5.9402764758
 20
4.2037872619
 40
0.3840020521
100
AcDbArc
 50
185.3358101653
 51
270.0417482719
  0
ARC
  5
236
100
AcDbEntity
  8
0
100
AcDbCircle
 62
6
  6
CONTINUOUS
 10
5.9408258148
 20
4.2037847493
 40
0.3840008538
100
AcDbArc
 50
96.6928415914
 51
166.9052083163
  0
ARC
  5
237
100
AcDbEntity
  8
0
100
AcDbCircle
 62
6
  6
CONTINUOUS
 10
5.9404652038
 20
4.2038895484
 40
0.3836206078
100
AcDbArc
 50
168.0483334584
 51
185.3604563186
  0
ARC
  5
238
100
AcDbEntity
  8
0
100
AcDbCircle
 62
6
  6
CONTINUOUS
 10
5.9402578118
 20
4.203318533
 40
0.3835197929
100
AcDbArc
 50
270.0445875541
 51
340.2594049735
  0
ARC
  5
239
100
AcDbEntity
  8
0
100
AcDbCircle
 62
6
  6
CONTINUOUS
 10
5.9402785221
 20
4.2037822104
 40
0.3834142704
100
AcDbArc
 50
185.7140690534
 51
270.0415066909
  0
ARC
  5
23A
100
AcDbEntity
  8
0
100
AcDbCircle
 62
6
  6
CONTINUOUS
 10
5.9408966713
 20
4.2044400302
 40
0.3833602706
100
AcDbArc
 50
85.9642707196
 51
90.050874965
  0
ARC
  5
23B
100
AcDbEntity
  8
0
100
AcDbCircle
 62
6
  6
CONTINUOUS
 10
5.9407237031
 20
4.2031918533
 40
0.3830219757
100
AcDbArc
 50
340.253701992
 51
72.8967001167
  0
ARC
  5
23C
100
AcDbEntity
  8
0
100
AcDbCircle
 62
6
  6
CONTINUOUS
 10
5.9402576739
 20
4.2033184497
 40
0.3829352121
100
AcDbArc
 50
270.0446762589
 51
340.2454298635
  0
ARC
  5
23D
100
AcDbEntity
  8
0
100
AcDbCircle
 62
6
  6
CONTINUOUS
 10
5.9408865284
 20
4.20372141
 40
0.3824441767
100
AcDbArc
 50
72.8966827922
 51
167.5611060255
  0
ARC
  5
23E
100
AcDbEntity
  8
0
100
AcDbCircle
 62
6
  6
CONTINUOUS
 10
5.9407233473
 20
4.2031903395
 40
0.3824376724
100
AcDbArc
 50
340.2399133139
 51
72.8961508477
  0
ARC
  5
23F
100
AcDbEntity
  8
0
100
AcDbCircle
 62
6
  6
CONTINUOUS
 10
5.9392606631
 20
4.2037623387
 40
0.382410362
100
AcDbArc
 50
185.3583401902
 51
185.726290415
  0
ARC
  5
240
100
AcDbEntity
  8
0
100
AcDbCircle
 62
6
  6
CONTINUOUS
 10
5.9405562721
 20
4.2035325595
 40
0.3821502168
100
AcDbArc
 50
72.8571188941
 51
167.5227907969
  0
ARC
  5
241
100
AcDbEntity
  8
0
100
AcDbCircle
 62
6
  6
CONTINUOUS
 10
5.9402365273
 20
4.2033635389
 40
0.3443240837
100
AcDbArc
 50
275.3479325351
 51
320.3731619181
  0
CIRCLE
  5
242
100
AcDbEntity
  8
0
100
AcDbCircle
 62
6
  6
CONTINUOUS
 10
5.9405562721
 20
4.2035325595
 40
0.34125
  0
SPLINE
  5
243
100
AcDbEntity
  8
0
100
AcDbSpline
 62
6
  6
CONTINUOUS
 70
0
 71
3
 72
44
 73
40
 74
38
 42
0.0000001
 43
0.0000001
 44
0.0000000001
 12
-0.1126593629
 22
-0.6749685491
 32
0.0
 13
0.6765737901
 23
0.1025796321
 33
0.0
 40
0.0
 40
0.0
 40
0.0
 40
0.0
 40
0.0312158715
 40
0.0624652854
 40
0.0937294056
 40
0.1093629738
 40
0.1249939953
 40
0.1562451622
 40
0.1874895151
 40
0.2187316394
 40
0.2499765848
 40
0.2812246205
 40
0.3124735963
 40
0.3437224235
 40
0.3749713512
 40
0.4062201635
 40
0.4374689141
 40
0.4530953357
 40
0.4687222799
 40
0.4999737162
 40
0.5312251253
 40
0.5624758799
 40
0.5937267276
 40
0.6249775303
 40
0.6562280594
 40
0.6718552729
 40
0.6874829626
 40
0.7187355238
 40
0.7499870127
 40
0.7812357001
 40
0.8124820683
 40
0.8437296382
 40
0.8749830868
 40
0.890615769
 40
0.9062520694
 40
0.9218900911
 40
0.9375270059
 40
0.9687824344
 40
1.0
 40
1.0
 40
1.0
 40
1.0
 10
5.5674316699
 20
4.286096592
 30
0.0
 10
5.5662594165
 20
4.2790733482
 30
0.0
 10
5.5643092057
 20
4.2649499709
 30
0.0
 10
5.5625758765
 20
4.2436300694
 30
0.0
 10
5.5621308072
 20
4.2257997238
 30
0.0
 10
5.5623795038
 20
4.211537329
 30
0.0
 10
5.5630332765
 20
4.197290691
 30
0.0
 10
5.5646092306
 20
4.1795292192
 30
0.0
 10
5.5677077065
 20
4.1583617873
 30
0.0
 10
5.5720068069
 20
4.1374061699
 30
0.0
 10
5.5775005669
 20
4.1167307138
 30
0.0
 10
5.5841710999
 20
4.0964027347
 30
0.0
 10
5.5919977128
 20
4.0764902171
 30
0.0
 10
5.6009610057
 20
4.0570624219
 30
0.0
 10
5.6110378901
 20
4.0381880856
 30
0.0
 10
5.6221923803
 20
4.0199303577
 30
0.0
 10
5.6323583888
 20
4.0052809162
 30
0.0
 10
5.6409943849
 20
3.9939350722
 30
0.0
 10
5.6499604255
 20
3.982847422
 30
0.0
 10
5.6617726978
 20
3.9694879743
 30
0.0
 10
5.6768629837
 20
3.9543178157
 30
0.0
 10
5.6928219716
 20
3.940063762
 30
0.0
 10
5.709599902
 20
3.9267834739
 30
0.0
 10
5.7271361945
 20
3.9145227606
 30
0.0
 10
5.7423334433
 20
3.9051925677
 30
0.0
 10
5.7548083543
 20
3.8982853865
 30
0.0
 10
5.7674858656
 20
3.8917564956
 30
0.0
 10
5.7836924532
 20
3.8843143007
 30
0.0
 10
5.803639403
 20
3.876569294
 30
0.0
 10
5.824016333
 20
3.8700416976
 30
0.0
 10
5.8447517233
 20
3.8647653882
 30
0.0
 10
5.865770326
 20
3.8607598669
 30
0.0
 10
5.8834607169
 20
3.8584963402
 30
0.0
 10
5.8976770827
 20
3.8573395832
 30
0.0
 10
5.9083648746
 20
3.8568012339
 30
0.0
 10
5.9190651154
 20
3.8565922554
 30
0.0
 10
5.9333294351
 20
3.8567524553
 30
0.0
 10
5.9511288434
 20
3.8577745164
 30
0.0
 10
5.9652884799
 20
3.8594702941
 30
0.0
 10
5.9723288088
 20
3.8605377229
 30
0.0
 11
5.5674316699
 21
4.286096592
 31
0.0
 11
5.564508801
 21
4.2649362984
 31
0.0
 11
5.5627760606
 21
4.2436224545
 31
0.0
 11
5.5622433838
 21
4.2222348624
 31
0.0
 11
5.562430174
 21
4.211538349
 31
0.0
 11
5.5629205507
 21
4.2008531941
 31
0.0
 11
5.5648106936
 21
4.1795515275
 31
0.0
 11
5.5679079292
 21
4.1583963541
 31
0.0
 11
5.5722057317
 21
4.1374536249
 31
0.0
 11
5.5776964231
 21
4.1167895529
 31
0.0
 11
5.5843636605
 21
4.0964723201
 31
0.0
 11
5.5921871603
 21
4.0765710046
 31
0.0
 11
5.6011465968
 21
4.05715468
 31
0.0
 11
5.6112175057
 21
4.0382908284
 31
0.0
 11
5.622366458
 21
4.0200434837
 31
0.0
 11
5.6345588524
 21
4.0024762288
 31
0.0
 11
5.6410355218
 21
3.9939675021
 31
0.0
 11
5.6477594914
 21
3.985652362
 31
0.0
 11
5.6619253504
 21
3.9696314393
 31
0.0
 11
5.6770078919
 21
3.9544703816
 31
0.0
 11
5.692958463
 21
3.9402260546
 31
0.0
 11
5.709726311
 21
3.9269533921
 31
0.0
 11
5.7272529135
 21
3.914700181
 31
0.0
 11
5.7454779514
 21
3.9035125552
 31
0.0
 11
5.7548335338
 21
3.8983327538
 31
0.0
 11
5.7643409108
 21
3.8934364268
 31
0.0
 11
5.7837760405
 21
3.8845117319
 31
0.0
 11
5.8037118913
 21
3.8767719052
 31
0.0
 11
5.8240767269
 21
3.8702500538
 31
0.0
 11
5.844798479
 21
3.8649772757
 31
0.0
 11
5.8658034881
 21
3.8609750317
 31
0.0
 11
5.8870176184
 21
3.8582618969
 31
0.0
 11
5.8976799364
 21
3.8573945498
 31
0.0
 11
5.9083663963
 21
3.8568561511
 31
0.0
 11
5.9190655462
 21
3.8566471162
 31
0.0
 11
5.9297653054
 21
3.8567673117
 31
0.0
 11
5.9511183264
 21
3.8579948591
 31
0.0
 11
5.9723288088
 21
3.8605377229
 31
0.0
  0
LINE
  5
244
100
AcDbEntity
  8
0
100
AcDbLine
 62
6
  6
CONTINUOUS
 10
5.9405562721
 20
4.6039474588
 11
5.9403229644
 21
4.6039471842
  0
LINE
  5
245
100
AcDbEntity
  8
0
100
AcDbLine
 62
6
  6
CONTINUOUS
 10
5.6156799059
 20
4.4370217007
 11
5.61559437
 21
4.4369024189
  0
LINE
  5
246
100
AcDbEntity
  8
0
100
AcDbLine
 62
6
  6
CONTINUOUS
 10
5.5756490792
 20
4.3673854068
 11
5.5752800958
 21
4.3665591707
  0
SPLINE
  5
247
100
AcDbEntity
  8
0
100
AcDbSpline
 62
6
  6
CONTINUOUS
 70
0
 71
3
 72
45
 73
41
 74
39
 42
0.0000001
 43
0.0000001
 44
0.0000000001
 12
-0.3234404516
 22
-0.7264568982
 32
0.0
 13
0.7952064439
 23
0.0002497243
 33
0.0
 40
0.0
 40
0.0
 40
0.0
 40
0.0
 40
0.0312525043
 40
0.062504485
 40
0.0937562208
 40
0.1250076665
 40
0.1562580161
 40
0.1875070781
 40
0.2187555913
 40
0.2500036121
 40
0.2656293329
 40
0.281255072
 40
0.2968809585
 40
0.3125070219
 40
0.3437557598
 40
0.3750047738
 40
0.4062545598
 40
0.437505102
 40
0.4687555522
 40
0.4843824966
 40
0.5000094193
 40
0.5312595093
 40
0.5625091195
 40
0.5781354368
 40
0.593761528
 40
0.6250097817
 40
0.6562581848
 40
0.687506877
 40
0.7187565046
 40
0.7500062668
 40
0.7812540467
 40
0.796878491
 40
0.8125021867
 40
0.843746337
 40
0.8749956993
 40
0.8906259793
 40
0.9062596586
 40
0.9375271525
 40
0.9687815055
 40
1.0
 40
1.0
 40
1.0
 40
1.0
 10
5.5752800958
 20
4.3665591707
 30
0.0
 10
5.5719106545
 20
4.358991305
 30
0.0
 10
5.565639316
 20
4.3436425239
 30
0.0
 10
5.5576809021
 20
4.3200832634
 30
0.0
 10
5.5512057066
 20
4.296073253
 30
0.0
 10
5.5462318197
 20
4.2717087842
 30
0.0
 10
5.5427775672
 20
4.2470834302
 30
0.0
 10
5.5408637596
 20
4.2222913527
 30
0.0
 10
5.5404939291
 20
4.1974295051
 30
0.0
 10
5.5414706005
 20
4.1767302481
 30
0.0
 10
5.5430220376
 20
4.1602341759
 30
0.0
 10
5.5445708608
 20
4.1479032584
 30
0.0
 10
5.5465026855
 20
4.1356264337
 30
0.0
 10
5.5495852015
 20
4.1193465271
 30
0.0
 10
5.5543833601
 20
4.0991869768
 30
0.0
 10
5.5616312491
 20
4.0754015407
 30
0.0
 10
5.5703481592
 20
4.0521131699
 30
0.0
 10
5.5804929491
 20
4.0294107972
 30
0.0
 10
5.5901050902
 20
4.0110509826
 30
0.0
 10
5.5984680679
 20
3.9967459462
 30
0.0
 10
5.6072730272
 20
3.9827086918
 30
0.0
 10
5.619091033
 20
3.965685752
 30
0.0
 10
5.6319420406
 20
3.9494287341
 30
0.0
 10
5.6428121853
 20
3.936922947
 30
0.0
 10
5.6540666755
 20
3.9247624453
 30
0.0
 10
5.6688371763
 20
3.9102279634
 30
0.0
 10
5.6876081095
 20
3.8939215899
 30
0.0
 10
5.7073561464
 20
3.878811714
 30
0.0
 10
5.7280087148
 20
3.8649631596
 30
0.0
 10
5.7494804414
 20
3.8524238572
 30
0.0
 10
5.7679883755
 20
3.8431036572
 30
0.0
 10
5.7831177766
 20
3.8363508146
 30
0.0
 10
5.7984495351
 20
3.8300733546
 30
0.0
 10
5.8179704522
 20
3.8231251541
 30
0.0
 10
5.8378870497
 20
3.8174027544
 30
0.0
 10
5.8540116684
 20
3.8135750609
 30
0.0
 10
5.8702526333
 20
3.810252035
 30
0.0
 10
5.890735194
 20
3.8070502373
 30
0.0
 10
5.9154899786
 20
3.8047398151
 30
0.0
 10
5.9320544002
 20
3.8042265462
 30
0.0
 10
5.9403294495
 20
3.8042291448
 30
0.0
 11
5.5752800958
 21
4.3665591707
 31
0.0
 11
5.5658806926
 21
4.3435530245
 31
0.0
 11
5.5579280725
 21
4.3200080317
 31
0.0
 11
5.5514558915
 21
4.2960140314
 31
0.0
 11
5.5464850241
 21
4.2716649003
 31
0.0
 11
5.5430342564
 21
4.2470551749
 31
0.0
 11
5.5411210766
 21
4.2222794762
 31
0.0
 11
5.5407508994
 21
4.1974332134
 31
0.0
 11
5.5419225774
 21
4.1726122239
 31
0.0
 11
5.5430862331
 21
4.1602411571
 31
0.0
 11
5.5446346867
 21
4.1479123275
 31
0.0
 11
5.5465660394
 21
4.1356375348
 31
0.0
 11
5.5488777131
 21
4.1234285086
 31
0.0
 11
5.554631699
 21
4.0992546727
 31
0.0
 11
5.5618759939
 21
4.0754846541
 31
0.0
 11
5.5705860401
 21
4.0522110808
 31
0.0
 11
5.5807245351
 21
4.0295226495
 31
0.0
 11
5.5922515827
 21
4.0075072564
 31
0.0
 11
5.5985233279
 21
3.9967794057
 31
0.0
 11
5.6051263465
 21
3.9862522368
 31
0.0
 11
5.6192977238
 21
3.9658388051
 31
0.0
 11
5.6347082929
 21
3.9463444079
 31
0.0
 11
5.6428603012
 21
3.936966032
 31
0.0
 11
5.6513004651
 21
3.9278463643
 31
0.0
 11
5.6690115967
 21
3.9104170966
 31
0.0
 11
5.687770853
 21
3.8941210921
 31
0.0
 11
5.7075066514
 21
3.8790221139
 31
0.0
 11
5.7281452472
 21
3.8651813692
 31
0.0
 11
5.7496038989
 21
3.8526494324
 31
0.0
 11
5.7717975253
 21
3.8414741125
 31
0.0
 11
5.7831433651
 21
3.8364101141
 31
0.0
 11
5.7946409575
 21
3.8317023824
 31
0.0
 11
5.8180479367
 21
3.8233708324
 31
0.0
 11
5.8419314662
 21
3.8165090262
 31
0.0
 11
5.8540247465
 21
3.813638474
 31
0.0
 11
5.8662043895
 21
3.8111462868
 31
0.0
 11
5.8907699724
 21
3.8073048947
 31
0.0
 11
5.9155161427
 21
3.8049958515
 31
0.0
 11
5.9403294495
 21
3.8042291448
 31
0.0
  0
LINE
  5
248
100
AcDbEntity
  8
0
100
AcDbLine
 62
6
  6
CONTINUOUS
 10
5.9403294495
 20
3.8042291448
 11
5.9405562721
 21
3.8042292809
  0
LINE
  5
249
100
AcDbEntity
  8
0
100
AcDbLine
 62
6
  6
CONTINUOUS
 10
5.9405562721
 20
4.6083939416
 11
5.9403223211
 21
4.608393669
  0
SPLINE
  5
24A
100
AcDbEntity
  8
0
100
AcDbSpline
 62
6
  6
CONTINUOUS
 70
0
 71
3
 72
68
 73
64
 74
62
 42
0.0000001
 43
0.0000001
 44
0.0000000001
 12
-1.2695345855
 22
-0.0018484405
 32
0.0
 13
1.2695358703
 23
0.0003932476
 33
0.0
 40
0.0
 40
0.0
 40
0.0
 40
0.0
 40
0.0156075543
 40
0.031231362
 40
0.0468645833
 40
0.0625003858
 40
0.0781328087
 40
0.093761025
 40
0.1093866153
 40
0.1250110188
 40
0.1406357387
 40
0.1562617033
 40
0.1718884958
 40
0.1875154095
 40
0.2031418152
 40
0.2187675172
 40
0.2343927728
 40
0.2500176623
 40
0.26564222
 40
0.2812666849
 40
0.2968913307
 40
0.3125161226
 40
0.3281409447
 40
0.3437658677
 40
0.359391123
 40
0.3750166454
 40
0.3906422175
 40
0.4062677445
 40
0.4218933964
 40
0.43751915
 40
0.4687605705
 40
0.5000010177
 40
0.5156258968
 40
0.5312507333
 40
0.5468757285
 40
0.5625010415
 40
0.5781264719
 40
0.5937517275
 40
0.609376703
 40
0.6250016115
 40
0.6406265129
 40
0.6562513123
 40
0.6718760289
 40
0.6875009069
 40
0.7031259489
 40
0.7187509307
 40
0.734375679
 40
0.750000347
 40
0.7656252116
 40
0.7812503385
 40
0.7968758012
 40
0.8125018703
 40
0.8437455236
 40
0.8593711615
 40
0.8749954647
 40
0.890619179
 40
0.9062438417
 40
0.9218709313
 40
0.937502068
 40
0.9531367887
 40
0.9687692617
 40
0.9843926228
 40
1.0
 40
1.0
 40
1.0
 40
1.0
 10
5.9403223211
 20
4.608393669
 30
0.0
 10
5.9337175445
 20
4.6083840525
 30
0.0
 10
5.9204993175
 20
4.6080390563
 30
0.0
 10
5.9007155587
 20
4.6065516693
 30
0.0
 10
5.8810156376
 20
4.6040988763
 30
0.0
 10
5.8614555476
 20
4.6006858683
 30
0.0
 10
5.8420889155
 20
4.5963156539
 30
0.0
 10
5.8229645106
 20
4.5910007677
 30
0.0
 10
5.8041264932
 20
4.5847570478
 30
0.0
 10
5.7856180065
 20
4.5775993228
 30
0.0
 10
5.7674828375
 20
4.5695419799
 30
0.0
 10
5.7497643497
 20
4.56060336
 30
0.0
 10
5.7325034299
 20
4.5508084941
 30
0.0
 10
5.7157418427
 20
4.5401813656
 30
0.0
 10
5.6995212273
 20
4.5287462087
 30
0.0
 10
5.6838833995
 20
4.5165272981
 30
0.0
 10
5.6688636392
 20
4.5035572482
 30
0.0
 10
5.6544968182
 20
4.4898681908
 30
0.0
 10
5.6408175645
 20
4.4754924246
 30
0.0
 10
5.6278615726
 20
4.4604616667
 30
0.0
 10
5.6156582628
 20
4.4448135893
 30
0.0
 10
5.604235077
 20
4.4285870963
 30
0.0
 10
5.5936196376
 20
4.4118208454
 30
0.0
 10
5.5838407011
 20
4.3945530554
 30
0.0
 10
5.5749215252
 20
4.3768256073
 30
0.0
 10
5.5668805579
 20
4.3586826733
 30
0.0
 10
5.5597370814
 20
4.3401677898
 30
0.0
 10
5.5535109183
 20
4.3213246268
 30
0.0
 10
5.5482190186
 20
4.3021975323
 30
0.0
 10
5.542421772
 20
4.276386166
 30
0.0
 10
5.537554472
 20
4.2436357502
 30
0.0
 10
5.5359295472
 20
4.2105658701
 30
0.0
 10
5.5365729462
 20
4.1841204254
 30
0.0
 10
5.5380268701
 20
4.1643290375
 30
0.0
 10
5.540452886
 20
4.1446334178
 30
0.0
 10
5.5438426671
 20
4.1250802903
 30
0.0
 10
5.5481857013
 20
4.105716518
 30
0.0
 10
5.5534717732
 20
4.086588751
 30
0.0
 10
5.5596917582
 20
4.067744156
 30
0.0
 10
5.566830503
 20
4.0492282824
 30
0.0
 10
5.574867583
 20
4.0310844112
 30
0.0
 10
5.5837836375
 20
4.0133559994
 30
0.0
 10
5.5935596978
 20
3.9960868616
 30
0.0
 10
5.6041737709
 20
3.9793196658
 30
0.0
 10
5.6155967415
 20
3.9630926663
 30
0.0
 10
5.6278007064
 20
3.9474446225
 30
0.0
 10
5.6407576217
 20
3.9324142295
 30
0.0
 10
5.6544388676
 20
3.9180401131
 30
0.0
 10
5.6688087769
 20
3.90435423
 30
0.0
 10
5.6838321114
 20
3.8913887652
 30
0.0
 10
5.6994743434
 20
3.8791750827
 30
0.0
 10
5.7211022557
 20
3.8639408645
 30
0.0
 10
5.7438295091
 20
3.8503176008
 30
0.0
 10
5.7674565957
 20
3.8384193448
 30
0.0
 10
5.7855978829
 20
3.8303758756
 30
0.0
 10
5.8041118595
 20
3.8232350414
 30
0.0
 10
5.8229550701
 20
3.817010484
 30
0.0
 10
5.8420839926
 20
3.8117171045
 30
0.0
 10
5.861454421
 20
3.8073703314
 30
0.0
 10
5.8810177423
 20
3.8039833698
 30
0.0
 10
5.9007202848
 20
3.8015592617
 30
0.0
 10
5.920505823
 20
3.8001031025
 30
0.0
 10
5.9337243866
 20
3.7997806167
 30
0.0
 10
5.940329095
 20
3.7997826625
 30
0.0
 11
5.9403223211
 21
4.608393669
 31
0.0
 11
5.9205146854
 21
4.607877848
 31
0.0
 11
5.900735481
 21
4.6063913383
 31
0.0
 11
5.8810406274
 21
4.6039390699
 31
0.0
 11
5.8614860442
 21
4.6005259727
 31
0.0
 11
5.8421268613
 21
4.5961575996
 31
0.0
 11
5.8230106361
 21
4.5908454786
 31
0.0
 11
5.8041807084
 21
4.5846044654
 31
0.0
 11
5.7856803726
 21
4.5774494519
 31
0.0
 11
5.7675529123
 21
4.569395399
 31
0.0
 11
5.7498410573
 21
4.5604608892
 31
0.0
 11
5.7325867238
 21
4.5506698241
 31
0.0
 11
5.7158317628
 21
4.5400465307
 31
0.0
 11
5.6996180255
 21
4.5286153359
 31
0.0
 11
5.6839861817
 21
4.5164019208
 31
0.0
 11
5.6689722877
 21
4.5034372554
 31
0.0
 11
5.6546112737
 21
4.4897536008
 31
0.0
 11
5.6409380696
 21
4.4753832181
 31
0.0
 11
5.6279870783
 21
4.4603588523
 31
0.0
 11
5.6157883355
 21
4.4447172565
 31
0.0
 11
5.6043697194
 21
4.4284971635
 31
0.0
 11
5.593759093
 21
4.4117373204
 31
0.0
 11
5.5839840838
 21
4.3944766134
 31
0.0
 11
5.5750679616
 21
4.376756503
 31
0.0
 11
5.5670301556
 21
4.3586207186
 31
0.0
 11
5.5598899635
 21
4.3401130673
 31
0.0
 11
5.5536666477
 21
4.3212773678
 31
0.0
 11
5.548376244
 21
4.3021584988
 31
0.0
 11
5.5440290265
 21
4.2828032322
 31
0.0
 11
5.538202859
 21
4.2435713775
 31
0.0
 11
5.5362523347
 21
4.2039584998
 31
0.0
 11
5.5367348302
 21
4.1841280234
 31
0.0
 11
5.5381888752
 21
4.1643450961
 31
0.0
 11
5.5406134878
 21
4.144657341
 31
0.0
 11
5.5440015302
 21
4.1251119165
 31
0.0
 11
5.5483428986
 21
4.1057557575
 31
0.0
 11
5.5536274703
 21
4.0866357976
 31
0.0
 11
5.5598449023
 21
4.0677988925
 31
0.0
 11
5.5669802315
 21
4.0492902686
 31
0.0
 11
5.5750141031
 21
4.0311536032
 31
0.0
 11
5.5839269887
 21
4.0134325125
 31
0.0
 11
5.5936993223
 21
3.9961705917
 31
0.0
 11
5.6043085385
 21
3.979409772
 31
0.0
 11
5.6157269284
 21
3.9631891315
 31
0.0
 11
5.6279262776
 21
3.9475474675
 31
0.0
 11
5.6408783712
 21
3.9325235772
 31
0.0
 11
5.6545535667
 21
3.9181548959
 31
0.0
 11
5.6689175572
 21
3.9044744117
 31
0.0
 11
5.6839350851
 21
3.8915142059
 31
0.0
 11
5.6995708929
 21
3.8793063598
 31
0.0
 11
5.7157890638
 21
3.867882198
 31
0.0
 11
5.7498093081
 21
3.8474878243
 31
0.0
 11
5.7675270522
 21
3.8385659208
 31
0.0
 11
5.7856602901
 21
3.8305261894
 31
0.0
 11
5.8041661671
 21
3.8233879507
 31
0.0
 11
5.8230012033
 21
3.8171661253
 31
0.0
 11
5.8421218934
 21
3.8118754587
 31
0.0
 11
5.8614847117
 21
3.8075306802
 31
0.0
 11
5.8810424327
 21
3.8041436475
 31
0.0
 11
5.900739877
 21
3.8017200445
 31
0.0
 11
5.9205208345
 21
3.8002647549
 31
0.0
 11
5.940329095
 21
3.7997826625
 31
0.0
  0
LINE
  5
24B
100
AcDbEntity
  8
0
100
AcDbLine
 62
6
  6
CONTINUOUS
 10
5.940329095
 20
3.7997826625
 11
5.9405562721
 21
3.7997827973
  0
LINE
  5
24C
100
AcDbEntity
  8
0
100
AcDbLine
 62
6
  6
CONTINUOUS
 10
5.9405562721
 20
4.6061707011
 11
5.9403222641
 21
4.6061704269
  0
SPLINE
  5
24D
100
AcDbEntity
  8
0
100
AcDbSpline
 62
6
  6
CONTINUOUS
 70
0
 71
3
 72
50
 73
46
 74
44
 42
0.0000001
 43
0.0000001
 44
0.0000000001
 12
-0.8835233269
 22
-0.5479058389
 32
0.0
 13
1.0396221292
 23
0.0003255004
 33
0.0
 40
0.0
 40
0.0
 40
0.0
 40
0.0
 40
0.0312504633
 40
0.0624987471
 40
0.0937458445
 40
0.1093722913
 40
0.1249988046
 40
0.1562462813
 40
0.1874944532
 40
0.203121976
 40
0.2187498476
 40
0.2499998998
 40
0.2656280598
 40
0.2812560756
 40
0.3125056991
 40
0.3437547426
 40
0.3593818979
 40
0.3750087939
 40
0.4062559211
 40
0.4375024722
 40
0.468749145
 40
0.4999962249
 40
0.5156228622
 40
0.5312495309
 40
0.5624969839
 40
0.593744525
 40
0.6093714769
 40
0.6249985827
 40
0.6562465144
 40
0.6718733705
 40
0.6874999719
 40
0.7187468282
 40
0.749994271
 40
0.7656216478
 40
0.7812495024
 40
0.8124988784
 40
0.8437449872
 40
0.8749879171
 40
0.8906138871
 40
0.9062422433
 40
0.9218742333
 40
0.9375100136
 40
0.9531458468
 40
0.9687770386
 40
1.0
 40
1.0
 40
1.0
 40
1.0
 10
5.7287417393
 20
4.5457194692
 30
0.0
 10
5.7195382348
 20
4.5400120321
 30
0.0
 10
5.7015829159
 20
4.5278502221
 30
0.0
 10
5.6762229519
 20
4.5074934399
 30
0.0
 10
5.6565208901
 20
4.4888791437
 30
0.0
 10
5.6417024458
 20
4.4730761104
 30
0.0
 10
5.6275357221
 20
4.4566858607
 30
0.0
 10
5.6110863672
 20
4.4351445418
 30
0.0
 10
5.5964242344
 20
4.4123486459
 30
0.0
 10
5.5858316446
 20
4.3934493188
 30
0.0
 10
5.5760121107
 20
4.3741370429
 30
0.0
 10
5.5673688752
 20
4.3542447788
 30
0.0
 10
5.5599523057
 20
4.3338881199
 30
0.0
 10
5.5533651257
 20
4.3132476202
 30
0.0
 10
5.5467070547
 20
4.2869727607
 30
0.0
 10
5.5421865211
 20
4.2602474007
 30
0.0
 10
5.5398740671
 20
4.2387060803
 30
0.0
 10
5.5384365006
 20
4.2170895237
 30
0.0
 10
5.5382784263
 20
4.1899861748
 30
0.0
 10
5.5407097298
 20
4.1575574788
 30
0.0
 10
5.5457586635
 20
4.1254321199
 30
0.0
 10
5.5521106178
 20
4.0990831875
 30
0.0
 10
5.5584536836
 20
4.0783685573
 30
0.0
 10
5.5656313077
 20
4.0579278468
 30
0.0
 10
5.5761443378
 20
4.0329462613
 30
0.0
 10
5.5886363294
 20
4.0088929425
 30
0.0
 10
5.5997712454
 20
3.9903087568
 30
0.0
 10
5.6116486337
 20
3.9721907256
 30
0.0
 10
5.6246144908
 20
3.9548058672
 30
0.0
 10
5.6385937615
 20
3.9382557294
 30
0.0
 10
5.6532321765
 20
3.9222852627
 30
0.0
 10
5.6727247634
 20
3.9034536661
 30
0.0
 10
5.693672293
 20
3.8862545395
 30
0.0
 10
5.7112204697
 20
3.8735489408
 30
0.0
 10
5.7292696528
 20
3.8615648318
 30
0.0
 10
5.7527166323
 20
3.8479661828
 30
0.0
 10
5.7820699262
 20
3.8339731892
 30
0.0
 10
5.8073992514
 20
3.8243309555
 30
0.0
 10
5.8280741078
 20
3.8178641585
 30
0.0
 10
5.8437691392
 20
3.8136433424
 30
0.0
 10
5.8596254119
 20
3.8100612425
 30
0.0
 10
5.8756165722
 20
3.8071256935
 30
0.0
 10
5.8917134454
 20
3.8048386188
 30
0.0
 10
5.9132626561
 20
3.8026586434
 30
0.0
 10
5.9295097306
 20
3.8020025161
 30
0.0
 10
5.9403297578
 20
3.8020059038
 30
0.0
 11
5.7287417393
 21
4.5457194692
 31
0.0
 11
5.7018443745
 21
4.5274973465
 31
0.0
 11
5.6765088963
 21
4.5071631311
 31
0.0
 11
5.6528959856
 21
4.4848535575
 31
0.0
 11
5.6417839447
 21
4.473002731
 31
0.0
 11
5.6311603699
 21
4.4607120253
 31
0.0
 11
5.611443976
 21
4.4348938909
 31
0.0
 11
5.5938718376
 21
4.4075702903
 31
0.0
 11
5.5859283816
 21
4.3933978735
 31
0.0
 11
5.5785643909
 21
4.3789154941
 31
0.0
 11
5.5656175343
 21
4.3491184284
 31
0.0
 11
5.5600559678
 21
4.3338525714
 31
0.0
 11
5.555116464
 21
4.3183743982
 31
0.0
 11
5.5471344924
 21
4.2868824089
 31
0.0
 11
5.5417172494
 21
4.2548500571
 31
0.0
 11
5.5399834235
 21
4.2386965026
 31
0.0
 11
5.5389050606
 21
4.2224862636
 31
0.0
 11
5.5387152646
 21
4.1900016116
 31
0.0
 11
5.5411459947
 21
4.1576080739
 31
0.0
 11
5.5461874829
 21
4.1255169327
 31
0.0
 11
5.5538010338
 21
4.0939365702
 31
0.0
 11
5.558558005
 21
4.0784028263
 31
0.0
 11
5.563940202
 21
4.0630744541
 31
0.0
 11
5.5765400933
 21
4.0331319528
 31
0.0
 11
5.5915142801
 21
4.0043033155
 31
0.0
 11
5.5998640265
 21
3.9903670916
 31
0.0
 11
5.6087709033
 21
3.9767799892
 31
0.0
 11
5.6281928315
 21
3.9507390275
 31
0.0
 11
5.6386762516
 21
3.9383280941
 31
0.0
 11
5.6496534337
 21
3.9263520247
 31
0.0
 11
5.6730155473
 21
3.9037803168
 31
0.0
 11
5.6981235086
 21
3.8831672084
 31
0.0
 11
5.7112828974
 21
3.873639279
 31
0.0
 11
5.7248178904
 21
3.8646520068
 31
0.0
 11
5.7529209441
 21
3.8483529604
 31
0.0
 11
5.7822446015
 21
3.8343764454
 31
0.0
 11
5.812599684
 21
3.8228190181
 31
0.0
 11
5.8281040547
 21
3.8179694895
 31
0.0
 11
5.8437942397
 21
3.8137502319
 31
0.0
 11
5.859646184
 21
3.8101693551
 31
0.0
 11
5.87563422
 21
3.8072337778
 31
0.0
 11
5.8917279103
 21
3.8049468963
 31
0.0
 11
5.9078959401
 21
3.8033114582
 31
0.0
 11
5.9403297578
 21
3.8020059038
 31
0.0
  0
LINE
  5
24E
100
AcDbEntity
  8
0
100
AcDbLine
 62
6
  6
CONTINUOUS
 10
5.9403297578
 20
3.8020059038
 11
5.9405562721
 21
3.8020060391
  0
LINE
  5
24F
100
AcDbEntity
  8
0
100
AcDbLine
 62
6
  6
CONTINUOUS
 10
5.9405562721
 20
4.6017242181
 11
5.940349965
 21
4.601723981
  0
SPLINE
  5
250
100
AcDbEntity
  8
0
100
AcDbSpline
 62
6
  6
CONTINUOUS
 70
0
 71
3
 72
59
 73
55
 74
53
 42
0.0000001
 43
0.0000001
 44
0.0000000001
 12
-0.8736609571
 22
-0.5420230663
 32
0.0
 13
1.0281402377
 23
0.0003524092
 33
0.0
 40
0.0
 40
0.0
 40
0.0
 40
0.0
 40
0.0312239555
 40
0.0468541773
 40
0.0624881372
 40
0.0781212223
 40
0.0937505141
 40
0.1093767972
 40
0.1250012784
 40
0.1406251033
 40
0.1562494649
 40
0.1874956663
 40
0.2187445482
 40
0.2343721219
 40
0.2499994977
 40
0.2812474514
 40
0.3124943003
 40
0.3437404901
 40
0.3749861416
 40
0.3906118318
 40
0.4062375066
 40
0.4218633014
 40
0.4374892231
 40
0.4531152698
 40
0.4687415528
 40
0.4999889307
 40
0.5156161711
 40
0.5312434141
 40
0.5468706044
 40
0.5624978479
 40
0.5781251338
 40
0.5937523172
 40
0.6093792444
 40
0.6250058796
 40
0.6406323536
 40
0.6562586939
 40
0.6718847943
 40
0.6875105397
 40
0.7031359345
 40
0.7187611825
 40
0.7343864294
 40
0.7500117179
 40
0.7656371089
 40
0.781262784
 40
0.8125084408
 40
0.843752662
 40
0.8749943202
 40
0.8906192963
 40
0.9062462753
 40
0.9218763531
 40
0.9375101844
 40
0.9531447554
 40
0.9687754585
 40
1.0
 40
1.0
 40
1.0
 40
1.0
 10
5.7310386452
 20
4.5419151455
 30
0.0
 10
5.7219455949
 20
4.5362737775
 30
0.0
 10
5.7086360702
 20
4.5272491831
 30
0.0
 10
5.6916649651
 20
4.5141812953
 30
0.0
 10
5.6793316671
 20
4.5038681086
 30
0.0
 10
5.6674252953
 20
4.4930660027
 30
0.0
 10
5.6559682691
 20
4.4817919933
 30
0.0
 10
5.6449780242
 20
4.4700665975
 30
0.0
 10
5.6344710243
 20
4.4579088334
 30
0.0
 10
5.624463264
 20
4.4453374455
 30
0.0
 10
5.6118090417
 20
4.428051711
 30
0.0
 10
5.5973168326
 20
4.4055038017
 30
0.0
 10
5.5846858158
 20
4.3818619388
 30
0.0
 10
5.575752868
 20
4.3623868529
 30
0.0
 10
5.56761636
 20
4.3425662992
 30
0.0
 10
5.5589558983
 20
4.3171988928
 30
0.0
 10
5.5510521368
 20
4.2860244386
 30
0.0
 10
5.5456967964
 20
4.254313598
 30
0.0
 10
5.5433761786
 20
4.2276106734
 30
0.0
 10
5.542818568
 20
4.2061945471
 30
0.0
 10
5.5430511493
 20
4.1901262134
 30
0.0
 10
5.5439320689
 20
4.1740805423
 30
0.0
 10
5.5454594194
 20
4.1580833567
 30
0.0
 10
5.5476311276
 20
4.142160299
 30
0.0
 10
5.5513829496
 20
4.1210674905
 30
0.0
 10
5.5564137335
 20
4.1002179585
 30
0.0
 10
5.5626889322
 20
4.0797330118
 30
0.0
 10
5.5680125039
 20
4.0645686558
 30
0.0
 10
5.5739455654
 20
4.0496326066
 30
0.0
 10
5.5804788519
 20
4.0349490772
 30
0.0
 10
5.5875995646
 20
4.0205413132
 30
0.0
 10
5.5952956889
 20
4.006432641
 30
0.0
 10
5.603554892
 20
3.9926462766
 30
0.0
 10
5.6123653908
 20
3.9792058001
 30
0.0
 10
5.6217130721
 20
3.9661334987
 30
0.0
 10
5.6315808021
 20
3.9534494335
 30
0.0
 10
5.6419521282
 20
3.9411740449
 30
0.0
 10
5.6528103208
 20
3.9293275522
 30
0.0
 10
5.6641391492
 20
3.9179306783
 30
0.0
 10
5.6759200966
 20
3.9070020897
 30
0.0
 10
5.6881326867
 20
3.8965581282
 30
0.0
 10
5.7007568756
 20
3.8866156534
 30
0.0
 10
5.7137727769
 20
3.8771910278
 30
0.0
 10
5.7316198555
 20
3.8653403816
 30
0.0
 10
5.7548073175
 20
3.8518959235
 30
0.0
 10
5.7838350155
 20
3.8380602925
 30
0.0
 10
5.8088834342
 20
3.8285254387
 30
0.0
 10
5.8293291007
 20
3.8221315131
 30
0.0
 10
5.8448495071
 20
3.8179582248
 30
0.0
 10
5.8605288641
 20
3.8144159258
 30
0.0
 10
5.8763416483
 20
3.8115128746
 30
0.0
 10
5.8922595597
 20
3.8092516966
 30
0.0
 10
5.9135708158
 20
3.8070967387
 30
0.0
 10
5.9296388546
 20
3.8064487191
 30
0.0
 10
5.9403399238
 20
3.8064523871
 30
0.0
 11
5.7310386452
 21
4.5419151455
 31
0.0
 11
5.7044660184
 21
4.5239020147
 31
0.0
 11
5.6917332119
 21
4.5140978067
 31
0.0
 11
5.6794025611
 21
4.5037863837
 31
0.0
 11
5.6674989242
 21
4.4929861562
 31
0.0
 11
5.6560450009
 21
4.4817156742
 31
0.0
 11
5.645057941
 21
4.4699938468
 31
0.0
 11
5.6345540151
 21
4.4578396402
 31
0.0
 11
5.6245494939
 21
4.4452720202
 31
0.0
 11
5.6150606399
 21
4.4323099642
 31
0.0
 11
5.5976896375
 21
4.4052859995
 31
0.0
 11
5.5825509989
 21
4.3769479493
 31
0.0
 11
5.5758523905
 21
4.3623435662
 31
0.0
 11
5.5697504726
 21
4.347480208
 31
0.0
 11
5.5593704907
 21
4.3170759628
 31
0.0
 11
5.5514767986
 21
4.2859346913
 31
0.0
 11
5.5461252136
 21
4.2542581044
 31
0.0
 11
5.5433450851
 21
4.2222537149
 31
0.0
 11
5.5429270391
 21
4.2061937531
 31
0.0
 11
5.5431592037
 21
4.1901300448
 31
0.0
 11
5.5440398025
 21
4.1740886878
 31
0.0
 11
5.5455668041
 21
4.1580957816
 31
0.0
 11
5.5477381767
 21
4.1421774257
 31
0.0
 11
5.5505518173
 21
4.1263597096
 31
0.0
 11
5.5580857205
 21
4.0951288849
 31
0.0
 11
5.5627917058
 21
4.0797665267
 31
0.0
 11
5.5681140918
 21
4.0646066901
 31
0.0
 11
5.5740455948
 21
4.0496747123
 31
0.0
 11
5.5805767504
 21
4.034995051
 31
0.0
 11
5.5876954914
 21
4.0205911148
 31
0.0
 11
5.5953895976
 21
4.0064862506
 31
0.0
 11
5.6036468492
 21
3.9927038054
 31
0.0
 11
5.6124549712
 21
3.9792670893
 31
0.0
 11
5.6217997926
 21
3.9661981435
 31
0.0
 11
5.631664813
 21
3.9535174502
 31
0.0
 11
5.6420333888
 21
3.9412453957
 31
0.0
 11
5.6528888766
 21
3.9294023664
 31
0.0
 11
5.6642145587
 21
3.9180086708
 31
0.0
 11
5.6759920417
 21
3.9070828564
 31
0.0
 11
5.6882012691
 21
3.8966417234
 31
0.0
 11
5.7008221133
 21
3.8867019973
 31
0.0
 11
5.7138344466
 21
3.8772804035
 31
0.0
 11
5.7272179779
 21
3.868393462
 31
0.0
 11
5.7550085698
 21
3.852278456
 31
0.0
 11
5.7840074728
 21
3.8384589334
 31
0.0
 11
5.8140264405
 21
3.8270305535
 31
0.0
 11
5.8293588203
 21
3.8222355899
 31
0.0
 11
5.8448744763
 21
3.8180637642
 31
0.0
 11
5.8605494173
 21
3.8145228147
 31
0.0
 11
5.8763588854
 21
3.8116199086
 31
0.0
 11
5.8922736014
 21
3.8093588447
 31
0.0
 11
5.908262635
 21
3.8077421919
 31
0.0
 11
5.9403399238
 21
3.8064523871
 31
0.0
  0
LINE
  5
251
100
AcDbEntity
  8
0
100
AcDbLine
 62
6
  6
CONTINUOUS
 10
5.9403399238
 20
3.8064523871
 11
5.9405562721
 21
3.8064525205
  0
LINE
  5
252
100
AcDbEntity
  8
0
100
AcDbLine
 62
6
  6
CONTINUOUS
 10
5.9405562721
 20
4.5972777357
 11
5.9403260128
 21
4.597277461
  0
SPLINE
  5
253
100
AcDbEntity
  8
0
100
AcDbSpline
 62
6
  6
CONTINUOUS
 70
0
 71
3
 72
45
 73
41
 74
39
 42
0.0000001
 43
0.0000001
 44
0.0000000001
 12
-0.3552189516
 22
-0.715152913
 32
0.0
 13
0.7985137011
 23
0.000248344
 33
0.0
 40
0.0
 40
0.0
 40
0.0
 40
0.0
 40
0.0312486316
 40
0.0624967194
 40
0.0937442717
 40
0.1249918318
 40
0.1562390783
 40
0.1718644915
 40
0.1874899158
 40
0.218737243
 40
0.2499850495
 40
0.265611051
 40
0.2812372404
 40
0.3124866209
 40
0.3437369284
 40
0.3749873975
 40
0.4062381267
 40
0.4374892232
 40
0.4687398348
 40
0.4843667489
 40
0.4999935064
 40
0.5312428484
 40
0.5624915342
 40
0.5781174404
 40
0.5937431196
 40
0.6249905109
 40
0.6562384577
 40
0.6874874029
 40
0.7187382469
 40
0.7499900072
 40
0.7812403142
 40
0.7968662557
 40
0.8124915541
 40
0.8437388782
 40
0.8749911639
 40
0.8906227309
 40
0.9062574807
 40
0.9375265419
 40
0.9687817367
 40
1.0
 40
1.0
 40
1.0
 40
1.0
 10
5.5884365334
 20
4.3788520961
 30
0.0
 10
5.5847364981
 20
4.3714029128
 30
0.0
 10
5.5778065514
 20
4.3562658435
 30
0.0
 10
5.5688708109
 20
4.3329516489
 30
0.0
 10
5.5614354886
 20
4.3091155085
 30
0.0
 10
5.5555264459
 20
4.2848570712
 30
0.0
 10
5.5518909665
 20
4.2643685912
 30
0.0
 10
5.5497675346
 20
4.2478670453
 30
0.0
 10
5.5481704164
 20
4.231306196
 30
0.0
 10
5.5471609304
 20
4.2105224545
 30
0.0
 10
5.5474692225
 20
4.1897163514
 30
0.0
 10
5.54850677
 20
4.1731105664
 30
0.0
 10
5.5500722011
 20
4.1565458308
 30
0.0
 10
5.5530158251
 20
4.1359450215
 30
0.0
 10
5.5581058984
 20
4.1114994498
 30
0.0
 10
5.5647345992
 20
4.087424479
 30
0.0
 10
5.5728828628
 20
4.0638202235
 30
0.0
 10
5.5825106642
 20
4.0407804452
 30
0.0
 10
5.5917344319
 20
4.0221254059
 30
0.0
 10
5.5998119531
 20
4.0075782831
 30
0.0
 10
5.608348645
 20
3.9932961106
 30
0.0
 10
5.6198633698
 20
3.9759628602
 30
0.0
 10
5.6324526722
 20
3.9593939128
 30
0.0
 10
5.6431376481
 20
3.9466399961
 30
0.0
 10
5.6542229293
 20
3.934232956
 30
0.0
 10
5.6688115998
 20
3.9193946383
 30
0.0
 10
5.6874094439
 20
3.9027351493
 30
0.0
 10
5.7070276297
 20
3.8872877443
 30
0.0
 10
5.727591041
 20
3.8731211758
 30
0.0
 10
5.7490107572
 20
3.8602865412
 30
0.0
 10
5.7675036382
 20
3.8507421499
 30
0.0
 10
5.7826362011
 20
3.8438250361
 30
0.0
 10
5.7979807162
 20
3.837393711
 30
0.0
 10
5.8175340367
 20
3.8302732646
 30
0.0
 10
5.8375013152
 20
3.824407177
 30
0.0
 10
5.8536751396
 20
3.8204827038
 30
0.0
 10
5.8699702434
 20
3.8170753867
 30
0.0
 10
5.8905288232
 20
3.8137922113
 30
0.0
 10
5.9153831236
 20
3.8114228199
 30
0.0
 10
5.9320167999
 20
3.8108962804
 30
0.0
 10
5.9403262035
 20
3.8108988647
 30
0.0
 11
5.5884365334
 21
4.3788520961
 31
0.0
 11
5.5780496791
 21
4.3561642448
 31
0.0
 11
5.5691208175
 21
4.3328644786
 31
0.0
 11
5.5616898588
 21
4.3090450918
 31
0.0
 11
5.5557841876
 21
4.2848024497
 31
0.0
 11
5.5514256286
 21
4.2602347247
 31
0.0
 11
5.5498333282
 21
4.2478596375
 31
0.0
 11
5.5486354295
 21
4.2354401584
 31
0.0
 11
5.5474244822
 21
4.2105181406
 31
0.0
 11
5.5477944749
 21
4.1855690811
 31
0.0
 11
5.5485727512
 21
4.1731158
 31
0.0
 11
5.5497466978
 21
4.1606934203
 31
0.0
 11
5.5532754071
 21
4.1359911248
 31
0.0
 11
5.5583623131
 21
4.1115613168
 31
0.0
 11
5.5649878285
 21
4.0875030311
 31
0.0
 11
5.5731294164
 21
4.0639144006
 31
0.0
 11
5.5827508005
 21
4.040889359
 31
0.0
 11
5.5938117079
 21
4.0185206181
 31
0.0
 11
5.5998693947
 21
4.0076113311
 31
0.0
 11
5.6062712099
 21
3.996900507
 31
0.0
 11
5.6200784078
 21
3.9761155379
 31
0.0
 11
5.6351746439
 21
3.9562476956
 31
0.0
 11
5.6431877568
 21
3.9466832799
 31
0.0
 11
5.6515009921
 21
3.9373787851
 31
0.0
 11
5.6689934261
 21
3.9195857902
 31
0.0
 11
5.6875791788
 21
3.9029374314
 31
0.0
 11
5.7071846242
 21
3.8875016174
 31
0.0
 11
5.727733505
 21
3.8733433334
 31
0.0
 11
5.7491396914
 21
3.8605165951
 31
0.0
 11
5.7713147388
 21
3.8490728465
 31
0.0
 11
5.7826629439
 21
3.8438856536
 31
0.0
 11
5.794170049
 21
3.8390625377
 31
0.0
 11
5.8176152526
 21
3.8305246416
 31
0.0
 11
5.8415588423
 21
3.8234907606
 31
0.0
 11
5.85368893
 21
3.8205476637
 31
0.0
 11
5.8659091725
 21
3.8179922819
 31
0.0
 11
5.8905652848
 21
3.8140532656
 31
0.0
 11
5.9154104004
 21
3.8116853251
 31
0.0
 11
5.9403262035
 21
3.8108988647
 31
0.0
  0
LINE
  5
254
100
AcDbEntity
  8
0
100
AcDbLine
 62
6
  6
CONTINUOUS
 10
5.9403262035
 20
3.8108988647
 11
5.9405562721
 21
3.8108990042
  0
LINE
  5
255
100
AcDbEntity
  8
0
100
AcDbLine
 62
6
  6
CONTINUOUS
 10
5.9405562721
 20
4.5995009779
 11
5.9403254153
 21
4.5995007038
  0
SPLINE
  5
256
100
AcDbEntity
  8
0
100
AcDbSpline
 62
6
  6
CONTINUOUS
 70
0
 71
3
 72
45
 73
41
 74
39
 42
0.0000001
 43
0.0000001
 44
0.0000000001
 12
-0.3570524628
 22
-0.7192002889
 32
0.0
 13
0.8029542044
 23
0.0002498921
 33
0.0
 40
0.0
 40
0.0
 40
0.0
 40
0.0
 40
0.0312500633
 40
0.0624995053
 40
0.0937481159
 40
0.1249964136
 40
0.156244088
 40
0.1718695828
 40
0.1874949926
 40
0.2187421124
 40
0.2499896639
 40
0.2812377786
 40
0.3124872676
 40
0.34373789
 40
0.3593653032
 40
0.3749927226
 40
0.4062438778
 40
0.4374955147
 40
0.4531232506
 40
0.4687508287
 40
0.4843782296
 40
0.5000055365
 40
0.531256071
 40
0.5625058293
 40
0.5937540008
 40
0.6250011195
 40
0.6562482359
 40
0.6874959906
 40
0.7187454556
 40
0.7499958976
 40
0.7812450502
 40
0.7968704818
 40
0.8124952738
 40
0.8437415891
 40
0.8749929193
 40
0.8906240407
 40
0.9062583828
 40
0.9375268872
 40
0.9687818128
 40
1.0
 40
1.0
 40
1.0
 40
1.0
 10
5.586411372
 20
4.3797722663
 30
0.0
 10
5.5826920679
 20
4.3722805814
 30
0.0
 10
5.5757262207
 20
4.3570573121
 30
0.0
 10
5.5667447414
 20
4.3336108549
 30
0.0
 10
5.559272187
 20
4.3096399935
 30
0.0
 10
5.5533347534
 20
4.2852449516
 30
0.0
 10
5.5496827379
 20
4.2646415577
 30
0.0
 10
5.5475502336
 20
4.2480477522
 30
0.0
 10
5.5459469486
 20
4.2313946295
 30
0.0
 10
5.5449354719
 20
4.2104949107
 30
0.0
 10
5.5453113031
 20
4.1853909669
 30
0.0
 10
5.5472788136
 20
4.1603600061
 30
0.0
 10
5.5508344907
 20
4.1355047493
 30
0.0
 10
5.5551032216
 20
4.1150186194
 30
0.0
 10
5.5592910982
 20
4.0988191026
 30
0.0
 10
5.5639911059
 20
4.0827604624
 30
0.0
 10
5.5708220324
 20
4.0629801134
 30
0.0
 10
5.5788933914
 20
4.0436726399
 30
0.0
 10
5.5860730379
 20
4.0285588551
 30
0.0
 10
5.5918150253
 20
4.0173990125
 30
0.0
 10
5.5979087486
 20
4.0064273768
 30
0.0
 10
5.6064947713
 20
3.9920663859
 30
0.0
 10
5.6180764557
 20
3.9746372976
 30
0.0
 10
5.633268869
 20
3.9546468761
 30
0.0
 10
5.6496985872
 20
3.9356606071
 30
0.0
 10
5.6673027821
 20
3.917759156
 30
0.0
 10
5.686005608
 20
3.9010091107
 30
0.0
 10
5.705733341
 20
3.8854780404
 30
0.0
 10
5.7264111854
 20
3.8712345939
 30
0.0
 10
5.7479501279
 20
3.8583307873
 30
0.0
 10
5.7665457662
 20
3.8487349263
 30
0.0
 10
5.7817622766
 20
3.8417803016
 30
0.0
 10
5.7971919085
 20
3.8353141053
 30
0.0
 10
5.8168536423
 20
3.8281551186
 30
0.0
 10
5.8369315401
 20
3.8222572936
 30
0.0
 10
5.8531949394
 20
3.8183115422
 30
0.0
 10
5.8695803572
 20
3.8148856779
 30
0.0
 10
5.8902529931
 20
3.811584665
 30
0.0
 10
5.9152452912
 20
3.8092024133
 30
0.0
 10
5.9319713732
 20
3.8086730233
 30
0.0
 10
5.9403269648
 20
3.8086756237
 30
0.0
 11
5.586411372
 21
4.3797722663
 31
0.0
 11
5.5759706867
 21
4.3569551856
 31
0.0
 11
5.5669961297
 21
4.3335231697
 31
0.0
 11
5.5595279967
 21
4.3095691402
 31
0.0
 11
5.5535938957
 21
4.285190002
 31
0.0
 11
5.5492154687
 21
4.260484533
 31
0.0
 11
5.5476163851
 21
4.248040296
 31
0.0
 11
5.5464138804
 21
4.2355515663
 31
0.0
 11
5.5452004027
 21
4.210490921
 31
0.0
 11
5.5455765697
 21
4.1854033869
 31
0.0
 11
5.5475434516
 21
4.1603897919
 31
0.0
 11
5.5510955333
 21
4.1355505758
 31
0.0
 11
5.5562143815
 21
4.1109854175
 31
0.0
 11
5.5593551135
 21
4.0988367321
 31
0.0
 11
5.5628800614
 21
4.0867939074
 31
0.0
 11
5.5710700609
 21
4.0630748226
 31
0.0
 11
5.5807481775
 21
4.0399226186
 31
0.0
 11
5.5861325512
 21
4.0285881676
 31
0.0
 11
5.5918736793
 21
4.0174303216
 31
0.0
 11
5.5979664699
 21
4.0064607085
 31
0.0
 11
5.6044053471
 21
3.9956906818
 31
0.0
 11
5.6182924277
 21
3.9747910392
 31
0.0
 11
5.6334754504
 21
3.9548137869
 31
0.0
 11
5.6498946027
 21
3.9358411148
 31
0.0
 11
5.6674858995
 21
3.917951042
 31
0.0
 11
5.6861762133
 21
3.9012124486
 31
0.0
 11
5.7058912046
 21
3.8856930036
 31
0.0
 11
5.7265544315
 21
3.871458046
 31
0.0
 11
5.7480796953
 21
3.8585621023
 31
0.0
 11
5.7703779686
 21
3.847056565
 31
0.0
 11
5.7817891616
 21
3.8418412508
 31
0.0
 11
5.793360098
 21
3.8369919857
 31
0.0
 11
5.8169352739
 21
3.8284078643
 31
0.0
 11
5.8410115189
 21
3.8213359085
 31
0.0
 11
5.8532087917
 21
3.8183768503
 31
0.0
 11
5.8654967229
 21
3.8158075784
 31
0.0
 11
5.8902895733
 21
3.8118471525
 31
0.0
 11
5.9152726637
 21
3.8094663501
 31
0.0
 11
5.9403269648
 21
3.8086756237
 31
0.0
  0
LINE
  5
257
100
AcDbEntity
  8
0
100
AcDbLine
 62
6
  6
CONTINUOUS
 10
5.9403269648
 20
3.8086756237
 11
5.9405562721
 21
3.8086757622
  0
LINE
  5
258
100
AcDbEntity
  8
0
100
AcDbLine
 62
6
  6
CONTINUOUS
 10
5.9405562721
 20
4.5950544947
 11
5.9403518649
 21
4.5950542563
  0
SPLINE
  5
259
100
AcDbEntity
  8
0
100
AcDbSpline
 62
6
  6
CONTINUOUS
 70
0
 71
3
 72
43
 73
39
 74
37
 42
0.0000001
 43
0.0000001
 44
0.0000000001
 12
-0.3532776587
 22
-0.7110886842
 32
0.0
 13
0.7940101707
 23
0.0002641995
 33
0.0
 40
0.0
 40
0.0
 40
0.0
 40
0.0
 40
0.0312208419
 40
0.0624764736
 40
0.0937435343
 40
0.125002192
 40
0.1562511784
 40
0.187495849
 40
0.2031201923
 40
0.2187453002
 40
0.2499935989
 40
0.2812432571
 40
0.2968701211
 40
0.3124969686
 40
0.3437468903
 40
0.3749967283
 40
0.4062459986
 40
0.4374951284
 40
0.4687441447
 40
0.4999925889
 40
0.5312408377
 40
0.5624891894
 40
0.5937372398
 40
0.6249852777
 40
0.6562340903
 40
0.6874838101
 40
0.7031111452
 40
0.7187389356
 40
0.7499912663
 40
0.7812426519
 40
0.7968692727
 40
0.8124950784
 40
0.8437425765
 40
0.8749940211
 40
0.9062545029
 40
0.9375226095
 40
0.968778771
 40
1.0
 40
1.0
 40
1.0
 40
1.0
 10
5.5904314129
 20
4.3778740238
 30
0.0
 10
5.5867548709
 20
4.3704737614
 30
0.0
 10
5.5798680709
 20
4.3554260003
 30
0.0
 10
5.5709850864
 20
4.332242767
 30
0.0
 10
5.5635811829
 20
4.3085339617
 30
0.0
 10
5.5577014033
 20
4.2844038099
 30
0.0
 10
5.5533663635
 20
4.2599554811
 30
0.0
 10
5.5510517245
 20
4.2393947798
 30
0.0
 10
5.5499862406
 20
4.2228864046
 30
0.0
 10
5.5494462134
 20
4.206351488
 30
0.0
 10
5.5497548948
 20
4.185662259
 30
0.0
 10
5.5513725211
 20
4.1650335691
 30
0.0
 10
5.5534496444
 20
4.1486192415
 30
0.0
 10
5.5560484363
 20
4.132279368
 30
0.0
 10
5.5602686773
 20
4.1120214334
 30
0.0
 10
5.5668613009
 20
4.0880838939
 30
0.0
 10
5.5749593591
 20
4.0646124006
 30
0.0
 10
5.5845341078
 20
4.0417040222
 30
0.0
 10
5.5955401262
 20
4.0194481858
 30
0.0
 10
5.6079348564
 20
3.9979349003
 30
0.0
 10
5.6216737782
 20
3.9772543917
 30
0.0
 10
5.6366954641
 20
3.9574862814
 30
0.0
 10
5.6529394575
 20
3.938709582
 30
0.0
 10
5.6703458705
 20
3.9210047118
 30
0.0
 10
5.6888400283
 20
3.9044396167
 30
0.0
 10
5.705097706
 20
3.8916382048
 30
0.0
 10
5.7185708405
 20
3.8820345269
 30
0.0
 10
5.7323436343
 20
3.8728644399
 30
0.0
 10
5.7500951361
 20
3.8622287718
 30
0.0
 10
5.7684844284
 20
3.8527390592
 30
0.0
 10
5.7835321115
 20
3.8458604157
 30
0.0
 10
5.798790269
 20
3.8394649977
 30
0.0
 10
5.8182338062
 20
3.8323851498
 30
0.0
 10
5.8420586373
 20
3.8253861098
 30
0.0
 10
5.8662860953
 20
3.8199144601
 30
0.0
 10
5.8908143011
 20
3.8159978555
 30
0.0
 10
5.9155296783
 20
3.8136423781
 30
0.0
 10
5.9320705106
 20
3.8131193565
 30
0.0
 10
5.9403338351
 20
3.813122106
 30
0.0
 11
5.5904314129
 21
4.3778740238
 31
0.0
 11
5.5801132945
 21
4.3553337479
 31
0.0
 11
5.5712331969
 21
4.3321595858
 31
0.0
 11
5.5638345585
 21
4.3084613035
 31
0.0
 11
5.5579581243
 21
4.2843473096
 31
0.0
 11
5.5536256929
 21
4.2599164664
 31
0.0
 11
5.5508509354
 21
4.2352635408
 31
0.0
 11
5.5500519414
 21
4.2228834088
 31
0.0
 11
5.5496467957
 21
4.2104835304
 31
0.0
 11
5.5500166577
 21
4.185674819
 31
0.0
 11
5.5519569563
 21
4.1609382515
 31
0.0
 11
5.5535148564
 21
4.1486285532
 31
0.0
 11
5.5554636592
 21
4.1363746735
 31
0.0
 11
5.5605234326
 21
4.112083284
 31
0.0
 11
5.5671122616
 21
4.0881613914
 31
0.0
 11
5.5752054998
 21
4.0647061842
 31
0.0
 11
5.5847726809
 21
4.0418127189
 31
0.0
 11
5.595771668
 21
4.0195717765
 31
0.0
 11
5.6081589302
 21
3.9980736271
 31
0.0
 11
5.6218875666
 21
3.9774064662
 31
0.0
 11
5.6368992383
 21
3.9576514475
 31
0.0
 11
5.6531331814
 21
3.9388882317
 31
0.0
 11
5.6705269588
 21
3.9211948658
 31
0.0
 11
5.6890088674
 21
3.9046404627
 31
0.0
 11
5.7085040157
 21
3.8892910604
 31
0.0
 11
5.71860813
 21
3.8820888467
 31
0.0
 11
5.7289366957
 21
3.8752117317
 31
0.0
 11
5.7502229648
 21
3.8624578073
 31
0.0
 11
5.7722740952
 21
3.8510789566
 31
0.0
 11
5.7835587375
 21
3.8459206837
 31
0.0
 11
5.7950012613
 21
3.8411244849
 31
0.0
 11
5.8183144984
 21
3.8326350564
 31
0.0
 11
5.8421225449
 21
3.8256414992
 31
0.0
 11
5.8663340392
 21
3.8201740843
 31
0.0
 11
5.8908503584
 21
3.8162574841
 31
0.0
 11
5.9155561782
 21
3.8139034941
 31
0.0
 11
5.9403338351
 21
3.813122106
 31
0.0
  0
LINE
  5
25A
100
AcDbEntity
  8
0
100
AcDbLine
 62
6
  6
CONTINUOUS
 10
5.9403338351
 20
3.813122106
 11
5.9405562721
 21
3.8131222438
  0
LINE
  5
25B
100
AcDbEntity
  8
0
100
AcDbLine
 62
6
  6
CONTINUOUS
 10
5.9405562721
 20
4.5928312547
 11
5.9403220763
 21
4.5928309709
  0
SPLINE
  5
25C
100
AcDbEntity
  8
0
100
AcDbSpline
 62
6
  6
CONTINUOUS
 70
0
 71
3
 72
68
 73
64
 74
62
 42
0.0000001
 43
0.0000001
 44
0.0000000001
 12
-1.220649732
 22
-0.0018490933
 32
0.0
 13
1.2206510685
 23
0.0003952482
 33
0.0
 40
0.0
 40
0.0
 40
0.0
 40
0.0
 40
0.0156075753
 40
0.0312314162
 40
0.0468646836
 40
0.0625005452
 40
0.0781330344
 40
0.0937613079
 40
0.1093869458
 40
0.1250113864
 40
0.1406361319
 40
0.1562621188
 40
0.1718889347
 40
0.187515873
 40
0.2031423032
 40
0.2187680252
 40
0.2343932975
 40
0.2500182041
 40
0.2656427796
 40
0.2812672639
 40
0.2968919479
 40
0.3125168212
 40
0.328141791
 40
0.3437669483
 40
0.3593925191
 40
0.3750184016
 40
0.3906443332
 40
0.4062701669
 40
0.4218960472
 40
0.4375219778
 40
0.468763659
 40
0.5000042142
 40
0.5156290943
 40
0.5312538807
 40
0.546878753
 40
0.5625039012
 40
0.5781291637
 40
0.5937542732
 40
0.6093791344
 40
0.6250039661
 40
0.64062884
 40
0.6562536647
 40
0.6718784535
 40
0.6875034446
 40
0.7031286311
 40
0.7187537646
 40
0.7343786351
 40
0.7500033561
 40
0.7656282171
 40
0.7812532991
 40
0.7968786764
 40
0.8125046195
 40
0.8437479765
 40
0.8593734294
 40
0.8749974805
 40
0.8906208309
 40
0.9062450685
 40
0.921871729
 40
0.9375024857
 40
0.9531369561
 40
0.9687693031
 40
0.984392622
 40
1.0
 40
1.0
 40
1.0
 40
1.0
 10
5.9403220763
 20
4.5928309709
 30
0.0
 10
5.9339716155
 20
4.592821351
 30
0.0
 10
5.9212623678
 20
4.5924889102
 30
0.0
 10
5.9022404408
 20
4.5910577632
 30
0.0
 10
5.8832991508
 20
4.5886984463
 30
0.0
 10
5.8644923306
 20
4.5854159554
 30
0.0
 10
5.8458715441
 20
4.5812131842
 30
0.0
 10
5.8274836939
 20
4.5761021573
 30
0.0
 10
5.8093712379
 20
4.5700981223
 30
0.0
 10
5.7915756523
 20
4.5632153416
 30
0.0
 10
5.7741390217
 20
4.5554676656
 30
0.0
 10
5.7571030509
 20
4.5468726812
 30
0.0
 10
5.7405070383
 20
4.5374544661
 30
0.0
 10
5.7243911296
 20
4.527236089
 30
0.0
 10
5.7087953412
 20
4.516240874
 30
0.0
 10
5.6937598952
 20
4.5044921294
 30
0.0
 10
5.6793187304
 20
4.4920211892
 30
0.0
 10
5.6655053508
 20
4.4788589705
 30
0.0
 10
5.6523530309
 20
4.4650365391
 30
0.0
 10
5.6398960751
 20
4.4505843849
 30
0.0
 10
5.628162819
 20
4.435538662
 30
0.0
 10
5.6171796116
 20
4.4199367722
 30
0.0
 10
5.6069729934
 20
4.4038158614
 30
0.0
 10
5.5975705863
 20
4.3872126695
 30
0.0
 10
5.5889948806
 20
4.3701674057
 30
0.0
 10
5.5812635453
 20
4.3527226211
 30
0.0
 10
5.5743951135
 20
4.3349202362
 30
0.0
 10
5.5684085218
 20
4.3168023234
 30
0.0
 10
5.563320407
 20
4.2984114287
 30
0.0
 10
5.5577466273
 20
4.2735936248
 30
0.0
 10
5.5530668261
 20
4.242104072
 30
0.0
 10
5.5515045202
 20
4.210307421
 30
0.0
 10
5.5521233775
 20
4.1848802673
 30
0.0
 10
5.5535213129
 20
4.1658510419
 30
0.0
 10
5.5558537196
 20
4.146913936
 30
0.0
 10
5.5591130116
 20
4.1281139136
 30
0.0
 10
5.5632888597
 20
4.109495974
 30
0.0
 10
5.5683713816
 20
4.0911049245
 30
0.0
 10
5.5743516451
 20
4.0729860345
 30
0.0
 10
5.5812154593
 20
4.0551832089
 30
0.0
 10
5.5889430693
 20
4.0377380239
 30
0.0
 10
5.5975158248
 20
4.0206922451
 30
0.0
 10
5.6069153451
 20
4.0040879173
 30
0.0
 10
5.6171207795
 20
3.9879662398
 30
0.0
 10
5.6281040616
 20
3.972363989
 30
0.0
 10
5.6398382654
 20
3.957318405
 30
0.0
 10
5.6522962581
 20
3.9428665972
 30
0.0
 10
5.6654506986
 20
3.9290458753
 30
0.0
 10
5.6792673754
 20
3.9158870762
 30
0.0
 10
5.6937122787
 20
3.9034210122
 30
0.0
 10
5.7087521247
 20
3.8916777207
 30
0.0
 10
5.729547009
 20
3.8770301492
 30
0.0
 10
5.7513991142
 20
3.8639319039
 30
0.0
 10
5.7741162473
 20
3.8524921463
 30
0.0
 10
5.7915586781
 20
3.8447585115
 30
0.0
 10
5.8093593969
 20
3.837892886
 30
0.0
 10
5.8274766098
 20
3.8319083178
 30
0.0
 10
5.8458685202
 20
3.8268190848
 30
0.0
 10
5.8644926797
 20
3.822639921
 30
0.0
 10
5.8833024203
 20
3.8193835914
 30
0.0
 10
5.9022461521
 20
3.8170530478
 30
0.0
 10
5.9212697766
 20
3.8156531894
 30
0.0
 10
5.9339793333
 20
3.8153432891
 30
0.0
 10
5.9403297208
 20
3.8153453453
 30
0.0
 11
5.9403220763
 21
4.5928309709
 31
0.0
 11
5.921277157
 21
4.5923339201
 31
0.0
 11
5.9022596083
 21
4.5909036173
 31
0.0
 11
5.8833231897
 21
4.5885448057
 31
0.0
 11
5.8645216607
 21
4.5852622287
 31
0.0
 11
5.8459080306
 21
4.5810612215
 31
0.0
 11
5.8275280434
 21
4.575952856
 31
0.0
 11
5.8094233642
 21
4.5699514239
 31
0.0
 11
5.791635613
 21
4.5630712528
 31
0.0
 11
5.7742064
 21
4.5553267337
 31
0.0
 11
5.7571768066
 21
4.546735704
 31
0.0
 11
5.7405871252
 21
4.537321145
 31
0.0
 11
5.7244775836
 21
4.5271064586
 31
0.0
 11
5.7088884095
 21
4.5161150466
 31
0.0
 11
5.6938587205
 21
4.5043715822
 31
0.0
 11
5.6794231933
 21
4.491905824
 31
0.0
 11
5.6656153941
 21
4.4787488023
 31
0.0
 11
5.6524688893
 21
4.4649315472
 31
0.0
 11
5.6400167557
 21
4.4504855355
 31
0.0
 11
5.6282878927
 21
4.4354460558
 31
0.0
 11
5.6173090828
 21
4.419850328
 31
0.0
 11
5.6071070917
 21
4.4037355875
 31
0.0
 11
5.5977084781
 21
4.387139194
 31
0.0
 11
5.5891356862
 21
4.3701009808
 31
0.0
 11
5.5814073776
 21
4.3526630557
 31
0.0
 11
5.5745420734
 21
4.3348676106
 31
0.0
 11
5.5685582732
 21
4.3167568445
 31
0.0
 11
5.563471597
 21
4.298373874
 31
0.0
 11
5.5592919106
 21
4.2797636498
 31
0.0
 11
5.5536902331
 21
4.2420421148
 31
0.0
 11
5.5518149529
 21
4.2039544334
 31
0.0
 11
5.552279
 21
4.184887552
 31
0.0
 11
5.5536770523
 21
4.165866448
 31
0.0
 11
5.5560081792
 21
4.1469369262
 31
0.0
 11
5.5592657595
 21
4.1281443223
 31
0.0
 11
5.5634399924
 21
4.1095337099
 31
0.0
 11
5.5685210428
 21
4.0911501598
 31
0.0
 11
5.5744989125
 21
4.0730386854
 31
0.0
 11
5.5813594197
 21
4.0552428293
 31
0.0
 11
5.5890839368
 21
4.0378045709
 31
0.0
 11
5.5976536217
 21
4.0207658142
 31
0.0
 11
5.6070496089
 21
4.0041684504
 31
0.0
 11
5.617250364
 21
3.9880528967
 31
0.0
 11
5.6282292335
 21
3.9724567434
 31
0.0
 11
5.6399589849
 21
3.9574172606
 31
0.0
 11
5.6524123855
 21
3.942971719
 31
0.0
 11
5.6655610205
 21
3.9291562457
 31
0.0
 11
5.6793719801
 21
3.9160026222
 31
0.0
 11
5.6938112858
 21
3.9035415966
 31
0.0
 11
5.7088449596
 21
3.8918039175
 31
0.0
 11
5.7244384978
 21
3.88081973
 31
0.0
 11
5.7571486296
 21
3.861211153
 31
0.0
 11
5.7741840007
 21
3.852633035
 31
0.0
 11
5.7916187309
 21
3.8449030356
 31
0.0
 11
5.8094116377
 21
3.8380399052
 31
0.0
 11
5.827520967
 21
3.8320579672
 31
0.0
 11
5.8459049377
 21
3.8269713343
 31
0.0
 11
5.8645217514
 21
3.8227941065
 31
0.0
 11
5.883326109
 21
3.8195377097
 31
0.0
 11
5.9022649546
 21
3.817207646
 31
0.0
 11
5.9212841909
 21
3.8158086223
 31
0.0
 11
5.9403297208
 21
3.8153453453
 31
0.0
  0
LINE
  5
25D
100
AcDbEntity
  8
0
100
AcDbLine
 62
6
  6
CONTINUOUS
 10
5.9403297208
 20
3.8153453453
 11
5.9405562721
 21
3.8153454853
  0
LINE
  5
25E
100
AcDbEntity
  8
0
100
AcDbLine
 62
6
  6
CONTINUOUS
 10
5.9405562721
 20
4.5906080126
 11
5.9403224247
 21
4.5906077276
  0
LINE
  5
25F
100
AcDbEntity
  8
0
100
AcDbLine
 62
6
  6
CONTINUOUS
 10
5.9403298594
 20
3.8175685867
 11
5.9405562721
 21
3.8175687274
  0
LINE
  5
260
100
AcDbEntity
  8
0
100
AcDbLine
 62
6
  6
CONTINUOUS
 10
5.9405562721
 20
3.7997827973
 11
5.9407903992
 21
3.7997830708
  0
SPLINE
  5
261
100
AcDbEntity
  8
0
100
AcDbSpline
 62
6
  6
CONTINUOUS
 70
0
 71
3
 72
68
 73
64
 74
62
 42
0.0000001
 43
0.0000001
 44
0.0000000001
 12
1.2660432367
 22
0.001848998
 32
0.0
 13
-1.2660445252
 23
-0.00039525
 33
0.0
 40
0.0
 40
0.0
 40
0.0
 40
0.0
 40
0.0156075646
 40
0.0312313997
 40
0.0468646652
 40
0.0625005273
 40
0.0781330174
 40
0.0937612909
 40
0.1093869286
 40
0.1250113691
 40
0.1406361152
 40
0.156262103
 40
0.1718889197
 40
0.1875158573
 40
0.203142284
 40
0.218767999
 40
0.2343932648
 40
0.2500181699
 40
0.265642754
 40
0.2812672612
 40
0.2968919837
 40
0.312516911
 40
0.3281419498
 40
0.3437671909
 40
0.3593928578
 40
0.3750188421
 40
0.3906448719
 40
0.4062707889
 40
0.4218967314
 40
0.4375227106
 40
0.4687644628
 40
0.5000050458
 40
0.5156299231
 40
0.5312546896
 40
0.5468795176
 40
0.5625046073
 40
0.5781298127
 40
0.5937548792
 40
0.60937972
 40
0.6250045552
 40
0.6406294526
 40
0.6562543138
 40
0.6718791432
 40
0.6875041737
 40
0.7031293997
 40
0.7187545703
 40
0.7343794692
 40
0.7500042013
 40
0.7656290589
 40
0.7812541269
 40
0.7968794793
 40
0.8125053855
 40
0.8437486504
 40
0.8593740413
 40
0.8749980069
 40
0.8906212389
 40
0.906245345
 40
0.9218718833
 40
0.9375025485
 40
0.9531369721
 40
0.9687693047
 40
0.9843926239
 40
1.0
 40
1.0
 40
1.0
 40
1.0
 10
5.9407903992
 20
3.7997830708
 30
0.0
 10
5.9473770164
 20
3.7997926903
 30
0.0
 10
5.9605589064
 20
3.800136799
 30
0.0
 10
5.9802882856
 20
3.8016201897
 30
0.0
 10
5.9999340742
 20
3.8040663301
 30
0.0
 10
6.01944043
 20
3.807470038
 30
0.0
 10
6.0387538642
 20
3.811828312
 30
0.0
 10
6.0578257227
 20
3.8171286821
 30
0.0
 10
6.0766119637
 20
3.8233553313
 30
0.0
 10
6.0950695639
 20
3.8304934652
 30
0.0
 10
6.1131548695
 20
3.8385287168
 30
0.0
 10
6.1308246201
 20
3.8474428436
 30
0.0
 10
6.1480380513
 20
3.8572108682
 30
0.0
 10
6.16475352
 20
3.8678088604
 30
0.0
 10
6.1809295174
 20
3.8792126249
 30
0.0
 10
6.1965243234
 20
3.8913979843
 30
0.0
 10
6.211502736
 20
3.9043324395
 30
0.0
 10
6.2258300057
 20
3.9179839255
 30
0.0
 10
6.239471621
 20
3.9323202233
 30
0.0
 10
6.2523920021
 20
3.9473097098
 30
0.0
 10
6.2645617603
 20
3.9629148838
 30
0.0
 10
6.2759535639
 20
3.9790969511
 30
0.0
 10
6.2865398821
 20
3.9958173816
 30
0.0
 10
6.2962920636
 20
4.0130380659
 30
0.0
 10
6.3051867499
 20
4.0307173071
 30
0.0
 10
6.313205635
 20
4.0488109471
 30
0.0
 10
6.3203295012
 20
4.0672754887
 30
0.0
 10
6.3265387436
 20
4.0860672701
 30
0.0
 10
6.3318160208
 20
4.1051421851
 30
0.0
 10
6.3375969098
 20
4.1308830278
 30
0.0
 10
6.3424505229
 20
4.1635437067
 30
0.0
 10
6.3440706484
 20
4.1965228668
 30
0.0
 10
6.3434284663
 20
4.2228955979
 30
0.0
 10
6.341978345
 20
4.2426324362
 30
0.0
 10
6.3395590485
 20
4.2622737027
 30
0.0
 10
6.3361783309
 20
4.281772753
 30
0.0
 10
6.3318469604
 20
4.3010829343
 30
0.0
 10
6.3265752
 20
4.3201577914
 30
0.0
 10
6.3203723548
 20
4.338950396
 30
0.0
 10
6.3132530585
 20
4.3574151858
 30
0.0
 10
6.3052378323
 20
4.3755090426
 30
0.0
 10
6.2963460348
 20
4.3931886445
 30
0.0
 10
6.2865967732
 20
4.4104103997
 30
0.0
 10
6.2760115931
 20
4.4271315255
 30
0.0
 10
6.2646196244
 20
4.4433138813
 30
0.0
 10
6.252448824
 20
4.4589188579
 30
0.0
 10
6.2395273808
 20
4.4739079985
 30
0.0
 10
6.2258836113
 20
4.4882425698
 30
0.0
 10
6.2115529683
 20
4.501890553
 30
0.0
 10
6.1965707649
 20
4.5148200315
 30
0.0
 10
6.1809715453
 20
4.5269998835
 30
0.0
 10
6.1594033132
 20
4.5421920132
 30
0.0
 10
6.1367385256
 20
4.5557771176
 30
0.0
 10
6.1131766217
 20
4.5676421292
 30
0.0
 10
6.0950856402
 20
4.575663301
 30
0.0
 10
6.0766230784
 20
4.5827841841
 30
0.0
 10
6.0578322751
 20
4.5889912602
 30
0.0
 10
6.0387565559
 20
4.5942697365
 30
0.0
 10
6.0194399248
 20
4.5986043521
 30
0.0
 10
5.9999307715
 20
4.6019818708
 30
0.0
 10
5.9802826061
 20
4.6043992235
 30
0.0
 10
5.9605515537
 20
4.6058513227
 30
0.0
 10
5.9473693598
 20
4.6061728923
 30
0.0
 10
5.9407828155
 20
4.606170836
 30
0.0
 11
5.9407903992
 21
3.7997830708
 31
0.0
 11
5.9605435728
 21
3.8002975638
 31
0.0
 11
5.9802684104
 21
3.8017800785
 31
0.0
 11
5.9999091461
 21
3.8042256945
 31
0.0
 11
6.019410014
 21
3.8076294918
 31
0.0
 11
6.0387160252
 21
3.8119859366
 31
0.0
 11
6.0577797272
 21
3.8172835459
 31
0.0
 11
6.076557901
 21
3.8235074951
 31
0.0
 11
6.0950073746
 21
3.830642922
 31
0.0
 11
6.1130849861
 21
3.8386748991
 31
0.0
 11
6.1307481217
 21
3.8475849236
 31
0.0
 11
6.1479549862
 21
3.8573491559
 31
0.0
 11
6.164663851
 21
3.86794332
 31
0.0
 11
6.1808329877
 21
3.8793431398
 31
0.0
 11
6.1964218207
 21
3.8915230214
 31
0.0
 11
6.211394384
 21
3.9044521002
 31
0.0
 11
6.2257158638
 21
3.9180981941
 31
0.0
 11
6.2393514464
 21
3.932429121
 31
0.0
 11
6.2522668257
 21
3.9474122352
 31
0.0
 11
6.2644320273
 21
3.9630109333
 31
0.0
 11
6.2758192699
 21
3.9791866088
 31
0.0
 11
6.2864007891
 21
3.9959006391
 31
0.0
 11
6.2961490319
 21
4.0131142748
 31
0.0
 11
6.3050407015
 21
4.0307862026
 31
0.0
 11
6.3130564505
 21
4.0488727304
 31
0.0
 11
6.3201770809
 21
4.0673300763
 31
0.0
 11
6.3263834142
 21
4.0861144521
 31
0.0
 11
6.3316591987
 21
4.1051811436
 31
0.0
 11
6.3359942042
 21
4.1244835317
 31
0.0
 11
6.3418039231
 21
4.1636079828
 31
0.0
 11
6.3437485864
 21
4.2031121181
 31
0.0
 11
6.3432670616
 21
4.2228880479
 31
0.0
 11
6.3418168204
 21
4.2426164669
 31
0.0
 11
6.3393988324
 21
4.2622498603
 31
0.0
 11
6.3360199008
 21
4.2817412103
 31
0.0
 11
6.3316902097
 21
4.3010437874
 31
0.0
 11
6.3264199843
 21
4.3201108654
 31
0.0
 11
6.3202196086
 21
4.3388957738
 31
0.0
 11
6.3131037474
 21
4.3573533381
 31
0.0
 11
6.3050917302
 21
4.3754400142
 31
0.0
 11
6.2962031225
 21
4.3931123405
 31
0.0
 11
6.2864575106
 21
4.4103268669
 31
0.0
 11
6.2758771871
 21
4.4270416416
 31
0.0
 11
6.2644897991
 21
4.4432176772
 31
0.0
 11
6.252323622
 21
4.458816334
 31
0.0
 11
6.2394069316
 21
4.4737989726
 31
0.0
 11
6.2257691787
 21
4.488128093
 31
0.0
 11
6.2114444732
 21
4.5017707135
 31
0.0
 11
6.196468079
 21
4.5146949712
 31
0.0
 11
6.1808752602
 21
4.5268690037
 31
0.0
 11
6.1647017982
 21
4.5382615421
 31
0.0
 11
6.1307751998
 21
4.5585990184
 31
0.0
 11
6.1131063464
 21
4.5674960186
 31
0.0
 11
6.0950233422
 21
4.5755134097
 31
0.0
 11
6.0765688911
 21
4.5826317029
 31
0.0
 11
6.0577862735
 21
4.5888360492
 31
0.0
 11
6.0387187981
 21
4.5941118293
 31
0.0
 11
6.0194097913
 21
4.5984444369
 31
0.0
 11
5.9999062155
 21
4.6018220262
 31
0.0
 11
5.9802631099
 21
4.6042388822
 31
0.0
 11
5.960536601
 21
4.6056901153
 31
0.0
 11
5.9407828155
 21
4.606170836
 31
0.0
  0
LINE
  5
262
100
AcDbEntity
  8
0
100
AcDbLine
 62
6
  6
CONTINUOUS
 10
5.9407828155
 20
4.606170836
 11
5.9405562721
 21
4.6061707011
  0
LINE
  5
263
100
AcDbEntity
  8
0
100
AcDbLine
 62
6
  6
CONTINUOUS
 10
5.9405562721
 20
3.8020060391
 11
5.9407899505
 21
3.8020063135
  0
SPLINE
  5
264
100
AcDbEntity
  8
0
100
AcDbSpline
 62
6
  6
CONTINUOUS
 70
0
 71
3
 72
68
 73
64
 74
62
 42
0.0000001
 43
0.0000001
 44
0.0000000001
 12
1.2590601417
 22
0.0018475458
 32
0.0
 13
-1.2590614352
 23
-0.0003954411
 33
0.0
 40
0.0
 40
0.0
 40
0.0
 40
0.0
 40
0.0156075406
 40
0.0312313049
 40
0.0468644521
 40
0.0625001493
 40
0.0781324475
 40
0.0937605506
 40
0.1093860434
 40
0.1250103702
 40
0.1406350407
 40
0.1562609627
 40
0.1718876921
 40
0.1875144999
 40
0.203140737
 40
0.2187662163
 40
0.2343912796
 40
0.2500161147
 40
0.2656408736
 40
0.2812659027
 40
0.2968914374
 40
0.3125173389
 40
0.3281433885
 40
0.3437695594
 40
0.3593960408
 40
0.3750227461
 40
0.3906494058
 40
0.4062758422
 40
0.4375190785
 40
0.4687612583
 40
0.4843863583
 40
0.5000112663
 40
0.5156359967
 40
0.5312604856
 40
0.5468848575
 40
0.5625093966
 40
0.5781341128
 40
0.5937588899
 40
0.6093837574
 40
0.6250089451
 40
0.6406344061
 40
0.6562598993
 40
0.6718852671
 40
0.6875106459
 40
0.7031360904
 40
0.7187613943
 40
0.7343863503
 40
0.750011034
 40
0.7656357469
 40
0.7812605838
 40
0.7968855964
 40
0.8125110256
 40
0.8281368646
 40
0.8437625296
 40
0.859387275
 40
0.875010507
 40
0.8906328606
 40
0.9062560637
 40
0.9218818189
 40
0.9375119619
 40
0.9531461907
 40
0.9687785464
 40
1.0
 40
1.0
 40
1.0
 40
1.0
 10
5.9407899505
 20
3.8020063135
 30
0.0
 10
5.9473402279
 20
3.8020159253
 30
0.0
 10
5.9604493686
 20
3.8023582143
 30
0.0
 10
5.9800698301
 20
3.8038335151
 30
0.0
 10
5.9996071002
 20
3.8062662357
 30
0.0
 10
6.0190056518
 20
3.8096512354
 30
0.0
 10
6.0382123186
 20
3.8139855285
 30
0.0
 10
6.0571787684
 20
3.8192566369
 30
0.0
 10
6.0758612146
 20
3.8254488998
 30
0.0
 10
6.0942168726
 20
3.8325476275
 30
0.0
 10
6.1122022937
 20
3.8405385921
 30
0.0
 10
6.1297744972
 20
3.8494035065
 30
0.0
 10
6.1468929074
 20
3.859117548
 30
0.0
 10
6.1635160785
 20
3.8696569258
 30
0.0
 10
6.1796026762
 20
3.8809976396
 30
0.0
 10
6.1951113131
 20
3.8931155532
 30
0.0
 10
6.210007072
 20
3.9059783824
 30
0.0
 10
6.2242553849
 20
3.9195544432
 30
0.0
 10
6.237821937
 20
3.9338118636
 30
0.0
 10
6.2506713373
 20
3.9487192648
 30
0.0
 10
6.2627745342
 20
3.9642391528
 30
0.0
 10
6.2741042028
 20
3.9803329085
 30
0.0
 10
6.2846328544
 20
3.9969621046
 30
0.0
 10
6.294331902
 20
4.0140887603
 30
0.0
 10
6.3031777683
 20
4.0316715566
 30
0.0
 10
6.3111524398
 20
4.049666294
 30
0.0
 10
6.3182370587
 20
4.0680301508
 30
0.0
 10
6.3264690034
 20
4.0929431185
 30
0.0
 10
6.3344450896
 20
4.1247982975
 30
0.0
 10
6.3392701361
 20
4.1572798511
 30
0.0
 10
6.3412017109
 20
4.1834446868
 30
0.0
 10
6.3416860066
 20
4.2031196735
 30
0.0
 10
6.3412064797
 20
4.2227940665
 30
0.0
 10
6.3397640401
 20
4.2424213078
 30
0.0
 10
6.3373583135
 20
4.2619538128
 30
0.0
 10
6.333996071
 20
4.2813446282
 30
0.0
 10
6.3296883362
 20
4.3005476789
 30
0.0
 10
6.3244453461
 20
4.3195169076
 30
0.0
 10
6.3182765908
 20
4.3382058577
 30
0.0
 10
6.311196046
 20
4.3565690309
 30
0.0
 10
6.303224384
 20
4.3745635128
 30
0.0
 10
6.2943810124
 20
4.3921460965
 30
0.0
 10
6.2846853428
 20
4.40927349
 30
0.0
 10
6.2741580886
 20
4.4259026568
 30
0.0
 10
6.2628282868
 20
4.4419956499
 30
0.0
 10
6.2507240056
 20
4.4575142919
 30
0.0
 10
6.2378736219
 20
4.4724206417
 30
0.0
 10
6.224305051
 20
4.4866760362
 30
0.0
 10
6.2100532052
 20
4.5002481782
 30
0.0
 10
6.1951533709
 20
4.5131057837
 30
0.0
 10
6.1796408153
 20
4.5252176636
 30
0.0
 10
6.163550338
 20
4.536551302
 30
0.0
 10
6.1469220961
 20
4.5470805359
 30
0.0
 10
6.1297983437
 20
4.5567824768
 30
0.0
 10
6.112220916
 20
4.5656336222
 30
0.0
 10
6.0942310566
 20
4.5736098972
 30
0.0
 10
6.0758711675
 20
4.5806911579
 30
0.0
 10
6.0571850438
 20
4.5868635375
 30
0.0
 10
6.0382153313
 20
4.5921125172
 30
0.0
 10
6.0190060322
 20
4.5964229426
 30
0.0
 10
5.999604015
 20
4.5997817517
 30
0.0
 10
5.973568027
 20
4.6029852648
 30
0.0
 10
5.9538859784
 20
4.6039517099
 30
0.0
 10
5.9407827357
 20
4.6039475944
 30
0.0
 11
5.9407899505
 21
3.8020063135
 31
0.0
 11
5.9604341386
 21
3.8025180895
 31
0.0
 11
5.9800500839
 21
3.8039925217
 31
0.0
 11
5.9995823283
 21
3.8064247241
 31
0.0
 11
6.0189754137
 21
3.8098098113
 31
0.0
 11
6.0381746827
 21
3.8141422669
 31
0.0
 11
6.0571330176
 21
3.8194106393
 31
0.0
 11
6.0758074382
 21
3.8256002189
 31
0.0
 11
6.0941550071
 21
3.832696263
 31
0.0
 11
6.1121327979
 21
3.8406839526
 31
0.0
 11
6.1296984335
 21
3.8495447988
 31
0.0
 11
6.1468103192
 21
3.8592550778
 31
0.0
 11
6.1634269205
 21
3.8697906648
 31
0.0
 11
6.1795067029
 21
3.881127435
 31
0.0
 11
6.195009378
 21
3.8932398782
 31
0.0
 11
6.209899273
 21
3.906097352
 31
0.0
 11
6.224141783
 21
3.9196680269
 31
0.0
 11
6.2377023035
 21
3.9339200728
 31
0.0
 11
6.2505467849
 21
3.9488211199
 31
0.0
 11
6.2626454781
 21
3.9643346167
 31
0.0
 11
6.2739706404
 21
3.9804220601
 31
0.0
 11
6.2844945403
 21
3.9970449359
 31
0.0
 11
6.2941896223
 21
4.0141646283
 31
0.0
 11
6.3030325138
 21
4.0317400978
 31
0.0
 11
6.3110041056
 21
4.0497278348
 31
0.0
 11
6.3180854799
 21
4.0680842188
 31
0.0
 11
6.3242577236
 21
4.0867656277
 31
0.0
 11
6.3338150257
 21
4.1249241106
 31
0.0
 11
6.3395920721
 21
4.1638334014
 31
0.0
 11
6.3410409542
 21
4.1834529367
 31
0.0
 11
6.3415253695
 21
4.2031196918
 31
0.0
 11
6.3410459876
 21
4.2227863466
 31
0.0
 11
6.3396034868
 21
4.2424055806
 31
0.0
 11
6.3371989073
 21
4.2619301128
 31
0.0
 11
6.3338385088
 21
4.2813132334
 31
0.0
 11
6.329532472
 21
4.3005086614
 31
0.0
 11
6.3242910729
 21
4.3194701267
 31
0.0
 11
6.3181246875
 21
4.3381513901
 31
0.0
 11
6.3110475866
 21
4.3565074357
 31
0.0
 11
6.3030791096
 21
4.3744948392
 31
0.0
 11
6.2942389352
 21
4.3920702829
 31
0.0
 11
6.2845467463
 21
4.4091904514
 31
0.0
 11
6.2740243433
 21
4.4258132752
 31
0.0
 11
6.2626991535
 21
4.4418999955
 31
0.0
 11
6.2505995286
 21
4.4574123971
 31
0.0
 11
6.23775382
 21
4.4723122649
 31
0.0
 11
6.2241911751
 21
4.4865621585
 31
0.0
 11
6.2099452629
 21
4.5001290385
 31
0.0
 11
6.1950513467
 21
4.5129814179
 31
0.0
 11
6.179544692
 21
4.5250878111
 31
0.0
 11
6.163460891
 21
4.5364171128
 31
0.0
 11
6.1468394062
 21
4.5469427139
 31
0.0
 11
6.1297222288
 21
4.5566409435
 31
0.0
 11
6.1121513938
 21
4.5654881812
 31
0.0
 11
6.0941689462
 21
4.5734609143
 31
0.0
 11
6.075817299
 21
4.5805395037
 31
0.0
 11
6.0571393273
 21
4.5867091743
 31
0.0
 11
6.0381779355
 21
4.5919554594
 31
0.0
 11
6.0189760454
 21
4.5962639052
 31
0.0
 11
5.999580275
 21
4.5996227561
 31
0.0
 11
5.980045484
 21
4.6020262721
 31
0.0
 11
5.9407827357
 21
4.6039475944
 31
0.0
  0
LINE
  5
265
100
AcDbEntity
  8
0
100
AcDbLine
 62
6
  6
CONTINUOUS
 10
5.9407827357
 20
4.6039475944
 11
5.9405562721
 21
4.6039474588
  0
LINE
  5
266
100
AcDbEntity
  8
0
100
AcDbLine
 62
6
  6
CONTINUOUS
 10
5.9405562721
 20
3.8042292809
 11
5.9407891018
 21
3.8042295556
  0
SPLINE
  5
267
100
AcDbEntity
  8
0
100
AcDbSpline
 62
6
  6
CONTINUOUS
 70
0
 71
3
 72
68
 73
64
 74
62
 42
0.0000001
 43
0.0000001
 44
0.0000000001
 12
1.2520765073
 22
0.0018448253
 32
0.0
 13
-1.2520778049
 23
-0.0003926121
 33
0.0
 40
0.0
 40
0.0
 40
0.0
 40
0.0
 40
0.0156075225
 40
0.0312311991
 40
0.0468641461
 40
0.0624994894
 40
0.0781312796
 40
0.0937588039
 40
0.1093836646
 40
0.1250073245
 40
0.1406313079
 40
0.1562564561
 40
0.1718823279
 40
0.1875082443
 40
0.203133632
 40
0.2187584221
 40
0.2343829697
 40
0.2500074604
 40
0.2656320859
 40
0.2812572294
 40
0.2968830153
 40
0.3125092103
 40
0.3281355419
 40
0.34376197
 40
0.3593886625
 40
0.375015516
 40
0.3906422798
 40
0.4062688304
 40
0.4218953262
 40
0.4375217498
 40
0.4687639445
 40
0.5000043152
 40
0.5156289607
 40
0.531253504
 40
0.5468781854
 40
0.562503261
 40
0.5781286501
 40
0.5937541766
 40
0.6093798403
 40
0.6250058355
 40
0.6406320661
 40
0.6562582521
 40
0.6718842074
 40
0.6875100572
 40
0.7031358656
 40
0.7187614389
 40
0.7343865822
 40
0.7500113785
 40
0.7656361119
 40
0.7812608465
 40
0.7968855976
 40
0.8125105718
 40
0.8437514916
 40
0.8593757604
 40
0.8749987884
 40
0.8906212917
 40
0.9062448873
 40
0.9218711559
 40
0.9375018207
 40
0.9531364272
 40
0.9687690023
 40
0.9843925321
 40
1.0
 40
1.0
 40
1.0
 40
1.0
 10
5.9407891018
 20
3.8042295556
 30
0.0
 10
5.9473030392
 20
3.8042391533
 30
0.0
 10
5.9603394212
 20
3.8045796078
 30
0.0
 10
5.9798509211
 20
3.8060467844
 30
0.0
 10
5.9992795512
 20
3.8084660318
 30
0.0
 10
6.0185700567
 20
3.8118322497
 30
0.0
 10
6.0376695818
 20
3.8161424585
 30
0.0
 10
6.05653015
 20
3.8213840917
 30
0.0
 10
6.0751082519
 20
3.8275416812
 30
0.0
 10
6.0933613635
 20
3.8346006365
 30
0.0
 10
6.1112462113
 20
3.8425469142
 30
0.0
 10
6.1287202539
 20
3.851361871
 30
0.0
 10
6.1457430444
 20
3.861021074
 30
0.0
 10
6.1622733525
 20
3.8715010178
 30
0.0
 10
6.1782698815
 20
3.8827782664
 30
0.0
 10
6.1936919726
 20
3.8948282287
 30
0.0
 10
6.2085050989
 20
3.9076187266
 30
0.0
 10
6.2226746055
 20
3.9211186536
 30
0.0
 10
6.2361660488
 20
3.9352966614
 30
0.0
 10
6.2489442895
 20
3.9501213998
 30
0.0
 10
6.2609811311
 20
3.9655549358
 30
0.0
 10
6.2722488341
 20
3.9815592313
 30
0.0
 10
6.2827198192
 20
3.9980961479
 30
0.0
 10
6.2923652159
 20
4.0151280908
 30
0.0
 10
6.3011626892
 20
4.0326132752
 30
0.0
 10
6.3090939097
 20
4.0505081582
 30
0.0
 10
6.3161398374
 20
4.0687697564
 30
0.0
 10
6.3222808988
 20
4.0873549735
 30
0.0
 10
6.3275002265
 20
4.1062200891
 30
0.0
 10
6.3332176873
 20
4.1316775022
 30
0.0
 10
6.3380181188
 20
4.1639781073
 30
0.0
 10
6.3396206495
 20
4.1965934358
 30
0.0
 10
6.3389857576
 20
4.2226749556
 30
0.0
 10
6.3375517632
 20
4.2421938198
 30
0.0
 10
6.3351592976
 20
4.2616182625
 30
0.0
 10
6.3318161372
 20
4.2809022573
 30
0.0
 10
6.3275327334
 20
4.2999997248
 30
0.0
 10
6.3223191152
 20
4.3188647862
 30
0.0
 10
6.316184332
 20
4.3374510316
 30
0.0
 10
6.3091429287
 20
4.3557133571
 30
0.0
 10
6.3012153785
 20
4.3736090191
 30
0.0
 10
6.2924209431
 20
4.391094979
 30
0.0
 10
6.2827788287
 20
4.4081280882
 30
0.0
 10
6.2723097314
 20
4.4246655726
 30
0.0
 10
6.2610425908
 20
4.440669739
 30
0.0
 10
6.2490053026
 20
4.4561026241
 30
0.0
 10
6.2362260909
 20
4.4709265201
 30
0.0
 10
6.2227327212
 20
4.4851029595
 30
0.0
 10
6.2085598836
 20
4.4985998493
 30
0.0
 10
6.1937429424
 20
4.5113859898
 30
0.0
 10
6.1783162923
 20
4.5234308126
 30
0.0
 10
6.1569875244
 20
4.5384547062
 30
0.0
 10
6.1345740699
 20
4.5518885827
 30
0.0
 10
6.1112735564
 20
4.5636214975
 30
0.0
 10
6.0933831856
 20
4.5715536367
 30
0.0
 10
6.0751251659
 20
4.5785956831
 30
0.0
 10
6.0565422847
 20
4.5847341702
 30
0.0
 10
6.0376773383
 20
4.5899544046
 30
0.0
 10
6.0185738301
 20
4.594241157
 30
0.0
 10
5.9992797219
 20
4.5975814348
 30
0.0
 10
5.9798480533
 20
4.5999721989
 30
0.0
 10
5.9603344469
 20
4.6014083548
 30
0.0
 10
5.9472975494
 20
4.6017263974
 30
0.0
 10
5.940783628
 20
4.6017243548
 30
0.0
 11
5.9407891018
 21
3.8042295556
 31
0.0
 11
5.9603243043
 21
3.8047385922
 31
0.0
 11
5.979831331
 21
3.8062049097
 31
0.0
 11
5.9992549798
 21
3.8086236506
 31
0.0
 11
6.0185400486
 21
3.8119899575
 31
0.0
 11
6.0376321899
 21
3.8162983069
 31
0.0
 11
6.0564846785
 21
3.8215372347
 31
0.0
 11
6.0750547922
 21
3.8276921566
 31
0.0
 11
6.0932998445
 21
3.8347484604
 31
0.0
 11
6.1111771657
 21
3.8426914193
 31
0.0
 11
6.1286446595
 21
3.8515023743
 31
0.0
 11
6.1456609327
 21
3.8611578478
 31
0.0
 11
6.1621846347
 21
3.8716340674
 31
0.0
 11
6.1781744189
 21
3.8829072571
 31
0.0
 11
6.1935906055
 21
3.8949517544
 31
0.0
 11
6.2083978555
 21
3.9077369879
 31
0.0
 11
6.2225615266
 21
3.9212315973
 31
0.0
 11
6.2360469767
 21
3.9354042222
 31
0.0
 11
6.2488204836
 21
3.9502225744
 31
0.0
 11
6.2608527897
 21
3.9656498593
 31
0.0
 11
6.2721159908
 21
3.9816479172
 31
0.0
 11
6.2825821829
 21
3.9981785879
 31
0.0
 11
6.2922238263
 21
4.0152035016
 31
0.0
 11
6.3010182745
 21
4.0326814767
 31
0.0
 11
6.3089463784
 21
4.0505693214
 31
0.0
 11
6.3159890648
 21
4.0688238001
 31
0.0
 11
6.3221272903
 21
4.0874016678
 31
0.0
 11
6.3273451528
 21
4.1062586612
 31
0.0
 11
6.3316326069
 21
4.1253486191
 31
0.0
 11
6.3373786681
 21
4.1640419537
 31
0.0
 11
6.3393021913
 21
4.2031100066
 31
0.0
 11
6.3388261296
 21
4.2226674862
 31
0.0
 11
6.3373920274
 21
4.2421779959
 31
0.0
 11
6.3350008815
 21
4.2615946336
 31
0.0
 11
6.3316594665
 21
4.2808709833
 31
0.0
 11
6.3273777212
 21
4.2999608951
 31
0.0
 11
6.3221656169
 21
4.3188182218
 31
0.0
 11
6.3160332919
 21
4.3373968686
 31
0.0
 11
6.3089952885
 21
4.3556521219
 31
0.0
 11
6.3010708878
 21
4.3735407544
 31
0.0
 11
6.2922796053
 21
4.3910196122
 31
0.0
 11
6.2826409624
 21
4.4080455446
 31
0.0
 11
6.2721766996
 21
4.4245767226
 31
0.0
 11
6.2609141446
 21
4.4405746434
 31
0.0
 11
6.24888149
 21
4.456001319
 31
0.0
 11
6.2361069286
 21
4.4708187617
 31
0.0
 11
6.2226194383
 21
4.4849897403
 31
0.0
 11
6.2084525311
 21
4.498481393
 31
0.0
 11
6.1936413427
 21
4.5112624222
 31
0.0
 11
6.1782210108
 21
4.5233015325
 31
0.0
 11
6.1622269885
 21
4.5345678094
 31
0.0
 11
6.128676954
 21
4.5546790418
 31
0.0
 11
6.1112041484
 21
4.5634770104
 31
0.0
 11
6.0933216667
 21
4.5714053933
 31
0.0
 11
6.0750716657
 21
4.5784448655
 31
0.0
 11
6.0564968865
 21
4.5845806448
 31
0.0
 11
6.0376401016
 21
4.5897981946
 31
0.0
 11
6.0185441054
 21
4.5940829944
 31
0.0
 11
5.9992554621
 21
4.5974233574
 31
0.0
 11
5.9798287584
 21
4.5998136275
 31
0.0
 11
5.9603196088
 21
4.6012489212
 31
0.0
 11
5.940783628
 21
4.6017243548
 31
0.0
  0
LINE
  5
268
100
AcDbEntity
  8
0
100
AcDbLine
 62
6
  6
CONTINUOUS
 10
5.940783628
 20
4.6017243548
 11
5.9405562721
 21
4.6017242181
  0
LINE
  5
269
100
AcDbEntity
  8
0
100
AcDbLine
 62
6
  6
CONTINUOUS
 10
5.9405562721
 20
3.8064525205
 11
5.9407875849
 21
3.8064527945
  0
SPLINE
  5
26A
100
AcDbEntity
  8
0
100
AcDbSpline
 62
6
  6
CONTINUOUS
 70
0
 71
3
 72
67
 73
63
 74
61
 42
0.0000001
 43
0.0000001
 44
0.0000000001
 12
1.2450813854
 22
0.0018399691
 32
0.0
 13
-1.2450826844
 23
-0.0003882061
 33
0.0
 40
0.0
 40
0.0
 40
0.0
 40
0.0
 40
0.0156076355
 40
0.0312313034
 40
0.0468640375
 40
0.0624988829
 40
0.0781298903
 40
0.0937565214
 40
0.1093804498
 40
0.1250032142
 40
0.1406264028
 40
0.1562507692
 40
0.1874918465
 40
0.2031168969
 40
0.2187417437
 40
0.2343665899
 40
0.2499914523
 40
0.2656163991
 40
0.2812417198
 40
0.2968674968
 40
0.312493531
 40
0.3281196244
 40
0.3437458373
 40
0.359372304
 40
0.3749988491
 40
0.390625201
 40
0.4062512675
 40
0.4218772296
 40
0.4375030599
 40
0.4531285451
 40
0.4687535576
 40
0.499993715
 40
0.5312342764
 40
0.5624766739
 40
0.5781032407
 40
0.5937298899
 40
0.6093565813
 40
0.624983476
 40
0.6406104619
 40
0.6562372886
 40
0.6718638417
 40
0.6874902878
 40
0.7031166064
 40
0.7187425355
 40
0.7343678439
 40
0.7499926351
 40
0.7656172696
 40
0.7812419172
 40
0.7968667338
 40
0.8124920588
 40
0.8281178705
 40
0.8437436292
 40
0.8593686841
 40
0.8749926071
 40
0.8906161991
 40
0.9062409814
 40
0.9218684235
 40
0.9375001446
 40
0.9531355096
 40
0.9687685562
 40
0.9843923612
 40
1.0
 40
1.0
 40
1.0
 40
1.0
 10
5.9407875849
 20
3.8064527945
 30
0.0
 10
5.9472651771
 20
3.806462367
 30
0.0
 10
5.960228769
 20
3.8068009596
 30
0.0
 10
5.9796312151
 20
3.8082599521
 30
0.0
 10
5.9989510057
 20
3.8106656392
 30
0.0
 10
6.0181331243
 20
3.8140129673
 30
0.0
 10
6.0371250538
 20
3.8182989422
 30
0.0
 10
6.055879247
 20
3.8235108149
 30
0.0
 10
6.0743525886
 20
3.829633449
 30
0.0
 10
6.0925026713
 20
3.8366522886
 30
0.0
 10
6.1102871373
 20
3.8445539768
 30
0.0
 10
6.133449622
 20
3.8562372469
 30
0.0
 10
6.1557304981
 20
3.8696082411
 30
0.0
 10
6.1769341103
 20
3.8845568976
 30
0.0
 10
6.1922707001
 20
3.8965395387
 30
0.0
 10
6.2070017071
 20
3.9092580793
 30
0.0
 10
6.2210930167
 20
3.9226822292
 30
0.0
 10
6.2345096098
 20
3.9367810232
 30
0.0
 10
6.2472168939
 20
3.9515228277
 30
0.0
 10
6.2591872226
 20
3.9668695631
 30
0.0
 10
6.2703926062
 20
3.982783799
 30
0.0
 10
6.2808053806
 20
3.9992278558
 30
0.0
 10
6.2903967304
 20
4.0161644051
 30
0.0
 10
6.299145765
 20
4.0335511816
 30
0.0
 10
6.3070335098
 20
4.0513452959
 30
0.0
 10
6.3140408097
 20
4.0695040389
 30
0.0
 10
6.3201474074
 20
4.0879849427
 30
0.0
 10
6.3253382553
 20
4.1067434247
 30
0.0
 10
6.3296044777
 20
4.1257331269
 30
0.0
 10
6.3329361403
 20
4.144908992
 30
0.0
 10
6.3361180198
 20
4.170657023
 30
0.0
 10
6.3377143629
 20
4.2030908489
 30
0.0
 10
6.3358175038
 20
4.2420018032
 30
0.0
 10
6.3310562212
 20
4.2741257913
 30
0.0
 10
6.3253794302
 20
4.29944293
 30
0.0
 10
6.3201955268
 20
4.3182046173
 30
0.0
 10
6.3140947052
 20
4.3366881462
 30
0.0
 10
6.307093046
 20
4.354849811
 30
0.0
 10
6.2992102891
 20
4.3726467511
 30
0.0
 10
6.2904653933
 20
4.3900361644
 30
0.0
 10
6.2808768272
 20
4.4069748128
 30
0.0
 10
6.2704661801
 20
4.423420708
 30
0.0
 10
6.2592622608
 20
4.4393363929
 30
0.0
 10
6.2472925917
 20
4.4546838933
 30
0.0
 10
6.2345849611
 20
4.4694254187
 30
0.0
 10
6.2211671997
 20
4.4835229117
 30
0.0
 10
6.207074181
 20
4.4969448916
 30
0.0
 10
6.1923404024
 20
4.5096601855
 30
0.0
 10
6.1770005099
 20
4.5216378324
 30
0.0
 10
6.1610888754
 20
4.5328456744
 30
0.0
 10
6.144645763
 20
4.5432587728
 30
0.0
 10
6.1277124696
 20
4.5528539215
 30
0.0
 10
6.110330127
 20
4.5616076934
 30
0.0
 10
6.0925391482
 20
4.5694957955
 30
0.0
 10
6.0743818849
 20
4.5764993044
 30
0.0
 10
6.0559015953
 20
4.5826042275
 30
0.0
 10
6.0371407461
 20
4.5877959719
 30
0.0
 10
6.0181427754
 20
4.5920591363
 30
0.0
 10
5.9989555397
 20
4.5953810025
 30
0.0
 10
5.979631825
 20
4.5977585924
 30
0.0
 10
5.9602268628
 20
4.599186833
 30
0.0
 10
5.9472626151
 20
4.5995031354
 30
0.0
 10
5.9407850149
 20
4.5995011158
 30
0.0
 11
5.9407875849
 21
3.8064527945
 31
0.0
 11
5.9602137871
 21
3.8069590518
 31
0.0
 11
5.9796118194
 21
3.8084171973
 31
0.0
 11
5.9989266882
 21
3.8108223964
 31
0.0
 11
6.0181034
 21
3.8141698144
 31
0.0
 11
6.0370879255
 21
3.8184538841
 31
0.0
 11
6.0558340587
 21
3.8236630961
 31
0.0
 11
6.0742993928
 21
3.8297830552
 31
0.0
 11
6.0924415461
 21
3.8367993472
 31
0.0
 11
6.1102181646
 21
3.8446973511
 31
0.0
 11
6.1275874747
 21
3.8534581011
 31
0.0
 11
6.1609393053
 21
3.8734753066
 31
0.0
 11
6.1768394564
 21
3.8846852134
 31
0.0
 11
6.1921697801
 21
3.8966621968
 31
0.0
 11
6.2068950808
 21
3.9093756716
 31
0.0
 11
6.2209805164
 21
3.9227946214
 31
0.0
 11
6.2343912455
 21
3.9368880293
 31
0.0
 11
6.2470939
 21
3.951623445
 31
0.0
 11
6.2590596358
 21
3.9669640182
 31
0.0
 11
6.270260474
 21
3.9828720571
 31
0.0
 11
6.2806684359
 21
3.9993098695
 31
0.0
 11
6.2902562801
 21
4.0162393225
 31
0.0
 11
6.299002198
 21
4.0336190335
 31
0.0
 11
6.3068868097
 21
4.0514061672
 31
0.0
 11
6.3138907464
 21
4.0695578819
 31
0.0
 11
6.3199948058
 21
4.0880312817
 31
0.0
 11
6.3251841738
 21
4.1067820535
 31
0.0
 11
6.329448758
 21
4.1257643591
 31
0.0
 11
6.3327786997
 21
4.1449322846
 31
0.0
 11
6.3351641521
 21
4.1642399152
 31
0.0
 11
6.3370789777
 21
4.2030893353
 31
0.0
 11
6.3351815405
 21
4.2419401123
 31
0.0
 11
6.3294820881
 21
4.2804196813
 31
0.0
 11
6.3252251778
 21
4.299404649
 31
0.0
 11
6.3200427189
 21
4.3181582192
 31
0.0
 11
6.3139446019
 21
4.3366344009
 31
0.0
 11
6.3069462139
 21
4.3547889797
 31
0.0
 11
6.2990665604
 21
4.3725789108
 31
0.0
 11
6.2903247106
 21
4.38996117
 31
0.0
 11
6.280739773
 21
4.4068927557
 31
0.0
 11
6.2703339143
 21
4.4233324192
 31
0.0
 11
6.259134492
 21
4.439241888
 31
0.0
 11
6.2471693675
 21
4.4545831782
 31
0.0
 11
6.2344664023
 21
4.469318306
 31
0.0
 11
6.2210545791
 21
4.4834104052
 31
0.0
 11
6.2069673934
 21
4.4968271062
 31
0.0
 11
6.1922394751
 21
4.5095371701
 31
0.0
 11
6.176905454
 21
4.5215093583
 31
0.0
 11
6.1610005174
 21
4.5327130679
 31
0.0
 11
6.1445640302
 21
4.5431224671
 31
0.0
 11
6.1276372543
 21
4.5527138898
 31
0.0
 11
6.110261461
 21
4.5614636807
 31
0.0
 11
6.092477958
 21
4.5693484267
 31
0.0
 11
6.0743287432
 21
4.5763492964
 31
0.0
 11
6.0558564315
 21
4.5824515523
 31
0.0
 11
6.0371036592
 21
4.5876406009
 31
0.0
 11
6.0181130928
 21
4.591901872
 31
0.0
 11
5.9989312963
 21
4.5952238226
 31
0.0
 11
5.9796125552
 21
4.5976009069
 31
0.0
 11
5.9602120634
 21
4.5990282847
 31
0.0
 11
5.9407850149
 21
4.5995011158
 31
0.0
  0
LINE
  5
26B
100
AcDbEntity
  8
0
100
AcDbLine
 62
6
  6
CONTINUOUS
 10
5.9407850149
 20
4.5995011158
 11
5.9405562721
 21
4.5995009779
  0
LINE
  5
26C
100
AcDbEntity
  8
0
100
AcDbLine
 62
6
  6
CONTINUOUS
 10
5.9405562721
 20
3.8086757622
 11
5.9407865305
 21
3.8086760361
  0
SPLINE
  5
26D
100
AcDbEntity
  8
0
100
AcDbSpline
 62
6
  6
CONTINUOUS
 70
0
 71
3
 72
67
 73
63
 74
61
 42
0.0000001
 43
0.0000001
 44
0.0000000001
 12
1.2380980205
 22
0.0018366229
 32
0.0
 13
-1.2380993229
 23
-0.0003852421
 33
0.0
 40
0.0
 40
0.0
 40
0.0
 40
0.0
 40
0.0312218126
 40
0.0468542937
 40
0.0624886744
 40
0.0781190069
 40
0.0937449325
 40
0.1093682639
 40
0.1249906897
 40
0.1406139343
 40
0.1562386567
 40
0.1874807392
 40
0.2031061827
 40
0.2187312599
 40
0.2343561928
 40
0.2499810222
 40
0.265605841
 40
0.2812309524
 40
0.2968564294
 40
0.3124820679
 40
0.3281076728
 40
0.3437333105
 40
0.3593591012
 40
0.3749848628
 40
0.3906103338
 40
0.4062354506
 40
0.4218604363
 40
0.437485325
 40
0.4531100065
 40
0.4687344972
 40
0.4843590871
 40
0.4999839109
 40
0.5156089168
 40
0.5312341342
 40
0.5624766325
 40
0.5937202647
 40
0.6093469201
 40
0.6249738149
 40
0.640600778
 40
0.6562275478
 40
0.6718540472
 40
0.6874804576
 40
0.7031067248
 40
0.7187325988
 40
0.7343579078
 40
0.7499828596
 40
0.7656078161
 40
0.7812329495
 40
0.7968584657
 40
0.8124847337
 40
0.8281115884
 40
0.8437383801
 40
0.8593643795
 40
0.8749891334
 40
0.8906135128
 40
0.9062390273
 40
0.921867129
 40
0.9374994207
 40
0.9531351786
 40
0.9687684434
 40
0.9843923417
 40
1.0
 40
1.0
 40
1.0
 40
1.0
 10
5.9407865305
 20
3.8086760361
 30
0.0
 10
5.9536717519
 20
3.8086951504
 30
0.0
 10
5.9730244891
 20
3.8096776155
 30
0.0
 10
5.9986225806
 20
3.8128653955
 30
0.0
 10
6.0176972678
 20
3.8161939255
 30
0.0
 10
6.0365817378
 20
3.8204556731
 30
0.0
 10
6.0552300529
 20
3.8256379355
 30
0.0
 10
6.0735991697
 20
3.8317258833
 30
0.0
 10
6.0916471339
 20
3.8387051945
 30
0.0
 10
6.1093318068
 20
3.8465627356
 30
0.0
 10
6.132364958
 20
3.8581806116
 30
0.0
 10
6.1545217099
 20
3.8714766188
 30
0.0
 10
6.1756070276
 20
3.8863417092
 30
0.0
 10
6.190857882
 20
3.8982572549
 30
0.0
 10
6.2055064127
 20
3.9109044704
 30
0.0
 10
6.2195187166
 20
3.924253254
 30
0.0
 10
6.2328599613
 20
3.9382728537
 30
0.0
 10
6.2454958709
 20
3.9529317134
 30
0.0
 10
6.2573989772
 20
3.968191963
 30
0.0
 10
6.2685413944
 20
3.984016426
 30
0.0
 10
6.2788955398
 20
4.0003676845
 30
0.0
 10
6.2884328232
 20
4.0172085653
 30
0.0
 10
6.2971327564
 20
4.0344968948
 30
0.0
 10
6.3049762558
 20
4.0521901519
 30
0.0
 10
6.3119442014
 20
4.0702459139
 30
0.0
 10
6.318016251
 20
4.0886220444
 30
0.0
 10
6.3231783523
 20
4.1072739481
 30
0.0
 10
6.3274212066
 20
4.1261559671
 30
0.0
 10
6.3307347072
 20
4.1452228636
 30
0.0
 10
6.3331080614
 20
4.164429371
 30
0.0
 10
6.3345342618
 20
4.1837293947
 30
0.0
 10
6.335013636
 20
4.2030761567
 30
0.0
 10
6.3345452317
 20
4.2224238923
 30
0.0
 10
6.3326562842
 20
4.2481541023
 30
0.0
 10
6.3279239284
 20
4.2800970845
 30
0.0
 10
6.320091688
 20
4.3114251124
 30
0.0
 10
6.3120046235
 20
4.3359262706
 30
0.0
 10
6.3050430127
 20
4.3539866655
 30
0.0
 10
6.2972054285
 20
4.3716840861
 30
0.0
 10
6.2885103819
 20
4.3889763456
 30
0.0
 10
6.278975623
 20
4.4058199311
 30
0.0
 10
6.2686240144
 20
4.4221739135
 30
0.0
 10
6.2574838028
 20
4.4380008669
 30
0.0
 10
6.2455820806
 20
4.4532628751
 30
0.0
 10
6.2329458838
 20
4.4679219242
 30
0.0
 10
6.2196035507
 20
4.4819407741
 30
0.0
 10
6.2055899352
 20
4.4952884229
 30
0.0
 10
6.190938904
 20
4.507933487
 30
0.0
 10
6.1756845844
 20
4.5198448042
 30
0.0
 10
6.1598612864
 20
4.5309904145
 30
0.0
 10
6.1435096818
 20
4.5413462905
 30
0.0
 10
6.1266706117
 20
4.550888828
 30
0.0
 10
6.1093849818
 20
4.5595945426
 30
0.0
 10
6.0916928694
 20
4.5674389487
 30
0.0
 10
6.0736366239
 20
4.574403737
 30
0.0
 10
6.055259194
 20
4.5804748935
 30
0.0
 10
6.0366028305
 20
4.5856378919
 30
0.0
 10
6.0177107637
 20
4.5898773101
 30
0.0
 10
5.9986306723
 20
4.5931806722
 30
0.0
 10
5.9794150594
 20
4.5955450313
 30
0.0
 10
5.9601188025
 20
4.5969653288
 30
0.0
 10
5.9472272216
 20
4.5972798789
 30
0.0
 10
5.9407859446
 20
4.5972778746
 30
0.0
 11
5.9407865305
 21
3.8086760361
 31
0.0
 11
5.9793928422
 21
3.8106295899
 31
0.0
 11
5.9985990616
 21
3.8130213115
 31
0.0
 11
6.0176676435
 21
3.8163498883
 31
0.0
 11
6.0365448803
 21
3.8206097192
 31
0.0
 11
6.0551850661
 21
3.8257893477
 31
0.0
 11
6.0735461715
 21
3.831874627
 31
0.0
 11
6.0915861864
 21
3.8388513962
 31
0.0
 11
6.1092631272
 21
3.8467052119
 31
0.0
 11
6.1265354492
 21
3.8554169475
 31
0.0
 11
6.1597015156
 21
3.8753221368
 31
0.0
 11
6.1755129552
 21
3.8864693502
 31
0.0
 11
6.1907575736
 21
3.8983792641
 31
0.0
 11
6.2054004199
 21
3.9110214389
 31
0.0
 11
6.2194068683
 21
3.9243650506
 31
0.0
 11
6.2327422949
 21
3.938379274
 31
0.0
 11
6.2453736054
 21
3.9530317849
 31
0.0
 11
6.2572721352
 21
3.9682859182
 31
0.0
 11
6.2684100172
 21
3.9841042277
 31
0.0
 11
6.278759384
 21
4.0004492674
 31
0.0
 11
6.2882932299
 21
4.0172830749
 31
0.0
 11
6.2969900268
 21
4.0345644043
 31
0.0
 11
6.3048303933
 21
4.0522507233
 31
0.0
 11
6.3117949529
 21
4.0702994964
 31
0.0
 11
6.3178646207
 21
4.0886680966
 31
0.0
 11
6.3230251614
 21
4.1073123686
 31
0.0
 11
6.3272663375
 21
4.1261868973
 31
0.0
 11
6.3305780312
 21
4.1452462303
 31
0.0
 11
6.3329501982
 21
4.1644449065
 31
0.0
 11
6.3343764511
 21
4.1837370526
 31
0.0
 11
6.3348556728
 21
4.2030762007
 31
0.0
 11
6.3343871562
 21
4.2224158366
 31
0.0
 11
6.3329701989
 21
4.2417094466
 31
0.0
 11
6.3273041008
 21
4.2799735249
 31
0.0
 11
6.3179191001
 21
4.3175005115
 31
0.0
 11
6.3118554364
 21
4.3358731006
 31
0.0
 11
6.3048970302
 21
4.3539261362
 31
0.0
 11
6.2970624719
 21
4.3716166557
 31
0.0
 11
6.2883703595
 21
4.3889016987
 31
0.0
 11
6.2788394449
 21
4.4057383919
 31
0.0
 11
6.2684925234
 21
4.42208616
 31
0.0
 11
6.2573567421
 21
4.4379069002
 31
0.0
 11
6.245459463
 21
4.4531626323
 31
0.0
 11
6.2328280538
 21
4.467815381
 31
0.0
 11
6.2194916638
 21
4.4818289151
 31
0.0
 11
6.2054837826
 21
4.4951712507
 31
0.0
 11
6.1908385483
 21
4.5078110391
 31
0.0
 11
6.1755900992
 21
4.5197169312
 31
0.0
 11
6.1597735088
 21
4.5308586077
 31
0.0
 11
6.1434283982
 21
4.541210755
 31
0.0
 11
6.1265957683
 21
4.5507495782
 31
0.0
 11
6.1093166203
 21
4.5594512827
 31
0.0
 11
6.0916320085
 21
4.5672924214
 31
0.0
 11
6.0735837528
 21
4.5742545677
 31
0.0
 11
6.0552142493
 21
4.5803230707
 31
0.0
 11
6.0365659081
 21
4.5854833721
 31
0.0
 11
6.0176811756
 21
4.5897209417
 31
0.0
 11
5.9986064931
 21
4.5930243855
 31
0.0
 11
5.9793958454
 21
4.5953882318
 31
0.0
 11
5.960104055
 21
4.5968076662
 31
0.0
 11
5.9407859446
 21
4.5972778746
 31
0.0
  0
LINE
  5
26E
100
AcDbEntity
  8
0
100
AcDbLine
 62
6
  6
CONTINUOUS
 10
5.9407859446
 20
4.5972778746
 11
5.9405562721
 21
4.5972777357
  0
LINE
  5
26F
100
AcDbEntity
  8
0
100
AcDbLine
 62
6
  6
CONTINUOUS
 10
5.9405562721
 20
3.8108990042
 11
5.9407865533
 21
3.8108992797
  0
SPLINE
  5
270
100
AcDbEntity
  8
0
100
AcDbSpline
 62
6
  6
CONTINUOUS
 70
0
 71
3
 72
68
 73
64
 74
62
 42
0.0000001
 43
0.0000001
 44
0.0000000001
 12
1.2311253616
 22
0.0018366488
 32
0.0
 13
-1.231126672
 23
-0.0003832691
 33
0.0
 40
0.0
 40
0.0
 40
0.0
 40
0.0
 40
0.0156074243
 40
0.0312307624
 40
0.0468630732
 40
0.0624974297
 40
0.0781279632
 40
0.0937542843
 40
0.1093781245
 40
0.1250010901
 40
0.1406248401
 40
0.1562500706
 40
0.1874931382
 40
0.203118966
 40
0.2187442698
 40
0.2343693066
 40
0.249994147
 40
0.2656188843
 40
0.2812438207
 40
0.2968690492
 40
0.3124943466
 40
0.3281194661
 40
0.3437444114
 40
0.3593693945
 40
0.374994387
 40
0.3906192643
 40
0.4062440747
 40
0.4218690429
 40
0.4374941097
 40
0.4531190552
 40
0.468743775
 40
0.4843684888
 40
0.4999933507
 40
0.5312339724
 40
0.562475848
 40
0.5781019196
 40
0.5937279814
 40
0.6093540577
 40
0.6249802786
 40
0.6406064677
 40
0.6562323407
 40
0.6718577825
 40
0.6874830075
 40
0.7031080941
 40
0.7187329377
 40
0.7343575183
 40
0.7499821248
 40
0.7656070142
 40
0.7812322415
 40
0.7968579131
 40
0.8124843148
 40
0.8281112499
 40
0.8437380767
 40
0.8593640811
 40
0.8749888412
 40
0.8906132673
 40
0.906238861
 40
0.9218670676
 40
0.9374994849
 40
0.9531353256
 40
0.9687686053
 40
0.9843924533
 40
1.0
 40
1.0
 40
1.0
 40
1.0
 10
5.9407865533
 20
3.8108992797
 30
0.0
 10
5.9471914519
 20
3.8109088348
 30
0.0
 10
5.9600095093
 20
3.8112437802
 30
0.0
 10
5.9791940658
 20
3.8126865794
 30
0.0
 10
5.9982967753
 20
3.8150654112
 30
0.0
 10
6.0172632895
 20
3.8183753153
 30
0.0
 10
6.0360417892
 20
3.8226133084
 30
0.0
 10
6.0545854165
 20
3.8277666854
 30
0.0
 10
6.0728516076
 20
3.8338206916
 30
0.0
 10
6.0907984714
 20
3.8407610545
 30
0.0
 10
6.1083840855
 20
3.8485747139
 30
0.0
 10
6.1312880054
 20
3.8601280405
 30
0.0
 10
6.1533202344
 20
3.8733501986
 30
0.0
 10
6.1742873629
 20
3.8881319138
 30
0.0
 10
6.1894523665
 20
3.899980794
 30
0.0
 10
6.2040181437
 20
3.9125572994
 30
0.0
 10
6.2179511435
 20
3.9258313295
 30
0.0
 10
6.2312170628
 20
3.9397720114
 30
0.0
 10
6.2437814775
 20
3.954348337
 30
0.0
 10
6.2556168717
 20
3.9695227788
 30
0.0
 10
6.2666958134
 20
3.9852580887
 30
0.0
 10
6.2769911027
 20
4.0015168583
 30
0.0
 10
6.2864743807
 20
4.0182621268
 30
0.0
 10
6.2951246348
 20
4.0354524004
 30
0.0
 10
6.3029232554
 20
4.0530453523
 30
0.0
 10
6.3098513699
 20
4.0709989187
 30
0.0
 10
6.3158889974
 20
4.0892712365
 30
0.0
 10
6.3210217215
 20
4.1078181241
 30
0.0
 10
6.3252404495
 20
4.1265940283
 30
0.0
 10
6.3285351386
 20
4.1455538694
 30
0.0
 10
6.3308952739
 20
4.164652361
 30
0.0
 10
6.3323131975
 20
4.1838442028
 30
0.0
 10
6.3329482225
 20
4.2094892935
 30
0.0
 10
6.3313860404
 20
4.2415595939
 30
0.0
 10
6.3266788494
 20
4.2733214846
 30
0.0
 10
6.3210666362
 20
4.2983546089
 30
0.0
 10
6.3159413575
 20
4.3169053811
 30
0.0
 10
6.3099092374
 20
4.3351810313
 30
0.0
 10
6.3029870059
 20
4.35313856
 30
0.0
 10
6.295193723
 20
4.3707354218
 30
0.0
 10
6.2865480387
 20
4.3879292115
 30
0.0
 10
6.2770677515
 20
4.4046768983
 30
0.0
 10
6.2667753704
 20
4.4209377036
 30
0.0
 10
6.2556988357
 20
4.4366744799
 30
0.0
 10
6.2438649535
 20
4.4518496438
 30
0.0
 10
6.2313004012
 20
4.4664254114
 30
0.0
 10
6.2180336039
 20
4.4803650343
 30
0.0
 10
6.2040992101
 20
4.4936376353
 30
0.0
 10
6.1895308617
 20
4.5062118012
 30
0.0
 10
6.1743624501
 20
4.5180562968
 30
0.0
 10
6.1586282021
 20
4.5291393112
 30
0.0
 10
6.1423687246
 20
4.5394371161
 30
0.0
 10
6.1256245498
 20
4.5489261239
 30
0.0
 10
6.108436318
 20
4.5575829564
 30
0.0
 10
6.09084383
 20
4.5653832151
 30
0.0
 10
6.0728892632
 20
4.5723089026
 30
0.0
 10
6.0546152764
 20
4.5783460076
 30
0.0
 10
6.0360638833
 20
4.5834800585
 30
0.0
 10
6.0172780858
 20
4.5876956321
 30
0.0
 10
5.9983053621
 20
4.5909804254
 30
0.0
 10
5.9791979522
 20
4.5933315107
 30
0.0
 10
5.9600104294
 20
4.5947438408
 30
0.0
 10
5.9471915169
 20
4.5950566286
 30
0.0
 10
5.9407865612
 20
4.5950546346
 30
0.0
 11
5.9407865533
 21
3.8108992797
 31
0.0
 11
5.9599947428
 21
3.8114000932
 31
0.0
 11
5.9791749249
 21
3.8128420592
 31
0.0
 11
5.9982727558
 21
3.8152204142
 31
0.0
 11
6.017233892
 21
3.8185303951
 31
0.0
 11
6.0360050185
 21
3.8227664676
 31
0.0
 11
6.054540648
 21
3.8279172323
 31
0.0
 11
6.0727988917
 21
3.8339685932
 31
0.0
 11
6.0907378795
 21
3.8409064404
 31
0.0
 11
6.1083157663
 21
3.8487164372
 31
0.0
 11
6.1254911984
 21
3.8573797399
 31
0.0
 11
6.1584711097
 21
3.8771741395
 31
0.0
 11
6.1741938354
 21
3.8882589248
 31
0.0
 11
6.1893526326
 21
3.9001021769
 31
0.0
 11
6.2039127694
 21
3.9126736335
 31
0.0
 11
6.2178399986
 21
3.9259424725
 31
0.0
 11
6.2311000732
 21
3.9398778713
 31
0.0
 11
6.2436598736
 21
3.9544479008
 31
0.0
 11
6.2554907714
 21
3.9696162245
 31
0.0
 11
6.2665652556
 21
3.9853454091
 31
0.0
 11
6.2768558156
 21
4.001598021
 31
0.0
 11
6.2863355404
 21
4.0183362881
 31
0.0
 11
6.294982696
 21
4.0355195143
 31
0.0
 11
6.3027781935
 21
4.0531055094
 31
0.0
 11
6.3097029656
 21
4.0710520712
 31
0.0
 11
6.3157381578
 21
4.0893169237
 31
0.0
 11
6.3208693763
 21
4.1078562454
 31
0.0
 11
6.3250864555
 21
4.1266247501
 31
0.0
 11
6.328379397
 21
4.1455770934
 31
0.0
 11
6.33073824
 21
4.1646679275
 31
0.0
 11
6.3321562631
 21
4.1838515928
 31
0.0
 11
6.3326324101
 21
4.2030818841
 31
0.0
 11
6.3307571376
 21
4.2414973045
 31
0.0
 11
6.3251225926
 21
4.2795450618
 31
0.0
 11
6.3209140641
 21
4.2983167533
 31
0.0
 11
6.3157902222
 21
4.316859512
 31
0.0
 11
6.3097609083
 21
4.335127947
 31
0.0
 11
6.3028418196
 21
4.3530784734
 31
0.0
 11
6.2950515773
 21
4.3706684083
 31
0.0
 11
6.2864088239
 21
4.3878550754
 31
0.0
 11
6.2769323295
 21
4.4045958741
 31
0.0
 11
6.2666446238
 21
4.4208504466
 31
0.0
 11
6.2555725253
 21
4.4365809932
 31
0.0
 11
6.2437430862
 21
4.4517498536
 31
0.0
 11
6.2311833703
 21
4.4663193777
 31
0.0
 11
6.2179224515
 21
4.4802537509
 31
0.0
 11
6.2039937079
 21
4.4935210876
 31
0.0
 11
6.1894310725
 21
4.5060900086
 31
0.0
 11
6.1742684786
 21
4.5179291353
 31
0.0
 11
6.1585409108
 21
4.5290082762
 31
0.0
 11
6.1422878791
 21
4.5393023515
 31
0.0
 11
6.1255501106
 21
4.5487876557
 31
0.0
 11
6.1083683323
 21
4.5574404835
 31
0.0
 11
6.0907833325
 21
4.5652375202
 31
0.0
 11
6.0728367013
 21
4.5721605693
 31
0.0
 11
6.0545705928
 21
4.5781950335
 31
0.0
 11
6.0360271725
 21
4.5833263902
 31
0.0
 11
6.0172486476
 21
4.5875401495
 31
0.0
 11
5.9982812917
 21
4.5908250258
 31
0.0
 11
5.9791788193
 21
4.5931755964
 31
0.0
 11
5.9599957395
 21
4.5945870649
 31
0.0
 11
5.9407865612
 21
4.5950546346
 31
0.0
  0
LINE
  5
271
100
AcDbEntity
  8
0
100
AcDbLine
 62
6
  6
CONTINUOUS
 10
5.9407865612
 20
4.5950546346
 11
5.9405562721
 21
4.5950544947
  0
LINE
  5
272
100
AcDbEntity
  8
0
100
AcDbLine
 62
6
  6
CONTINUOUS
 10
5.9405562721
 20
3.8131222438
 11
5.9407897383
 21
3.8131225258
  0
SPLINE
  5
273
100
AcDbEntity
  8
0
100
AcDbSpline
 62
6
  6
CONTINUOUS
 70
0
 71
3
 72
67
 73
63
 74
61
 42
0.0000001
 43
0.0000001
 44
0.0000000001
 12
1.2241298916
 22
0.0018467439
 32
0.0
 13
-1.2241312217
 23
-0.0003924467
 33
0.0
 40
0.0
 40
0.0
 40
0.0
 40
0.0
 40
0.0156076796
 40
0.0312315488
 40
0.0468647762
 40
0.0625005395
 40
0.0781329117
 40
0.0937611219
 40
0.1093867459
 40
0.1250112191
 40
0.1406360429
 40
0.1562621194
 40
0.1718890203
 40
0.1875160399
 40
0.2031425558
 40
0.218768387
 40
0.234393789
 40
0.2500188368
 40
0.2656435645
 40
0.2812682151
 40
0.2968930479
 40
0.3125180107
 40
0.3281429744
 40
0.3437680013
 40
0.3593933241
 40
0.375018891
 40
0.3906445045
 40
0.4062700953
 40
0.4218958438
 40
0.4375217119
 40
0.4687633835
 40
0.5000041257
 40
0.5312447754
 40
0.5468699633
 40
0.5624954796
 40
0.5781211151
 40
0.5937465756
 40
0.6093717612
 40
0.6249968833
 40
0.6406219885
 40
0.6562469725
 40
0.6718718505
 40
0.6874968661
 40
0.7031220264
 40
0.7187471175
 40
0.7343719821
 40
0.7499967893
 40
0.7656218112
 40
0.7812471087
 40
0.7968727562
 40
0.8124990254
 40
0.8437430874
 40
0.859368935
 40
0.8749934643
 40
0.89061744
 40
0.9062423881
 40
0.9218697753
 40
0.9375012114
 40
0.9531362001
 40
0.9687689007
 40
0.9843924556
 40
1.0
 40
1.0
 40
1.0
 40
1.0
 10
5.9407897383
 20
3.8131225258
 30
0.0
 10
5.9471583473
 20
3.8131321335
 30
0.0
 10
5.9599038861
 20
3.8134654295
 30
0.0
 10
5.9789800951
 20
3.8149005048
 30
0.0
 10
5.9979753616
 20
3.8172663985
 30
0.0
 10
6.0168357177
 20
3.8205581268
 30
0.0
 10
6.0355094957
 20
3.8247727926
 30
0.0
 10
6.0539497369
 20
3.8298982129
 30
0.0
 10
6.072113872
 20
3.8359191886
 30
0.0
 10
6.0899602959
 20
3.842821442
 30
0.0
 10
6.1074467502
 20
3.8505911588
 30
0.0
 10
6.1245314681
 20
3.859210524
 30
0.0
 10
6.1411750004
 20
3.8686554436
 30
0.0
 10
6.1573370611
 20
3.8789028259
 30
0.0
 10
6.1729774621
 20
3.8899293772
 30
0.0
 10
6.1880559417
 20
3.9017116177
 30
0.0
 10
6.2025385363
 20
3.9142180512
 30
0.0
 10
6.2163915724
 20
3.9274177604
 30
0.0
 10
6.2295816242
 20
3.9412796397
 30
0.0
 10
6.2420742555
 20
3.9557731112
 30
0.0
 10
6.2538412044
 20
3.97086175
 30
0.0
 10
6.2648559443
 20
3.9865080835
 30
0.0
 10
6.2750918145
 20
4.0026748388
 30
0.0
 10
6.2845210382
 20
4.0193251802
 30
0.0
 10
6.2931213308
 20
4.0364186527
 30
0.0
 10
6.3008748416
 20
4.0539127201
 30
0.0
 10
6.3077629642
 20
4.0717654427
 30
0.0
 10
6.3137664983
 20
4.0899347434
 30
0.0
 10
6.318869301
 20
4.1083778746
 30
0.0
 10
6.3244595744
 20
4.133265991
 30
0.0
 10
6.3291530912
 20
4.1648470392
 30
0.0
 10
6.3310338674
 20
4.2031024085
 30
0.0
 10
6.3294777841
 20
4.2349914739
 30
0.0
 10
6.3263596015
 20
4.2603077805
 30
0.0
 10
6.3230913026
 20
4.2791622428
 30
0.0
 10
6.3189038733
 20
4.2978336973
 30
0.0
 10
6.313807084
 20
4.3162777172
 30
0.0
 10
6.3078096636
 20
4.3344486391
 30
0.0
 10
6.3009264143
 20
4.3523026411
 30
0.0
 10
6.293176965
 20
4.3697979519
 30
0.0
 10
6.2845799654
 20
4.3868926515
 30
0.0
 10
6.2751536377
 20
4.4035444433
 30
0.0
 10
6.2649193181
 20
4.4197122559
 30
0.0
 10
6.2539050485
 20
4.4353591962
 30
0.0
 10
6.2421376958
 20
4.4504478804
 30
0.0
 10
6.2296442317
 20
4.464940956
 30
0.0
 10
6.2164523293
 20
4.4788012522
 30
0.0
 10
6.2025964016
 20
4.4919979863
 30
0.0
 10
6.1881103793
 20
4.5045000731
 30
0.0
 10
6.1730275191
 20
4.5162772191
 30
0.0
 10
6.1521729544
 20
4.5309669096
 30
0.0
 10
6.1302583988
 20
4.5441033605
 30
0.0
 10
6.1074761007
 20
4.5555763969
 30
0.0
 10
6.0899833863
 20
4.563332342
 30
0.0
 10
6.0721312826
 20
4.5702179492
 30
0.0
 10
6.0539616787
 20
4.57622003
 30
0.0
 10
6.0355165513
 20
4.5813241959
 30
0.0
 10
6.0168385424
 20
4.5855155232
 30
0.0
 10
5.997974563
 20
4.5887813167
 30
0.0
 10
5.9789763837
 20
4.5911186503
 30
0.0
 10
5.9598982196
 20
4.5925226032
 30
0.0
 10
5.9471522639
 20
4.5928334363
 30
0.0
 10
5.9407837031
 20
4.5928313946
 30
0.0
 11
5.9407897383
 21
3.8131225258
 31
0.0
 11
5.959889087
 21
3.8136208614
 31
0.0
 11
5.9789609018
 21
3.8150550947
 31
0.0
 11
5.9979512779
 21
3.8174204868
 31
0.0
 11
6.0168063107
 21
3.820712299
 31
0.0
 11
6.0354728891
 21
3.8249251665
 31
0.0
 11
6.0539052442
 21
3.8300479313
 31
0.0
 11
6.0720615806
 21
3.8360663
 31
0.0
 11
6.0899001419
 21
3.8429659488
 31
0.0
 11
6.1073791834
 21
3.8507324765
 31
0.0
 11
6.1244575081
 21
3.8593478887
 31
0.0
 11
6.1410946869
 21
3.868789149
 31
0.0
 11
6.1572503484
 21
3.8790328432
 31
0.0
 11
6.1728841214
 21
3.8900555575
 31
0.0
 11
6.1879568403
 21
3.9018324907
 31
0.0
 11
6.2024337727
 21
3.9143337446
 31
0.0
 11
6.2162812038
 21
3.9275282503
 31
0.0
 11
6.229465419
 21
3.9413849387
 31
0.0
 11
6.2419532514
 21
3.9558722356
 31
0.0
 11
6.2537157917
 21
3.9709546396
 31
0.0
 11
6.2647261251
 21
3.9865948093
 31
0.0
 11
6.274957348
 21
4.002755393
 31
0.0
 11
6.284382807
 21
4.0193988925
 31
0.0
 11
6.2929801405
 21
4.0364852926
 31
0.0
 11
6.3007305956
 21
4.0539724618
 31
0.0
 11
6.3076155319
 21
4.0718182028
 31
0.0
 11
6.3136163529
 21
4.0899803036
 31
0.0
 11
6.3187177134
 21
4.1084154675
 31
0.0
 11
6.3229096992
 21
4.1270785861
 31
0.0
 11
6.3285279529
 21
4.1649075656
 31
0.0
 11
6.3304092106
 21
4.2031040357
 31
0.0
 11
6.3285424511
 21
4.2413011036
 31
0.0
 11
6.3262047435
 21
4.2602849918
 31
0.0
 11
6.3229381265
 21
4.2791316754
 31
0.0
 11
6.3187522899
 21
4.2977958825
 31
0.0
 11
6.3136569364
 21
4.3162323417
 31
0.0
 11
6.307662009
 21
4.3343958664
 31
0.0
 11
6.3007820396
 21
4.3522428783
 31
0.0
 11
6.2930356783
 21
4.369731243
 31
0.0
 11
6.2844417212
 21
4.3868188773
 31
0.0
 11
6.2750190078
 21
4.4034637219
 31
0.0
 11
6.264789367
 21
4.4196253825
 31
0.0
 11
6.2537795112
 21
4.435266184
 31
0.0
 11
6.2420166033
 21
4.4503487024
 31
0.0
 11
6.229527807
 21
4.4648355141
 31
0.0
 11
6.2163417416
 21
4.4786905761
 31
0.0
 11
6.2024915116
 21
4.491882098
 31
0.0
 11
6.1880110827
 21
4.5043791056
 31
0.0
 11
6.1729344201
 21
4.5161506247
 31
0.0
 11
6.1572961705
 21
4.5271664623
 31
0.0
 11
6.1244924063
 21
4.5468319993
 31
0.0
 11
6.1074081616
 21
4.5554350434
 31
0.0
 11
6.0899232243
 21
4.5631873991
 31
0.0
 11
6.0720789242
 21
4.5700705003
 31
0.0
 11
6.0539171977
 21
4.5760699463
 31
0.0
 11
6.0354800034
 21
4.5811714907
 31
0.0
 11
6.0168093217
 21
4.5853609042
 31
0.0
 11
5.9979507393
 21
4.5886267676
 31
0.0
 11
5.9789574787
 21
4.5909636115
 31
0.0
 11
5.959883735
 21
4.5923667244
 31
0.0
 11
5.9407837031
 21
4.5928313946
 31
0.0
  0
LINE
  5
274
100
AcDbEntity
  8
0
100
AcDbLine
 62
6
  6
CONTINUOUS
 10
5.9407837031
 20
4.5928313946
 11
5.9405562721
 21
4.5928312547
  0
LINE
  5
275
100
AcDbEntity
  8
0
100
AcDbLine
 62
6
  6
CONTINUOUS
 10
5.9405562721
 20
3.8153454853
 11
5.9407903969
 21
3.8153457698
  0
SPLINE
  5
276
100
AcDbEntity
  8
0
100
AcDbSpline
 62
6
  6
CONTINUOUS
 70
0
 71
3
 72
43
 73
39
 74
37
 42
0.0000001
 43
0.0000001
 44
0.0000000001
 12
0.2510167702
 22
0.6984687792
 32
0.0
 13
-0.7422048209
 23
-0.0002412028
 33
0.0
 40
0.0
 40
0.0
 40
0.0
 40
0.0
 40
0.0312515235
 40
0.0625030213
 40
0.0937543199
 40
0.1250047094
 40
0.1562541437
 40
0.1875032755
 40
0.218752064
 40
0.250000537
 40
0.2812494002
 40
0.3124985912
 40
0.3437475662
 40
0.3749964718
 40
0.406245773
 40
0.437495141
 40
0.4531215184
 40
0.46874794
 40
0.4999976604
 40
0.5312475196
 40
0.562496772
 40
0.5937454789
 40
0.6249944374
 40
0.6406208316
 40
0.6562473705
 40
0.6718741371
 40
0.6875012721
 40
0.7187528875
 40
0.7500040791
 40
0.7812526287
 40
0.8124978758
 40
0.843743864
 40
0.8749955141
 40
0.8906268544
 40
0.9062613514
 40
0.9375288674
 40
0.9687820435
 40
1.0
 40
1.0
 40
1.0
 40
1.0
 10
6.3053504058
 20
4.0720887103
 30
0.0
 10
6.3079652913
 20
4.0793647815
 30
0.0
 10
6.3127603195
 20
4.0940774395
 30
0.0
 10
6.3186159654
 20
4.1165347257
 30
0.0
 10
6.3231211262
 20
4.13930189
 30
0.0
 10
6.3262591735
 20
4.1622967622
 30
0.0
 10
6.3280123603
 20
4.1854380176
 30
0.0
 10
6.3283783317
 20
4.208642168
 30
0.0
 10
6.3273591434
 20
4.2318265957
 30
0.0
 10
6.3249542258
 20
4.2549085126
 30
0.0
 10
6.3211696282
 20
4.2778047405
 30
0.0
 10
6.3160250178
 20
4.3004342539
 30
0.0
 10
6.3095380432
 20
4.3227162242
 30
0.0
 10
6.3017255493
 20
4.3445688989
 30
0.0
 10
6.2926204163
 20
4.3659148855
 30
0.0
 10
6.2839834274
 20
4.3832200426
 30
0.0
 10
6.2764628771
 20
4.3967334418
 30
0.0
 10
6.2685398776
 20
4.4100149891
 30
0.0
 10
6.2578945776
 20
4.4261628675
 30
0.0
 10
6.2439870195
 20
4.4447409991
 30
0.0
 10
6.2289940945
 20
4.4624553275
 30
0.0
 10
6.2129653049
 20
4.4792371335
 30
0.0
 10
6.1987941181
 20
4.4923990363
 30
0.0
 10
6.1870023627
 20
4.5024050094
 30
0.0
 10
6.1779370675
 20
4.5096422944
 30
0.0
 10
6.1686588033
 20
4.5166047781
 30
0.0
 10
6.1560151088
 20
4.5255115417
 30
0.0
 10
6.1397177136
 20
4.5359283873
 30
0.0
 10
6.1194515906
 20
4.5472368396
 30
0.0
 10
6.0985470427
 20
4.5573139116
 30
0.0
 10
6.0770764369
 20
4.5661174387
 30
0.0
 10
6.0551171106
 20
4.5736201612
 30
0.0
 10
6.0364727811
 20
4.5787674562
 30
0.0
 10
6.0213915298
 20
4.5822089953
 30
0.0
 10
6.0062097245
 20
4.585195936
 30
0.0
 10
5.9870765086
 20
4.5880737199
 30
0.0
 10
5.963965726
 20
4.5901498045
 30
0.0
 10
5.9485060864
 20
4.5906106628
 30
0.0
 10
5.9407827138
 20
4.5906081528
 30
0.0
 11
6.3053504058
 21
4.0720887103
 31
0.0
 11
6.3125375074
 21
4.0941421706
 31
0.0
 11
6.3183909049
 21
4.1165864659
 31
0.0
 11
6.3228933241
 21
4.1393401473
 31
0.0
 11
6.3260283985
 21
4.1623214832
 31
0.0
 11
6.3277811649
 21
4.1854486408
 31
0.0
 11
6.32814747
 21
4.2086390055
 31
0.0
 11
6.3271281828
 21
4.2318095995
 31
0.0
 11
6.324724295
 21
4.2548774524
 31
0.0
 11
6.3209429783
 21
4.277760188
 31
0.0
 11
6.315801277
 21
4.30037638
 31
0.0
 11
6.3093171202
 21
4.3226446871
 31
0.0
 11
6.3015101512
 21
4.3444843447
 31
0.0
 11
6.2924105924
 21
4.3658181454
 31
0.0
 11
6.2820526967
 21
4.3865702375
 31
0.0
 11
6.2764125792
 21
4.3967044399
 31
0.0
 11
6.27047087
 21
4.4066648533
 31
0.0
 11
6.2577056761
 21
4.4260296999
 31
0.0
 11
6.2438060048
 21
4.4445971815
 31
0.0
 11
6.2288213361
 21
4.4623000358
 31
0.0
 11
6.2128026366
 21
4.4790724486
 31
0.0
 11
6.1958088621
 21
4.4948563916
 31
0.0
 11
6.1869655806
 21
4.5023603669
 31
0.0
 11
6.1779016414
 21
4.5095964411
 31
0.0
 11
6.1686247483
 21
4.5165576865
 31
0.0
 11
6.1591427658
 21
4.5232373598
 31
0.0
 11
6.1395992528
 21
4.5357299097
 31
0.0
 11
6.1193443716
 21
4.5470320288
 31
0.0
 11
6.0984517589
 21
4.5571020779
 31
0.0
 11
6.0769952788
 21
4.5659005389
 31
0.0
 11
6.0550499414
 21
4.5733986144
 31
0.0
 11
6.0326911183
 21
4.5795708851
 31
0.0
 11
6.0213802033
 21
4.5821519006
 31
0.0
 11
6.0099945122
 21
4.5843921788
 31
0.0
 11
5.9870458781
 21
4.5878447883
 31
0.0
 11
5.9639426009
 21
4.5899196427
 31
0.0
 11
5.9407827138
 21
4.5906081528
 31
0.0
  0
LINE
  5
277
100
AcDbEntity
  8
0
100
AcDbLine
 62
6
  6
CONTINUOUS
 10
5.9407827138
 20
4.5906081528
 11
5.9405562721
 21
4.5906080126
  0
LINE
  5
278
100
AcDbEntity
  8
0
100
AcDbLine
 62
6
  6
CONTINUOUS
 10
5.9405562721
 20
3.8175687274
 11
5.9407897376
 21
3.8175690125
  0
SPLINE
  5
279
100
AcDbEntity
  8
0
100
AcDbSpline
 62
6
  6
CONTINUOUS
 70
0
 71
3
 72
43
 73
39
 74
37
 42
0.0000001
 43
0.0000001
 44
0.0000000001
 12
0.2493353264
 22
0.6946303851
 32
0.0
 13
-0.7380237235
 23
-0.0006785514
 33
0.0
 40
0.0
 40
0.0
 40
0.0
 40
0.0
 40
0.0312523392
 40
0.0625045021
 40
0.0937563186
 40
0.125007041
 40
0.1562565565
 40
0.1875055542
 40
0.218754064
 40
0.2500021396
 40
0.2812505764
 40
0.3124995551
 40
0.3437487823
 40
0.3749985913
 40
0.4062492632
 40
0.4375001034
 40
0.4687505591
 40
0.5000009978
 40
0.531251278
 40
0.5468778921
 40
0.5625042558
 40
0.5937529815
 40
0.6250017442
 40
0.6406279487
 40
0.6562542203
 40
0.6718806236
 40
0.6875072903
 40
0.7187577766
 40
0.7500077508
 40
0.7812551488
 40
0.8124993808
 40
0.8437445474
 40
0.8749956969
 40
0.8906269528
 40
0.9062614646
 40
0.9375290882
 40
0.9687822924
 40
1.0
 40
1.0
 40
1.0
 40
1.0
 10
6.3033083349
 20
4.0729804106
 30
0.0
 10
6.3059057723
 20
4.0802166854
 30
0.0
 10
6.3106682841
 20
4.0948486471
 30
0.0
 10
6.3164821519
 20
4.1171822382
 30
0.0
 10
6.3209527573
 20
4.1398233523
 30
0.0
 10
6.3240637913
 20
4.1626901974
 30
0.0
 10
6.3257976755
 20
4.1857018848
 30
0.0
 10
6.3261517021
 20
4.2087754064
 30
0.0
 10
6.3251282552
 20
4.2318285936
 30
0.0
 10
6.3227270661
 20
4.2547791924
 30
0.0
 10
6.3189538685
 20
4.2775445532
 30
0.0
 10
6.3138281728
 20
4.3000442053
 30
0.0
 10
6.3073675607
 20
4.3221979641
 30
0.0
 10
6.2995888244
 20
4.3439244526
 30
0.0
 10
6.2905243019
 20
4.365146995
 30
0.0
 10
6.2802090603
 20
4.3857907577
 30
0.0
 10
6.2686759208
 20
4.4057798445
 30
0.0
 10
6.2559645285
 20
4.4250404051
 30
0.0
 10
6.2444311059
 20
4.440430814
 30
0.0
 10
6.2346664505
 20
4.452311168
 30
0.0
 10
6.224550802
 20
4.4638936992
 30
0.0
 10
6.2112607399
 20
4.4777940042
 30
0.0
 10
6.1971626887
 20
4.4908740125
 30
0.0
 10
6.185432168
 20
4.5008173134
 30
0.0
 10
6.1764142875
 20
4.5080089207
 30
0.0
 10
6.167184881
 20
4.5149271938
 30
0.0
 10
6.1546082033
 20
4.5237769758
 30
0.0
 10
6.1383976196
 20
4.5341260583
 30
0.0
 10
6.1182402378
 20
4.5453593324
 30
0.0
 10
6.0974486715
 20
4.5553678098
 30
0.0
 10
6.076094895
 20
4.5641097655
 30
0.0
 10
6.0542556737
 20
4.5715579343
 30
0.0
 10
6.0357138258
 20
4.57666573
 30
0.0
 10
6.0207157163
 20
4.5800793104
 30
0.0
 10
6.0056177216
 20
4.5830407788
 30
0.0
 10
5.9865906101
 20
4.5858914644
 30
0.0
 10
5.9636088472
 20
4.5879425868
 30
0.0
 10
5.948236075
 20
4.5883918323
 30
0.0
 10
5.9405562721
 20
4.5883847713
 30
0.0
 11
6.3033083349
 21
4.0729804106
 31
0.0
 11
6.3104466508
 21
4.0949129807
 31
0.0
 11
6.3162583075
 21
4.11723364
 31
0.0
 11
6.3207262231
 21
4.1398613469
 31
0.0
 11
6.3238343104
 21
4.162714748
 31
0.0
 11
6.32556771
 21
4.1857124084
 31
0.0
 11
6.3259221207
 21
4.2087721964
 31
0.0
 11
6.3248986229
 21
4.2318116251
 31
0.0
 11
6.3224984137
 21
4.2547482124
 31
0.0
 11
6.3187284868
 21
4.2775000912
 31
0.0
 11
6.3136057163
 21
4.2999864428
 31
0.0
 11
6.3071479396
 21
4.3221265504
 31
0.0
 11
6.2993746279
 21
4.3438402022
 31
0.0
 11
6.2903158758
 21
4.3650504694
 31
0.0
 11
6.2800060278
 21
4.3856817366
 31
0.0
 11
6.2684795313
 21
4.4056584467
 31
0.0
 11
6.2557764271
 21
4.4249083721
 31
0.0
 11
6.2419454632
 21
4.4433644694
 31
0.0
 11
6.2346225032
 21
4.4522740216
 31
0.0
 11
6.2270361414
 21
4.4609601436
 31
0.0
 11
6.2110991469
 21
4.477629948
 31
0.0
 11
6.1941929309
 21
4.4933159701
 31
0.0
 11
6.1853956082
 21
4.5007729135
 31
0.0
 11
6.1763790739
 21
4.5079633336
 31
0.0
 11
6.1671510267
 21
4.5148803722
 31
0.0
 11
6.1577192715
 21
4.5215172955
 31
0.0
 11
6.1382798986
 21
4.5339286164
 31
0.0
 11
6.1181337486
 21
4.5451556067
 31
0.0
 11
6.0973540797
 21
4.5551571236
 31
0.0
 11
6.0760143508
 21
4.5638940102
 31
0.0
 11
6.0541890743
 21
4.5713375529
 31
0.0
 11
6.0319531077
 21
4.5774624588
 31
0.0
 11
6.0207045087
 21
4.5800225197
 31
0.0
 11
6.0093816693
 21
4.5822437014
 31
0.0
 11
5.9865602611
 21
4.5856637889
 31
0.0
 11
5.9635859147
 21
4.5877136777
 31
0.0
 11
5.9405562721
 21
4.5883847713
 31
0.0
  0
LINE
  5
27A
100
AcDbEntity
  8
0
100
AcDbLine
 62
6
  6
CONTINUOUS
 10
5.556300138
 20
4.167925985
 11
5.5562847659
 21
4.1680906206
  0
LINE
  5
27B
100
AcDbEntity
  8
0
100
AcDbLine
 62
6
  6
CONTINUOUS
 10
5.940386514
 20
4.5900231963
 11
5.9405562721
 21
4.5900233892
  0
LINE
  5
27C
100
AcDbEntity
  8
0
100
AcDbLine
 62
6
  6
CONTINUOUS
 10
5.9405562721
 20
3.8181533492
 11
5.9404079776
 21
3.8181532417
  0
LINE
  5
27D
100
AcDbEntity
  8
0
100
AcDbLine
 62
6
  6
CONTINUOUS
 10
5.5563143524
 20
4.1677744278
 11
5.556300138
 21
4.167925985
  0
SPLINE
  5
27E
100
AcDbEntity
  8
0
100
AcDbSpline
 62
6
  6
CONTINUOUS
 70
0
 71
3
 72
41
 73
37
 74
35
 42
0.0000001
 43
0.0000001
 44
0.0000000001
 12
0.486161099
 22
0.5232325606
 32
0.0
 13
-0.6709932783
 23
0.2447303561
 33
0.0
 40
0.0
 40
0.0
 40
0.0
 40
0.0
 40
0.0312240816
 40
0.0624839036
 40
0.0937552679
 40
0.1250170567
 40
0.15626923
 40
0.1875178215
 40
0.2187674456
 40
0.2500200777
 40
0.2812744623
 40
0.2969035102
 40
0.312532185
 40
0.3437853503
 40
0.3750386533
 40
0.4062915118
 40
0.4375438261
 40
0.4687961573
 40
0.5000475904
 40
0.5312972231
 40
0.5625461067
 40
0.5781721591
 40
0.5937979681
 40
0.6250450635
 40
0.6562919953
 40
0.6875391522
 40
0.7187860945
 40
0.7500329177
 40
0.781278788
 40
0.8125218095
 40
0.8437636087
 40
0.8750095847
 40
0.9062644492
 40
0.9375263243
 40
0.9687782781
 40
1.0
 40
1.0
 40
1.0
 40
1.0
 10
6.205439532
 20
3.9837592109
 30
0.0
 10
6.2104995099
 20
3.9892050296
 30
0.0
 10
6.2202722149
 20
4.0004369871
 30
0.0
 10
6.2338154503
 20
4.018198133
 30
0.0
 10
6.2461957996
 20
4.0368005977
 30
0.0
 10
6.2573504409
 20
4.0561604837
 30
0.0
 10
6.2672396131
 20
4.0761900827
 30
0.0
 10
6.2758321432
 20
4.0968059691
 30
0.0
 10
6.2830947179
 20
4.117927259
 30
0.0
 10
6.2890057082
 20
4.1394666802
 30
0.0
 10
6.2927924365
 20
4.1576931992
 30
0.0
 10
6.2951291403
 20
4.1723934452
 30
0.0
 10
6.2970013802
 20
4.1871597477
 30
0.0
 10
6.2984708429
 20
4.2057170291
 30
0.0
 10
6.2988422796
 20
4.2280499465
 30
0.0
 10
6.2978233376
 20
4.2503629497
 30
0.0
 10
6.2954180236
 20
4.2725688523
 30
0.0
 10
6.2916466575
 20
4.2945833873
 30
0.0
 10
6.2865278946
 20
4.3163236399
 30
0.0
 10
6.2800798324
 20
4.3377059842
 30
0.0
 10
6.2736257997
 20
4.3551633474
 30
0.0
 10
6.2678326329
 20
4.3688714415
 30
0.0
 10
6.2616248939
 20
4.3823963948
 30
0.0
 10
6.2530957561
 20
4.3989379716
 30
0.0
 10
6.241676902
 20
4.4181285441
 30
0.0
 10
6.2291210913
 20
4.4365956572
 30
0.0
 10
6.2154735886
 20
4.4542711221
 30
0.0
 10
6.2007882508
 20
4.471093625
 30
0.0
 10
6.1851250649
 20
4.4870082011
 30
0.0
 10
6.1685406306
 20
4.5019585505
 30
0.0
 10
6.1510947039
 20
4.5158938074
 30
0.0
 10
6.1328514669
 20
4.5287723964
 30
0.0
 10
6.113873618
 20
4.5405506536
 30
0.0
 10
6.0942311531
 20
4.5511867052
 30
0.0
 10
6.0740071645
 20
4.5606495876
 30
0.0
 10
6.0601803671
 20
4.5661578996
 30
0.0
 10
6.0531971786
 20
4.5687048673
 30
0.0
 11
6.205439532
 21
3.9837592109
 31
0.0
 11
6.22008016
 21
4.0005816625
 31
0.0
 11
6.2336191248
 21
4.01833493
 31
0.0
 11
6.2459928533
 21
4.0369290447
 31
0.0
 11
6.2571410409
 21
4.0562749156
 31
0.0
 11
6.2670240712
 21
4.0762890076
 31
0.0
 11
6.275610398
 21
4.0968899532
 31
0.0
 11
6.2828691756
 21
4.1179960432
 31
0.0
 11
6.288777728
 21
4.139521419
 31
0.0
 11
6.2933187671
 21
4.1613774855
 31
0.0
 11
6.2950710963
 21
4.1724018267
 31
0.0
 11
6.2964753568
 21
4.1834756182
 31
0.0
 11
6.2982388629
 21
4.2057278056
 31
0.0
 11
6.298610547
 21
4.228046767
 31
0.0
 11
6.2975922633
 21
4.2503452673
 31
0.0
 11
6.2951903406
 21
4.2725370097
 31
0.0
 11
6.2914220254
 21
4.294537987
 31
0.0
 11
6.2863061984
 21
4.3162645348
 31
0.0
 11
6.2798636447
 21
4.337633921
 31
0.0
 11
6.2721252322
 21
4.3585683484
 31
0.0
 11
6.2677807633
 21
4.3688486492
 31
0.0
 11
6.2631251515
 21
4.3789916465
 31
0.0
 11
6.2528983751
 21
4.3988282117
 31
0.0
 11
6.2414874347
 21
4.4180079274
 31
0.0
 11
6.2289391098
 21
4.4364637604
 31
0.0
 11
6.215300565
 21
4.4541290226
 31
0.0
 11
6.2006250137
 21
4.4709425822
 31
0.0
 11
6.1849708892
 21
4.4868481033
 31
0.0
 11
6.1683968352
 21
4.5017895604
 31
0.0
 11
6.1509629969
 21
4.5157168259
 31
0.0
 11
6.132731462
 21
4.5285874017
 31
0.0
 11
6.1137644865
 21
4.5403593099
 31
0.0
 11
6.0941309291
 21
4.5509927938
 31
0.0
 11
6.0739136227
 21
4.5604527985
 31
0.0
 11
6.0531971786
 21
4.5687048673
 31
0.0
  0
LINE
  5
27F
100
AcDbEntity
  8
0
100
AcDbLine
 62
6
  6
CONTINUOUS
 10
5.9405562721
 20
4.6078093192
 11
5.9407232465
 21
4.6078094306
  0
SPLINE
  5
280
100
AcDbEntity
  8
0
100
AcDbSpline
 62
6
  6
CONTINUOUS
 70
0
 71
3
 72
68
 73
64
 74
62
 42
0.0000001
 43
0.0000001
 44
0.0000000001
 12
1.2713127411
 22
0.0005839221
 32
0.0
 13
-1.2713117983
 23
-0.0016547013
 33
0.0
 40
0.0
 40
0.0
 40
0.0
 40
0.0
 40
0.0156073209
 40
0.0312306065
 40
0.0468629265
 40
0.0624973565
 40
0.0781280376
 40
0.0937545871
 40
0.1093787002
 40
0.1250019354
 40
0.1406259007
 40
0.1562512919
 40
0.1874945604
 40
0.2031204707
 40
0.2187458267
 40
0.234370898
 40
0.2499957588
 40
0.2656204938
 40
0.2812453952
 40
0.2968705684
 40
0.3124957974
 40
0.328120831
 40
0.3437456634
 40
0.3593705274
 40
0.3749954276
 40
0.3906202657
 40
0.4062451093
 40
0.4218701785
 40
0.4374953868
 40
0.4531204794
 40
0.4687453103
 40
0.4843700796
 40
0.4999949597
 40
0.5312355465
 40
0.5624773028
 40
0.5781032847
 40
0.59372923
 40
0.6093551499
 40
0.6249811825
 40
0.6406071695
 40
0.6562328388
 40
0.6718580823
 40
0.6874831238
 40
0.7031080536
 40
0.7187327785
 40
0.7343572884
 40
0.7499818755
 40
0.765606784
 40
0.7812320532
 40
0.796857772
 40
0.8124842027
 40
0.8281111436
 40
0.843737962
 40
0.8593639501
 40
0.8749886964
 40
0.8906131409
 40
0.906238786
 40
0.9218670711
 40
0.9374995771
 40
0.953135444
 40
0.9687686948
 40
0.9843924938
 40
1.0
 40
1.0
 40
1.0
 40
1.0
 10
5.9407232465
 20
4.6078094306
 30
0.0
 10
5.9473371751
 20
4.6078124684
 30
0.0
 10
5.9605742332
 20
4.607491471
 30
0.0
 10
5.9803875521
 20
4.6060360892
 30
0.0
 10
6.000117789
 20
4.6036113342
 30
0.0
 10
6.019708572
 20
4.6002223181
 30
0.0
 10
6.0391061504
 20
4.5958721188
 30
0.0
 10
6.0582619068
 20
4.5905739992
 30
0.0
 10
6.0771316408
 20
4.5843432952
 30
0.0
 10
6.0956718378
 20
4.5771948618
 30
0.0
 10
6.1138389741
 20
4.5691422767
 30
0.0
 10
6.1375001555
 20
4.5572303305
 30
0.0
 10
6.1602605768
 20
4.5435908746
 30
0.0
 10
6.1819199346
 20
4.5283374695
 30
0.0
 10
6.1975851104
 20
4.5161082618
 30
0.0
 10
6.2126307029
 20
4.503126183
 30
0.0
 10
6.2270220181
 20
4.4894224909
 30
0.0
 10
6.2407235907
 20
4.4750292423
 30
0.0
 10
6.2536998078
 20
4.4599785884
 30
0.0
 10
6.2659222225
 20
4.4443094255
 30
0.0
 10
6.277362525
 20
4.4280603792
 30
0.0
 10
6.2879926365
 20
4.4112702267
 30
0.0
 10
6.2977832993
 20
4.3939772731
 30
0.0
 10
6.3067128641
 20
4.3762244823
 30
0.0
 10
6.3147621425
 20
4.3580556371
 30
0.0
 10
6.321911691
 20
4.3395142476
 30
0.0
 10
6.3281408998
 20
4.3206436198
 30
0.0
 10
6.3334350641
 20
4.3014895118
 30
0.0
 10
6.3377848393
 20
4.2820990568
 30
0.0
 10
6.341179917
 20
4.2625189122
 30
0.0
 10
6.343609483
 20
4.2427959337
 30
0.0
 10
6.3450657465
 20
4.2229769688
 30
0.0
 10
6.345710619
 20
4.1964944897
 30
0.0
 10
6.3440835374
 20
4.1633780911
 30
0.0
 10
6.3392092
 20
4.1305815666
 30
0.0
 10
6.3334036562
 20
4.1047337393
 30
0.0
 10
6.3281038816
 20
4.0855795927
 30
0.0
 10
6.3218681787
 20
4.0667098149
 30
0.0
 10
6.3147139707
 20
4.0481687022
 30
0.0
 10
6.3066609459
 20
4.0300001069
 30
0.0
 10
6.2977284069
 20
4.0122477159
 30
0.0
 10
6.2879347378
 20
3.9949558805
 30
0.0
 10
6.2773034097
 20
3.9781664735
 30
0.0
 10
6.2658631975
 20
3.9619177707
 30
0.0
 10
6.2536417528
 20
3.9462484693
 30
0.0
 10
6.240666524
 20
3.9311975354
 30
0.0
 10
6.2269670391
 20
3.9168026242
 30
0.0
 10
6.2125790341
 20
3.9030954948
 30
0.0
 10
6.1975371711
 20
3.8901085065
 30
0.0
 10
6.1818763494
 20
3.8778738671
 30
0.0
 10
6.1656319334
 20
3.8664242083
 30
0.0
 10
6.148845832
 20
3.8557838029
 30
0.0
 10
6.1315597331
 20
3.8459769545
 30
0.0
 10
6.1138154616
 20
3.8370276971
 30
0.0
 10
6.0956539591
 20
3.8289611165
 30
0.0
 10
6.0771186826
 20
3.8217955118
 30
0.0
 10
6.0582534726
 20
3.8155453162
 30
0.0
 10
6.0391015412
 20
3.810225386
 30
0.0
 10
6.0197071283
 20
3.8058516162
 30
0.0
 10
6.0001191185
 20
3.8024364965
 30
0.0
 10
5.9803912412
 20
3.7999830402
 30
0.0
 10
5.9605795849
 20
3.7984964537
 30
0.0
 10
5.9473428271
 20
3.7981529754
 30
0.0
 10
5.9407288248
 20
3.7981443668
 30
0.0
 11
5.9407232465
 21
4.6078094306
 31
0.0
 11
5.9605592312
 21
4.6073295747
 31
0.0
 11
5.9803679865
 21
4.605875064
 31
0.0
 11
6.0000931421
 21
4.6034508093
 31
0.0
 11
6.0196783273
 21
4.6000617216
 31
0.0
 11
6.0390682529
 21
4.5957135322
 31
0.0
 11
6.0582157296
 21
4.5904181216
 31
0.0
 11
6.077077242
 21
4.5841901587
 31
0.0
 11
6.0956092932
 21
4.5770443265
 31
0.0
 11
6.1137684144
 21
4.5689955356
 31
0.0
 11
6.1315117137
 21
4.5600633434
 31
0.0
 11
6.1655814569
 21
4.5396445145
 31
0.0
 11
6.181823251
 21
4.5282060235
 31
0.0
 11
6.1974819974
 21
4.5159826601
 31
0.0
 11
6.2125217555
 21
4.503005825
 31
0.0
 11
6.2269071077
 21
4.4893075191
 31
0.0
 11
6.2406026365
 21
4.4749197438
 31
0.0
 11
6.2535740787
 21
4.4598756195
 31
0.0
 11
6.2657918502
 21
4.4442128043
 31
0.0
 11
6.2772275522
 21
4.4279701057
 31
0.0
 11
6.2878527858
 21
4.4111863314
 31
0.0
 11
6.2976397814
 21
4.3939006373
 31
0.0
 11
6.3065661428
 21
4.376155154
 31
0.0
 11
6.3146121981
 21
4.3579935207
 31
0.0
 11
6.3217582968
 21
4.3394593882
 31
0.0
 11
6.327985024
 21
4.3205964897
 31
0.0
 11
6.3332776468
 21
4.3014501948
 31
0.0
 11
6.3376257352
 21
4.2820673771
 31
0.0
 11
6.3410190193
 21
4.2624949662
 31
0.0
 11
6.3434472706
 21
4.2427798951
 31
0.0
 11
6.3449036544
 21
4.2229693861
 31
0.0
 11
6.3453871965
 21
4.2031111611
 31
0.0
 11
6.3434341844
 21
4.1634426483
 31
0.0
 11
6.3375996608
 21
4.1241554801
 31
0.0
 11
6.3332461669
 21
4.1047728678
 31
0.0
 11
6.3279478917
 21
4.0856269805
 31
0.0
 11
6.3217151116
 21
4.0667646402
 31
0.0
 11
6.314564153
 21
4.0482307545
 31
0.0
 11
6.3065142782
 21
4.0300693025
 31
0.0
 11
6.2975847689
 21
4.012324257
 31
0.0
 11
6.2877950576
 21
3.9950395
 31
0.0
 11
6.2771685491
 21
3.978256521
 31
0.0
 11
6.2657329179
 21
3.9620142378
 31
0.0
 11
6.2535160493
 21
3.946351441
 31
0.0
 11
6.240545846
 21
3.9313069058
 31
0.0
 11
6.2268524202
 21
3.9169173884
 31
0.0
 11
6.2124702304
 21
3.9032156745
 31
0.0
 11
6.197434242
 21
3.8902340867
 31
0.0
 11
6.1817794208
 21
3.8780049474
 31
0.0
 11
6.1655418959
 21
3.8665592484
 31
0.0
 11
6.1487624265
 21
3.8559226883
 31
0.0
 11
6.1314829232
 21
3.8461196488
 31
0.0
 11
6.1137452964
 21
3.8371745119
 31
0.0
 11
6.0955915245
 21
3.8291112169
 31
0.0
 11
6.0770644096
 21
3.8219483314
 31
0.0
 11
6.0582073023
 21
3.815700847
 31
0.0
 11
6.039063563
 21
3.8103836906
 31
0.0
 11
6.0196766006
 21
3.8060117507
 31
0.0
 11
6.0000940991
 21
3.8025965412
 31
0.0
 11
5.9803712963
 21
3.8001436129
 31
0.0
 11
5.9605642017
 21
3.7986579075
 31
0.0
 11
5.9407288248
 21
3.7981443668
 31
0.0
  0
LINE
  5
281
100
AcDbEntity
  8
0
100
AcDbLine
 62
6
  6
CONTINUOUS
 10
5.9407288248
 20
3.7981443668
 11
5.9405562721
 21
3.7981441792
  0
LINE
  5
282
100
AcDbEntity
  8
0
100
AcDbLine
 62
6
  6
CONTINUOUS
 10
5.9405562721
 20
4.6055860768
 11
5.9407231878
 21
4.6055861888
  0
SPLINE
  5
283
100
AcDbEntity
  8
0
100
AcDbSpline
 62
6
  6
CONTINUOUS
 70
0
 71
3
 72
68
 73
64
 74
62
 42
0.0000001
 43
0.0000001
 44
0.0000000001
 12
1.264329511
 22
0.0005840644
 32
0.0
 13
-1.2643285645
 23
-0.0016536291
 33
0.0
 40
0.0
 40
0.0
 40
0.0
 40
0.0
 40
0.0312213622
 40
0.0468537056
 40
0.0624879416
 40
0.0781181015
 40
0.0937438685
 40
0.1093670787
 40
0.1249894351
 40
0.1406126666
 40
0.1562374122
 40
0.171863079
 40
0.1874889213
 40
0.2031143544
 40
0.2187393704
 40
0.2343642105
 40
0.2499889265
 40
0.2656136129
 40
0.2812385713
 40
0.2968638777
 40
0.3124893251
 40
0.3281147068
 40
0.3437400775
 40
0.3593655735
 40
0.3749910375
 40
0.3906162283
 40
0.4062410989
 40
0.4218658788
 40
0.4374905979
 40
0.4531151399
 40
0.4687395147
 40
0.4843640064
 40
0.4999887396
 40
0.5156136505
 40
0.5312387533
 40
0.5624809372
 40
0.5937241774
 40
0.6093506167
 40
0.6249772793
 40
0.6406039874
 40
0.6562304713
 40
0.6718566448
 40
0.6874826972
 40
0.7031086012
 40
0.718734138
 40
0.7343591691
 40
0.7499839307
 40
0.7656087689
 40
0.7812338354
 40
0.7968593185
 40
0.8124855599
 40
0.8281123711
 40
0.8437391023
 40
0.8593650245
 40
0.8749896953
 40
0.8906140259
 40
0.9062395261
 40
0.9218676408
 40
0.937499955
 40
0.953135657
 40
0.9687687897
 40
0.9843925179
 40
1.0
 40
1.0
 40
1.0
 40
1.0
 10
5.9407231878
 20
4.6055861888
 30
0.0
 10
5.9538812177
 20
4.6055922672
 30
0.0
 10
5.9736457223
 20
4.6046245884
 30
0.0
 10
5.9997910453
 20
4.6014112123
 30
0.0
 10
6.019274693
 20
4.5980409055
 30
0.0
 10
6.0385649345
 20
4.5937148969
 30
0.0
 10
6.0576146793
 20
4.5884462755
 30
0.0
 10
6.0763797272
 20
4.5822502702
 30
0.0
 10
6.0948172458
 20
4.5751414614
 30
0.0
 10
6.1128832516
 20
4.5671337762
 30
0.0
 10
6.1305351496
 20
4.5582474243
 30
0.0
 10
6.1477315185
 20
4.548506589
 30
0.0
 10
6.1644303393
 20
4.5379348737
 30
0.0
 10
6.1805891759
 20
4.5265552707
 30
0.0
 10
6.1961676825
 20
4.5143940393
 30
0.0
 10
6.2111309056
 20
4.5014838378
 30
0.0
 10
6.2254434234
 20
4.4878559916
 30
0.0
 10
6.2390697974
 20
4.4735419233
 30
0.0
 10
6.2519749542
 20
4.4585740623
 30
0.0
 10
6.2641308516
 20
4.4429912377
 30
0.0
 10
6.2755089896
 20
4.4268315573
 30
0.0
 10
6.2860811778
 20
4.4101333657
 30
0.0
 10
6.2958182491
 20
4.3929347737
 30
0.0
 10
6.3046993907
 20
4.3752790016
 30
0.0
 10
6.3127051083
 20
4.357209532
 30
0.0
 10
6.3198159085
 20
4.3387697607
 30
0.0
 10
6.3260110291
 20
4.3200027898
 30
0.0
 10
6.3312764257
 20
4.3009543144
 30
0.0
 10
6.3356025677
 20
4.2816709952
 30
0.0
 10
6.3389791729
 20
4.2621990908
 30
0.0
 10
6.3413951699
 20
4.2425848781
 30
0.0
 10
6.3428437552
 20
4.2228755157
 30
0.0
 10
6.3433253046
 20
4.2031187966
 30
0.0
 10
6.3428389041
 20
4.1833614829
 30
0.0
 10
6.3408990162
 20
4.1570871798
 30
0.0
 10
6.3360532592
 20
4.1244697791
 30
0.0
 10
6.3280429788
 20
4.0924815014
 30
0.0
 10
6.3197757648
 20
4.0674645597
 30
0.0
 10
6.3126608077
 20
4.0490241275
 30
0.0
 10
6.3046520004
 20
4.0309544318
 30
0.0
 10
6.295768284
 20
4.0132984816
 30
0.0
 10
6.28602775
 20
3.996100671
 30
0.0
 10
6.2754540896
 20
3.9794024942
 30
0.0
 10
6.2640760138
 20
3.9632420988
 30
0.0
 10
6.2519211326
 20
3.9476580799
 30
0.0
 10
6.2390168881
 20
3.9326892282
 30
0.0
 10
6.22539247
 20
3.918373193
 30
0.0
 10
6.2110834262
 20
3.9047414883
 30
0.0
 10
6.1961242215
 20
3.8918261258
 30
0.0
 10
6.1805495741
 20
3.8796589308
 30
0.0
 10
6.1643945626
 20
3.8682723212
 30
0.0
 10
6.1477007633
 20
3.8576905283
 30
0.0
 10
6.1305096899
 20
3.8479376606
 30
0.0
 10
6.1128629699
 20
3.8390376125
 30
0.0
 10
6.0948013564
 20
3.8310153154
 30
0.0
 10
6.0763680264
 20
3.8238891136
 30
0.0
 10
6.0576066157
 20
3.8176733008
 30
0.0
 10
6.0385600974
 20
3.8123826281
 30
0.0
 10
6.0192724562
 20
3.8080328344
 30
0.0
 10
5.9997922543
 20
3.8046364182
 30
0.0
 10
5.9801728988
 20
3.8021963766
 30
0.0
 10
5.9604701629
 20
3.8007178746
 30
0.0
 10
5.9473061559
 20
3.8003762122
 30
0.0
 10
5.940728494
 20
3.8003676092
 30
0.0
 11
5.9407231878
 21
4.6055861888
 31
0.0
 11
5.9801503779
 21
4.6036624518
 31
0.0
 11
5.9997672173
 21
4.6012515363
 31
0.0
 11
6.0192445948
 21
4.5978811868
 31
0.0
 11
6.0385273998
 21
4.5935571598
 31
0.0
 11
6.0575687875
 21
4.5882912456
 31
0.0
 11
6.0763256475
 21
4.5820979607
 31
0.0
 11
6.0947548882
 21
4.5749918348
 31
0.0
 11
6.1128134466
 21
4.5669877041
 31
0.0
 11
6.1304587228
 21
4.5581052778
 31
0.0
 11
6.1476484878
 21
4.5483681699
 31
0.0
 11
6.1643405228
 21
4.5378001037
 31
0.0
 11
6.1804926522
 21
4.5264248529
 31
0.0
 11
6.1960652319
 21
4.5142691323
 31
0.0
 11
6.2110225108
 21
4.5013641799
 31
0.0
 11
6.2253290695
 21
4.4877416188
 31
0.0
 11
6.2389494902
 21
4.4734330739
 31
0.0
 11
6.2518499505
 21
4.458471723
 31
0.0
 11
6.2640011714
 21
4.4428951662
 31
0.0
 11
6.2753746773
 21
4.426741786
 31
0.0
 11
6.2859419926
 21
4.4100499647
 31
0.0
 11
6.2956755665
 21
4.3928586287
 31
0.0
 11
6.3045534973
 21
4.3752100281
 31
0.0
 11
6.3125560158
 21
4.3571476678
 31
0.0
 11
6.3196633572
 21
4.3387150552
 31
0.0
 11
6.3258560962
 21
4.3199558042
 31
0.0
 11
6.331119895
 21
4.3009151265
 31
0.0
 11
6.3354443315
 21
4.2816394631
 31
0.0
 11
6.3388190847
 21
4.2621752873
 31
0.0
 11
6.3412339292
 21
4.2425690823
 31
0.0
 11
6.3426825759
 21
4.2228677623
 31
0.0
 11
6.3431639795
 21
4.2031188153
 31
0.0
 11
6.3426774589
 21
4.1833697692
 31
0.0
 11
6.3412223414
 21
4.1636681512
 31
0.0
 11
6.3354204992
 21
4.124596144
 31
0.0
 11
6.3258222265
 21
4.0862782396
 31
0.0
 11
6.3196235392
 21
4.0675188644
 31
0.0
 11
6.3125118405
 21
4.0490859378
 31
0.0
 11
6.3045061266
 21
4.0310232732
 31
0.0
 11
6.2956253979
 21
4.0133746821
 31
0.0
 11
6.2858888486
 21
3.9961838644
 31
0.0
 11
6.2753199604
 21
3.9794920355
 31
0.0
 11
6.2639464109
 21
3.9633379799
 31
0.0
 11
6.2517960528
 21
3.9477603808
 31
0.0
 11
6.2388967507
 21
3.9327979097
 31
0.0
 11
6.2252783909
 21
3.9184872721
 31
0.0
 11
6.2109751753
 21
3.904860977
 31
0.0
 11
6.1960218601
 21
3.8919509937
 31
0.0
 11
6.180453202
 21
3.8797892917
 31
0.0
 11
6.1643050363
 21
3.8684066408
 31
0.0
 11
6.147617835
 21
3.8578286557
 31
0.0
 11
6.1304333147
 21
3.848079567
 31
0.0
 11
6.1127931923
 21
3.8391836055
 31
0.0
 11
6.0947392454
 21
3.8311645944
 31
0.0
 11
6.0763140397
 21
3.8240410885
 31
0.0
 11
6.05756069
 21
3.8178279699
 31
0.0
 11
6.0385223222
 21
3.8125400465
 31
0.0
 11
6.0192421064
 21
3.808192091
 31
0.0
 11
5.9997673911
 21
3.8047955867
 31
0.0
 11
5.9801530829
 21
3.802356067
 31
0.0
 11
5.9604548833
 21
3.8008784387
 31
0.0
 11
5.940728494
 21
3.8003676092
 31
0.0
  0
LINE
  5
284
100
AcDbEntity
  8
0
100
AcDbLine
 62
6
  6
CONTINUOUS
 10
5.940728494
 20
3.8003676092
 11
5.9405562721
 21
3.800367421
  0
LINE
  5
285
100
AcDbEntity
  8
0
100
AcDbLine
 62
6
  6
CONTINUOUS
 10
5.9405562721
 20
4.603362836
 11
5.9407238455
 21
4.603362949
  0
SPLINE
  5
286
100
AcDbEntity
  8
0
100
AcDbSpline
 62
6
  6
CONTINUOUS
 70
0
 71
3
 72
68
 73
64
 74
62
 42
0.0000001
 43
0.0000001
 44
0.0000000001
 12
1.2573458917
 22
0.0005819803
 32
0.0
 13
-1.2573449416
 23
-0.0016516221
 33
0.0
 40
0.0
 40
0.0
 40
0.0
 40
0.0
 40
0.0156074114
 40
0.0312309068
 40
0.0468634691
 40
0.0624980825
 40
0.0781287641
 40
0.0937550448
 40
0.109378648
 40
0.125001155
 40
0.1406241832
 40
0.1562484526
 40
0.1874893757
 40
0.2031143535
 40
0.2187391077
 40
0.2343638453
 40
0.2499885816
 40
0.2656133805
 40
0.281238526
 40
0.2968641018
 40
0.3124899129
 40
0.3281157656
 40
0.3437417236
 40
0.3593679124
 40
0.3749941459
 40
0.3906201443
 40
0.4062458111
 40
0.4218713405
 40
0.4374967326
 40
0.4531218112
 40
0.4687464955
 40
0.4843710417
 40
0.49999569
 40
0.5312360646
 40
0.5624782634
 40
0.57810469
 40
0.5937311885
 40
0.6093577421
 40
0.6249845089
 40
0.6406113651
 40
0.6562380603
 40
0.671864491
 40
0.6874908253
 40
0.7031170228
 40
0.7187428108
 40
0.7343679561
 40
0.749992584
 40
0.7656170774
 40
0.781241628
 40
0.7968664216
 40
0.8124918133
 40
0.8281177331
 40
0.8437436068
 40
0.8593687555
 40
0.8749927392
 40
0.890616403
 40
0.9062412712
 40
0.9218688073
 40
0.9375006137
 40
0.9531359624
 40
0.9687688952
 40
0.9843925359
 40
1.0
 40
1.0
 40
1.0
 40
1.0
 10
5.9407238455
 20
4.603362949
 30
0.0
 10
5.9472651504
 20
4.6033659767
 30
0.0
 10
5.9603569111
 20
4.6030485133
 30
0.0
 10
5.9799527832
 20
4.6016090853
 30
0.0
 10
5.9994665236
 20
4.5992109294
 30
0.0
 10
6.0188422626
 20
4.595859165
 30
0.0
 10
6.0380267192
 20
4.5915568403
 30
0.0
 10
6.0569717034
 20
4.5863169738
 30
0.0
 10
6.0756335149
 20
4.5801548703
 30
0.0
 10
6.0939691689
 20
4.5730852857
 30
0.0
 10
6.1119356931
 20
4.5651217461
 30
0.0
 10
6.1353354826
 20
4.5533419162
 30
0.0
 10
6.157844571
 20
4.5398537095
 30
0.0
 10
6.1792644651
 20
4.5247685586
 30
0.0
 10
6.1947570739
 20
4.512674393
 30
0.0
 10
6.2096374103
 20
4.499835666
 30
0.0
 10
6.223870928
 20
4.4862830804
 30
0.0
 10
6.2374221097
 20
4.4720479747
 30
0.0
 10
6.2502561037
 20
4.4571625742
 30
0.0
 10
6.262345018
 20
4.4416655123
 30
0.0
 10
6.2736605051
 20
4.4255946635
 30
0.0
 10
6.2841745473
 20
4.4089881583
 30
0.0
 10
6.2938580747
 20
4.3918838534
 30
0.0
 10
6.3026902911
 20
4.3743247064
 30
0.0
 10
6.3106519081
 20
4.3563540572
 30
0.0
 10
6.3177235781
 20
4.3380151333
 30
0.0
 10
6.323884739
 20
4.3193508666
 30
0.0
 10
6.3291207738
 20
4.300406557
 30
0.0
 10
6.3334225943
 20
4.2812288193
 30
0.0
 10
6.3367801269
 20
4.2618637341
 30
0.0
 10
6.3391828748
 20
4.2423575837
 30
0.0
 10
6.3406230246
 20
4.2227565969
 30
0.0
 10
6.3412606246
 20
4.1965653334
 30
0.0
 10
6.3396511604
 20
4.1638127686
 30
0.0
 10
6.334830027
 20
4.1313763168
 30
0.0
 10
6.3290879292
 20
4.1058119151
 30
0.0
 10
6.3238461174
 20
4.0868675633
 30
0.0
 10
6.3176786085
 20
4.0682043439
 30
0.0
 10
6.3106023503
 20
4.049866168
 30
0.0
 10
6.302637001
 20
4.0318963221
 30
0.0
 10
6.2938016851
 20
4.0143379787
 30
0.0
 10
6.2841148112
 20
3.9972348739
 30
0.0
 10
6.273598823
 20
3.980628971
 30
0.0
 10
6.2622827183
 20
3.9645580301
 30
0.0
 10
6.2501941982
 20
3.9490603572
 30
0.0
 10
6.2373611222
 20
3.9341741603
 30
0.0
 10
6.2238118196
 20
3.9199375327
 30
0.0
 10
6.209581589
 20
3.9063819574
 30
0.0
 10
6.1947050245
 20
3.8935389221
 30
0.0
 10
6.1792169332
 20
3.8814396714
 30
0.0
 10
6.1631519997
 20
3.8701165214
 30
0.0
 10
6.1465510719
 20
3.8595941574
 30
0.0
 10
6.1294556261
 20
3.8498961226
 30
0.0
 10
6.1119070749
 20
3.8410460248
 30
0.0
 10
6.0939460424
 20
3.8330684057
 30
0.0
 10
6.0756152656
 20
3.8259819678
 30
0.0
 10
6.0569582054
 20
3.8198008193
 30
0.0
 10
6.0380175742
 20
3.8145396121
 30
0.0
 10
6.0188370792
 20
3.810213892
 30
0.0
 10
5.9994649265
 20
3.806836247
 30
0.0
 10
5.9799542127
 20
3.8044096679
 30
0.0
 10
5.960360439
 20
3.8029392792
 30
0.0
 10
5.9472691906
 20
3.802599444
 30
0.0
 10
5.9407278686
 20
3.8025908514
 30
0.0
 11
5.9407238455
 21
4.603362949
 31
0.0
 11
5.9603420233
 21
4.6028883908
 31
0.0
 11
5.9799334188
 21
4.6014498301
 31
0.0
 11
5.999442173
 21
4.5990521718
 31
0.0
 11
6.018812427
 21
4.595700321
 31
0.0
 11
6.0379893433
 21
4.5913999509
 31
0.0
 11
6.0569261301
 21
4.5861627818
 31
0.0
 11
6.0755798038
 21
4.5800033973
 31
0.0
 11
6.0939074039
 21
4.5729363983
 31
0.0
 11
6.1118660013
 21
4.5649766285
 31
0.0
 11
6.1294132517
 21
4.5561434824
 31
0.0
 11
6.1631064299
 21
4.5359509283
 31
0.0
 11
6.1791687847
 21
4.5246387126
 31
0.0
 11
6.1946550471
 21
4.5125502846
 31
0.0
 11
6.2095296053
 21
4.4997166914
 31
0.0
 11
6.223757167
 21
4.4861693662
 31
0.0
 11
6.237302442
 21
4.4719397438
 31
0.0
 11
6.2501317644
 21
4.4570608246
 31
0.0
 11
6.2622160248
 21
4.4415699997
 31
0.0
 11
6.2735269063
 21
4.425505424
 31
0.0
 11
6.2840360922
 21
4.4089052523
 31
0.0
 11
6.2937161314
 21
4.3918081551
 31
0.0
 11
6.3025451813
 21
4.3742561419
 31
0.0
 11
6.3105036347
 21
4.3562925531
 31
0.0
 11
6.3175718901
 21
4.3379607324
 31
0.0
 11
6.3237305806
 21
4.3193040972
 31
0.0
 11
6.328965095
 21
4.3003675565
 31
0.0
 11
6.3332652497
 21
4.2811974078
 31
0.0
 11
6.3366210293
 21
4.2618400013
 31
0.0
 11
6.3390224513
 21
4.2423416902
 31
0.0
 11
6.3404627092
 21
4.2227490947
 31
0.0
 11
6.3409408014
 21
4.2031093236
 31
0.0
 11
6.3390089565
 21
4.1638768969
 31
0.0
 11
6.3332381176
 21
4.1250208428
 31
0.0
 11
6.3289321883
 21
4.1058506573
 31
0.0
 11
6.3236918483
 21
4.0869144634
 31
0.0
 11
6.3175271889
 21
4.0682586255
 31
0.0
 11
6.310454186
 21
4.0499276004
 31
0.0
 11
6.3024919671
 21
4.0319648238
 31
0.0
 11
6.2936596895
 21
4.0144137218
 31
0.0
 11
6.283976587
 21
3.9973176763
 31
0.0
 11
6.273465413
 21
3.9807180466
 31
0.0
 11
6.26215383
 21
3.9646533707
 31
0.0
 11
6.250069865
 21
3.9491619769
 31
0.0
 11
6.2372415454
 21
3.9342821935
 31
0.0
 11
6.2236982631
 21
3.9200509715
 31
0.0
 11
6.2094738934
 21
3.9065007375
 31
0.0
 11
6.1946032312
 21
3.89366299
 31
0.0
 11
6.1791210712
 21
3.8815692276
 31
0.0
 11
6.1630629134
 21
3.8702501517
 31
0.0
 11
6.14646862
 21
3.8597315288
 31
0.0
 11
6.1293797204
 21
3.8500372399
 31
0.0
 11
6.1118377476
 21
3.8411911621
 31
0.0
 11
6.0938842779
 21
3.8332168732
 31
0.0
 11
6.0755615956
 21
3.8261330988
 31
0.0
 11
6.0569125591
 21
3.819954629
 31
0.0
 11
6.0379800432
 21
3.8146961403
 31
0.0
 11
6.0188069597
 21
3.8103722806
 31
0.0
 11
5.999440264
 21
3.806994546
 31
0.0
 11
5.979934553
 21
3.804568477
 31
0.0
 11
5.9603452726
 21
3.8030989526
 31
0.0
 11
5.9407278686
 21
3.8025908514
 31
0.0
  0
LINE
  5
287
100
AcDbEntity
  8
0
100
AcDbLine
 62
6
  6
CONTINUOUS
 10
5.9407278686
 20
3.8025908514
 11
5.9405562721
 21
3.802590663
  0
LINE
  5
288
100
AcDbEntity
  8
0
100
AcDbLine
 62
6
  6
CONTINUOUS
 10
5.9405562721
 20
4.601139596
 11
5.9407248676
 21
4.6011397101
  0
SPLINE
  5
289
100
AcDbEntity
  8
0
100
AcDbSpline
 62
6
  6
CONTINUOUS
 70
0
 71
3
 72
67
 73
63
 74
61
 42
0.0000001
 43
0.0000001
 44
0.0000000001
 12
1.2503506859
 22
0.0005787326
 32
0.0
 13
-1.2503497337
 23
-0.0016480371
 33
0.0
 40
0.0
 40
0.0
 40
0.0
 40
0.0
 40
0.0156075814
 40
0.0312313513
 40
0.0468643842
 40
0.0624997552
 40
0.0781314928
 40
0.093758947
 40
0.1093837371
 40
0.1250073333
 40
0.1406312569
 40
0.1562563126
 40
0.1718820735
 40
0.1875078888
 40
0.2031332179
 40
0.2187580381
 40
0.2343826888
 40
0.2500073262
 40
0.2656321198
 40
0.2812574302
 40
0.2968833616
 40
0.3125096828
 40
0.3281361318
 40
0.3437626877
 40
0.3593895171
 40
0.3750165059
 40
0.3906434037
 40
0.4062700982
 40
0.4218967503
 40
0.4375233202
 40
0.4687657221
 40
0.5000062875
 40
0.5312464487
 40
0.5468714643
 40
0.5624969524
 40
0.5781227857
 40
0.5937487508
 40
0.6093748202
 40
0.6250011752
 40
0.6406277232
 40
0.6562541926
 40
0.6718804081
 40
0.6875065044
 40
0.7031325412
 40
0.7187583206
 40
0.7343836434
 40
0.7500085927
 40
0.7656334579
 40
0.7812583068
 40
0.7968831565
 40
0.8125082104
 40
0.8437492907
 40
0.8593736575
 40
0.8749968463
 40
0.8906196144
 40
0.9062435504
 40
0.9218701935
 40
0.9375012176
 40
0.9531360693
 40
0.9687687899
 40
0.9843924226
 40
1.0
 40
1.0
 40
1.0
 40
1.0
 10
5.9407248676
 20
4.6011397101
 30
0.0
 10
5.947229851
 20
4.6011427209
 30
0.0
 10
5.9602489615
 20
4.6008270097
 30
0.0
 10
5.9797361903
 20
4.5993955149
 30
0.0
 10
5.9991419793
 20
4.5970105509
 30
0.0
 10
6.0184108506
 20
4.5936772151
 30
0.0
 10
6.037489777
 20
4.589398496
 30
0.0
 10
6.0563306732
 20
4.5841871351
 30
0.0
 10
6.0748899031
 20
4.5780586105
 30
0.0
 10
6.0931248117
 20
4.5710275771
 30
0.0
 10
6.1109919532
 20
4.5631080915
 30
0.0
 10
6.1284487803
 20
4.5543191374
 30
0.0
 10
6.1454547032
 20
4.544685117
 30
0.0
 10
6.1619684075
 20
4.5342295593
 30
0.0
 10
6.1779484165
 20
4.5229757768
 30
0.0
 10
6.1933542768
 20
4.510948803
 30
0.0
 10
6.2081514606
 20
4.4981809351
 30
0.0
 10
6.2223051686
 20
4.4847032716
 30
0.0
 10
6.2357807528
 20
4.4705471246
 30
0.0
 10
6.2485431791
 20
4.4557441071
 30
0.0
 10
6.2605644865
 20
4.440332439
 30
0.0
 10
6.2718167658
 20
4.4243500797
 30
0.0
 10
6.2822723723
 20
4.4078351712
 30
0.0
 10
6.2919023693
 20
4.390825335
 30
0.0
 10
6.3006850611
 20
4.3733627396
 30
0.0
 10
6.3086018994
 20
4.3554908159
 30
0.0
 10
6.3156338405
 20
4.337252555
 30
0.0
 10
6.3217610587
 20
4.3186910074
 30
0.0
 10
6.3269673949
 20
4.2998500697
 30
0.0
 10
6.3326687548
 20
4.2744259287
 30
0.0
 10
6.3374506514
 20
4.2421660739
 30
0.0
 10
6.339355725
 20
4.2030904755
 30
0.0
 10
6.3377524687
 20
4.1705194106
 30
0.0
 10
6.3345568111
 20
4.1446624701
 30
0.0
 10
6.3312107243
 20
4.1254055214
 30
0.0
 10
6.326926034
 20
4.1063355602
 30
0.0
 10
6.3217127187
 20
4.0874978432
 30
0.0
 10
6.3155796928
 20
4.0689389343
 30
0.0
 10
6.3085420773
 20
4.0507036116
 30
0.0
 10
6.3006202182
 20
4.0328345311
 30
0.0
 10
6.2918333562
 20
4.0153745909
 30
0.0
 10
6.282200548
 20
3.9983668719
 30
0.0
 10
6.2717427854
 20
3.981853822
 30
0.0
 10
6.2604890138
 20
3.9658729334
 30
0.0
 10
6.2484670193
 20
3.9504620526
 30
0.0
 10
6.2357049146
 20
3.9356587773
 30
0.0
 10
6.2222304736
 20
3.921501352
 30
0.0
 10
6.2080784502
 20
3.9080215425
 30
0.0
 10
6.1932840163
 20
3.8952504529
 30
0.0
 10
6.1778814381
 20
3.8832185081
 30
0.0
 10
6.1565866632
 20
3.8682086471
 30
0.0
 10
6.1342101211
 20
3.8547833763
 30
0.0
 10
6.1109483318
 20
3.8430532464
 30
0.0
 10
6.0930876925
 20
3.8351201997
 30
0.0
 10
6.0748599574
 20
3.8280738632
 30
0.0
 10
6.056307669
 20
3.8219276543
 30
0.0
 10
6.0374734234
 20
3.816696191
 30
0.0
 10
6.0184005329
 20
3.8123946859
 30
0.0
 10
5.9991367733
 20
3.8090359125
 30
0.0
 10
5.9797349029
 20
3.8066228747
 30
0.0
 10
5.9602501851
 20
3.8051606508
 30
0.0
 10
5.9472317272
 20
3.8048226644
 30
0.0
 10
5.9407267505
 20
3.8048140905
 30
0.0
 11
5.9407248676
 21
4.6011397101
 31
0.0
 11
5.9602341124
 21
4.6006677724
 31
0.0
 11
5.9797168508
 21
4.5992371454
 31
0.0
 11
5.9991176448
 21
4.5968526907
 31
0.0
 11
6.0183810565
 21
4.5935192698
 31
0.0
 11
6.0374525508
 21
4.5892424454
 31
0.0
 11
6.0562853342
 21
4.5840337932
 31
0.0
 11
6.0748365508
 21
4.5779079469
 31
0.0
 11
6.0930633756
 21
4.5708795647
 31
0.0
 11
6.1109230052
 21
4.5629634467
 31
0.0
 11
6.1283732536
 21
4.5541784919
 31
0.0
 11
6.14537263
 21
4.5445482138
 31
0.0
 11
6.1618796806
 21
4.5340963722
 31
0.0
 11
6.1778529608
 21
4.5228467374
 31
0.0
 11
6.193252923
 21
4.510825246
 31
0.0
 11
6.2080442205
 21
4.4980626312
 31
0.0
 11
6.2221920701
 21
4.4845902701
 31
0.0
 11
6.2356616887
 21
4.4704395397
 31
0.0
 11
6.2484194276
 21
4.4556429474
 31
0.0
 11
6.2604361706
 21
4.4402375174
 31
0.0
 11
6.2716839329
 21
4.4242614016
 31
0.0
 11
6.2821347299
 21
4.4077527519
 31
0.0
 11
6.2917610805
 21
4.3907500088
 31
0.0
 11
6.3005407131
 21
4.3732945995
 31
0.0
 11
6.308454434
 21
4.3554297157
 31
0.0
 11
6.3154830898
 21
4.3371985721
 31
0.0
 11
6.3216075902
 21
4.3186444037
 31
0.0
 11
6.3268124754
 21
4.2998116192
 31
0.0
 11
6.3310878095
 21
4.2807464127
 31
0.0
 11
6.3368119351
 21
4.2421041098
 31
0.0
 11
6.3387175882
 21
4.2030889552
 31
0.0
 11
6.3367944707
 21
4.1640751636
 31
0.0
 11
6.3343986892
 21
4.1446858658
 31
0.0
 11
6.3310543308
 21
4.1254368919
 31
0.0
 11
6.3267712859
 21
4.1063743601
 31
0.0
 11
6.321559457
 21
4.0875443875
 31
0.0
 11
6.3154289817
 21
4.0689930155
 31
0.0
 11
6.3083947442
 21
4.0507647521
 31
0.0
 11
6.3004760322
 21
4.0329026831
 31
0.0
 11
6.2916923004
 21
4.0154498401
 31
0.0
 11
6.2820630149
 21
3.9984492482
 31
0.0
 11
6.2716100865
 21
3.9819424699
 31
0.0
 11
6.2603608802
 21
3.9659678057
 31
0.0
 11
6.2483434988
 21
3.9505631148
 31
0.0
 11
6.2355860452
 21
3.9357662561
 31
0.0
 11
6.2221174956
 21
3.9216142394
 31
0.0
 11
6.2079713717
 21
3.9081396531
 31
0.0
 11
6.1931826696
 21
3.895373652
 31
0.0
 11
6.1777863857
 21
3.8833473898
 31
0.0
 11
6.1618178748
 21
3.8720915839
 31
0.0
 11
6.1283228521
 21
3.8519931374
 31
0.0
 11
6.1108790757
 21
3.8431972514
 31
0.0
 11
6.0930263218
 21
3.8352679024
 31
0.0
 11
6.0748065511
 21
3.8282241249
 31
0.0
 11
6.0562623059
 21
3.8220806022
 31
0.0
 11
6.0374361561
 21
3.8168518125
 31
0.0
 11
6.0183706977
 21
3.8125522141
 31
0.0
 11
5.9991123652
 21
3.8091933499
 31
0.0
 11
5.9797154379
 21
3.8067808037
 31
0.0
 11
5.9602351537
 21
3.8053194319
 31
0.0
 11
5.9407267505
 21
3.8048140905
 31
0.0
  0
LINE
  5
28A
100
AcDbEntity
  8
0
100
AcDbLine
 62
6
  6
CONTINUOUS
 10
5.9407267505
 20
3.8048140905
 11
5.9405562721
 21
3.8048139025
  0
LINE
  5
28B
100
AcDbEntity
  8
0
100
AcDbLine
 62
6
  6
CONTINUOUS
 10
5.9405562721
 20
4.5989163537
 11
5.9407255529
 21
4.5989164687
  0
SPLINE
  5
28C
100
AcDbEntity
  8
0
100
AcDbSpline
 62
6
  6
CONTINUOUS
 70
0
 71
3
 72
67
 73
63
 74
61
 42
0.0000001
 43
0.0000001
 44
0.0000000001
 12
1.2433672908
 22
0.0005765494
 32
0.0
 13
-1.2433663355
 23
-0.0016455688
 33
0.0
 40
0.0
 40
0.0
 40
0.0
 40
0.0
 40
0.0156076002
 40
0.0312314627
 40
0.0468647133
 40
0.0625004766
 40
0.0781327847
 40
0.0937608984
 40
0.1093864207
 40
0.1250108041
 40
0.1406355585
 40
0.1562615584
 40
0.1718883522
 40
0.1875152106
 40
0.2031414832
 40
0.2187670034
 40
0.2343921404
 40
0.2500171
 40
0.2656420546
 40
0.2812673658
 40
0.296893242
 40
0.3125195119
 40
0.3281459251
 40
0.3437724273
 40
0.3593991998
 40
0.3750261658
 40
0.3906530637
 40
0.4062797223
 40
0.4375233587
 40
0.4687658614
 40
0.4843910817
 40
0.5000160906
 40
0.5156409173
 40
0.5312655101
 40
0.5468900037
 40
0.5625146881
 40
0.5781395798
 40
0.5937645684
 40
0.6093896882
 40
0.6250151624
 40
0.6406409269
 40
0.6562667204
 40
0.6718923609
 40
0.6875179687
 40
0.70314361
 40
0.7187690896
 40
0.7343942032
 40
0.7500190246
 40
0.765643857
 40
0.7812687929
 40
0.7968938733
 40
0.8125193206
 40
0.8437614059
 40
0.8593861284
 40
0.8750093723
 40
0.8906318011
 40
0.9062551396
 40
0.921881077
 40
0.9375114266
 40
0.9531458143
 40
0.9687782825
 40
1.0
 40
1.0
 40
1.0
 40
1.0
 10
5.9407255529
 20
4.5989164687
 30
0.0
 10
5.9471942128
 20
4.5989194682
 30
0.0
 10
5.9601406562
 20
4.5986055174
 30
0.0
 10
5.9795191801
 20
4.5971819776
 30
0.0
 10
5.9988168688
 20
4.5948102563
 30
0.0
 10
6.0179785989
 20
4.5914954362
 30
0.0
 10
6.0369516262
 20
4.5872404753
 30
0.0
 10
6.0556880423
 20
4.582057871
 30
0.0
 10
6.0741444192
 20
4.5759631232
 30
0.0
 10
6.0922783175
 20
4.5689708198
 30
0.0
 10
6.110046601
 20
4.56109504
 30
0.0
 10
6.1274067243
 20
4.5523541512
 30
0.0
 10
6.1443184327
 20
4.5427727479
 30
0.0
 10
6.1607406385
 20
4.5323744181
 30
0.0
 10
6.1766323214
 20
4.5211828741
 30
0.0
 10
6.1919526199
 20
4.509222238
 30
0.0
 10
6.2066670642
 20
4.4965246048
 30
0.0
 10
6.2207413762
 20
4.4831212777
 30
0.0
 10
6.2341415391
 20
4.4690437798
 30
0.0
 10
6.2468325417
 20
4.4543232473
 30
0.0
 10
6.2587859088
 20
4.4389970772
 30
0.0
 10
6.2699744868
 20
4.4231034549
 30
0.0
 10
6.2803710619
 20
4.4066804644
 30
0.0
 10
6.2899472628
 20
4.3897656984
 30
0.0
 10
6.2986801137
 20
4.3724002617
 30
0.0
 10
6.3065517868
 20
4.3546278619
 30
0.0
 10
6.3135436878
 20
4.3364908732
 30
0.0
 10
6.3216659557
 20
4.3118857195
 30
0.0
 10
6.3295323058
 20
4.2804245723
 30
0.0
 10
6.3342852861
 20
4.2483457313
 30
0.0
 10
6.3361824771
 20
4.2225060498
 30
0.0
 10
6.3366529341
 20
4.2030759869
 30
0.0
 10
6.3361714854
 20
4.1836469012
 30
0.0
 10
6.3347390876
 20
4.1642647614
 30
0.0
 10
6.3323554113
 20
4.1449765538
 30
0.0
 10
6.3290274973
 20
4.1258285782
 30
0.0
 10
6.3247661856
 20
4.1068663028
 30
0.0
 10
6.3195816284
 20
4.0881351668
 30
0.0
 10
6.3134831647
 20
4.0696810323
 30
0.0
 10
6.3064849161
 20
4.0515486911
 30
0.0
 10
6.2986073148
 20
4.0337804673
 30
0.0
 10
6.2898695664
 20
4.0164189725
 30
0.0
 10
6.2802908377
 20
3.9995069186
 30
0.0
 10
6.2698917165
 20
3.9830866627
 30
0.0
 10
6.2587009228
 20
3.9671955419
 30
0.0
 10
6.2467461618
 20
3.9518711408
 30
0.0
 10
6.2340554425
 20
3.9371508027
 30
0.0
 10
6.2206563602
 20
3.9230725634
 30
0.0
 10
6.2065833517
 20
3.9096681112
 30
0.0
 10
6.1918714023
 20
3.8969683369
 30
0.0
 10
6.1765545666
 20
3.8850034764
 30
0.0
 10
6.1553780938
 20
3.8700771666
 30
0.0
 10
6.133125682
 20
3.8567268683
 30
0.0
 10
6.1099932332
 20
3.8450621161
 30
0.0
 10
6.0922323939
 20
3.8371732041
 30
0.0
 10
6.0741067845
 20
3.8301663854
 30
0.0
 10
6.0556587287
 20
3.824054852
 30
0.0
 10
6.0369303685
 20
3.8188529879
 30
0.0
 10
6.0179649449
 20
3.8145756974
 30
0.0
 10
5.9988086179
 20
3.8112357092
 30
0.0
 10
5.973101182
 20
3.8080381184
 30
0.0
 10
5.953665984
 20
3.8070544579
 30
0.0
 10
5.9407259732
 20
3.8070373321
 30
0.0
 11
5.9407255529
 21
4.5989164687
 31
0.0
 11
5.9601258591
 21
4.5984471659
 31
0.0
 11
5.9794998963
 21
4.5970244942
 31
0.0
 11
5.9987925984
 21
4.5946532893
 31
0.0
 11
6.0179488991
 21
4.5913383869
 31
0.0
 11
6.0369145642
 21
4.5870852756
 31
0.0
 11
6.0556429224
 21
4.5819053815
 31
0.0
 11
6.0740913375
 21
4.5758132982
 31
0.0
 11
6.0922172107
 21
4.5688236489
 31
0.0
 11
6.1099779574
 21
4.5609511478
 31
0.0
 11
6.1273315691
 21
4.5522142874
 31
0.0
 11
6.1442368086
 21
4.5426366149
 31
0.0
 11
6.1606524923
 21
4.5322420308
 31
0.0
 11
6.1765374369
 21
4.5210544357
 31
0.0
 11
6.1918518377
 21
4.5090992475
 31
0.0
 11
6.2065604593
 21
4.496406914
 31
0.0
 11
6.2206290116
 21
4.4830089236
 31
0.0
 11
6.2340232047
 21
4.4689367645
 31
0.0
 11
6.2467093963
 21
4.4542225591
 31
0.0
 11
6.2586583009
 21
4.4389026937
 31
0.0
 11
6.2698424289
 21
4.4230153119
 31
0.0
 11
6.2802342962
 21
4.4065985633
 31
0.0
 11
6.2898066339
 21
4.3896907193
 31
0.0
 11
6.2985365376
 21
4.3723325315
 31
0.0
 11
6.3064051713
 21
4.3545670635
 31
0.0
 11
6.3133938537
 21
4.3364374668
 31
0.0
 11
6.3194839117
 21
4.3179868953
 31
0.0
 11
6.3289097818
 21
4.2803004625
 31
0.0
 11
6.3346005726
 21
4.2418736537
 31
0.0
 11
6.3360237132
 21
4.2224979581
 31
0.0
 11
6.3364942831
 21
4.2030760309
 31
0.0
 11
6.3360129875
 21
4.1836545931
 31
0.0
 11
6.3345805369
 21
4.164280366
 31
0.0
 11
6.3321980535
 21
4.1450000244
 31
0.0
 11
6.3288719543
 21
4.125859646
 31
0.0
 11
6.3246123283
 21
4.1069048942
 31
0.0
 11
6.3194293385
 21
4.0881814242
 31
0.0
 11
6.3133332684
 21
4.0697348531
 31
0.0
 11
6.3063384207
 21
4.0516095317
 31
0.0
 11
6.2984639663
 21
4.033848277
 31
0.0
 11
6.2897293679
 21
4.0164938138
 31
0.0
 11
6.2801540936
 21
3.9995888641
 31
0.0
 11
6.2697597725
 21
3.9831748543
 31
0.0
 11
6.2585735341
 21
3.9672899143
 31
0.0
 11
6.2466233698
 21
3.9519716571
 31
0.0
 11
6.2339372711
 21
3.9372576959
 31
0.0
 11
6.2205440342
 21
3.9231848553
 31
0.0
 11
6.2064769067
 21
3.9097855982
 31
0.0
 11
6.1917706673
 21
3.8970908871
 31
0.0
 11
6.1764600958
 21
3.8851316837
 31
0.0
 11
6.160580302
 21
3.8739385598
 31
0.0
 11
6.1272710526
 21
3.8539521064
 31
0.0
 11
6.1099242696
 21
3.8452052226
 31
0.0
 11
6.0921712001
 21
3.8373200497
 31
0.0
 11
6.0740535755
 21
3.8303157843
 31
0.0
 11
6.0556135671
 21
3.8242069308
 31
0.0
 11
6.0368933724
 21
3.8190077133
 31
0.0
 11
6.0179352093
 21
3.8147323414
 31
0.0
 11
5.998785011
 21
3.8113923054
 31
0.0
 11
5.979496736
 21
3.8089932235
 31
0.0
 11
5.9407259732
 21
3.8070373321
 31
0.0
  0
LINE
  5
28D
100
AcDbEntity
  8
0
100
AcDbLine
 62
6
  6
CONTINUOUS
 10
5.9407259732
 20
3.8070373321
 11
5.9405562721
 21
3.8070371441
  0
LINE
  5
28E
100
AcDbEntity
  8
0
100
AcDbLine
 62
6
  6
CONTINUOUS
 10
5.9405562721
 20
4.5966931126
 11
5.9407260075
 21
4.5966932285
  0
SPLINE
  5
28F
100
AcDbEntity
  8
0
100
AcDbSpline
 62
6
  6
CONTINUOUS
 70
0
 71
3
 72
68
 73
64
 74
62
 42
0.0000001
 43
0.0000001
 44
0.0000000001
 12
1.236394859
 22
0.0005750989
 32
0.0
 13
-1.2363938977
 23
-0.0016455888
 33
0.0
 40
0.0
 40
0.0
 40
0.0
 40
0.0
 40
0.0156074879
 40
0.0312312996
 40
0.0468645647
 40
0.0625004106
 40
0.0781328445
 40
0.0937610632
 40
0.1093866647
 40
0.125011095
 40
0.1406358556
 40
0.1562618605
 40
0.1718886892
 40
0.1875156279
 40
0.2031420341
 40
0.2187677098
 40
0.2343929408
 40
0.2500178337
 40
0.2656424435
 40
0.2812670269
 40
0.296891873
 40
0.3125169623
 40
0.3281421901
 40
0.3437676345
 40
0.35939351
 40
0.3750197019
 40
0.3906459258
 40
0.4062720051
 40
0.4218980699
 40
0.4375241445
 40
0.4687660244
 40
0.5000066501
 40
0.5156315149
 40
0.5312562315
 40
0.5468809542
 40
0.5625059027
 40
0.5781309724
 40
0.5937559433
 40
0.6093807566
 40
0.6250056368
 40
0.6406306322
 40
0.6562556181
 40
0.6718805663
 40
0.6875056889
 40
0.7031309892
 40
0.7187562203
 40
0.734381159
 40
0.7500058991
 40
0.7656307426
 40
0.7812557827
 40
0.7968810899
 40
0.8125069217
 40
0.8437499923
 40
0.8593752228
 40
0.8749989721
 40
0.8906219407
 40
0.9062457879
 40
0.9218721205
 40
0.9375026705
 40
0.9531370334
 40
0.968769331
 40
0.9843926338
 40
1.0
 40
1.0
 40
1.0
 40
1.0
 10
5.9407260075
 20
4.5966932285
 30
0.0
 10
5.9471583468
 20
4.5966962204
 30
0.0
 10
5.9600321237
 20
4.5963840372
 30
0.0
 10
5.9793019168
 20
4.5949684722
 30
0.0
 10
5.9984914067
 20
4.5926100317
 30
0.0
 10
6.0175457738
 20
4.5893137871
 30
0.0
 10
6.0364125373
 20
4.5850826774
 30
0.0
 10
6.0550439889
 20
4.5799290266
 30
0.0
 10
6.0733969286
 20
4.5738683354
 30
0.0
 10
6.0914291539
 20
4.5669151375
 30
0.0
 10
6.1090978192
 20
4.5590835101
 30
0.0
 10
6.1263605504
 20
4.5503915076
 30
0.0
 10
6.1431773695
 20
4.5408636374
 30
0.0
 10
6.1595074544
 20
4.5305233815
 30
0.0
 10
6.1753100938
 20
4.5193944359
 30
0.0
 10
6.1905444915
 20
4.5075006237
 30
0.0
 10
6.2051762589
 20
4.4948738897
 30
0.0
 10
6.219171355
 20
4.4815456114
 30
0.0
 10
6.2324959872
 20
4.4675473426
 30
0.0
 10
6.2451153503
 20
4.4529100957
 30
0.0
 10
6.2570008809
 20
4.4376707743
 30
0.0
 10
6.2681257847
 20
4.4218673339
 30
0.0
 10
6.2784631347
 20
4.4055375253
 30
0.0
 10
6.2879848667
 20
4.3887186623
 30
0.0
 10
6.2966683596
 20
4.3714516993
 30
0.0
 10
6.3044957366
 20
4.3537798612
 30
0.0
 10
6.3114482634
 20
4.3357457425
 30
0.0
 10
6.3175067964
 20
4.3173920793
 30
0.0
 10
6.3226545238
 20
4.2987620615
 30
0.0
 10
6.3282913257
 20
4.2736219373
 30
0.0
 10
6.3330191569
 20
4.2417241886
 30
0.0
 10
6.33458821
 20
4.2095166457
 30
0.0
 10
6.3339504264
 20
4.1837618094
 30
0.0
 10
6.3325263098
 20
4.1644878455
 30
0.0
 10
6.3301558552
 20
4.1453076493
 30
0.0
 10
6.3268467561
 20
4.1262667237
 30
0.0
 10
6.3226095743
 20
4.1074105581
 30
0.0
 10
6.3174543977
 20
4.0887844342
 30
0.0
 10
6.3113903591
 20
4.0704341098
 30
0.0
 10
6.3044319458
 20
4.0524039622
 30
0.0
 10
6.2965992275
 20
4.0347360423
 30
0.0
 10
6.2879111619
 20
4.0174726021
 30
0.0
 10
6.27838644
 20
4.0006561597
 30
0.0
 10
6.2680461779
 20
3.9843283898
 30
0.0
 10
6.2569188626
 20
3.9685264179
 30
0.0
 10
6.245031816
 20
3.95328782
 30
0.0
 10
6.2324125913
 20
3.9386500127
 30
0.0
 10
6.2190888347
 20
3.9246506866
 30
0.0
 10
6.2050951304
 20
3.9113209823
 30
0.0
 10
6.1904659337
 20
3.8986919125
 30
0.0
 10
6.1752349459
 20
3.8867937133
 30
0.0
 10
6.1541766571
 20
3.8719507728
 30
0.0
 10
6.1320487638
 20
3.8586743152
 30
0.0
 10
6.1090455401
 20
3.8470741066
 30
0.0
 10
6.091383754
 20
3.8392290734
 30
0.0
 10
6.0733592398
 20
3.8322611998
 30
0.0
 10
6.0550141044
 20
3.8261836056
 30
0.0
 10
6.0363904277
 20
3.8210106249
 30
0.0
 10
6.0175309699
 20
3.8167570874
 30
0.0
 10
5.9984828165
 20
3.8134357247
 30
0.0
 10
5.9792980278
 20
3.8110495287
 30
0.0
 10
5.9600311988
 20
3.8096034847
 30
0.0
 10
5.9471582742
 20
3.8092691365
 30
0.0
 10
5.9407259901
 20
3.8092605754
 30
0.0
 11
5.9407260075
 21
4.5966932285
 31
0.0
 11
5.9600173841
 21
4.5962265723
 31
0.0
 11
5.9792827141
 21
4.594811874
 31
0.0
 11
5.9984672448
 21
4.5924539518
 31
0.0
 11
6.0175162238
 21
4.5891576237
 31
0.0
 11
6.0363756871
 21
4.5849283292
 31
0.0
 11
6.0549991302
 21
4.5797773855
 31
0.0
 11
6.0733441561
 21
4.5737193464
 31
0.0
 11
6.0913684107
 21
4.566768799
 31
0.0
 11
6.1090295513
 21
4.5589404047
 31
0.0
 11
6.1262857994
 21
4.5502524253
 31
0.0
 11
6.1430961834
 21
4.5407282753
 31
0.0
 11
6.1594197944
 21
4.5303917661
 31
0.0
 11
6.175215723
 21
4.519266709
 31
0.0
 11
6.1904442756
 21
4.5073782883
 31
0.0
 11
6.2050703047
 21
4.4947568231
 31
0.0
 11
6.2190597253
 21
4.4814338327
 31
0.0
 11
6.2323784525
 21
4.4674408364
 31
0.0
 11
6.2449929557
 21
4.4528098595
 31
0.0
 11
6.2568740236
 21
4.4375768704
 31
0.0
 11
6.2679944712
 21
4.4217796875
 31
0.0
 11
6.2783271251
 21
4.4054561394
 31
0.0
 11
6.2878450454
 21
4.3886441942
 31
0.0
 11
6.2965255944
 21
4.3713843862
 31
0.0
 11
6.3043499171
 21
4.3537195059
 31
0.0
 11
6.3112992873
 21
4.3356924207
 31
0.0
 11
6.3173550004
 21
4.3173460047
 31
0.0
 11
6.3225012844
 21
4.2987240364
 31
0.0
 11
6.3267282518
 21
4.2798721091
 31
0.0
 11
6.3323875008
 21
4.2416616196
 31
0.0
 11
6.33427102
 21
4.2030818171
 31
0.0
 11
6.3337928047
 21
4.1837692323
 31
0.0
 11
6.3323685883
 21
4.1645034816
 31
0.0
 11
6.3299994319
 21
4.1453309771
 31
0.0
 11
6.3266920882
 21
4.1262975829
 31
0.0
 11
6.3224565626
 21
4.1074488501
 31
0.0
 11
6.3173028983
 21
4.0888303261
 31
0.0
 11
6.311241307
 21
4.0704875
 31
0.0
 11
6.3042862509
 21
4.0524643884
 31
0.0
 11
6.2964566697
 21
4.0348034564
 31
0.0
 11
6.2877717162
 21
4.0175470956
 31
0.0
 11
6.278250565
 21
4.0007376851
 31
0.0
 11
6.2679150535
 21
3.9844161001
 31
0.0
 11
6.2567922155
 21
3.968620281
 31
0.0
 11
6.2449096853
 21
3.953387829
 31
0.0
 11
6.2322950969
 21
3.9387563454
 31
0.0
 11
6.2189772123
 21
3.9247623249
 31
0.0
 11
6.204989304
 21
3.9114378351
 31
0.0
 11
6.1903657731
 21
3.8988138368
 31
0.0
 11
6.1751410202
 21
3.8869212907
 31
0.0
 11
6.1593499365
 21
3.8757905902
 31
0.0
 11
6.1262268344
 21
3.8559149156
 31
0.0
 11
6.1089769367
 21
3.8472164604
 31
0.0
 11
6.0913229159
 21
3.8393751032
 31
0.0
 11
6.0733063127
 21
3.8324097567
 31
0.0
 11
6.0549691608
 21
3.826334819
 31
0.0
 11
6.0363535178
 21
3.8211644634
 31
0.0
 11
6.0175014615
 21
3.8169128486
 31
0.0
 11
5.9984587064
 21
3.8135914079
 31
0.0
 11
5.9792788177
 21
3.8112056923
 31
0.0
 11
5.960016383
 21
3.8097604866
 31
0.0
 11
5.9407259901
 21
3.8092605754
 31
0.0
  0
LINE
  5
290
100
AcDbEntity
  8
0
100
AcDbLine
 62
6
  6
CONTINUOUS
 10
5.9407259901
 20
3.8092605754
 11
5.9405562721
 21
3.8092603863
  0
LINE
  5
291
100
AcDbEntity
  8
0
100
AcDbLine
 62
6
  6
CONTINUOUS
 10
5.730176024
 20
4.5433083265
 11
5.7303028051
 21
4.5433869485
  0
LINE
  5
292
100
AcDbEntity
  8
0
100
AcDbLine
 62
6
  6
CONTINUOUS
 10
5.9404042233
 20
4.6033626724
 11
5.9405562721
 21
4.603362836
  0
LINE
  5
293
100
AcDbEntity
  8
0
100
AcDbLine
 62
6
  6
CONTINUOUS
 10
5.9405562721
 20
4.5944698729
 11
5.940723901
 21
4.5944699884
  0
SPLINE
  5
294
100
AcDbEntity
  8
0
100
AcDbSpline
 62
6
  6
CONTINUOUS
 70
0
 71
3
 72
67
 73
63
 74
61
 42
0.0000001
 43
0.0000001
 44
0.0000000001
 12
1.229399443
 22
0.0005818636
 32
0.0
 13
-1.2293984694
 23
-0.0016530246
 33
0.0
 40
0.0
 40
0.0
 40
0.0
 40
0.0
 40
0.015607487
 40
0.0312310068
 40
0.0468636938
 40
0.0624986885
 40
0.0781301408
 40
0.0937575396
 40
0.1093824951
 40
0.1250064745
 40
0.140631004
 40
0.1562568521
 40
0.1875009179
 40
0.2031271915
 40
0.218752843
 40
0.2343781441
 40
0.2500031694
 40
0.2656279799
 40
0.2812528471
 40
0.296877941
 40
0.3125031044
 40
0.3281281232
 40
0.3437530043
 40
0.3593779911
 40
0.3750030992
 40
0.3906282243
 40
0.4062534127
 40
0.4218788761
 40
0.4375045145
 40
0.4531300339
 40
0.4687552248
 40
0.4999958785
 40
0.5312366248
 40
0.5624783005
 40
0.5781041715
 40
0.5937299229
 40
0.6093555166
 40
0.624981133
 40
0.6406067027
 40
0.6562320281
 40
0.6718570577
 40
0.6874820243
 40
0.7031069899
 40
0.7187318253
 40
0.7343564786
 40
0.7499812096
 40
0.7656062608
 40
0.7812316663
 40
0.7968575013
 40
0.8124840215
 40
0.8281110445
 40
0.8437379472
 40
0.8593640239
 40
0.8749888481
 40
0.8906133251
 40
0.9062389568
 40
0.9218671787
 40
0.9374995673
 40
0.9531353357
 40
0.9687685481
 40
0.9843923804
 40
1.0
 40
1.0
 40
1.0
 40
1.0
 10
5.940723901
 20
4.5944699884
 30
0.0
 10
5.9471198462
 20
4.5944730155
 30
0.0
 10
5.9599206668
 20
4.5941627623
 30
0.0
 10
5.9790810992
 20
4.5927555381
 30
0.0
 10
5.9981613528
 20
4.5904108133
 30
0.0
 10
6.0171069664
 20
4.5871335331
 30
0.0
 10
6.0358659287
 20
4.5829266327
 30
0.0
 10
6.0543911005
 20
4.5778028326
 30
0.0
 10
6.0726396428
 20
4.5717771325
 30
0.0
 10
6.0905693895
 20
4.564863983
 30
0.0
 10
6.1081382667
 20
4.5570766339
 30
0.0
 10
6.131019852
 20
4.5455566735
 30
0.0
 10
6.1530300498
 20
4.532365879
 30
0.0
 10
6.1739757504
 20
4.5176149225
 30
0.0
 10
6.189124575
 20
4.5057884282
 30
0.0
 10
6.2036739935
 20
4.4932337468
 30
0.0
 10
6.2175906002
 20
4.4799813093
 30
0.0
 10
6.2308403129
 20
4.4660623416
 30
0.0
 10
6.2433885595
 20
4.4515077598
 30
0.0
 10
6.2552075335
 20
4.4363548948
 30
0.0
 10
6.2662701439
 20
4.4206412691
 30
0.0
 10
6.2765494024
 20
4.4044044345
 30
0.0
 10
6.2860171407
 20
4.3876814493
 30
0.0
 10
6.294651916
 20
4.370513564
 30
0.0
 10
6.302435426
 20
4.3529432673
 30
0.0
 10
6.3093489363
 20
4.3350126673
 30
0.0
 10
6.3153727307
 20
4.3167637237
 30
0.0
 10
6.320491933
 20
4.2982404529
 30
0.0
 10
6.3246977753
 20
4.2794887246
 30
0.0
 10
6.327980443
 20
4.2605531655
 30
0.0
 10
6.3311123291
 20
4.2351279341
 30
0.0
 10
6.3326752291
 20
4.2031016177
 30
0.0
 10
6.3307861226
 20
4.1646816034
 30
0.0
 10
6.3260718958
 20
4.1329646996
 30
0.0
 10
6.3204569775
 20
4.1079695979
 30
0.0
 10
6.3153316863
 20
4.0894472335
 30
0.0
 10
6.3093017019
 20
4.0711999348
 30
0.0
 10
6.3023832459
 20
4.0532706397
 30
0.0
 10
6.2945956039
 20
4.0357016156
 30
0.0
 10
6.2859574667
 20
4.0185349907
 30
0.0
 10
6.2764867641
 20
4.0018134942
 30
0.0
 10
6.2662058915
 20
3.985577758
 30
0.0
 10
6.2551427499
 20
3.9698647834
 30
0.0
 10
6.243324121
 20
3.9547120113
 30
0.0
 10
6.2307766487
 20
3.9401570854
 30
0.0
 10
6.217528733
 20
3.9262365861
 30
0.0
 10
6.2036149669
 20
3.9129812267
 30
0.0
 10
6.1890689269
 20
3.9004222531
 30
0.0
 10
6.1739244369
 20
3.8885907245
 30
0.0
 10
6.1582156218
 20
3.8775182715
 30
0.0
 10
6.1419829323
 20
3.8672284686
 30
0.0
 10
6.125266736
 20
3.8577447175
 30
0.0
 10
6.1081075007
 20
3.8490902135
 30
0.0
 10
6.0905448526
 20
3.8412891592
 30
0.0
 10
6.0726207554
 20
3.834359427
 30
0.0
 10
6.054377654
 20
3.8283148968
 30
0.0
 10
6.0358573426
 20
3.8231699079
 30
0.0
 10
6.0171025884
 20
3.8189397372
 30
0.0
 10
5.9981605798
 20
3.8156365886
 30
0.0
 10
5.9790832253
 20
3.8132633703
 30
0.0
 10
5.959924739
 20
3.8118250905
 30
0.0
 10
5.9471243318
 20
3.8114924191
 30
0.0
 10
5.9407283373
 20
3.8114838191
 30
0.0
 11
5.940723901
 21
4.5944699884
 31
0.0
 11
5.9599061329
 21
4.5940061945
 31
0.0
 11
5.9790621247
 21
4.5925998155
 31
0.0
 11
5.998137438
 21
4.590255584
 31
0.0
 11
6.0170776341
 21
4.5869782329
 31
0.0
 11
6.0358292409
 21
4.5827732481
 31
0.0
 11
6.0543464438
 21
4.5776520823
 31
0.0
 11
6.0725870731
 21
4.5716290283
 31
0.0
 11
6.0905089814
 21
4.5647183962
 31
0.0
 11
6.1080700434
 21
4.5569346495
 31
0.0
 11
6.1252287412
 21
4.5482964214
 31
0.0
 11
6.1581756639
 21
4.5285495451
 31
0.0
 11
6.1738822531
 21
4.5174877619
 31
0.0
 11
6.1890248513
 21
4.5056669189
 31
0.0
 11
6.2035686513
 21
4.4931173398
 31
0.0
 11
6.2174795349
 21
4.4798701381
 31
0.0
 11
6.2307233836
 21
4.4659564272
 31
0.0
 11
6.2432669399
 21
4.4514081364
 31
0.0
 11
6.2550814493
 21
4.4362614655
 31
0.0
 11
6.2661396259
 21
4.4205540061
 31
0.0
 11
6.2764141846
 21
4.4043233509
 31
0.0
 11
6.2858782906
 21
4.3876073431
 31
0.0
 11
6.2945100099
 21
4.3704465553
 31
0.0
 11
6.302290418
 21
4.3528832359
 31
0.0
 11
6.3092006338
 21
4.3349596575
 31
0.0
 11
6.3152219227
 21
4.3167181439
 31
0.0
 11
6.3203396828
 21
4.2982024681
 31
0.0
 11
6.3245439251
 21
4.2794580199
 31
0.0
 11
6.3278249035
 21
4.2605302744
 31
0.0
 11
6.3301728842
 21
4.2414647075
 31
0.0
 11
6.3320478207
 21
4.2031032529
 31
0.0
 11
6.3301582312
 21
4.1647424033
 31
0.0
 11
6.3245151893
 21
4.1267507044
 31
0.0
 11
6.3203047229
 21
4.1080073603
 31
0.0
 11
6.3151808805
 21
4.0894929992
 31
0.0
 11
6.3091536224
 21
4.0712529324
 31
0.0
 11
6.3022383668
 21
4.0533306504
 31
0.0
 11
6.2944537944
 21
4.0357685556
 31
0.0
 11
6.2858186295
 21
4.0186090353
 31
0.0
 11
6.2763517102
 21
4.0018944107
 31
0.0
 11
6.2660755056
 21
3.9856648736
 31
0.0
 11
6.2550167906
 21
3.9699580906
 31
0.0
 11
6.2432025899
 21
3.954811582
 31
0.0
 11
6.23065994
 21
3.9402628571
 31
0.0
 11
6.2174178873
 21
3.9263475716
 31
0.0
 11
6.2035097515
 21
3.9130974391
 31
0.0
 11
6.1889693991
 21
3.9005436689
 31
0.0
 11
6.173830697
 21
3.8887174703
 31
0.0
 11
6.1581285405
 21
3.8776488694
 31
0.0
 11
6.1419022785
 21
3.8673627715
 31
0.0
 11
6.1251924644
 21
3.8578826963
 31
0.0
 11
6.108039652
 21
3.8492321636
 31
0.0
 11
6.0904844532
 21
3.8414343096
 31
0.0
 11
6.0725682536
 21
3.8345071942
 31
0.0
 11
6.0543329865
 21
3.828465282
 31
0.0
 11
6.0358205967
 21
3.8233229617
 31
0.0
 11
6.0170730697
 21
3.8190945902
 31
0.0
 11
5.9981364049
 21
3.8157913571
 31
0.0
 11
5.9790639624
 21
3.8134186441
 31
0.0
 11
5.9599098905
 21
3.8119812114
 31
0.0
 11
5.9407283373
 21
3.8114838191
 31
0.0
  0
LINE
  5
295
100
AcDbEntity
  8
0
100
AcDbLine
 62
6
  6
CONTINUOUS
 10
5.9407283373
 20
3.8114838191
 11
5.9405562721
 21
3.8114836258
  0
LINE
  5
296
100
AcDbEntity
  8
0
100
AcDbLine
 62
6
  6
CONTINUOUS
 10
5.9405562721
 20
4.5922466306
 11
5.940723172
 21
4.5922467464
  0
SPLINE
  5
297
100
AcDbEntity
  8
0
100
AcDbSpline
 62
6
  6
CONTINUOUS
 70
0
 71
3
 72
69
 73
65
 74
63
 42
0.0000001
 43
0.0000001
 44
0.0000000001
 12
1.2224391355
 22
0.0005841643
 32
0.0
 13
-1.2224381553
 23
-0.001654599
 33
0.0
 40
0.0
 40
0.0
 40
0.0
 40
0.0
 40
0.0156072131
 40
0.0312304124
 40
0.0468626007
 40
0.0624967845
 40
0.0781270488
 40
0.0937530515
 40
0.1093765687
 40
0.124999242
 40
0.1406227516
 40
0.1562477646
 40
0.1874903851
 40
0.2031160048
 40
0.2187411108
 40
0.234365967
 40
0.2499906444
 40
0.2656152369
 40
0.2812400442
 40
0.2968651532
 40
0.3124903419
 40
0.3281153671
 40
0.3437402398
 40
0.3593651627
 40
0.3749900855
 40
0.3906148624
 40
0.4062395232
 40
0.4218642925
 40
0.4374891307
 40
0.4531138403
 40
0.4687383412
 40
0.4843628705
 40
0.4999875744
 40
0.5156123976
 40
0.5312373444
 40
0.5468626594
 40
0.5624884123
 40
0.5937309757
 40
0.6093569896
 40
0.6249831628
 40
0.6406093134
 40
0.6562351537
 40
0.671860568
 40
0.6874857699
 40
0.7031108269
 40
0.7187356213
 40
0.7343601174
 40
0.7499846
 40
0.7656093411
 40
0.7812344106
 40
0.7968599251
 40
0.8124861681
 40
0.8281129389
 40
0.843739599
 40
0.8593654338
 40
0.8749900238
 40
0.8906143037
 40
0.9062397778
 40
0.9218678868
 40
0.9375002125
 40
0.9531359044
 40
0.9687689901
 40
0.9843926354
 40
1.0
 40
1.0
 40
1.0
 40
1.0
 10
5.940723172
 20
4.5922467464
 30
0.0
 10
5.9470827947
 20
4.5922497855
 30
0.0
 10
5.9598109019
 20
4.5919413375
 30
0.0
 10
5.9788624167
 20
4.5905421813
 30
0.0
 10
5.9978339989
 20
4.5882109138
 30
0.0
 10
6.0166713685
 20
4.5849524826
 30
0.0
 10
6.0353228118
 20
4.5807698735
 30
0.0
 10
6.0537416046
 20
4.5756758212
 30
0.0
 10
6.0718853168
 20
4.5696850279
 30
0.0
 10
6.0897121908
 20
4.562811738
 30
0.0
 10
6.1071804122
 20
4.5550689809
 30
0.0
 10
6.1299315544
 20
4.5436154857
 30
0.0
 10
6.1518167305
 20
4.530500973
 30
0.0
 10
6.1726430017
 20
4.5158341916
 30
0.0
 10
6.1877057531
 20
4.5040753632
 30
0.0
 10
6.2021728459
 20
4.4915926545
 30
0.0
 10
6.2160108515
 20
4.4784160343
 30
0.0
 10
6.2291855354
 20
4.4645761982
 30
0.0
 10
6.2416627869
 20
4.450104208
 30
0.0
 10
6.2534153713
 20
4.4350375577
 30
0.0
 10
6.2644159247
 20
4.4194132736
 30
0.0
 10
6.2746373508
 20
4.4032685742
 30
0.0
 10
6.2840514693
 20
4.3866402892
 30
0.0
 10
6.2926377468
 20
4.3695699209
 30
0.0
 10
6.3003775846
 20
4.3520995395
 30
0.0
 10
6.3072522356
 20
4.3342710223
 30
0.0
 10
6.3132417833
 20
4.3161260165
 30
0.0
 10
6.3183323386
 20
4.2977085989
 30
0.0
 10
6.3225148094
 20
4.2790639933
 30
0.0
 10
6.3257792664
 20
4.2602370283
 30
0.0
 10
6.3281151567
 20
4.2412725338
 30
0.0
 10
6.3295154108
 20
4.2222161286
 30
0.0
 10
6.329980547
 20
4.2031139396
 30
0.0
 10
6.3295098524
 20
4.184011656
 30
0.0
 10
6.3281027262
 20
4.1649553232
 30
0.0
 10
6.325759252
 20
4.1459903202
 30
0.0
 10
6.321400706
 20
4.1208935366
 30
0.0
 10
6.3152029601
 20
4.096143493
 30
0.0
 10
6.3072099855
 20
4.0719569541
 30
0.0
 10
6.3003307218
 20
4.0541279627
 30
0.0
 10
6.2925873588
 20
4.0366577272
 30
0.0
 10
6.2839982339
 20
4.0195875195
 30
0.0
 10
6.2745809982
 20
4.0029602545
 30
0.0
 10
6.2643583322
 20
3.9868160934
 30
0.0
 10
6.2533579242
 20
3.9711918671
 30
0.0
 10
6.2416063846
 20
3.956124798
 30
0.0
 10
6.2291301326
 20
3.9416523582
 30
0.0
 10
6.2159575285
 20
3.927810782
 30
0.0
 10
6.2021229292
 20
3.9146305847
 30
0.0
 10
6.1876596533
 20
3.9021428396
 30
0.0
 10
6.1726012513
 20
3.8903784685
 30
0.0
 10
6.1569817076
 20
3.8793688312
 30
0.0
 10
6.1408412985
 20
3.869137278
 30
0.0
 10
6.1242201157
 20
3.859707169
 30
0.0
 10
6.1071583796
 20
3.8511016137
 30
0.0
 10
6.089695461
 20
3.8433447314
 30
0.0
 10
6.0718731361
 20
3.8364541397
 30
0.0
 10
6.0537335615
 20
3.8304437047
 30
0.0
 10
6.0353182824
 20
3.8253277049
 30
0.0
 10
6.0166698307
 20
3.8211214096
 30
0.0
 10
5.9978351955
 20
3.8178368407
 30
0.0
 10
5.9788660293
 20
3.8154768961
 30
0.0
 10
5.9598162558
 20
3.8140465795
 30
0.0
 10
5.9470885018
 20
3.8137156703
 30
0.0
 10
5.9407288225
 20
3.8137070623
 30
0.0
 11
5.940723172
 21
4.5922467464
 31
0.0
 11
5.9597964698
 21
4.5917856588
 31
0.0
 11
5.9788436235
 21
4.5903873427
 31
0.0
 11
5.9978103479
 21
4.5880565543
 31
0.0
 11
6.0166423575
 21
4.5847980499
 31
0.0
 11
6.0352864248
 21
4.5806173711
 31
0.0
 11
6.0536972222
 21
4.5755259263
 31
0.0
 11
6.0718329955
 21
4.5695377775
 31
0.0
 11
6.0896520081
 21
4.5626669997
 31
0.0
 11
6.1071125508
 21
4.5549279239
 31
0.0
 11
6.124173407
 21
4.5463394876
 31
0.0
 11
6.156932913
 21
4.5267063678
 31
0.0
 11
6.172550034
 21
4.5157078264
 31
0.0
 11
6.1876066052
 21
4.5039546117
 31
0.0
 11
6.2020680781
 21
4.4914769304
 31
0.0
 11
6.2159003252
 21
4.478305472
 31
0.0
 11
6.2290692187
 21
4.4644709262
 31
0.0
 11
6.2415419052
 21
4.4500052242
 31
0.0
 11
6.253290004
 21
4.4349446563
 31
0.0
 11
6.2642861158
 21
4.4193264688
 31
0.0
 11
6.2745028411
 21
4.403187908
 31
0.0
 11
6.2839134897
 21
4.3865666206
 31
0.0
 11
6.292496676
 21
4.369503246
 31
0.0
 11
6.3002334162
 21
4.3520397787
 31
0.0
 11
6.3071047382
 21
4.33421822
 31
0.0
 11
6.3130919374
 21
4.316080661
 31
0.0
 11
6.3181809832
 21
4.2976707645
 31
0.0
 11
6.3223618204
 21
4.2790335307
 31
0.0
 11
6.3256245211
 21
4.2602140019
 31
0.0
 11
6.3279592169
 21
4.2412572265
 31
0.0
 11
6.3293595534
 21
4.2222085909
 31
0.0
 11
6.3298245751
 21
4.2031140008
 31
0.0
 11
6.3293537854
 21
4.1840194063
 31
0.0
 11
6.3279466897
 21
4.1649707569
 31
0.0
 11
6.3256049698
 21
4.1460138453
 31
0.0
 11
6.3223365693
 21
4.127194011
 31
0.0
 11
6.313055978
 21
4.0901466099
 31
0.0
 11
6.3070627405
 21
4.0720093032
 31
0.0
 11
6.3001866965
 21
4.0541877363
 31
0.0
 11
6.2924463218
 21
4.0367242379
 31
0.0
 11
6.2838601034
 21
4.0196611333
 31
0.0
 11
6.2744466884
 21
4.0030406517
 31
0.0
 11
6.2642286522
 21
3.9869026651
 31
0.0
 11
6.2532326431
 21
3.9712846023
 31
0.0
 11
6.2414854977
 21
3.9562237785
 31
0.0
 11
6.2290140685
 21
3.9417574947
 31
0.0
 11
6.2158472984
 21
3.9279211135
 31
0.0
 11
6.202018301
 21
3.9147461302
 31
0.0
 11
6.187560685
 21
3.9022635813
 31
0.0
 11
6.1725080589
 21
3.8905045032
 31
0.0
 11
6.1568951393
 21
3.8794986758
 31
0.0
 11
6.1407611059
 21
3.8692708165
 31
0.0
 11
6.1241462622
 21
3.8598443676
 31
0.0
 11
6.1070909117
 21
3.8512427719
 31
0.0
 11
6.0896354221
 21
3.8434890515
 31
0.0
 11
6.0718209459
 21
3.8366010729
 31
0.0
 11
6.0536891622
 21
3.8305932442
 31
0.0
 11
6.0352817601
 21
3.8254799095
 31
0.0
 11
6.0166404745
 21
3.8212753769
 31
0.0
 11
5.997811137
 21
3.8179907219
 31
0.0
 11
5.9788468498
 21
3.8156312842
 31
0.0
 11
5.959801462
 21
3.8142018142
 31
0.0
 11
5.9407288225
 21
3.8137070623
 31
0.0
  0
LINE
  5
298
100
AcDbEntity
  8
0
100
AcDbLine
 62
6
  6
CONTINUOUS
 10
5.9407288225
 20
3.8137070623
 11
5.9405562721
 21
3.8137068672
  0
LINE
  5
299
100
AcDbEntity
  8
0
100
AcDbLine
 62
6
  6
CONTINUOUS
 10
5.9405562721
 20
3.8048139025
 11
5.9403968113
 21
3.8048137931
  0
SPLINE
  5
29A
100
AcDbEntity
  8
0
100
AcDbSpline
 62
6
  6
CONTINUOUS
 70
0
 71
3
 72
61
 73
57
 74
55
 42
0.0000001
 43
0.0000001
 44
0.0000000001
 12
-1.0322882237
 22
-0.0005005978
 32
0.0
 13
0.8769672522
 23
0.5445619027
 33
0.0
 40
0.0
 40
0.0
 40
0.0
 40
0.0
 40
0.0312240418
 40
0.0468545191
 40
0.0624888822
 40
0.0781225234
 40
0.0937524148
 40
0.1093792027
 40
0.1250039835
 40
0.1562452389
 40
0.1874890508
 40
0.2187343057
 40
0.234359781
 40
0.249984971
 40
0.2656100579
 40
0.2812351031
 40
0.296860149
 40
0.3124853404
 40
0.3281108818
 40
0.3437367786
 40
0.3593629159
 40
0.3749891874
 40
0.3906156192
 40
0.4062423426
 40
0.421869323
 40
0.4374964069
 40
0.453123449
 40
0.4687504373
 40
0.4843774781
 40
0.5000045171
 40
0.5312514976
 40
0.5468775811
 40
0.562503427
 40
0.5781291476
 40
0.5937547415
 40
0.6093802149
 40
0.6250057022
 40
0.6562509477
 40
0.6874967338
 40
0.7031229955
 40
0.7187495608
 40
0.7343764176
 40
0.7500034647
 40
0.7656306374
 40
0.781258007
 40
0.8125064898
 40
0.8437523087
 40
0.8593764787
 40
0.8750001009
 40
0.8906243688
 40
0.9062504276
 40
0.9218794827
 40
0.9375123367
 40
0.9531461078
 40
0.9687761868
 40
1.0
 40
1.0
 40
1.0
 40
1.0
 10
5.9403968113
 20
3.8048137931
 30
0.0
 10
5.9296527411
 20
3.8048085828
 30
0.0
 10
5.9135200351
 20
3.8054568599
 30
0.0
 10
5.8921227913
 20
3.8076172368
 30
0.0
 10
5.8761405188
 20
3.8098850159
 30
0.0
 10
5.8602636675
 20
3.8127971868
 30
0.0
 10
5.8445206561
 20
3.8163511346
 30
0.0
 10
5.8289371165
 20
3.8205385779
 30
0.0
 10
5.8084081129
 20
3.8269546709
 30
0.0
 10
5.7832572471
 20
3.8365233485
 30
0.0
 10
5.7541102147
 20
3.8504091513
 30
0.0
 10
5.7308268734
 20
3.8639031242
 30
0.0
 10
5.7129056077
 20
3.8757977923
 30
0.0
 10
5.6998354088
 20
3.8852576217
 30
0.0
 10
5.6871583539
 20
3.8952374164
 30
0.0
 10
5.6748944048
 20
3.9057207509
 30
0.0
 10
5.6630636824
 20
3.9166907021
 30
0.0
 10
5.6516867381
 20
3.928130864
 30
0.0
 10
5.6407821829
 20
3.9400225227
 30
0.0
 10
5.6303663078
 20
3.9523448737
 30
0.0
 10
5.6204559066
 20
3.9650776209
 30
0.0
 10
5.6110674951
 20
3.9782002459
 30
0.0
 10
5.6022182705
 20
3.9916926113
 30
0.0
 10
5.5939224317
 20
4.0055323656
 30
0.0
 10
5.5861918029
 20
4.0196958347
 30
0.0
 10
5.579038765
 20
4.0341597151
 30
0.0
 10
5.5724753785
 20
4.0489005909
 30
0.0
 10
5.566514489
 20
4.0638951284
 30
0.0
 10
5.5611654354
 20
4.0791190373
 30
0.0
 10
5.5548594225
 20
4.0996846571
 30
0.0
 10
5.5498026055
 20
4.1206166323
 30
0.0
 10
5.5460296637
 20
4.141793195
 30
0.0
 10
5.5438446234
 20
4.1577796613
 30
0.0
 10
5.5423064517
 20
4.1738407318
 30
0.0
 10
5.5414172337
 20
4.1899506739
 30
0.0
 10
5.541178874
 20
4.2060835376
 30
0.0
 10
5.5417322007
 20
4.2275860459
 30
0.0
 10
5.5440536628
 20
4.254396397
 30
0.0
 10
5.5485268344
 20
4.2809330293
 30
0.0
 10
5.5533830406
 20
4.3018881449
 30
0.0
 10
5.5576582591
 20
4.3174471596
 30
0.0
 10
5.5625574329
 20
4.3328211509
 30
0.0
 10
5.5680725126
 20
4.3479853255
 30
0.0
 10
5.5741952836
 20
4.3629149565
 30
0.0
 10
5.5831573307
 20
4.3824712034
 30
0.0
 10
5.5958309231
 20
4.4062126825
 30
0.0
 10
5.6103733342
 20
4.4288564219
 30
0.0
 10
5.6230721376
 20
4.4462163058
 30
0.0
 10
5.6331155169
 20
4.4588419297
 30
0.0
 10
5.6436602426
 20
4.4710524825
 30
0.0
 10
5.6546902613
 20
4.4828291438
 30
0.0
 10
5.6661890468
 20
4.4941528321
 30
0.0
 10
5.6781391277
 20
4.50500295
 30
0.0
 10
5.6905180469
 20
4.5153623888
 30
0.0
 10
5.7075523927
 20
4.5284895199
 30
0.0
 10
5.7209119495
 20
4.5375557418
 30
0.0
 10
5.73003937
 20
4.5432235082
 30
0.0
 11
5.9403968113
 21
3.8048137931
 31
0.0
 11
5.9081904333
 21
3.8061040876
 31
0.0
 11
5.8921368777
 21
3.8077248056
 31
0.0
 11
5.876157812
 21
3.8099924686
 31
0.0
 11
5.8602842848
 21
3.8129044979
 31
0.0
 11
5.8445457041
 21
3.8164570933
 31
0.0
 11
5.8289669334
 21
3.8206430685
 31
0.0
 11
5.8135720551
 21
3.8254546554
 31
0.0
 11
5.7834303054
 21
3.8369235864
 31
0.0
 11
5.7543121858
 21
3.8507932221
 31
0.0
 11
5.7264066646
 21
3.8669675741
 31
0.0
 11
5.7129675013
 21
3.8758875325
 31
0.0
 11
5.6999008847
 21
3.8853443186
 31
0.0
 11
5.6872271873
 21
3.895321354
 31
0.0
 11
5.6749666137
 21
3.9058018494
 31
0.0
 11
5.6631393683
 21
3.9167690157
 31
0.0
 11
5.6517655863
 21
3.9282059909
 31
0.0
 11
5.6408637463
 21
3.9400941723
 31
0.0
 11
5.6304506322
 21
3.9524131764
 31
0.0
 11
5.6205429509
 21
3.965142539
 31
0.0
 11
5.6111574097
 21
3.9782617959
 31
0.0
 11
5.6023105763
 21
3.9917503899
 31
0.0
 11
5.5940166961
 21
4.005586209
 31
0.0
 11
5.5862880932
 21
4.0197458556
 31
0.0
 11
5.5791370345
 21
4.0342058937
 31
0.0
 11
5.5725757864
 21
4.0489428872
 31
0.0
 11
5.5666164678
 21
4.0639333402
 31
0.0
 11
5.5612686039
 21
4.0791527114
 31
0.0
 11
5.5565395094
 21
4.0945755683
 31
0.0
 11
5.548966604
 21
4.1259298947
 31
0.0
 11
5.5461371308
 21
4.1418104208
 31
0.0
 11
5.5439524265
 21
4.157792166
 31
0.0
 11
5.5424146057
 21
4.1738489419
 31
0.0
 11
5.541525708
 21
4.189954549
 31
0.0
 11
5.5412877726
 21
4.2060827881
 31
0.0
 11
5.5417025913
 21
4.2222074616
 31
0.0
 11
5.5444839573
 21
4.254341418
 31
0.0
 11
5.5498469633
 21
4.2861470984
 31
0.0
 11
5.5534884505
 21
4.3018615037
 31
0.0
 11
5.5577622104
 21
4.317416183
 31
0.0
 11
5.5626600516
 21
4.3327860864
 31
0.0
 11
5.5681737683
 21
4.3479461672
 31
0.0
 11
5.5742951544
 21
4.3628713784
 31
0.0
 11
5.5810156537
 21
4.3775368055
 31
0.0
 11
5.5962052518
 21
4.4059941216
 31
0.0
 11
5.6136364454
 21
4.4331330018
 31
0.0
 11
5.6231587347
 21
4.4461506556
 31
0.0
 11
5.6331988616
 21
4.4587724985
 31
0.0
 11
5.6437405022
 21
4.4709794792
 31
0.0
 11
5.6547673237
 21
4.4827525592
 31
0.0
 11
5.6662629931
 21
4.4940726998
 31
0.0
 11
5.6782103243
 21
4.5049209176
 31
0.0
 11
5.6905865826
 21
4.5152785882
 31
0.0
 11
5.7033668153
 21
4.5251272306
 31
0.0
 11
5.73003937
 21
4.5432235082
 31
0.0
  0
LINE
  5
29B
100
AcDbEntity
  8
0
100
AcDbLine
 62
6
  6
CONTINUOUS
 10
5.73003937
 20
4.5432235082
 11
5.730176024
 21
4.5433083265
  0
LINE
  5
29C
100
AcDbEntity
  8
0
100
AcDbLine
 62
6
  6
CONTINUOUS
 10
5.9405562721
 20
4.5900233892
 11
5.9407232909
 21
4.5900235058
  0
SPLINE
  5
29D
100
AcDbEntity
  8
0
100
AcDbSpline
 62
6
  6
CONTINUOUS
 70
0
 71
3
 72
41
 73
37
 74
35
 42
0.0000001
 43
0.0000001
 44
0.0000000001
 12
0.741095648
 22
0.0003559364
 32
0.0
 13
-0.2505637175
 23
-0.6974530161
 33
0.0
 40
0.0
 40
0.0
 40
0.0
 40
0.0
 40
0.0312182418
 40
0.062471829
 40
0.0937396859
 40
0.1093742621
 40
0.125005576
 40
0.156256873
 40
0.187502222
 40
0.2187466712
 40
0.2499942979
 40
0.2812444881
 40
0.3124951773
 40
0.3281219426
 40
0.3437484462
 40
0.3749976283
 40
0.4062465956
 40
0.4374955288
 40
0.468745214
 40
0.4999957028
 40
0.5312463467
 40
0.5624970099
 40
0.5937480571
 40
0.6249989314
 40
0.6562489409
 40
0.6874983725
 40
0.7187475549
 40
0.749996194
 40
0.7812444757
 40
0.8124931939
 40
0.8437423992
 40
0.8749921242
 40
0.9062430588
 40
0.9374950843
 40
0.968747453
 40
1.0
 40
1.0
 40
1.0
 40
1.0
 10
5.9407232909
 20
4.5900235058
 30
0.0
 10
5.948435192
 20
4.5900272097
 30
0.0
 10
5.9638719727
 20
4.5895693846
 30
0.0
 10
5.9869487857
 20
4.5874998425
 30
0.0
 10
6.0060540438
 20
4.5846291997
 30
0.0
 10
6.0212137099
 20
4.5816490053
 30
0.0
 10
6.0362728716
 20
4.5782149025
 30
0.0
 10
6.0548898623
 20
4.5730781367
 30
0.0
 10
6.0768170595
 20
4.5655899995
 30
0.0
 10
6.0982563122
 20
4.5568029535
 30
0.0
 10
6.119130562
 20
4.5467444613
 30
0.0
 10
6.1393675795
 20
4.5354564377
 30
0.0
 10
6.1556416881
 20
4.5250579593
 30
0.0
 10
6.1682674507
 20
4.516166371
 30
0.0
 10
6.1806200502
 20
4.5068996636
 30
0.0
 10
6.1955319371
 20
4.4946285068
 30
0.0
 10
6.2125129332
 20
4.4788618616
 30
0.0
 10
6.2285205574
 20
4.4621069484
 30
0.0
 10
6.2434937713
 20
4.4444212187
 30
0.0
 10
6.2573838953
 20
4.4258723165
 30
0.0
 10
6.2701416884
 20
4.4065267276
 30
0.0
 10
6.2817158901
 20
4.3864503696
 30
0.0
 10
6.2920671008
 20
4.3657170156
 30
0.0
 10
6.3011622743
 20
4.3444029674
 30
0.0
 10
6.3089662081
 20
4.3225833243
 30
0.0
 10
6.3154465101
 20
4.300335109
 30
0.0
 10
6.3205863541
 20
4.277740024
 30
0.0
 10
6.3243680767
 20
4.254878572
 30
0.0
 10
6.3267721002
 20
4.2318315528
 30
0.0
 10
6.3277927612
 20
4.2086819543
 30
0.0
 10
6.3274303152
 20
4.1855123539
 30
0.0
 10
6.3256823541
 20
4.1624052546
 30
0.0
 10
6.3225516836
 20
4.1394439929
 30
0.0
 10
6.3180559669
 20
4.1167097749
 30
0.0
 10
6.3122115727
 20
4.094284721
 30
0.0
 10
6.3074251394
 20
4.0795930897
 30
0.0
 10
6.304814888
 20
4.072327362
 30
0.0
 11
5.9407232909
 21
4.5900235058
 31
0.0
 11
5.9638488848
 21
4.5893395543
 31
0.0
 11
5.9869182522
 21
4.5872712444
 31
0.0
 11
6.0098333611
 21
4.5838272068
 31
0.0
 11
6.0212024342
 21
4.5815919875
 31
0.0
 11
6.0324968165
 21
4.5790165387
 31
0.0
 11
6.0548228933
 21
4.5728568883
 31
0.0
 11
6.076736089
 21
4.565373394
 31
0.0
 11
6.0981612475
 21
4.5565914502
 31
0.0
 11
6.119023565
 21
4.5465399468
 31
0.0
 11
6.1392492935
 21
4.5352582401
 31
0.0
 11
6.1587648822
 21
4.5227876374
 31
0.0
 11
6.1682333934
 21
4.5161194132
 31
0.0
 11
6.1774972613
 21
4.5091700118
 31
0.0
 11
6.195379845
 21
4.4944548633
 31
0.0
 11
6.2123506967
 21
4.4786971597
 31
0.0
 11
6.2283479903
 21
4.4619519977
 31
0.0
 11
6.2433130882
 21
4.4442775666
 31
0.0
 11
6.2571951275
 21
4.4257395991
 31
0.0
 11
6.2699444088
 21
4.4064049565
 31
0.0
 11
6.2815120087
 21
4.3863409621
 31
0.0
 11
6.2918577891
 21
4.3656201694
 31
0.0
 11
6.3009471694
 21
4.3443184405
 31
0.0
 11
6.308745669
 21
4.3225116937
 31
0.0
 11
6.3152231301
 21
4.3002771831
 31
0.0
 11
6.3203600354
 21
4.2776954513
 31
0.0
 11
6.3241384757
 21
4.2548475378
 31
0.0
 11
6.3265415311
 21
4.2318145871
 31
0.0
 11
6.3275622409
 21
4.2086788004
 31
0.0
 11
6.3271994069
 21
4.1855229902
 31
0.0
 11
6.3254519469
 21
4.1624299735
 31
0.0
 11
6.3223242371
 21
4.139482207
 31
0.0
 11
6.31783122
 21
4.1167614499
 31
0.0
 11
6.311989047
 21
4.0943493817
 31
0.0
 11
6.304814888
 21
4.072327362
 31
0.0
  0
LINE
  5
29E
100
AcDbEntity
  8
0
100
AcDbLine
 62
6
  6
CONTINUOUS
 10
5.9407283367
 20
3.815930305
 11
5.9405562721
 21
3.8159301095
  0
LINE
  5
29F
100
AcDbEntity
  8
0
100
AcDbLine
 62
6
  6
CONTINUOUS
 10
5.9405562721
 20
3.7981441792
 11
5.9403888306
 21
3.7981440679
  0
SPLINE
  5
2A0
100
AcDbEntity
  8
0
100
AcDbSpline
 62
6
  6
CONTINUOUS
 70
0
 71
3
 72
68
 73
64
 74
62
 42
0.0000001
 43
0.0000001
 44
0.0000000001
 12
-1.2748042063
 22
-0.0005824448
 32
0.0
 13
1.274803266
 23
0.0016542912
 33
0.0
 40
0.0
 40
0.0
 40
0.0
 40
0.0
 40
0.015607322
 40
0.0312306493
 40
0.0468631092
 40
0.0624978359
 40
0.0781289882
 40
0.0937560889
 40
0.1093807586
 40
0.1250044763
 40
0.1406287796
 40
0.1562544179
 40
0.1874980748
 40
0.2031241481
 40
0.2187496145
 40
0.2343747448
 40
0.2499996127
 40
0.2656242838
 40
0.2812490346
 40
0.296874019
 40
0.312499064
 40
0.3281239451
 40
0.3437486646
 40
0.3593734667
 40
0.3749983709
 40
0.3906232823
 40
0.4062482604
 40
0.4218735188
 40
0.437498952
 40
0.4531242679
 40
0.468749266
 40
0.4843741054
 40
0.4999989872
 40
0.5312394383
 40
0.5624808628
 40
0.5781066192
 40
0.5937322737
 40
0.6093578036
 40
0.6249833784
 40
0.6406089035
 40
0.6562341612
 40
0.6718590868
 40
0.6874839117
 40
0.7031087062
 40
0.7187333545
 40
0.734357822
 40
0.7499823828
 40
0.7656072757
 40
0.7812325346
 40
0.7968582404
 40
0.8124846502
 40
0.8281115671
 40
0.8437383614
 40
0.8593643262
 40
0.8749890464
 40
0.8906134537
 40
0.9062390515
 40
0.9218672793
 40
0.937499718
 40
0.9531355253
 40
0.9687687321
 40
0.9843925038
 40
1.0
 40
1.0
 40
1.0
 40
1.0
 10
5.9403888306
 20
3.7981440679
 30
0.0
 10
5.9337567374
 20
3.7981410377
 30
0.0
 10
5.9204833083
 20
3.7984629461
 30
0.0
 10
5.9006155012
 20
3.79992238
 30
0.0
 10
5.8808308841
 20
3.8023538827
 30
0.0
 10
5.8611859287
 20
3.8057523345
 30
0.0
 10
5.8417345476
 20
3.8101146845
 30
0.0
 10
5.8225255816
 20
3.8154277015
 30
0.0
 10
5.8036034335
 20
3.8216758815
 30
0.0
 10
5.7850118149
 20
3.8288442614
 30
0.0
 10
5.7667943661
 20
3.8369191382
 30
0.0
 10
5.7430679939
 20
3.8488643228
 30
0.0
 10
5.7202450996
 20
3.8625419342
 30
0.0
 10
5.6985260536
 20
3.8778374228
 30
0.0
 10
5.6828178591
 20
3.8901004571
 30
0.0
 10
5.6677311301
 20
3.9031185196
 30
0.0
 10
5.6533005436
 20
3.9168601092
 30
0.0
 10
5.6395614894
 20
3.9312929004
 30
0.0
 10
5.6265497941
 20
3.9463848031
 30
0.0
 10
5.6142942102
 20
3.9620970308
 30
0.0
 10
5.6028229012
 20
3.9783907187
 30
0.0
 10
5.5921638919
 20
3.9952269394
 30
0.0
 10
5.5823464243
 20
4.0125672735
 30
0.0
 10
5.5733925972
 20
4.0303688734
 30
0.0
 10
5.5653214597
 20
4.0485877327
 30
0.0
 10
5.5581524574
 20
4.0671802062
 30
0.0
 10
5.5519061025
 20
4.086102825
 30
0.0
 10
5.5465976214
 20
4.1053098443
 30
0.0
 10
5.5422361778
 20
4.1247538924
 30
0.0
 10
5.5388320318
 20
4.1443881165
 30
0.0
 10
5.5363957407
 20
4.1641654501
 30
0.0
 10
5.5349356697
 20
4.1840389666
 30
0.0
 10
5.5342895755
 20
4.2105941615
 30
0.0
 10
5.5359214492
 20
4.2438012828
 30
0.0
 10
5.5408094671
 20
4.276687547
 30
0.0
 10
5.5466313644
 20
4.3026058998
 30
0.0
 10
5.5519457576
 20
4.3218122273
 30
0.0
 10
5.5581983763
 20
4.3407333881
 30
0.0
 10
5.565372191
 20
4.3593248437
 30
0.0
 10
5.5734472943
 20
4.3775427339
 30
0.0
 10
5.5824043198
 20
4.3953433334
 30
0.0
 10
5.5922247402
 20
4.4126822768
 30
0.0
 10
5.6028851867
 20
4.429517507
 30
0.0
 10
5.6143567787
 20
4.4458106387
 30
0.0
 10
5.626611773
 20
4.461522847
 30
0.0
 10
5.6396226106
 20
4.4766150563
 30
0.0
 10
5.6533597325
 20
4.4910494396
 30
0.0
 10
5.6677872876
 20
4.5047941441
 30
0.0
 10
5.6828704975
 20
4.5178167309
 30
0.0
 10
5.6985743402
 20
4.5300849254
 30
0.0
 10
5.7148633738
 20
4.5415659803
 30
0.0
 10
5.7316955935
 20
4.5522355256
 30
0.0
 10
5.749029181
 20
4.5620692188
 30
0.0
 10
5.7668221899
 20
4.5710429729
 30
0.0
 10
5.785033556
 20
4.5791316483
 30
0.0
 10
5.8036197196
 20
4.5863168473
 30
0.0
 10
5.8225367066
 20
4.5925841168
 30
0.0
 10
5.8417411851
 20
4.597918566
 30
0.0
 10
5.8611887967
 20
4.6023042794
 30
0.0
 10
5.8808305419
 20
4.605728702
 30
0.0
 10
5.9006125531
 20
4.6081888134
 30
0.0
 10
5.9204785907
 20
4.6096793988
 30
0.0
 10
5.9337516867
 20
4.6100237661
 30
0.0
 10
5.9403838491
 20
4.6100323726
 30
0.0
 11
5.9403888306
 21
3.7981440679
 31
0.0
 11
5.9204983692
 21
3.7986252874
 31
0.0
 11
5.9006351628
 21
3.8000838466
 31
0.0
 11
5.8808556655
 21
3.8025148407
 31
0.0
 11
5.861216331
 21
3.8059133647
 31
0.0
 11
5.8417725883
 21
3.8102737181
 31
0.0
 11
5.8225718904
 21
3.8155840094
 31
0.0
 11
5.8036579525
 21
3.8218294462
 31
0.0
 11
5.7850744683
 21
3.8289952191
 31
0.0
 11
5.7668651068
 21
3.837066345
 31
0.0
 11
5.7490729107
 21
3.846023436
 31
0.0
 11
5.7149095104
 21
3.8664991554
 31
0.0
 11
5.6986230015
 21
3.8779692662
 31
0.0
 11
5.6829212599
 21
3.8902264395
 31
0.0
 11
5.6678403627
 21
3.90323922
 31
0.0
 11
5.6534157204
 21
3.9169753872
 31
0.0
 11
5.6396827437
 21
3.9314027206
 31
0.0
 11
5.6266758925
 21
3.9464880934
 31
0.0
 11
5.6144249441
 21
3.9621939132
 31
0.0
 11
5.6029582357
 21
3.9784812146
 31
0.0
 11
5.5923041043
 21
3.9953110318
 31
0.0
 11
5.5824903813
 21
4.0126441185
 31
0.0
 11
5.5735397366
 21
4.0304383652
 31
0.0
 11
5.5654718216
 21
4.0486499874
 31
0.0
 11
5.5583062496
 21
4.0672351799
 31
0.0
 11
5.5520624599
 21
4.0861500757
 31
0.0
 11
5.5467554855
 21
4.105349254
 31
0.0
 11
5.5423957149
 21
4.1247856556
 31
0.0
 11
5.5389933151
 21
4.1444121432
 31
0.0
 11
5.5365584338
 21
4.1641815783
 31
0.0
 11
5.5350982413
 21
4.1840465973
 31
0.0
 11
5.5346137247
 21
4.2039593707
 31
0.0
 11
5.5365725896
 21
4.2437366295
 31
0.0
 11
5.5424235543
 21
4.2831312044
 31
0.0
 11
5.5467892569
 21
4.3025666966
 31
0.0
 11
5.5521021473
 21
4.3217647626
 31
0.0
 11
5.5583519055
 21
4.340678428
 31
0.0
 11
5.5655224218
 21
4.35926262
 31
0.0
 11
5.57359435
 21
4.3774733295
 31
0.0
 11
5.5825483086
 21
4.3952665591
 31
0.0
 11
5.592364783
 21
4.4125983897
 31
0.0
 11
5.6030203957
 21
4.4294271842
 31
0.0
 11
5.614487398
 21
4.4457138883
 31
0.0
 11
5.6267378057
 21
4.4614195863
 31
0.0
 11
5.6397436191
 21
4.476505377
 31
0.0
 11
5.653474665
 21
4.490934354
 31
0.0
 11
5.667896388
 21
4.5046736323
 31
0.0
 11
5.6829737062
 21
4.5176908105
 31
0.0
 11
5.6986715374
 21
4.5299534872
 31
0.0
 11
5.7149536624
 21
4.5414305648
 31
0.0
 11
5.7317792277
 21
4.5520962579
 31
0.0
 11
5.7491062001
 21
4.5619261338
 31
0.0
 11
5.7668925464
 21
4.5708957595
 31
0.0
 11
5.7850961675
 21
4.5789811337
 31
0.0
 11
5.803674145
 21
4.5861636091
 31
0.0
 11
5.8225830068
 21
4.5924281607
 31
0.0
 11
5.8417792701
 21
4.5977598318
 31
0.0
 11
5.8612194051
 21
4.6021437031
 31
0.0
 11
5.880855623
 21
4.6055682153
 31
0.0
 11
5.9006325451
 21
4.6080277986
 31
0.0
 11
5.9204940081
 21
4.6095175014
 31
0.0
 11
5.9403838491
 21
4.6100323726
 31
0.0
  0
LINE
  5
2A1
100
AcDbEntity
  8
0
100
AcDbLine
 62
6
  6
CONTINUOUS
 10
5.9403838491
 20
4.6100323726
 11
5.9405562721
 21
4.6100325595
  0
LINE
  5
2A2
100
AcDbEntity
  8
0
100
AcDbLine
 62
6
  6
CONTINUOUS
 10
5.940727035
 20
3.8181535441
 11
5.9405562721
 21
3.8181533492
  0
LINE
  5
2A3
100
AcDbEntity
  8
0
100
AcDbLine
 62
6
  6
CONTINUOUS
 10
5.9405562721
 20
3.800367421
 11
5.9403893191
 21
3.8003673093
  0
SPLINE
  5
2A4
100
AcDbEntity
  8
0
100
AcDbSpline
 62
6
  6
CONTINUOUS
 70
0
 71
3
 72
67
 73
63
 74
61
 42
0.0000001
 43
0.0000001
 44
0.0000000001
 12
-1.2678091287
 22
-0.0005839535
 32
0.0
 13
1.2678081838
 23
0.001654398
 33
0.0
 40
0.0
 40
0.0
 40
0.0
 40
0.0
 40
0.0312216028
 40
0.0468540916
 40
0.0624885501
 40
0.0781190469
 40
0.0937452455
 40
0.1093689417
 40
0.1249917978
 40
0.1406155113
 40
0.1562407432
 40
0.187483825
 40
0.2031096873
 40
0.2187350512
 40
0.2343601772
 40
0.2499851333
 40
0.2656100148
 40
0.2812351224
 40
0.2968605412
 40
0.312486052
 40
0.3281114189
 40
0.343736662
 40
0.3593619697
 40
0.3749872681
 40
0.3906123891
 40
0.4062373439
 40
0.4218623591
 40
0.4374874146
 40
0.4531123351
 40
0.4687370648
 40
0.4843618525
 40
0.499986836
 40
0.5156119533
 40
0.5312372066
 40
0.5624795199
 40
0.593722755
 40
0.6093491252
 40
0.6249756681
 40
0.6406021988
 40
0.6562284297
 40
0.6718542471
 40
0.6874798606
 40
0.7031053239
 40
0.7187305046
 40
0.7343553521
 40
0.7499801451
 40
0.765605168
 40
0.7812305043
 40
0.796856283
 40
0.8124827977
 40
0.8281098482
 40
0.8437367934
 40
0.8593629157
 40
0.8749877918
 40
0.8906123533
 40
0.9062381057
 40
0.9218664905
 40
0.9374990907
 40
0.9531350598
 40
0.9687684258
 40
0.9843923531
 40
1.0
 40
1.0
 40
1.0
 40
1.0
 10
5.9403893191
 20
3.8003673093
 30
0.0
 10
5.9271949748
 20
3.800361232
 30
0.0
 10
5.9073759128
 20
3.8013315821
 30
0.0
 10
5.8811583809
 20
3.8045538564
 30
0.0
 10
5.8616208237
 20
3.8079335209
 30
0.0
 10
5.8422770916
 20
3.812271575
 30
0.0
 10
5.8231744314
 20
3.8175548847
 30
0.0
 10
5.8043571515
 20
3.8237681943
 30
0.0
 10
5.7858684486
 20
3.8308967455
 30
0.0
 10
5.7677516987
 20
3.8389270288
 30
0.0
 10
5.7441558213
 20
3.85080576
 30
0.0
 10
5.7214580009
 20
3.8644071164
 30
0.0
 10
5.6998584208
 20
3.8796184457
 30
0.0
 10
5.6842363118
 20
3.89181382
 30
0.0
 10
5.6692319314
 20
3.9047599294
 30
0.0
 10
5.6548799691
 20
3.9184257174
 30
0.0
 10
5.6412159723
 20
3.9327793894
 30
0.0
 10
5.6282752729
 20
3.9477886849
 30
0.0
 10
5.6160860902
 20
3.9634147033
 30
0.0
 10
5.6046768442
 20
3.9796190838
 30
0.0
 10
5.5940756683
 20
3.996363255
 30
0.0
 10
5.5843118007
 20
4.0136090214
 30
0.0
 10
5.5754064563
 20
4.031313281
 30
0.0
 10
5.5673789719
 20
4.0494324023
 30
0.0
 10
5.5602488105
 20
4.0679229325
 30
0.0
 10
5.5540366584
 20
4.0867416699
 30
0.0
 10
5.5487568686
 20
4.1058428858
 30
0.0
 10
5.5444188949
 20
4.1251797035
 30
0.0
 10
5.541033038
 20
4.1447056606
 30
0.0
 10
5.5386102749
 20
4.1643742789
 30
0.0
 10
5.5371578353
 20
4.1841382796
 30
0.0
 10
5.536675203
 20
4.2039496972
 30
0.0
 10
5.5371631977
 20
4.2237616333
 30
0.0
 10
5.5391084297
 20
4.2501084514
 30
0.0
 10
5.5439678842
 20
4.2828156987
 30
0.0
 10
5.5520005741
 20
4.3148919311
 30
0.0
 10
5.5602904944
 20
4.3399776523
 30
0.0
 10
5.5674251512
 20
4.3584686263
 30
0.0
 10
5.5754560659
 20
4.3765877678
 30
0.0
 10
5.5843641814
 20
4.39429196
 30
0.0
 10
5.5941312317
 20
4.411536755
 30
0.0
 10
5.6047336511
 20
4.4282804864
 30
0.0
 10
5.6161427115
 20
4.444484951
 30
0.0
 10
5.6283308
 20
4.4601115267
 30
0.0
 10
5.6412704974
 20
4.4751213438
 30
0.0
 10
5.6549324115
 20
4.4894767948
 30
0.0
 10
5.6692809072
 20
4.5031462373
 30
0.0
 10
5.6842814283
 20
4.5160974611
 30
0.0
 10
5.699899176
 20
4.5282984172
 30
0.0
 10
5.7160989124
 20
4.5397165825
 30
0.0
 10
5.7328388735
 20
4.550327727
 30
0.0
 10
5.7500774693
 20
4.5601076264
 30
0.0
 10
5.7677729783
 20
4.5690323109
 30
0.0
 10
5.7858845602
 20
4.5770767636
 30
0.0
 10
5.8043688872
 20
4.5842226951
 30
0.0
 10
5.8231822297
 20
4.5904557294
 30
0.0
 10
5.8422814955
 20
4.5957610584
 30
0.0
 10
5.8616225702
 20
4.6001228509
 30
0.0
 10
5.8811567187
 20
4.603528631
 30
0.0
 10
5.9008303667
 20
4.6059753933
 30
0.0
 10
5.9205875819
 20
4.6074579488
 30
0.0
 10
5.933787973
 20
4.6078005241
 30
0.0
 10
5.9403838072
 20
4.6078091312
 30
0.0
 11
5.9403893191
 21
3.8003673093
 31
0.0
 11
5.9008533163
 21
3.802296381
 31
0.0
 11
5.8811823078
 21
3.8047139713
 31
0.0
 11
5.861651053
 21
3.8080936755
 31
0.0
 11
5.8423147719
 21
3.8124297402
 31
0.0
 11
5.8232204659
 21
3.817710342
 31
0.0
 11
5.8044114132
 21
3.8239209076
 31
0.0
 11
5.785930874
 21
3.8310468503
 31
0.0
 11
5.7678220799
 21
3.8390733084
 31
0.0
 11
5.7501277691
 21
3.8479806136
 31
0.0
 11
5.7161518574
 21
3.8683426077
 31
0.0
 11
5.6999548391
 21
3.8797494908
 31
0.0
 11
5.6843391391
 21
3.8919390464
 31
0.0
 11
5.6693405892
 21
3.9048799466
 31
0.0
 11
5.6549946063
 21
3.9185403875
 31
0.0
 11
5.6413366074
 21
3.9328885646
 31
0.0
 11
5.6284006374
 21
3.9478913362
 31
0.0
 11
5.6162161143
 21
3.9635110515
 31
0.0
 11
5.6048114822
 21
3.97970911
 31
0.0
 11
5.5942151851
 21
3.9964469112
 31
0.0
 11
5.5844548984
 21
4.013685417
 31
0.0
 11
5.5755527613
 21
4.0313824362
 31
0.0
 11
5.5675284878
 21
4.0494943961
 31
0.0
 11
5.5604017813
 21
4.0679777184
 31
0.0
 11
5.5541920579
 21
4.0867887295
 31
0.0
 11
5.5489138418
 21
4.1058821387
 31
0.0
 11
5.5445775664
 21
4.1252113025
 31
0.0
 11
5.5411935387
 21
4.1447295359
 31
0.0
 11
5.5387719977
 21
4.1643901471
 31
0.0
 11
5.5373194751
 21
4.1841460725
 31
0.0
 11
5.5368369743
 21
4.2039496942
 31
0.0
 11
5.5373250474
 21
4.2237533493
 31
0.0
 11
5.5387842437
 21
4.2435093746
 31
0.0
 11
5.5446024008
 21
4.282689028
 31
0.0
 11
5.5542274148
 21
4.3211123005
 31
0.0
 11
5.5604431769
 21
4.339923207
 31
0.0
 11
5.567574534
 21
4.3584066677
 31
0.0
 11
5.5756023427
 21
4.3765187701
 31
0.0
 11
5.5845074498
 21
4.394215605
 31
0.0
 11
5.5942705316
 21
4.4114533649
 31
0.0
 11
5.6048681516
 21
4.4281906986
 31
0.0
 11
5.6162726531
 21
4.4443887753
 31
0.0
 11
5.6284561871
 21
4.4600088792
 31
0.0
 11
5.6413908891
 21
4.4750123088
 31
0.0
 11
5.6550467483
 21
4.4893623674
 31
0.0
 11
5.6693894283
 21
4.5030263988
 31
0.0
 11
5.6843840732
 21
4.5159722316
 31
0.0
 11
5.6999958273
 21
4.5281676948
 31
0.0
 11
5.7161886941
 21
4.5395819063
 31
0.0
 11
5.7329220424
 21
4.5501892213
 31
0.0
 11
5.7501540641
 21
4.5599653253
 31
0.0
 11
5.7678429511
 21
4.5688859039
 31
0.0
 11
5.7859468296
 21
4.5769270749
 31
0.0
 11
5.804423015
 21
4.5840702969
 31
0.0
 11
5.8232282759
 21
4.590300628
 31
0.0
 11
5.8423193709
 21
4.5956031935
 31
0.0
 11
5.8616530111
 21
4.5999631562
 31
0.0
 11
5.8811816642
 21
4.6033690255
 31
0.0
 11
5.9008502517
 21
4.6058152621
 31
0.0
 11
5.9206029179
 21
4.6072969395
 31
0.0
 11
5.9403838072
 21
4.6078091312
 31
0.0
  0
LINE
  5
2A5
100
AcDbEntity
  8
0
100
AcDbLine
 62
6
  6
CONTINUOUS
 10
5.9403838072
 20
4.6078091312
 11
5.9405562721
 21
4.6078093192
  0
LINE
  5
2A6
100
AcDbEntity
  8
0
100
AcDbLine
 62
6
  6
CONTINUOUS
 10
5.9405562721
 20
3.802590663
 11
5.9403890916
 21
3.8025905506
  0
SPLINE
  5
2A7
100
AcDbEntity
  8
0
100
AcDbSpline
 62
6
  6
CONTINUOUS
 70
0
 71
3
 72
52
 73
48
 74
46
 42
0.0000001
 43
0.0000001
 44
0.0000000001
 12
-1.038175097
 22
-0.0004802243
 32
0.0
 13
0.8822854236
 23
0.547156462
 33
0.0
 40
0.0
 40
0.0
 40
0.0
 40
0.0
 40
0.0312224527
 40
0.0468534585
 40
0.0624891113
 40
0.0781246852
 40
0.0937563906
 40
0.1093843492
 40
0.1250098178
 40
0.1562514586
 40
0.1874959137
 40
0.2187434693
 40
0.2343704752
 40
0.249997124
 40
0.281243519
 40
0.2968698111
 40
0.3124960702
 40
0.3281224407
 40
0.3437491297
 40
0.374996934
 40
0.3906241217
 40
0.406251299
 40
0.4374996545
 40
0.4531270666
 40
0.468754261
 40
0.4843811299
 40
0.5000077757
 40
0.5312544251
 40
0.5625003281
 40
0.5937460278
 40
0.6249923814
 40
0.640618975
 40
0.6562459128
 40
0.6874947385
 40
0.7187443452
 40
0.734372405
 40
0.750000651
 40
0.7812510836
 40
0.7968792931
 40
0.8125072792
 40
0.8437566337
 40
0.8750051017
 40
0.8906317896
 40
0.9062580877
 40
0.937504195
 40
0.9687510328
 40
1.0
 40
1.0
 40
1.0
 40
1.0
 10
5.9403890916
 20
3.8025905506
 30
0.0
 10
5.9295843007
 20
3.8025855527
 30
0.0
 10
5.9133599815
 20
3.8032384072
 30
0.0
 10
5.8918407556
 20
3.8054122594
 30
0.0
 10
5.8757661608
 20
3.807693857
 30
0.0
 10
5.8597970728
 20
3.8106230264
 30
0.0
 10
5.8439626693
 20
3.8141978625
 30
0.0
 10
5.8282893074
 20
3.8184105764
 30
0.0
 10
5.8076430874
 20
3.8248653941
 30
0.0
 10
5.7823488771
 20
3.8344904712
 30
0.0
 10
5.7530360064
 20
3.8484592812
 30
0.0
 10
5.7296211508
 20
3.862035031
 30
0.0
 10
5.7115964871
 20
3.8739996598
 30
0.0
 10
5.6940723978
 20
3.8866846887
 30
0.0
 10
5.6773330135
 20
3.900425158
 30
0.0
 10
5.6614730719
 20
3.9151369174
 30
0.0
 10
5.6500312255
 20
3.9266441168
 30
0.0
 10
5.6390649632
 20
3.9386056191
 30
0.0
 10
5.6251033967
 20
3.9551307202
 30
0.0
 10
5.6121533943
 20
3.972489711
 30
0.0
 10
5.6002903835
 20
3.9905813248
 30
0.0
 10
5.5891691844
 20
4.0091384435
 30
0.0
 10
5.5791854584
 20
4.0283578514
 30
0.0
 10
5.5703916718
 20
4.048124049
 30
0.0
 10
5.5643987029
 20
4.0632053174
 30
0.0
 10
5.5590206472
 20
4.0785162867
 30
0.0
 10
5.5526845983
 20
4.0992012243
 30
0.0
 10
5.5463392482
 20
4.1255126349
 30
0.0
 10
5.5412948847
 20
4.1575921433
 30
0.0
 10
5.5388643824
 20
4.189974686
 30
0.0
 10
5.5390200845
 20
4.2170396595
 30
0.0
 10
5.5404540575
 20
4.2386257884
 30
0.0
 10
5.5427617802
 20
4.2601370326
 30
0.0
 10
5.5472741101
 20
4.2868253597
 30
0.0
 10
5.5539211296
 20
4.3130640382
 30
0.0
 10
5.5604978751
 20
4.3336762562
 30
0.0
 10
5.5679029857
 20
4.3540051849
 30
0.0
 10
5.5765332328
 20
4.3738704879
 30
0.0
 10
5.5863383333
 20
4.3931567328
 30
0.0
 10
5.5969156022
 20
4.4120308688
 30
0.0
 10
5.6115571594
 20
4.4347962499
 30
0.0
 10
5.627983507
 20
4.4563086785
 30
0.0
 10
5.642129953
 20
4.4726770633
 30
0.0
 10
5.6569269691
 20
4.4884584065
 30
0.0
 10
5.676600758
 20
4.5070464063
 30
0.0
 10
5.701923926
 20
4.5273745217
 30
0.0
 10
5.719853091
 20
4.5395193166
 30
0.0
 10
5.7290432604
 20
4.5452186747
 30
0.0
 11
5.9403890916
 21
3.8025905506
 31
0.0
 11
5.9080007541
 21
3.8038895444
 31
0.0
 11
5.8918551873
 21
3.8055203899
 31
0.0
 11
5.8757837597
 21
3.8078017933
 31
0.0
 11
5.8598177747
 21
3.8107309989
 31
0.0
 11
5.8439876845
 21
3.8143046249
 31
0.0
 11
5.8283191645
 21
3.818515777
 31
0.0
 11
5.8128362245
 21
3.8233563361
 31
0.0
 11
5.7825231159
 21
3.834893193
 31
0.0
 11
5.7532399307
 21
3.8488455482
 31
0.0
 11
5.725175455
 21
3.8651172166
 31
0.0
 11
5.7116589227
 21
3.8740898184
 31
0.0
 11
5.6985173362
 21
3.8836024889
 31
0.0
 11
5.6734424991
 21
3.9041829738
 31
0.0
 11
5.6615487811
 21
3.915215637
 31
0.0
 11
5.6501105316
 21
3.9267197892
 31
0.0
 11
5.6391474144
 21
3.9386777524
 31
0.0
 11
5.6286772014
 21
3.9510700158
 31
0.0
 11
5.6092791898
 21
3.9770722443
 31
0.0
 11
5.60038313
 21
3.9906395016
 31
0.0
 11
5.5920434967
 21
4.0045556978
 31
0.0
 11
5.5770868728
 21
4.0333434603
 31
0.0
 11
5.5704921384
 21
4.0481666647
 31
0.0
 11
5.5645011335
 21
4.0632437478
 31
0.0
 11
5.5591248643
 21
4.0785504568
 31
0.0
 11
5.5543730737
 21
4.0940621486
 31
0.0
 11
5.5467674784
 21
4.1255974601
 31
0.0
 11
5.5417305149
 21
4.1576427356
 31
0.0
 11
5.5393006135
 21
4.1899901088
 31
0.0
 11
5.5394876022
 21
4.2224287595
 31
0.0
 11
5.5405632671
 21
4.2386162017
 31
0.0
 11
5.542293529
 21
4.2547471697
 31
0.0
 11
5.5477009604
 21
4.2867350928
 31
0.0
 11
5.5556697164
 21
4.3181837665
 31
0.0
 11
5.5606013988
 21
4.3336407467
 31
0.0
 11
5.5661543573
 21
4.3488857673
 31
0.0
 11
5.579081742
 21
4.3786424221
 31
0.0
 11
5.5864349224
 21
4.3931053233
 31
0.0
 11
5.5943668987
 21
4.4072588035
 31
0.0
 11
5.6119143322
 21
4.4345459935
 31
0.0
 11
5.6316030716
 21
4.4603296508
 31
0.0
 11
5.6422114403
 21
4.4726038526
 31
0.0
 11
5.6533074878
 21
4.4844384677
 31
0.0
 11
5.6768863794
 21
4.506716715
 31
0.0
 11
5.7021850154
 21
4.5270221985
 31
0.0
 11
5.7290432604
 21
4.5452186747
 31
0.0
  0
LINE
  5
2A8
100
AcDbEntity
  8
0
100
AcDbLine
 62
6
  6
CONTINUOUS
 10
5.9403843233
 20
4.6055858884
 11
5.9405562721
 21
4.6055860768
  0
LINE
  5
2A9
100
AcDbEntity
  8
0
100
AcDbLine
 62
6
  6
CONTINUOUS
 10
5.9405562721
 20
3.8070371441
 11
5.9403872605
 21
3.8070370295
  0
SPLINE
  5
2AA
100
AcDbEntity
  8
0
100
AcDbSpline
 62
6
  6
CONTINUOUS
 70
0
 71
3
 72
50
 73
46
 74
44
 42
0.0000001
 43
0.0000001
 44
0.0000000001
 12
-1.0265276749
 22
-0.0004753718
 32
0.0
 13
0.872212062
 23
0.5412997434
 33
0.0
 40
0.0
 40
0.0
 40
0.0
 40
0.0
 40
0.0312225673
 40
0.0468539361
 40
0.0624902991
 40
0.078127036
 40
0.0937603172
 40
0.1250108401
 40
0.156255536
 40
0.1718814369
 40
0.1875083479
 40
0.2187573675
 40
0.2343848952
 40
0.2500118276
 40
0.2812580183
 40
0.3125037909
 40
0.3281300887
 40
0.3437568828
 40
0.3750055061
 40
0.4062548332
 40
0.4375047061
 40
0.46875505
 40
0.4843832025
 40
0.5000112123
 40
0.5312607546
 40
0.5625092643
 40
0.5781360075
 40
0.5937624652
 40
0.6250086083
 40
0.6406346506
 40
0.6562606516
 40
0.6875069346
 40
0.7187539978
 40
0.7343808692
 40
0.7500080075
 40
0.7812566756
 40
0.8125051932
 40
0.8437533264
 40
0.8750011174
 40
0.8906277246
 40
0.9062540395
 40
0.9375002045
 40
0.9687465136
 40
0.9843731175
 40
1.0
 40
1.0
 40
1.0
 40
1.0
 10
5.9403872605
 20
3.8070370295
 30
0.0
 10
5.9297036507
 20
3.8070320821
 30
0.0
 10
5.9136611983
 20
3.807677556
 30
0.0
 10
5.8923829598
 20
3.809826861
 30
0.0
 10
5.8764879661
 20
3.8120827326
 30
0.0
 10
5.8606966391
 20
3.8149789385
 30
0.0
 10
5.8398238523
 20
3.8196906474
 30
0.0
 10
5.8141222063
 20
3.8271591805
 30
0.0
 10
5.7891097151
 20
3.8366766896
 30
0.0
 10
5.7696167265
 20
3.8454842336
 30
0.0
 10
5.7504954929
 20
3.8550739856
 30
0.0
 10
5.7319691555
 20
3.865815053
 30
0.0
 10
5.7141459847
 20
3.8776448337
 30
0.0
 10
5.6968166423
 20
3.8901863456
 30
0.0
 10
5.6761307083
 20
3.907164568
 30
0.0
 10
5.656881042
 20
3.9257550268
 30
0.0
 10
5.6424239425
 20
3.9415207204
 30
0.0
 10
5.6286171733
 20
3.957860074
 30
0.0
 10
5.6126122743
 20
3.9793111304
 30
0.0
 10
5.5955460077
 20
4.0065135062
 30
0.0
 10
5.5807395903
 20
4.0350097164
 30
0.0
 10
5.5703534305
 20
4.0596774768
 30
0.0
 10
5.5632606419
 20
4.0798607343
 30
0.0
 10
5.5569918303
 20
4.1003147577
 30
0.0
 10
5.5507155316
 20
4.1263321452
 30
0.0
 10
5.5465551171
 20
4.1527700375
 30
0.0
 10
5.5445179997
 20
4.1740646591
 30
0.0
 10
5.5433446945
 20
4.1954228423
 30
0.0
 10
5.5434658421
 20
4.2168356747
 30
0.0
 10
5.5448802531
 20
4.2381788385
 30
0.0
 10
5.547156762
 20
4.259448031
 30
0.0
 10
5.5516144889
 20
4.2858355368
 30
0.0
 10
5.5581825194
 20
4.3117787051
 30
0.0
 10
5.5646794217
 20
4.3321597526
 30
0.0
 10
5.5719967215
 20
4.352261304
 30
0.0
 10
5.5826562029
 20
4.3768106339
 30
0.0
 10
5.5977762228
 20
4.4051399778
 30
0.0
 10
5.6151393479
 20
4.4321523688
 30
0.0
 10
5.6313763395
 20
4.4534272504
 30
0.0
 10
5.6453589004
 20
4.4696159529
 30
0.0
 10
5.6599850969
 20
4.485225
 30
0.0
 10
5.6794321954
 20
4.5036088201
 30
0.0
 10
5.700296382
 20
4.5203679475
 30
0.0
 10
5.7177550921
 20
4.5327271001
 30
0.0
 10
5.7267292109
 20
4.5385501357
 30
0.0
 10
5.7312725294
 20
4.5413697448
 30
0.0
 11
5.9403872605
 21
3.8070370295
 31
0.0
 11
5.9083621692
 21
3.808321324
 31
0.0
 11
5.892397355
 21
3.8099337533
 31
0.0
 11
5.8765054793
 21
3.8121894266
 31
0.0
 11
5.8607173805
 21
3.8150856356
 31
0.0
 11
5.8450632277
 21
3.8186191502
 31
0.0
 11
5.8142576567
 21
3.8275697393
 31
0.0
 11
5.7842813198
 21
3.8389772689
 31
0.0
 11
5.7696636793
 21
3.8455817907
 31
0.0
 11
5.7553244012
 21
3.8527729999
 31
0.0
 11
5.7275732227
 21
3.8688624167
 31
0.0
 11
5.7142074532
 21
3.8777339949
 31
0.0
 11
5.7012122863
 21
3.8871390322
 31
0.0
 11
5.6764178092
 21
3.9074871244
 31
0.0
 11
5.6533466391
 21
3.9297695059
 31
0.0
 11
5.6425054343
 21
3.9415922157
 31
0.0
 11
5.6321516247
 21
3.9538446914
 31
0.0
 11
5.6129689452
 21
3.9795545329
 31
0.0
 11
5.5959227912
 21
4.0067288982
 31
0.0
 11
5.581130266
 21
4.035193519
 31
0.0
 11
5.5686821466
 21
4.0647591879
 31
0.0
 11
5.5633636233
 21
4.0798946624
 31
0.0
 11
5.5586625159
 21
4.0952329857
 31
0.0
 11
5.5511386071
 21
4.1264166747
 31
0.0
 11
5.5461535871
 21
4.1581044206
 31
0.0
 11
5.5446259715
 21
4.1740728034
 31
0.0
 11
5.5437458221
 21
4.1900896319
 31
0.0
 11
5.5439271403
 21
4.2221641534
 31
0.0
 11
5.5449880261
 21
4.2381695993
 31
0.0
 11
5.5466953006
 21
4.2541190078
 31
0.0
 11
5.5520364656
 21
4.2857463533
 31
0.0
 11
5.5599097482
 21
4.3168410444
 31
0.0
 11
5.5647819298
 21
4.3321246608
 31
0.0
 11
5.5702687965
 21
4.3471988163
 31
0.0
 11
5.5830444223
 21
4.3766225733
 31
0.0
 11
5.598150166
 21
4.404920642
 31
0.0
 11
5.6154928673
 21
4.4319052595
 31
0.0
 11
5.6349538039
 21
4.4574040491
 31
0.0
 11
5.6454394759
 21
4.4695436152
 31
0.0
 11
5.6564074256
 21
4.4812488633
 31
0.0
 11
5.6797155488
 21
4.5032838501
 31
0.0
 11
5.7047234567
 21
4.5233692498
 31
0.0
 11
5.7178159535
 21
4.532637734
 31
0.0
 11
5.7312725294
 21
4.5413697448
 31
0.0
  0
LINE
  5
2AB
100
AcDbEntity
  8
0
100
AcDbLine
 62
6
  6
CONTINUOUS
 10
5.9403861299
 20
4.601139408
 11
5.9405562721
 21
4.601139596
  0
LINE
  5
2AC
100
AcDbEntity
  8
0
100
AcDbLine
 62
6
  6
CONTINUOUS
 10
5.5889645823
 20
4.3786044187
 11
5.5890305152
 21
4.3787370662
  0
LINE
  5
2AD
100
AcDbEntity
  8
0
100
AcDbLine
 62
6
  6
CONTINUOUS
 10
5.9404056237
 20
4.596692948
 11
5.9405562721
 21
4.5966931126
  0
LINE
  5
2AE
100
AcDbEntity
  8
0
100
AcDbLine
 62
6
  6
CONTINUOUS
 10
5.9405562721
 20
3.8114836258
 11
5.9403923237
 21
3.8114835123
  0
SPLINE
  5
2AF
100
AcDbEntity
  8
0
100
AcDbSpline
 62
6
  6
CONTINUOUS
 70
0
 71
3
 72
43
 73
39
 74
37
 42
0.0000001
 43
0.0000001
 44
0.0000000001
 12
-0.7972332247
 22
-0.0003838957
 32
0.0
 13
0.3544107791
 23
0.714124612
 33
0.0
 40
0.0
 40
0.0
 40
0.0
 40
0.0
 40
0.0312211086
 40
0.0624772027
 40
0.093745301
 40
0.125005809
 40
0.1562572659
 40
0.1875047619
 40
0.2031305596
 40
0.2187571706
 40
0.2500085422
 40
0.2812608668
 40
0.2968886561
 40
0.3125159906
 40
0.3437657075
 40
0.3750145165
 40
0.4062625495
 40
0.4375105913
 40
0.4687589355
 40
0.500007178
 40
0.5312556124
 40
0.5625046198
 40
0.5937537428
 40
0.6250030036
 40
0.6562528323
 40
0.6875027479
 40
0.7031295916
 40
0.7187564512
 40
0.7500061053
 40
0.7812544093
 40
0.7968795223
 40
0.8125038686
 40
0.8437485217
 40
0.874997459
 40
0.9062560333
 40
0.9375230864
 40
0.9687788601
 40
1.0
 40
1.0
 40
1.0
 40
1.0
 10
5.9403923237
 20
3.8114835123
 30
0.0
 10
5.9320954886
 20
3.8114795171
 30
0.0
 10
5.9154874858
 20
3.812002129
 30
0.0
 10
5.8906714592
 20
3.8143631811
 30
0.0
 10
5.8660430382
 20
3.8182915027
 30
0.0
 10
5.8417162459
 20
3.8237810006
 30
0.0
 10
5.8177933846
 20
3.8308039814
 30
0.0
 10
5.7982695341
 20
3.837908747
 30
0.0
 10
5.7829481427
 20
3.8443270153
 30
0.0
 10
5.767837956
 20
3.8512304501
 30
0.0
 10
5.7493720015
 20
3.8607547527
 30
0.0
 10
5.731546088
 20
3.8714296455
 30
0.0
 10
5.717715287
 20
3.8806337965
 30
0.0
 10
5.7041852125
 20
3.8902732995
 30
0.0
 10
5.6878584768
 20
3.9031227754
 30
0.0
 10
5.6692851473
 20
3.9197505235
 30
0.0
 10
5.6518035233
 20
3.9375227713
 30
0.0
 10
5.6354886082
 20
3.9563713659
 30
0.0
 10
5.6204005484
 20
3.976215605
 30
0.0
 10
5.6066000117
 20
3.9969761635
 30
0.0
 10
5.5941486968
 20
4.0185731508
 30
0.0
 10
5.5830913564
 20
4.0409160298
 30
0.0
 10
5.5734706893
 20
4.0639144379
 30
0.0
 10
5.565332308
 20
4.0874786246
 30
0.0
 10
5.5587051637
 20
4.1115111842
 30
0.0
 10
5.5544610482
 20
4.1318499352
 30
0.0
 10
5.551846138
 20
4.1482552454
 30
0.0
 10
5.5497549249
 20
4.1647354823
 30
0.0
 10
5.5481235208
 20
4.1854473388
 30
0.0
 10
5.5478061829
 20
4.2062204365
 30
0.0
 10
5.5483423641
 20
4.2228226716
 30
0.0
 10
5.5494060626
 20
4.239398449
 30
0.0
 10
5.5517223834
 20
4.2600434585
 30
0.0
 10
5.5560656449
 20
4.2845926443
 30
0.0
 10
5.5619597782
 20
4.3088230202
 30
0.0
 10
5.5693842552
 20
4.3326310356
 30
0.0
 10
5.5782939042
 20
4.355912092
 30
0.0
 10
5.5852024335
 20
4.3710239073
 30
0.0
 10
5.588890803
 20
4.3784558355
 30
0.0
 11
5.9403923237
 21
3.8114835123
 31
0.0
 11
5.9155140641
 21
3.8122642741
 31
0.0
 11
5.8907076307
 21
3.8146238291
 31
0.0
 11
5.8660911324
 21
3.8185521479
 31
0.0
 11
5.8417803544
 21
3.8240374091
 31
0.0
 11
5.8178743416
 21
3.8310548846
 31
0.0
 11
5.7944648029
 21
3.8395741899
 31
0.0
 11
5.7829748605
 21
3.8443875257
 31
0.0
 11
5.7716433464
 21
3.8495643897
 31
0.0
 11
5.7495002837
 21
3.8609847133
 31
0.0
 11
5.7281247776
 21
3.8737856751
 31
0.0
 11
5.7177527094
 21
3.8806883368
 31
0.0
 11
5.7076058943
 21
3.8879174203
 31
0.0
 11
5.6880279306
 21
3.903324452
 31
0.0
 11
5.6694668944
 21
3.9199414661
 31
0.0
 11
5.6519979613
 21
3.9377021748
 31
0.0
 11
5.6356931407
 21
3.9565372371
 31
0.0
 11
5.6206151301
 21
3.9763683329
 31
0.0
 11
5.6068249235
 21
3.9971154995
 31
0.0
 11
5.5943811162
 21
4.0186972974
 31
0.0
 11
5.5833308305
 21
4.0410252237
 31
0.0
 11
5.5737177624
 21
4.0640086659
 31
0.0
 11
5.565584236
 21
4.0875565091
 31
0.0
 11
5.558960898
 21
4.1115733599
 31
0.0
 11
5.5538724908
 21
4.1359616623
 31
0.0
 11
5.5519116036
 21
4.1482646162
 31
0.0
 11
5.5503431377
 21
4.1606237418
 31
0.0
 11
5.5483863078
 21
4.185460038
 31
0.0
 11
5.5480060604
 21
4.2103693249
 31
0.0
 11
5.5484083225
 21
4.2228196889
 31
0.0
 11
5.5492059812
 21
4.2352503723
 31
0.0
 11
5.5519827481
 21
4.2600043966
 31
0.0
 11
5.5563233879
 21
4.2845360326
 31
0.0
 11
5.5622141809
 21
4.3087501554
 31
0.0
 11
5.5696333668
 21
4.3325475883
 31
0.0
 11
5.5785401088
 21
4.3558195426
 31
0.0
 11
5.588890803
 21
4.3784558355
 31
0.0
  0
LINE
  5
2B0
100
AcDbEntity
  8
0
100
AcDbLine
 62
6
  6
CONTINUOUS
 10
5.588890803
 20
4.3784558355
 11
5.5889645823
 21
4.3786044187
  0
LINE
  5
2B1
100
AcDbEntity
  8
0
100
AcDbLine
 62
6
  6
CONTINUOUS
 10
5.9405562721
 20
3.8092603863
 11
5.9403866992
 21
3.8092602708
  0
SPLINE
  5
2B2
100
AcDbEntity
  8
0
100
AcDbSpline
 62
6
  6
CONTINUOUS
 70
0
 71
3
 72
45
 73
41
 74
39
 42
0.0000001
 43
0.0000001
 44
0.0000000001
 12
-0.8018457018
 22
-0.0003722581
 32
0.0
 13
0.3565969798
 23
0.7181888763
 33
0.0
 40
0.0
 40
0.0
 40
0.0
 40
0.0
 40
0.0312181492
 40
0.0624732861
 40
0.0937423457
 40
0.1093771131
 40
0.1250086966
 40
0.156261005
 40
0.1875083398
 40
0.2031336389
 40
0.2187595784
 40
0.2500098835
 40
0.2812616477
 40
0.3125125006
 40
0.3437614538
 40
0.3750094068
 40
0.4062568031
 40
0.4218824839
 40
0.4375083909
 40
0.4687570787
 40
0.5000064241
 40
0.5156331833
 40
0.5312600985
 40
0.5625107123
 40
0.5937618131
 40
0.6250125479
 40
0.6562630213
 40
0.6875133342
 40
0.718762722
 40
0.7343889147
 40
0.750014919
 40
0.7812627305
 40
0.8125100633
 40
0.8281354901
 40
0.8437609051
 40
0.8750081545
 40
0.9062557186
 40
0.9375032746
 40
0.9687513648
 40
1.0
 40
1.0
 40
1.0
 40
1.0
 10
5.9403866992
 20
3.8092602708
 30
0.0
 10
5.932042653
 20
3.8092563971
 30
0.0
 10
5.9153395326
 20
3.8097825865
 30
0.0
 10
5.8903812051
 20
3.8121580722
 30
0.0
 10
5.8697363487
 20
3.815451807
 30
0.0
 10
5.8533727161
 20
3.8188708372
 30
0.0
 10
5.8371307848
 20
3.8228092093
 30
0.0
 10
5.8170792769
 20
3.828696726
 30
0.0
 10
5.7974432682
 20
3.8358439011
 30
0.0
 10
5.7820337368
 20
3.842299715
 30
0.0
 10
5.7668369688
 20
3.8492433717
 30
0.0
 10
5.7482654648
 20
3.8588247698
 30
0.0
 10
5.7267544127
 20
3.8717097025
 30
0.0
 10
5.7061030255
 20
3.8859322464
 30
0.0
 10
5.6864006116
 20
3.901441117
 30
0.0
 10
5.6677226279
 20
3.9181673015
 30
0.0
 10
5.6530708248
 20
3.9330653219
 30
0.0
 10
5.6419373931
 20
3.9455224447
 30
0.0
 10
5.6312058917
 20
3.958327958
 30
0.0
 10
5.6185615465
 20
3.9749641395
 30
0.0
 10
5.6069961504
 20
3.992367978
 30
0.0
 10
5.5984216699
 20
4.006708454
 30
0.0
 10
5.5903082338
 20
4.0213150541
 30
0.0
 10
5.5810431619
 20
4.040046548
 30
0.0
 10
5.5713717191
 20
4.0631810214
 30
0.0
 10
5.5631858911
 20
4.0868825467
 30
0.0
 10
5.5565259059
 20
4.1110569845
 30
0.0
 10
5.5514109356
 20
4.1356038062
 30
0.0
 10
5.5484519481
 20
4.1562901425
 30
0.0
 10
5.5468774997
 20
4.1729237683
 30
0.0
 10
5.5458331423
 20
4.1895986941
 30
0.0
 10
5.5455204699
 20
4.2104915749
 30
0.0
 10
5.5465310853
 20
4.2313621961
 30
0.0
 10
5.5481324064
 20
4.2479923905
 30
0.0
 10
5.5502622474
 20
4.2645631116
 30
0.0
 10
5.5539098729
 20
4.2851376254
 30
0.0
 10
5.5598400058
 20
4.3094981601
 30
0.0
 10
5.567302839
 20
4.3334348633
 30
0.0
 10
5.5762724497
 20
4.3568476565
 30
0.0
 10
5.5832291078
 20
4.3720489017
 30
0.0
 10
5.5869434975
 20
4.3795297091
 30
0.0
 11
5.9403866992
 21
3.8092602708
 31
0.0
 11
5.9153668984
 21
3.8100461922
 31
0.0
 11
5.8904177939
 21
3.8124202182
 31
0.0
 11
5.8656581955
 21
3.816371901
 31
0.0
 11
5.853386554
 21
3.8189360713
 31
0.0
 11
5.8412053855
 21
3.8218895916
 31
0.0
 11
5.8171607905
 21
3.828949166
 31
0.0
 11
5.7936164418
 21
3.8375191087
 31
0.0
 11
5.782060581
 21
3.8423605893
 31
0.0
 11
5.7706642288
 21
3.847567688
 31
0.0
 11
5.748394904
 21
3.8590558038
 31
0.0
 11
5.7268974371
 21
3.871932806
 31
0.0
 11
5.7062606422
 21
3.8861470362
 31
0.0
 11
5.6865710261
 21
3.9016442722
 31
0.0
 11
5.6679051836
 21
3.9183592786
 31
0.0
 11
5.6503370484
 21
3.936223863
 31
0.0
 11
5.641987705
 21
3.9455659176
 31
0.0
 11
5.6339397006
 21
3.9551690261
 31
0.0
 11
5.6187774596
 21
3.9751174869
 31
0.0
 11
5.6049094993
 21
3.9959870999
 31
0.0
 11
5.5984793458
 21
4.0067416486
 31
0.0
 11
5.5923947264
 21
4.0176955398
 31
0.0
 11
5.5812842858
 21
4.0401559526
 31
0.0
 11
5.5716192855
 21
4.0632756277
 31
0.0
 11
5.5634401668
 21
4.0869614657
 31
0.0
 11
5.5567833852
 21
4.1111191487
 31
0.0
 11
5.5516715943
 21
4.1356501402
 31
0.0
 11
5.5481244636
 21
4.1604549912
 31
0.0
 11
5.5469437568
 21
4.1729290338
 31
0.0
 11
5.5461603724
 21
4.1854341659
 31
0.0
 11
5.5457851236
 21
4.2104872819
 31
0.0
 11
5.5469974239
 21
4.2355134787
 31
0.0
 11
5.5481984758
 21
4.2479849618
 31
0.0
 11
5.5497955832
 21
4.2604119256
 31
0.0
 11
5.5541687004
 21
4.2850828131
 31
0.0
 11
5.5600954461
 21
4.3094274875
 31
0.0
 11
5.5675539054
 21
4.3333473653
 31
0.0
 11
5.5765166099
 21
4.3567456677
 31
0.0
 11
5.5869434975
 21
4.3795297091
 31
0.0
  0
LINE
  5
2B3
100
AcDbEntity
  8
0
100
AcDbLine
 62
6
  6
CONTINUOUS
 10
5.9403865703
 20
4.5989161651
 11
5.9405562721
 21
4.5989163537
  0
LINE
  5
2B4
100
AcDbEntity
  8
0
100
AcDbLine
 62
6
  6
CONTINUOUS
 10
5.9405562721
 20
3.8137068672
 11
5.9403892915
 21
3.8137067517
  0
SPLINE
  5
2B5
100
AcDbEntity
  8
0
100
AcDbSpline
 62
6
  6
CONTINUOUS
 70
0
 71
3
 72
46
 73
42
 74
40
 42
0.0000001
 43
0.0000001
 44
0.0000000001
 12
-0.7929995752
 22
-0.0003777232
 32
0.0
 13
0.3529807717
 23
0.7101077691
 33
0.0
 40
0.0
 40
0.0
 40
0.0
 40
0.0
 40
0.0312184007
 40
0.062472885
 40
0.0937402455
 40
0.1093737757
 40
0.1250041346
 40
0.1562542641
 40
0.1874999817
 40
0.20312479
 40
0.2187504542
 40
0.2343770446
 40
0.2500043274
 40
0.2812558287
 40
0.3125065732
 40
0.3281333256
 40
0.3437598344
 40
0.3750084421
 40
0.4062565554
 40
0.437504885
 40
0.4687538337
 40
0.5000026381
 40
0.5156287713
 40
0.5312548241
 40
0.5625031084
 40
0.5937514466
 40
0.609377536
 40
0.6250036782
 40
0.6562525132
 40
0.6875016272
 40
0.7187501965
 40
0.7499983807
 40
0.7812467906
 40
0.8124953393
 40
0.8437444448
 40
0.8749945819
 40
0.9062450523
 40
0.921872171
 40
0.9374992771
 40
0.9687497417
 40
1.0
 40
1.0
 40
1.0
 40
1.0
 10
5.9403892915
 20
3.8137067517
 30
0.0
 10
5.932137232
 20
3.813702821
 30
0.0
 10
5.9156184808
 20
3.8142230425
 30
0.0
 10
5.890936053
 20
3.8165723594
 30
0.0
 10
5.8705199556
 20
3.8198300999
 30
0.0
 10
5.854338098
 20
3.823212007
 30
0.0
 10
5.8382767073
 20
3.8271073195
 30
0.0
 10
5.818447932
 20
3.8329302951
 30
0.0
 10
5.7990299444
 20
3.8399993402
 30
0.0
 10
5.7837916311
 20
3.8463849117
 30
0.0
 10
5.7725197563
 20
3.8515365546
 30
0.0
 10
5.7614167751
 20
3.8570442118
 30
0.0
 10
5.7468538395
 20
3.8648533134
 30
0.0
 10
5.729124891
 20
3.8754744479
 30
0.0
 10
5.7121056755
 20
3.8871990793
 30
0.0
 10
5.6989617127
 20
3.8972135834
 30
0.0
 10
5.686143045
 20
3.907640213
 30
0.0
 10
5.6707498166
 20
3.9214284762
 30
0.0
 10
5.6533655999
 20
3.9391101553
 30
0.0
 10
5.6371420679
 20
3.9578634701
 30
0.0
 10
5.6221412819
 20
3.9776077539
 30
0.0
 10
5.6107066908
 20
3.9948218878
 30
0.0
 10
5.6022305837
 20
4.0090057306
 30
0.0
 10
5.5942107094
 20
4.0234523422
 30
0.0
 10
5.5850524718
 20
4.041977311
 30
0.0
 10
5.5770861893
 20
4.0610452428
 30
0.0
 10
5.5714493729
 20
4.0765774663
 30
0.0
 10
5.5663098877
 20
4.092281357
 30
0.0
 10
5.5608260498
 20
4.1122063728
 30
0.0
 10
5.5557733994
 20
4.1364826333
 30
0.0
 10
5.5522693182
 20
4.161030769
 30
0.0
 10
5.5503350525
 20
4.1857518588
 30
0.0
 10
5.5499711145
 20
4.2105457061
 30
0.0
 10
5.5511777792
 20
4.2353131774
 30
0.0
 10
5.5539578226
 20
4.2599543377
 30
0.0
 10
5.558295221
 20
4.2843694102
 30
0.0
 10
5.5631907353
 20
4.3044480229
 30
0.0
 10
5.5678648467
 20
4.3202976381
 30
0.0
 10
5.5730413307
 20
4.3359904853
 30
0.0
 10
5.580442621
 20
4.3552858068
 30
0.0
 10
5.5873292773
 20
4.3703170994
 30
0.0
 10
5.5910061908
 20
4.3777141165
 30
0.0
 11
5.9403892915
 21
3.8137067517
 31
0.0
 11
5.9156453085
 21
3.8144838085
 31
0.0
 11
5.8909719748
 21
3.8168317218
 31
0.0
 11
5.8664869646
 21
3.820740253
 31
0.0
 11
5.8543517845
 21
3.8232764979
 31
0.0
 11
5.8423060714
 21
3.8261977276
 31
0.0
 11
5.8185286987
 21
3.8331799531
 31
0.0
 11
5.7952458006
 21
3.8416562843
 31
0.0
 11
5.7838181809
 21
3.8464451461
 31
0.0
 11
5.7725482247
 21
3.8515957382
 31
0.0
 11
5.7614470488
 21
3.8571023348
 31
0.0
 11
5.7505256972
 21
3.8629586477
 31
0.0
 11
5.729266643
 21
3.8756952665
 31
0.0
 11
5.7088594103
 21
3.8897552789
 31
0.0
 11
5.6990022709
 21
3.8972651856
 31
0.0
 11
5.689388981
 21
3.9050845057
 31
0.0
 11
5.6709309056
 21
3.9216179435
 31
0.0
 11
5.6535590952
 21
3.9392887071
 31
0.0
 11
5.6373459816
 21
3.9580284812
 31
0.0
 11
5.6223545368
 21
3.9777598039
 31
0.0
 11
5.6086440075
 21
3.9984016117
 31
0.0
 11
5.602287597
 21
4.0090386119
 31
0.0
 11
5.5962730668
 21
4.0198725204
 31
0.0
 11
5.5852908637
 21
4.0420858862
 31
0.0
 11
5.5757386261
 21
4.0649506905
 31
0.0
 11
5.5715115528
 21
4.0765988973
 31
0.0
 11
5.5676572462
 21
4.0883757485
 31
0.0
 11
5.5610806994
 21
4.1122674433
 31
0.0
 11
5.5560314654
 21
4.1365281161
 31
0.0
 11
5.5525309385
 21
4.1610597266
 31
0.0
 11
5.5505967758
 21
4.1857639263
 31
0.0
 11
5.5502328798
 21
4.2105412329
 31
0.0
 11
5.5514399898
 21
4.2352919031
 31
0.0
 11
5.5542173308
 21
4.2599163027
 31
0.0
 11
5.5585513721
 21
4.2843157147
 31
0.0
 11
5.5644221896
 21
4.3083918818
 31
0.0
 11
5.5679276481
 21
4.3202780443
 31
0.0
 11
5.5718095162
 21
4.3320466444
 31
0.0
 11
5.5806840846
 21
4.355184711
 31
0.0
 11
5.5910061908
 21
4.3777141165
 31
0.0
  0
LINE
  5
2B6
100
AcDbEntity
  8
0
100
AcDbLine
 62
6
  6
CONTINUOUS
 10
5.9403836693
 20
4.5944696782
 11
5.9405562721
 21
4.5944698729
  0
LINE
  5
2B7
100
AcDbEntity
  8
0
100
AcDbLine
 62
6
  6
CONTINUOUS
 10
5.9405562721
 20
3.8159301095
 11
5.9403893934
 21
3.8159299933
  0
SPLINE
  5
2B8
100
AcDbEntity
  8
0
100
AcDbSpline
 62
6
  6
CONTINUOUS
 70
0
 71
3
 72
68
 73
64
 74
62
 42
0.0000001
 43
0.0000001
 44
0.0000000001
 12
-1.2189360403
 22
-0.0005842079
 32
0.0
 13
1.2189350582
 23
0.0016539214
 33
0.0
 40
0.0
 40
0.0
 40
0.0
 40
0.0
 40
0.0312213648
 40
0.0468537115
 40
0.0624879605
 40
0.078118149
 40
0.0937439603
 40
0.1093672274
 40
0.12498965
 40
0.1406129553
 40
0.1562377851
 40
0.1718635419
 40
0.187489472
 40
0.2031149801
 40
0.2187400493
 40
0.2343649262
 40
0.249989667
 40
0.2656143672
 40
0.2812393286
 40
0.2968646297
 40
0.3124900609
 40
0.3281154092
 40
0.3437407215
 40
0.3593661453
 40
0.3749915399
 40
0.3906166778
 40
0.4062415224
 40
0.4218663036
 40
0.4374910449
 40
0.4531156218
 40
0.4687400345
 40
0.4843645609
 40
0.4999893251
 40
0.5156142596
 40
0.5312393723
 40
0.5624815287
 40
0.5937247054
 40
0.6093510977
 40
0.6249777018
 40
0.6406043375
 40
0.6562307301
 40
0.6718567863
 40
0.6874826998
 40
0.7031084623
 40
0.7187338745
 40
0.7343588181
 40
0.7499835396
 40
0.7656083733
 40
0.7812334574
 40
0.796858969
 40
0.81248524
 40
0.8281120772
 40
0.8437388309
 40
0.8593647728
 40
0.8749894637
 40
0.8906138205
 40
0.9062393523
 40
0.9218675031
 40
0.9374998576
 40
0.953135595
 40
0.9687687549
 40
0.9843925035
 40
1.0
 40
1.0
 40
1.0
 40
1.0
 10
5.9403893934
 20
3.8159299933
 30
0.0
 10
5.9277037779
 20
3.8159239134
 30
0.0
 10
5.908648862
 20
3.8168565543
 30
0.0
 10
5.8834421923
 20
3.8199542435
 30
0.0
 10
5.8646580163
 20
3.823203348
 30
0.0
 10
5.8460602846
 20
3.8273738827
 30
0.0
 10
5.8276943988
 20
3.8324532268
 30
0.0
 10
5.8096029777
 20
3.838426697
 30
0.0
 10
5.7918273225
 20
3.845280235
 30
0.0
 10
5.7744098415
 20
3.8530004146
 30
0.0
 10
5.7573916167
 20
3.8615677726
 30
0.0
 10
5.7408125764
 20
3.8709589637
 30
0.0
 10
5.7247132353
 20
3.8811512156
 30
0.0
 10
5.7091344923
 20
3.8921223222
 30
0.0
 10
5.6941153051
 20
3.9038470394
 30
0.0
 10
5.6796893607
 20
3.9162938551
 30
0.0
 10
5.6658907912
 20
3.9294325496
 30
0.0
 10
5.6527537204
 20
3.9432327897
 30
0.0
 10
5.6403120108
 20
3.9576633599
 30
0.0
 10
5.6285927113
 20
3.9726868292
 30
0.0
 10
5.6176232661
 20
3.9882664256
 30
0.0
 10
5.6074308218
 20
4.0043651527
 30
0.0
 10
5.5980435003
 20
4.0209462736
 30
0.0
 10
5.5894814376
 20
4.0379681665
 30
0.0
 10
5.5817633797
 20
4.0553888995
 30
0.0
 10
5.5749080996
 20
4.0731666439
 30
0.0
 10
5.5689355829
 20
4.0912598467
 30
0.0
 10
5.5638594283
 20
4.1096244749
 30
0.0
 10
5.5596888005
 20
4.1282155287
 30
0.0
 10
5.5564336081
 20
4.1469883998
 30
0.0
 10
5.5541044992
 20
4.1658984617
 30
0.0
 10
5.5527081081
 20
4.1849002515
 30
0.0
 10
5.5522440424
 20
4.2039476824
 30
0.0
 10
5.5527131634
 20
4.2229956665
 30
0.0
 10
5.5545835619
 20
4.2483266286
 30
0.0
 10
5.5592555841
 20
4.2797728928
 30
0.0
 10
5.5669784523
 20
4.3106125806
 30
0.0
 10
5.5749488825
 20
4.3347312499
 30
0.0
 10
5.5818084261
 20
4.3525095205
 30
0.0
 10
5.5895296931
 20
4.3699303564
 30
0.0
 10
5.5980944079
 20
4.386952297
 30
0.0
 10
5.6074851014
 20
4.4035325585
 30
0.0
 10
5.6176789732
 20
4.4196311275
 30
0.0
 10
5.6286483574
 20
4.4352112397
 30
0.0
 10
5.6403666518
 20
4.4502357067
 30
0.0
 10
5.652807423
 20
4.4646671391
 30
0.0
 10
5.6659425002
 20
4.4784692793
 30
0.0
 10
5.6797376194
 20
4.4916117387
 30
0.0
 10
5.6941595599
 20
4.5040636335
 30
0.0
 10
5.70917486
 20
4.5157942518
 30
0.0
 10
5.7247496863
 20
4.5267723434
 30
0.0
 10
5.7408439377
 20
4.5369745694
 30
0.0
 10
5.7574176042
 20
4.5463776724
 30
0.0
 10
5.7744305604
 20
4.5549586129
 30
0.0
 10
5.7918435261
 20
4.5626933496
 30
0.0
 10
5.8096148687
 20
4.5695642284
 30
0.0
 10
5.8277025305
 20
4.575557459
 30
0.0
 10
5.8460650858
 20
4.5806588174
 30
0.0
 10
5.8646601318
 20
4.584853119
 30
0.0
 10
5.8834408452
 20
4.5881283305
 30
0.0
 10
5.9023557374
 20
4.590481562
 30
0.0
 10
5.9213510429
 20
4.5919078316
 30
0.0
 10
5.9340424179
 20
4.5922378307
 30
0.0
 10
5.9403839261
 20
4.5922464352
 30
0.0
 11
5.9403893934
 21
3.8159299933
 31
0.0
 11
5.9023777334
 21
3.8177840743
 31
0.0
 11
5.8834651678
 21
3.8201081923
 31
0.0
 11
5.8646870398
 21
3.8233573374
 31
0.0
 11
5.846096478
 21
3.8275259608
 31
0.0
 11
5.8277386485
 21
3.8326026947
 31
0.0
 11
5.8096551205
 21
3.8385735423
 31
0.0
 11
5.7918874458
 21
3.8454244939
 31
0.0
 11
5.7744771483
 21
3.8531412495
 31
0.0
 11
5.7574653041
 21
3.8617048187
 31
0.0
 11
5.7408926272
 21
3.871092416
 31
0.0
 11
5.724799821
 21
3.8812811467
 31
0.0
 11
5.7092275508
 21
3.8922480725
 31
0.0
 11
5.694214078
 21
3.9039674713
 31
0.0
 11
5.6797938636
 21
3.9164092219
 31
0.0
 11
5.6660010329
 21
3.9295428144
 31
0.0
 11
5.6528697102
 21
3.9433377375
 31
0.0
 11
5.6404325316
 21
3.9577620316
 31
0.0
 11
5.6287177346
 21
3.972779454
 31
0.0
 11
5.6177527482
 21
3.9883529749
 31
0.0
 11
5.6075650009
 21
4.0044455644
 31
0.0
 11
5.5981810663
 21
4.0210196928
 31
0.0
 11
5.5896220955
 21
4.0380346615
 31
0.0
 11
5.5819071215
 21
4.0554485342
 31
0.0
 11
5.5750551724
 21
4.0732193715
 31
0.0
 11
5.5690849609
 21
4.0913051345
 31
0.0
 11
5.5640103412
 21
4.1096622458
 31
0.0
 11
5.5598413554
 21
4.1282459216
 31
0.0
 11
5.556587943
 21
4.1470113453
 31
0.0
 11
5.5542599573
 21
4.165913691
 31
0.0
 11
5.552863502
 21
4.1849077266
 31
0.0
 11
5.5523995736
 21
4.2039476657
 31
0.0
 11
5.5528688019
 21
4.2229876826
 31
0.0
 11
5.5542718102
 21
4.2419819519
 31
0.0
 11
5.5598656175
 21
4.2796510755
 31
0.0
 11
5.5691194758
 21
4.3165931165
 31
0.0
 11
5.5750956471
 21
4.3346788979
 31
0.0
 11
5.5819520425
 21
4.3524499359
 31
0.0
 11
5.5896703264
 21
4.3698639965
 31
0.0
 11
5.5982321583
 21
4.3868788475
 31
0.0
 11
5.6076190159
 21
4.4034523629
 31
0.0
 11
5.6178082839
 21
4.4195448051
 31
0.0
 11
5.6287733001
 21
4.4351187989
 31
0.0
 11
5.6404872299
 21
4.4501370695
 31
0.0
 11
5.6529232268
 21
4.4645623536
 31
0.0
 11
5.6660524677
 21
4.4783592941
 31
0.0
 11
5.6798419743
 21
4.4914965407
 31
0.0
 11
5.6942582432
 21
4.5039432494
 31
0.0
 11
5.7092677711
 21
4.5156685762
 31
0.0
 11
5.7248359968
 21
4.5266428566
 31
0.0
 11
5.7409238896
 21
4.5368414092
 31
0.0
 11
5.757491239
 21
4.5462408679
 31
0.0
 11
5.7744978343
 21
4.5548178669
 31
0.0
 11
5.7919034051
 21
4.5625494397
 31
0.0
 11
5.8096669169
 21
4.569417718
 31
0.0
 11
5.8277468082
 21
4.5754083508
 31
0.0
 11
5.846101507
 21
4.5805070572
 31
0.0
 11
5.864689398
 21
4.5846995904
 31
0.0
 11
5.8834648238
 21
4.587974887
 31
0.0
 11
5.9023748505
 21
4.5903276149
 31
0.0
 11
5.921365783
 21
4.5917530418
 31
0.0
 11
5.9403839261
 21
4.5922464352
 31
0.0
  0
LINE
  5
2B9
100
AcDbEntity
  8
0
100
AcDbLine
 62
6
  6
CONTINUOUS
 10
5.9403839261
 20
4.5922464352
 11
5.9405562721
 21
4.5922466306
  0
ENDSEC
  0
SECTION
  2
OBJECTS
  0
DICTIONARY
  5
C
100
AcDbDictionary
280
0
281
1
  3
ACAD_GROUP
350
D
  3
ACAD_MLINESTYLE
350
17
  3
ACAD_LAYOUT
350
1A
  3
ACAD_PLOTSETTINGS
350
19
  3
ACAD_PLOTSTYLENAME
350
E
  0
DICTIONARY
  5
D
102
{ACAD_REACTORS
330
C
102
}
100
AcDbDictionary
280
0
281
1
  0
ACDBDICTIONARYWDFLT
  5
E
102
{ACAD_REACTORS
330
C
102
}
100
AcDbDictionary
281
1
  3
Normal
350
F
100
AcDbDictionaryWithDefault
340
F
  0
DICTIONARY
  5
17
102
{ACAD_REACTORS
330
C
102
}
100
AcDbDictionary
280
0
281
1
  3
Standard
350
18
  0
DICTIONARY
  5
19
102
{ACAD_REACTORS
330
C
102
}
100
AcDbDictionary
281
1
  0
DICTIONARY
  5
1A
102
{ACAD_REACTORS
330
C
102
}
100
AcDbDictionary
281
1
  3
Model
350
2BA
  3
Layout1
350
2BB
  0
ACDBPLACEHOLDER
  5
F
102
{ACAD_REACTORS
330
E
102
}
  0
MLINESTYLE
  5
18
102
{ACAD_REACTORS
330
17
102
}
100
AcDbMlineStyle
  2
STANDARD
 70
0
  3

 62
256
 51
90.0
 52
90.0
 71
2
 49
0.5
 62
256
  6
BYLAYER
 49
-0.5
 62
256
  6
BYLAYER
  0
LAYOUT
  5
2BA
102
{ACAD_REACTORS
330
1A
102
}
100
AcDbPlotSettings
  1

  2
none_device
  4
ISO_A4_(297.00_x_210.00_MM)
  6

 40
0.0
 41
0.0
 42
0.0
 43
0.0
 44
297.0
 45
210.0
 46
0.0
 47
0.0
 48
0.0
 49
0.0
140
0.0
141
0.0
142
1.0
143
1.0
 70
1024
 72
0
 73
0
 74
0
  7

 75
0
147
1.0
148
0.0
149
0.0
100
AcDbLayout
  1
Model
 70
0
 71
0
 10
0.0
 20
0.0
 11
11.6929133858
 21
8.2677165354
 12
0.0
 22
0.0
 32
0.0
 14
0.0
 24
0.0
 34
0.0
 15
0.0
 25
0.0
 35
0.0
146
0.0
 13
0.0
 23
0.0
 33
0.0
 16
1.0
 26
0.0
 36
0.0
 17
0.0
 27
1.0
 37
0.0
 76
0
330
203
345
0
346
0
  0
LAYOUT
  5
2BB
102
{ACAD_REACTORS
330
1A
102
}
100
AcDbPlotSettings
  1

  2
none_device
  4
ISO_A4_(297.00_x_210.00_MM)
  6

 40
0.0
 41
0.0
 42
0.0
 43
0.0
 44
297.0
 45
210.0
 46
0.0
 47
0.0
 48
0.0
 49
0.0
140
0.0
141
0.0
142
1.0
143
1.0
 70
0
 72
0
 73
0
 74
0
  7

 75
0
147
1.0
148
0.0
149
0.0
100
AcDbLayout
  1
Layout1
 70
0
 71
1
 10
0.0
 20
0.0
 11
11.6929133858
 21
8.2677165354
 12
0.0
 22
0.0
 32
0.0
 14
0.0
 24
0.0
 34
0.0
 15
0.0
 25
0.0
 35
0.0
146
0.0
 13
0.0
 23
0.0
 33
0.0
 16
1.0
 26
0.0
 36
0.0
 17
0.0
 27
1.0
 37
0.0
 76
0
330
204
345
0
346
0
  0
ENDSEC
  0
EOF
