  0
SECTION
  2
HEADER
  9
$ACADVER
  1
AC1015
  9
$DWGCODEPAGE
  3
ANSI_1252
  9
$EXTMAX
 10
11.6929133858
 20
8.2677165354
 30
0.0
  9
$EXTMIN
 10
0.0
 20
0.0
 30
0.0
  9
$LIMMIN
 10
0.0
 20
0.0
  9
$LIMMAX
 10
11.6929133858
 20
8.2677165354
  9
$VIEWCTR
 10
5.8464566929
 20
4.1338582677
  9
$VIEWSIZE
 40
8.2677165354
  9
$CLAYER
  8
0
  9
$LTSCALE
 40
0.6431102362
  9
$CELTYPE
  6
BYLAYER
  9
$DIMSCALE
 40
1.0
  9
$DIMASZ
 40
0.1875
  9
$DIMEXO
 40
0.0730807087
  9
$DIMDLI
 40
0.4443307087
  9
$DIMEXE
 40
0.2104724409
  9
$DIMCEN
 40
0.1052362205
  9
$DIMLFAC
 40
1.0
  9
$DIMBLK
  1
_CLOSED
  9
$DIMTXT
 40
0.15625
  9
$DIMTOL
 70
0
  9
$DIMLIM
 70
0
  9
$DIMTFAC
 40
1.0
  9
$PDMODE
 70
3
  9
$PDSIZE
 40
0.3125
  9
$HANDSEED
  5
26C
  9
$TILEMODE
 70
1
  9
$MEASUREMENT
 70
0
  9
$INSUNITS
 70
1
  0
ENDSEC
  0
SECTION
  2
CLASSES
  0
CLASS
  1
ACDBDICTIONARYWDFLT
  2
AcDbDictionaryWithDefault
  3
AutoCAD 2000
 90
0
280
0
281
0
  0
CLASS
  1
ACDBPLACEHOLDER
  2
AcDbPlaceHolder
  3
AutoCAD 2000
 90
0
280
0
281
0
  0
CLASS
  1
LAYOUT
  2
AcDbLayout
  3
AutoCAD 2000
 90
0
280
0
281
0
  0
ENDSEC
  0
SECTION
  2
TABLES
  0
TABLE
  2
VPORT
  5
8
100
AcDbSymbolTable
 70
2
  0
VPORT
  5
1F4
100
AcDbSymbolTableRecord
100
AcDbViewportTableRecord
  2
*ACTIVE
 70
0
 10
0.0
 20
0.0
 11
1.0
 21
1.0
 12
5.8464566929
 22
4.1338582677
 13
0.0
 23
0.0
 14
1.0
 24
1.0
 15
0.0
 25
0.0
 16
0.0
 26
0.0
 36
1.0
 17
0.0
 27
0.0
 37
0.0
 40
8.2677165354
 41
1.4142857143
 42
50.0
 43
0.0
 44
0.0
 50
0.0
 51
0.0
 71
0
 72
100
 73
1
 74
1
 75
0
 76
0
 77
0
 78
0
  0
ENDTAB
  0
TABLE
  2
LTYPE
  5
5
100
AcDbSymbolTable
 70
6
  0
LTYPE
  5
14
100
AcDbSymbolTableRecord
100
AcDbLinetypeTableRecord
  2
BYBLOCK
 70
0
  3

 72
65
 73
0
 40
0.0
  0
LTYPE
  5
15
100
AcDbSymbolTableRecord
100
AcDbLinetypeTableRecord
  2
BYLAYER
 70
0
  3

 72
65
 73
0
 40
0.0
  0
LTYPE
  5
16
100
AcDbSymbolTableRecord
100
AcDbLinetypeTableRecord
  2
CONTINUOUS
 70
64
  3
Solid line
 72
65
 73
0
 40
0.0
  0
LTYPE
  5
1F5
100
AcDbSymbolTableRecord
100
AcDbLinetypeTableRecord
  2
CENTER
 70
64
  3
____ _ ____ _ ____ _ ____ _ ____ _ ____ _ ____
 72
65
 73
4
 40
0.6
 49
0.375
 74
0
 49
-0.075
 74
0
 49
0.075
 74
0
 49
-0.075
 74
0
  0
LTYPE
  5
1F6
100
AcDbSymbolTableRecord
100
AcDbLinetypeTableRecord
  2
HIDDEN
 70
64
  3
- - - - - - - - - - - - - - - - - - - -
 72
65
 73
2
 40
0.2
 49
0.1
 74
0
 49
-0.1
 74
0
  0
LTYPE
  5
1F7
100
AcDbSymbolTableRecord
100
AcDbLinetypeTableRecord
  2
PHANTOM
 70
64
  3
_____ _ _ _____ _ _ _____ _ _ _____
 72
65
 73
6
 40
0.8
 49
0.45
 74
0
 49
-0.05
 74
0
 49
0.1
 74
0
 49
-0.05
 74
0
 49
0.1
 74
0
 49
-0.05
 74
0
  0
LTYPE
  5
1F8
100
AcDbSymbolTableRecord
100
AcDbLinetypeTableRecord
  2
DOT
 70
64
  3
. . . . . . . . . . . . . . . . . . . .
 72
65
 73
2
 40
0.2
 49
0.1
 74
0
 49
-0.1
 74
0
  0
LTYPE
  5
1F9
100
AcDbSymbolTableRecord
100
AcDbLinetypeTableRecord
  2
DASHED
 70
64
  3
- - - - - - - - - - - - - - - - - - - -
 72
65
 73
2
 40
0.2
 49
0.1
 74
0
 49
-0.1
 74
0
  0
ENDTAB
  0
TABLE
  2
LAYER
  5
2
100
AcDbSymbolTable
 70
36
  0
LAYER
  5
10
100
AcDbSymbolTableRecord
100
AcDbLayerTableRecord
  2
0
 70
0
 62
7
  6
CONTINUOUS
370
-3
390
F
  0
LAYER
  5
1FA
100
AcDbSymbolTableRecord
100
AcDbLayerTableRecord
  2
DEFAULT_1
 70
0
 62
7
  6
CENTER
370
-3
390
F
  0
LAYER
  5
1FB
100
AcDbSymbolTableRecord
100
AcDbLayerTableRecord
  2
DEFAULT_2
 70
0
 62
8
  6
HIDDEN
370
-3
390
F
  0
LAYER
  5
1FC
100
AcDbSymbolTableRecord
100
AcDbLayerTableRecord
  2
DEFAULT_3
 70
0
 62
7
  6
PHANTOM
370
-3
390
F
  0
LAYER
  5
1FD
100
AcDbSymbolTableRecord
100
AcDbLayerTableRecord
  2
3_ALL_SYMBOLS
 70
0
 62
7
  6
CONTINUOUS
370
-3
390
F
  0
LAYER
  5
1FE
100
AcDbSymbolTableRecord
100
AcDbLayerTableRecord
  2
DEFAULT_COORDINATE_SYSTEM
 70
0
 62
7
  6
CONTINUOUS
370
-3
390
F
  0
LAYER
  5
1FF
100
AcDbSymbolTableRecord
100
AcDbLayerTableRecord
  2
DEFAULT_DATUM_AXES
 70
0
 62
7
  6
CONTINUOUS
370
-3
390
F
  0
LAYER
  5
200
100
AcDbSymbolTableRecord
100
AcDbLayerTableRecord
  2
DEFAULT_DATUM_CURVES
 70
0
 62
7
  6
CONTINUOUS
370
-3
390
F
  0
LAYER
  5
201
100
AcDbSymbolTableRecord
100
AcDbLayerTableRecord
  2
DEFAULT_DATUM_PLANES
 70
0
 62
7
  6
CONTINUOUS
370
-3
390
F
  0
ENDTAB
  0
TABLE
  2
STYLE
  5
3
100
AcDbSymbolTable
 70
1
  0
STYLE
  5
11
100
AcDbSymbolTableRecord
100
AcDbTextStyleTableRecord
  2
STANDARD
 70
0
 40
0.0
 41
0.8
 50
0.0
 71
0
 42
0.2
  3
txt
  4

  0
STYLE
  5
202
100
AcDbSymbolTableRecord
100
AcDbTextStyleTableRecord
  2
TEXTSTYLE_1
 70
0
 40
0.0
 41
0.8
 50
0.0
 71
0
 42
0.2
  3
gdt
  4

  0
ENDTAB
  0
TABLE
  2
VIEW
  5
6
100
AcDbSymbolTable
 70
0
  0
ENDTAB
  0
TABLE
  2
UCS
  5
7
100
AcDbSymbolTable
 70
0
  0
ENDTAB
  0
TABLE
  2
APPID
  5
9
100
AcDbSymbolTable
 70
1
  0
APPID
  5
203
100
AcDbSymbolTableRecord
100
AcDbRegAppTableRecord
  2
ACAD
 70
0
  0
ENDTAB
  0
TABLE
  2
BLOCK_RECORD
  5
1
100
AcDbSymbolTable
 70
0
  0
BLOCK_RECORD
  5
204
100
AcDbSymbolTableRecord
100
AcDbBlockTableRecord
  2
*Model_Space
  0
BLOCK_RECORD
  5
205
100
AcDbSymbolTableRecord
100
AcDbBlockTableRecord
  2
*Paper_Space
  0
ENDTAB
  0
TABLE
  2
DIMSTYLE
  5
A
100
AcDbSymbolTable
 70
1
100
AcDbDimStyleTable
 71
0
  0
DIMSTYLE
105
206
100
AcDbSymbolTableRecord
100
AcDbDimStyleTableRecord
  2
STANDARD
 70
0
  3

  4

 40
1.0
 41
0.1875
 42
0.0625
 43
0.38
 44
0.18
 45
0.0
 46
0.0
 47
0.01
 48
0.01
140
0.15625
141
0.09
142
0.0
143
25.4
144
1.0
145
0.0
146
1.0
147
0.09
 71
0.0
 72
0.0
 73
1
 74
1
 75
0
 76
0
 77
0
 78
4
170
0
171
2
172
0
173
0
174
0
175
0
176
0
177
0
178
0
270
2
271
2
272
2
273
2
274
2
275
0
280
0
281
0
282
0
283
1
284
4
285
0
286
0
287
3
288
0
340
11
  0
ENDTAB
  0
ENDSEC
  0
SECTION
  2
BLOCKS
  0
BLOCK
  5
20
100
AcDbEntity
  8
0
100
AcDbBlockBegin
  2
*Model_Space
 70
0
 10
0.0
 20
0.0
 30
0.0
  3
*Model_Space
  1

  0
ENDBLK
  5
21
100
AcDbEntity
  8
0
100
AcDbBlockEnd
  0
BLOCK
  5
1C
100
AcDbEntity
  8
0
100
AcDbBlockBegin
  2
*Paper_Space
 70
0
 10
0.0
 20
0.0
 30
0.0
  3
*Paper_Space
  1

  0
ENDBLK
  5
1D
100
AcDbEntity
  8
0
100
AcDbBlockEnd
  0
ENDSEC
  0
SECTION
  2
ENTITIES
  0
LINE
  5
207
100
AcDbEntity
  8
0
100
AcDbLine
 62
6
  6
CONTINUOUS
 10
5.4467660691
 20
6.2700172388
 11
5.4265240051
 21
6.2582870771
  0
LINE
  5
208
100
AcDbEntity
  8
0
100
AcDbLine
 62
6
  6
CONTINUOUS
 10
5.4521215807
 20
6.2374090351
 11
5.4265240051
 21
6.2225727914
  0
LINE
  5
209
100
AcDbEntity
  8
0
100
AcDbLine
 62
6
  6
CONTINUOUS
 10
5.4521215807
 20
6.2016947493
 11
5.4265240051
 21
6.1868585056
  0
LINE
  5
20A
100
AcDbEntity
  8
0
100
AcDbLine
 62
6
  6
CONTINUOUS
 10
5.6501545916
 20
6.2541450185
 11
5.6757521659
 21
6.2689812614
  0
LINE
  5
20B
100
AcDbEntity
  8
0
100
AcDbLine
 62
6
  6
CONTINUOUS
 10
5.6501545916
 20
6.2184307328
 11
5.6757521659
 21
6.2332669757
  0
LINE
  5
20C
100
AcDbEntity
  8
0
100
AcDbLine
 62
6
  6
CONTINUOUS
 10
5.4265240051
 20
6.2582870771
 11
5.4261380853
 21
6.2578403087
  0
LINE
  5
20D
100
AcDbEntity
  8
0
100
AcDbLine
 62
6
  6
CONTINUOUS
 10
5.4265240051
 20
6.2225727914
 11
5.4261380853
 21
6.2221260231
  0
LINE
  5
20E
100
AcDbEntity
  8
0
100
AcDbLine
 62
6
  6
CONTINUOUS
 10
5.4265240051
 20
6.1868585056
 11
5.4261380853
 21
6.1864117374
  0
LINE
  5
20F
100
AcDbEntity
  8
0
100
AcDbLine
 62
6
  6
CONTINUOUS
 10
5.6428778252
 20
6.1810172388
 11
5.6663890149
 21
6.1957396707
  0
LINE
  5
210
100
AcDbEntity
  8
0
100
AcDbLine
 62
6
  6
CONTINUOUS
 10
5.6501545916
 20
6.182716447
 11
5.6736380853
 21
6.1963280518
  0
LINE
  5
211
100
AcDbEntity
  8
0
100
AcDbLine
 62
6
  6
CONTINUOUS
 10
5.6757521659
 20
6.2689812614
 11
5.6761380853
 21
6.2694280297
  0
LINE
  5
212
100
AcDbEntity
  8
0
100
AcDbLine
 62
6
  6
CONTINUOUS
 10
5.6757521659
 20
6.2332669757
 11
5.6761380853
 21
6.2337137438
  0
LINE
  5
213
100
AcDbEntity
  8
0
100
AcDbLine
 62
6
  6
CONTINUOUS
 10
4.6736380853
 20
6.7150172388
 11
4.6736380853
 21
6.2700172388
  0
LINE
  5
214
100
AcDbEntity
  8
0
100
AcDbLine
 62
9
  6
CONTINUOUS
 10
5.4256380853
 20
2.9034034689
 11
5.6736380853
 21
2.9034034689
  0
LINE
  5
215
100
AcDbEntity
  8
0
100
AcDbLine
 62
9
  6
CONTINUOUS
 10
5.6736380853
 20
3.0310172388
 11
6.0486380853
 21
3.0310172388
  0
LINE
  5
216
100
AcDbEntity
  8
0
100
AcDbLine
 62
6
  6
CONTINUOUS
 10
5.4256380853
 20
1.5824034689
 11
5.4256380853
 21
6.0824034689
  0
LINE
  5
217
100
AcDbEntity
  8
0
100
AcDbLine
 62
6
  6
CONTINUOUS
 10
5.4261380853
 20
6.1324034689
 11
5.4261380853
 21
6.1864117373
  0
LINE
  5
218
100
AcDbEntity
  8
0
100
AcDbLine
 62
6
  6
CONTINUOUS
 10
5.4261380853
 20
6.215856601
 11
5.4261380853
 21
6.222126023
  0
LINE
  5
219
100
AcDbEntity
  8
0
100
AcDbLine
 62
6
  6
CONTINUOUS
 10
5.4261380853
 20
6.2515708867
 11
5.4261380853
 21
6.2578403087
  0
LINE
  5
21A
100
AcDbEntity
  8
0
100
AcDbLine
 62
6
  6
CONTINUOUS
 10
5.4613880853
 20
6.0824034689
 11
5.4588979831
 21
6.1276780539
  0
LINE
  5
21B
100
AcDbEntity
  8
0
100
AcDbLine
 62
6
  6
CONTINUOUS
 10
5.4886380853
 20
6.7150172388
 11
5.4886380853
 21
6.7300172388
  0
LINE
  5
21C
100
AcDbEntity
  8
0
100
AcDbLine
 62
6
  6
CONTINUOUS
 10
5.6136380853
 20
6.7150172388
 11
5.6136380853
 21
6.7300172388
  0
LINE
  5
21D
100
AcDbEntity
  8
0
100
AcDbLine
 62
6
  6
CONTINUOUS
 10
5.6736380853
 20
1.7100172388
 11
5.6736380853
 21
6.2100172388
  0
LINE
  5
21E
100
AcDbEntity
  8
0
100
AcDbLine
 62
6
  6
CONTINUOUS
 10
5.6761380853
 20
6.2337137438
 11
5.6761380853
 21
6.2399831658
  0
LINE
  5
21F
100
AcDbEntity
  8
0
100
AcDbLine
 62
6
  6
CONTINUOUS
 10
5.6761380853
 20
6.2694280296
 11
5.6761380853
 21
6.2700172388
  0
LINE
  5
220
100
AcDbEntity
  8
0
100
AcDbLine
 62
6
  6
CONTINUOUS
 10
5.6766380853
 20
1.5824034689
 11
5.6766380853
 21
1.6809675447
  0
LINE
  5
221
100
AcDbEntity
  8
0
100
AcDbLine
 62
6
  6
CONTINUOUS
 10
5.6408880853
 20
6.0824034689
 11
5.6433781875
 21
6.1276780539
  0
LINE
  5
222
100
AcDbEntity
  8
0
100
AcDbLine
 62
6
  6
CONTINUOUS
 10
5.7983801817
 20
6.7300172388
 11
5.7983801817
 21
6.7150172388
  0
LINE
  5
223
100
AcDbEntity
  8
0
100
AcDbLine
 62
6
  6
CONTINUOUS
 10
5.7983801817
 20
6.6431929784
 11
5.7983801817
 21
6.6300172388
  0
LINE
  5
224
100
AcDbEntity
  8
0
100
AcDbLine
 62
6
  6
CONTINUOUS
 10
5.9923880853
 20
6.2100172388
 11
5.9998880853
 21
6.2700172388
  0
LINE
  5
225
100
AcDbEntity
  8
0
100
AcDbLine
 62
6
  6
CONTINUOUS
 10
5.9233801817
 20
6.7300172388
 11
5.9233801817
 21
6.7150172388
  0
LINE
  5
226
100
AcDbEntity
  8
0
100
AcDbLine
 62
6
  6
CONTINUOUS
 10
5.9233801817
 20
6.6436098161
 11
5.9233801817
 21
6.6300172388
  0
LINE
  5
227
100
AcDbEntity
  8
0
100
AcDbLine
 62
6
  6
CONTINUOUS
 10
5.9306242118
 20
6.5800172388
 11
5.9306242118
 21
6.6376705245
  0
LINE
  5
228
100
AcDbEntity
  8
0
100
AcDbLine
 62
6
  6
CONTINUOUS
 10
6.0486380853
 20
1.7100172388
 11
6.0486380853
 21
6.2100172388
  0
LINE
  5
229
100
AcDbEntity
  8
0
100
AcDbLine
 62
6
  6
CONTINUOUS
 10
5.7298880853
 20
6.2100172388
 11
5.7223880853
 21
6.2700172388
  0
LINE
  5
22A
100
AcDbEntity
  8
0
100
AcDbLine
 62
6
  6
CONTINUOUS
 10
5.4265240046
 20
6.2154098329
 11
5.4261380853
 21
6.2158566011
  0
LINE
  5
22B
100
AcDbEntity
  8
0
100
AcDbLine
 62
6
  6
CONTINUOUS
 10
5.4265240046
 20
6.2511241186
 11
5.4261380853
 21
6.2515708868
  0
LINE
  5
22C
100
AcDbEntity
  8
0
100
AcDbLine
 62
6
  6
CONTINUOUS
 10
7.0486380853
 20
6.7150172388
 11
7.0486380853
 21
6.2700172388
  0
LINE
  5
22D
100
AcDbEntity
  8
0
100
AcDbLine
 62
6
  6
CONTINUOUS
 10
5.6757521654
 20
6.2404299342
 11
5.6761380853
 21
6.2399831659
  0
LINE
  5
22E
100
AcDbEntity
  8
0
100
AcDbLine
 62
6
  6
CONTINUOUS
 10
5.4265240046
 20
6.2154098329
 11
5.4511550296
 21
6.2011341704
  0
LINE
  5
22F
100
AcDbEntity
  8
0
100
AcDbLine
 62
6
  6
CONTINUOUS
 10
5.4265240046
 20
6.2511241186
 11
5.4511550296
 21
6.2368484561
  0
LINE
  5
230
100
AcDbEntity
  8
0
100
AcDbLine
 62
6
  6
CONTINUOUS
 10
5.6736380853
 20
6.1702259969
 11
5.6511211409
 21
6.1832770276
  0
LINE
  5
231
100
AcDbEntity
  8
0
100
AcDbLine
 62
6
  6
CONTINUOUS
 10
5.6736380853
 20
6.2059402826
 11
5.6511211409
 21
6.2189913133
  0
LINE
  5
232
100
AcDbEntity
  8
0
100
AcDbLine
 62
6
  6
CONTINUOUS
 10
5.6757521654
 20
6.2404299342
 11
5.6511211409
 21
6.254705599
  0
LINE
  5
233
100
AcDbEntity
  8
0
100
AcDbLine
 62
6
  6
CONTINUOUS
 10
5.6663890149
 20
6.166294807
 11
5.6428778252
 21
6.1810172388
  0
LINE
  5
234
100
AcDbEntity
  8
0
100
AcDbLine
 62
6
  6
CONTINUOUS
 10
5.4256575224
 20
6.0824034689
 11
5.6736380853
 21
6.0824034689
  0
LINE
  5
235
100
AcDbEntity
  8
0
100
AcDbLine
 62
9
  6
CONTINUOUS
 10
5.4588979831
 20
6.1276780539
 11
5.6433781875
 21
6.1276780539
  0
LINE
  5
236
100
AcDbEntity
  8
0
100
AcDbLine
 62
6
  6
CONTINUOUS
 10
5.4261414924
 20
6.1324034689
 11
5.6736380853
 21
6.1324034689
  0
LINE
  5
237
100
AcDbEntity
  8
0
100
AcDbLine
 62
6
  6
CONTINUOUS
 10
5.6736530003
 20
6.2100172388
 11
6.0486231702
 21
6.2100172388
  0
LINE
  5
238
100
AcDbEntity
  8
0
100
AcDbLine
 62
6
  6
CONTINUOUS
 10
4.6736380853
 20
6.2700172388
 11
7.0486380853
 21
6.2700172388
  0
LINE
  5
239
100
AcDbEntity
  8
0
100
AcDbLine
 62
6
  6
CONTINUOUS
 10
5.8229660506
 20
6.4700172388
 11
5.8992503895
 21
6.4700172388
  0
LINE
  5
23A
100
AcDbEntity
  8
0
100
AcDbLine
 62
6
  6
CONTINUOUS
 10
5.7612087932
 20
6.5800172388
 11
5.9306242118
 21
6.5800172388
  0
LINE
  5
23B
100
AcDbEntity
  8
0
100
AcDbLine
 62
6
  6
CONTINUOUS
 10
5.9233787498
 20
6.6300172388
 11
5.7983816136
 21
6.6300172388
  0
LINE
  5
23C
100
AcDbEntity
  8
0
100
AcDbLine
 62
6
  6
CONTINUOUS
 10
4.6736380853
 20
6.7150172388
 11
7.0486380853
 21
6.7150172388
  0
LINE
  5
23D
100
AcDbEntity
  8
0
100
AcDbLine
 62
9
  6
CONTINUOUS
 10
5.9233801817
 20
6.7300172388
 11
5.7983801817
 21
6.7300172388
  0
LINE
  5
23E
100
AcDbEntity
  8
0
100
AcDbLine
 62
9
  6
CONTINUOUS
 10
5.4886380853
 20
6.7300172388
 11
5.6136380853
 21
6.7300172388
  0
ARC
  5
23F
100
AcDbEntity
  8
0
100
AcDbCircle
 62
6
  6
CONTINUOUS
 10
4.9842592638
 20
18.9231336607
 40
12.6690536765
100
AcDbArc
 50
272.5645650171
 51
272.7874748245
  0
ARC
  5
240
100
AcDbEntity
  8
0
100
AcDbCircle
 62
6
  6
CONTINUOUS
 10
5.4115232298
 20
10.1114726384
 40
3.8470406291
100
AcDbArc
 50
272.8137647739
 51
273.0877172802
  0
CIRCLE
  5
241
100
AcDbEntity
  8
0
100
AcDbCircle
 62
6
  6
CONTINUOUS
 10
5.8611380853
 20
6.5640172388
 40
0.1015
  0
ARC
  5
242
100
AcDbEntity
  8
0
100
AcDbCircle
 62
6
  6
CONTINUOUS
 10
5.6483706421
 20
6.1274034689
 40
0.005
100
AcDbArc
 50
102.4069068442
 51
176.8519039382
  0
ARC
  5
243
100
AcDbEntity
  8
0
100
AcDbCircle
 62
6
  6
CONTINUOUS
 10
5.4539055285
 20
6.1274034689
 40
0.005
100
AcDbArc
 50
3.1480960618
 51
77.5930931558
  0
SPLINE
  5
244
100
AcDbEntity
  8
0
100
AcDbSpline
 62
6
  6
CONTINUOUS
 70
0
 71
3
 72
35
 73
31
 74
29
 42
0.0000001
 43
0.0000001
 44
0.0000000001
 12
0.0
 22
-0.2935854439
 32
0.0
 13
-0.2935854439
 23
0.0
 33
0.0
 40
0.0
 40
0.0
 40
0.0
 40
0.0
 40
0.0622982669
 40
0.093458614
 40
0.1246220145
 40
0.155789375
 40
0.1869610686
 40
0.2181374812
 40
0.2493195493
 40
0.2805085956
 40
0.311705177
 40
0.3741021996
 40
0.405322176
 40
0.436551379
 40
0.4677901076
 40
0.4990382023
 40
0.5302955903
 40
0.5615627305
 40
0.5928396583
 40
0.6241252229
 40
0.6866968894
 40
0.7179993946
 40
0.7493087254
 40
0.7806275089
 40
0.8119581779
 40
0.8433034682
 40
0.8746646363
 40
0.9060316259
 40
0.9373897336
 40
1.0
 40
1.0
 40
1.0
 40
1.0
 10
6.0486363827
 20
1.7100172388
 30
0.0
 10
6.0486363827
 20
1.7039206174
 30
0.0
 10
6.0481855583
 20
1.6947660299
 30
0.0
 10
6.0466830978
 20
1.6826598148
 30
0.0
 10
6.0451077567
 20
1.6736431405
 30
0.0
 10
6.0430900528
 20
1.6647143501
 30
0.0
 10
6.0406350924
 20
1.6558943271
 30
0.0
 10
6.0377483355
 20
1.6472045058
 30
0.0
 10
6.0344345899
 20
1.6386666196
 30
0.0
 10
6.0307022439
 20
1.6303007754
 30
0.0
 10
6.0251832086
 20
1.6194035712
 30
0.0
 10
6.0188653335
 20
1.6089222935
 30
0.0
 10
6.0117992292
 20
1.5989506954
 30
0.0
 10
6.0061339847
 20
1.5917369553
 30
0.0
 10
6.00012028
 20
1.5848078279
 30
0.0
 10
5.9937724277
 20
1.5781795363
 30
0.0
 10
5.987105175
 20
1.5718685264
 30
0.0
 10
5.9801330075
 20
1.5658918603
 30
0.0
 10
5.9728735107
 20
1.560262737
 30
0.0
 10
5.9628382063
 20
1.5532383375
 30
0.0
 10
5.9522968393
 20
1.5469552442
 30
0.0
 10
5.9413376402
 20
1.541472038
 30
0.0
 10
5.9329220467
 20
1.5377644153
 30
0.0
 10
5.9243332731
 20
1.5344710061
 30
0.0
 10
5.915590614
 20
1.5315994729
 30
0.0
 10
5.9067139789
 20
1.5291576805
 30
0.0
 10
5.8977247764
 20
1.5271540258
 30
0.0
 10
5.8886469511
 20
1.5255909356
 30
0.0
 10
5.8764693377
 20
1.5240985794
 30
0.0
 10
5.8672652396
 20
1.523645907
 30
0.0
 10
5.8611380853
 20
1.523645907
 30
0.0
 11
6.0486363827
 21
1.7100172388
 31
0.0
 11
6.0477350162
 21
1.6917495987
 31
0.0
 11
6.0466084464
 21
1.6826710058
 31
0.0
 11
6.0450341425
 21
1.6736583492
 31
0.0
 11
6.0430173325
 21
1.664733095
 31
0.0
 11
6.0405633316
 21
1.6559166985
 31
0.0
 11
6.0376774549
 21
1.6472306152
 31
0.0
 11
6.0343652132
 21
1.6386962271
 31
0.0
 11
6.0306348735
 21
1.6303338826
 31
0.0
 11
6.0264967401
 21
1.6221631661
 31
0.0
 11
6.0170385002
 21
1.6064748826
 31
0.0
 11
6.0117393364
 21
1.598996281
 31
0.0
 11
6.0060767937
 21
1.5917854633
 31
0.0
 11
6.0000655161
 21
1.5848589843
 31
0.0
 11
5.9937201681
 21
1.5782333845
 31
0.0
 11
5.9870554145
 21
1.5719252039
 31
0.0
 11
5.9800862176
 21
1.5659506803
 31
0.0
 11
5.9728299681
 21
1.5603235812
 31
0.0
 11
5.965305243
 21
1.5550564674
 31
0.0
 11
5.949524706
 21
1.5456524073
 31
0.0
 11
5.9413061774
 21
1.5415400904
 31
0.0
 11
5.9328944645
 21
1.5378339762
 31
0.0
 11
5.9243092749
 21
1.5345419032
 31
0.0
 11
5.9155703171
 21
1.5316717076
 31
0.0
 11
5.9066972997
 21
1.5292312251
 31
0.0
 11
5.8977107681
 21
1.5272276137
 31
0.0
 11
5.888635488
 21
1.5256646124
 31
0.0
 11
5.8794975519
 21
1.5245448851
 31
0.0
 11
5.8611380853
 21
1.523645907
 31
0.0
  0
SPLINE
  5
245
100
AcDbEntity
  8
0
100
AcDbSpline
 62
6
  6
CONTINUOUS
 70
0
 71
3
 72
27
 73
23
 74
21
 42
0.0000001
 43
0.0000001
 44
0.0000000001
 12
0.0
 22
0.1956932769
 32
0.0
 13
-0.1956932769
 23
0.0
 33
0.0
 40
0.0
 40
0.0
 40
0.0
 40
0.0
 40
0.0623081471
 40
0.0934728864
 40
0.1246404529
 40
0.1869703478
 40
0.2493201601
 40
0.2805128419
 40
0.3117129029
 40
0.3741199496
 40
0.436561389
 40
0.4678051134
 40
0.4990591368
 40
0.5615771583
 40
0.624123192
 40
0.6554130217
 40
0.6867095838
 40
0.7493149705
 40
0.8119773958
 40
0.8747062411
 40
0.9374210393
 40
1.0
 40
1.0
 40
1.0
 40
1.0
 10
5.9861359276
 20
1.7100172388
 30
0.0
 10
5.9861359276
 20
1.7140816673
 30
0.0
 10
5.9858355945
 20
1.7201846344
 30
0.0
 10
5.9848350787
 20
1.7282556751
 30
0.0
 10
5.9834346725
 20
1.7362691425
 30
0.0
 10
5.980944393
 20
1.7461434183
 30
0.0
 10
5.9774967625
 20
1.7557273768
 30
0.0
 10
5.9741820699
 20
1.7631619346
 30
0.0
 10
5.9705015311
 20
1.7704265146
 30
0.0
 10
5.9652350057
 20
1.7791577139
 30
0.0
 10
5.9591373202
 20
1.7873337786
 30
0.0
 10
5.9537934306
 20
1.7934910144
 30
0.0
 10
5.9481487908
 20
1.7993806549
 30
0.0
 10
5.9405589937
 20
1.8062159642
 30
0.0
 10
5.932337318
 20
1.8122805909
 30
0.0
 10
5.9254272187
 20
1.8166308479
 30
0.0
 10
5.9183087058
 20
1.8206386851
 30
0.0
 10
5.9090504121
 20
1.8249914596
 30
0.0
 10
5.8974787047
 20
1.8291089701
 30
0.0
 10
5.8855505262
 20
1.8320707403
 30
0.0
 10
5.8733986816
 20
1.8338613029
 30
0.0
 10
5.8652201792
 20
1.8342647934
 30
0.0
 10
5.8611380853
 20
1.8342647934
 30
0.0
 11
5.9861359276
 21
1.7100172388
 31
0.0
 11
5.9855355775
 21
1.7221957359
 31
0.0
 11
5.9847851405
 21
1.7282481198
 31
0.0
 11
5.9837354346
 21
1.7342563952
 31
0.0
 11
5.9807534104
 21
1.7460838019
 31
0.0
 11
5.9766225188
 21
1.7575646925
 31
0.0
 11
5.9741367413
 21
1.7631398288
 31
0.0
 11
5.9713775962
 21
1.7685864777
 31
0.0
 11
5.9650703541
 21
1.779044358
 31
0.0
 11
5.9577643051
 21
1.7888389815
 31
0.0
 11
5.9537567051
 21
1.7934566023
 31
0.0
 11
5.9495249652
 21
1.7978725176
 31
0.0
 11
5.9404344014
 21
1.8060603823
 31
0.0
 11
5.9305837492
 21
1.8133252494
 31
0.0
 11
5.9254019579
 21
1.8165875692
 31
0.0
 11
5.9200652409
 21
1.8195924453
 31
0.0
 11
5.90897811
 21
1.8248052789
 31
0.0
 11
5.8974245713
 21
1.8289147167
 31
0.0
 11
5.8855114381
 21
1.8318757874
 31
0.0
 11
5.8733696576
 21
1.8336647438
 31
0.0
 11
5.8611380853
 21
1.8342647934
 31
0.0
  0
SPLINE
  5
246
100
AcDbEntity
  8
0
100
AcDbSpline
 62
6
  6
CONTINUOUS
 70
0
 71
3
 72
27
 73
23
 74
21
 42
0.0000001
 43
0.0000001
 44
0.0000000001
 12
0.0
 22
-0.19647605
 32
0.0
 13
0.19647605
 23
0.0
 33
0.0
 40
0.0
 40
0.0
 40
0.0
 40
0.0
 40
0.0623081471
 40
0.0934728864
 40
0.1246404529
 40
0.1869703478
 40
0.2493201601
 40
0.2805128419
 40
0.3117129029
 40
0.3741199496
 40
0.436561389
 40
0.4678051134
 40
0.4990591368
 40
0.5615771583
 40
0.624123192
 40
0.6554130217
 40
0.6867095838
 40
0.7493149705
 40
0.8119773958
 40
0.8747062411
 40
0.9374210393
 40
1.0
 40
1.0
 40
1.0
 40
1.0
 10
5.4256402516
 20
1.5824034689
 30
0.0
 10
5.4256402516
 20
1.5783227827
 30
0.0
 10
5.425941786
 20
1.5721954038
 30
0.0
 10
5.4269463038
 20
1.5640920789
 30
0.0
 10
5.4283523117
 20
1.5560465576
 30
0.0
 10
5.4308525523
 20
1.5461327847
 30
0.0
 10
5.4343139733
 20
1.5365104904
 30
0.0
 10
5.4376419248
 20
1.5290461944
 30
0.0
 10
5.4413371856
 20
1.5217525561
 30
0.0
 10
5.4466247772
 20
1.5129864319
 30
0.0
 10
5.4527468534
 20
1.504777663
 30
0.0
 10
5.4581121186
 20
1.4985957983
 30
0.0
 10
5.463779337
 20
1.4926825992
 30
0.0
 10
5.4713994932
 20
1.4858199487
 30
0.0
 10
5.4796540556
 20
1.4797310634
 30
0.0
 10
5.4865917953
 20
1.4753634055
 30
0.0
 10
5.4937387823
 20
1.4713395369
 30
0.0
 10
5.5030341091
 20
1.4669693513
 30
0.0
 10
5.5146521034
 20
1.4628353708
 30
0.0
 10
5.5266279946
 20
1.4598617534
 30
0.0
 10
5.5388284466
 20
1.4580640286
 30
0.0
 10
5.5470396629
 20
1.4576589242
 30
0.0
 10
5.5511380853
 20
1.4576589242
 30
0.0
 11
5.4256402516
 21
1.5824034689
 31
0.0
 11
5.4262430031
 21
1.5701762579
 31
0.0
 11
5.4269964418
 21
1.5640996644
 31
0.0
 11
5.4280503466
 21
1.5580673559
 31
0.0
 11
5.4310442989
 21
1.5461926396
 31
0.0
 11
5.4351917141
 21
1.5346658254
 31
0.0
 11
5.4376874347
 21
1.5290683886
 31
0.0
 11
5.4404576163
 21
1.523599953
 31
0.0
 11
5.4467900874
 21
1.5131002412
 31
0.0
 11
5.4541253606
 21
1.5032664393
 31
0.0
 11
5.458148991
 21
1.498630348
 31
0.0
 11
5.4623976579
 21
1.4941967691
 31
0.0
 11
5.4715245839
 21
1.4859761529
 31
0.0
 11
5.4814146387
 21
1.4786822263
 31
0.0
 11
5.4866171572
 21
1.4754068572
 31
0.0
 11
5.491975221
 21
1.4723899616
 31
0.0
 11
5.5031067005
 21
1.4671562767
 31
0.0
 11
5.5147064534
 21
1.4630304012
 31
0.0
 11
5.5266672391
 21
1.4600574861
 31
0.0
 11
5.5388575867
 21
1.4582613739
 31
0.0
 11
5.5511380853
 21
1.4576589242
 31
0.0
  0
SPLINE
  5
247
100
AcDbEntity
  8
0
100
AcDbSpline
 62
6
  6
CONTINUOUS
 70
0
 71
3
 72
31
 73
27
 74
25
 42
0.0000001
 43
0.0000001
 44
0.0000000001
 12
0.0
 22
0.4161436788
 32
0.0
 13
0.4161436784
 23
0.00001756
 33
0.0
 40
0.0
 40
0.0
 40
0.0
 40
0.0
 40
0.0700192223
 40
0.139712794
 40
0.2087724587
 40
0.2769150771
 40
0.343901861
 40
0.4095485792
 40
0.4737368038
 40
0.5364237952
 40
0.5976453272
 40
0.6277480653
 40
0.6575321791
 40
0.6870219115
 40
0.7162443295
 40
0.7452280395
 40
0.7740036124
 40
0.8026002143
 40
0.8310475724
 40
0.8593734738
 40
0.8876033477
 40
0.9157609296
 40
0.9298211692
 40
0.9438710738
 40
0.9719435482
 40
1.0
 40
1.0
 40
1.0
 40
1.0
 10
5.4886380853
 20
6.7300172388
 30
0.0
 10
5.4886380853
 20
6.7397299244
 30
0.0
 10
5.4892649782
 20
6.7591160455
 30
0.0
 10
5.4920824272
 20
6.7879582678
 30
0.0
 10
5.496758718
 20
6.8162962556
 30
0.0
 10
5.5032667524
 20
6.843885707
 30
0.0
 10
5.5115714133
 20
6.8704949388
 30
0.0
 10
5.5216328341
 20
6.8959040998
 30
0.0
 10
5.5334098049
 20
6.9199061517
 30
0.0
 10
5.5468603958
 20
6.9423015198
 30
0.0
 10
5.5595060512
 20
6.9595646889
 30
0.0
 10
5.5704202896
 20
6.9723439653
 30
0.0
 10
5.5789509953
 20
6.9813483972
 30
0.0
 10
5.5878640537
 20
6.9897982608
 30
0.0
 10
5.5971508487
 20
6.9976656436
 30
0.0
 10
5.6068000199
 20
7.0049211988
 30
0.0
 10
5.616797273
 20
7.0115338902
 30
0.0
 10
5.627124099
 20
7.0174721559
 30
0.0
 10
5.637757354
 20
7.0227037033
 30
0.0
 10
5.648668717
 20
7.0271966568
 30
0.0
 10
5.6598234124
 20
7.0309213332
 30
0.0
 10
5.6692946851
 20
7.0333631157
 30
0.0
 10
5.6769472538
 20
7.0349061723
 30
0.0
 10
5.684638627
 20
7.0361719766
 30
0.0
 10
5.6943242671
 20
7.0372333383
 30
0.0
 10
5.7021129573
 20
7.0375169869
 30
0.0
 10
5.7060047957
 20
7.0375171511
 30
0.0
 11
5.4886380853
 21
6.7300172388
 31
0.0
 11
5.4895825515
 21
6.7591399848
 31
0.0
 11
5.4924097758
 21
6.7880043935
 31
0.0
 11
5.4971016916
 21
6.8163575463
 31
0.0
 11
5.5036297012
 21
6.8439530412
 31
0.0
 11
5.5119569278
 21
6.8705563443
 31
0.0
 11
5.5220410594
 21
6.8959454939
 31
0.0
 11
5.5338373142
 21
6.9199111753
 31
0.0
 11
5.5473013515
 21
6.9422548675
 31
0.0
 11
5.5623899538
 21
6.9627831223
 31
0.0
 11
5.5705296117
 21
6.9723053755
 31
0.0
 11
5.5790579641
 21
6.9812992683
 31
0.0
 11
5.5879677174
 21
6.9897383108
 31
0.0
 11
5.5972500051
 21
6.9975946686
 31
0.0
 11
5.6068934256
 21
7.0048390812
 31
0.0
 11
5.6168838603
 21
7.0114410807
 31
0.0
 11
5.6272026012
 21
7.0173690323
 31
0.0
 11
5.6378267774
 21
7.0225910606
 31
0.0
 11
5.6487280239
 21
7.0270756337
 31
0.0
 11
5.6598720558
 21
7.0307929747
 31
0.0
 11
5.6712192624
 21
7.0337158235
 31
0.0
 11
5.6769549657
 21
7.0348720426
 31
0.0
 11
5.6827241655
 21
7.0358213362
 31
0.0
 11
5.6943370168
 21
7.0370921932
 31
0.0
 11
5.7060047957
 21
7.0375171511
 31
0.0
  0
SPLINE
  5
248
100
AcDbEntity
  8
0
100
AcDbSpline
 62
6
  6
CONTINUOUS
 70
0
 71
3
 72
37
 73
33
 74
31
 42
0.0000001
 43
0.0000001
 44
0.0000000001
 12
0.2198588743
 22
-0.0000536295
 32
0.0
 13
0.0
 23
-0.2198588808
 33
0.0
 40
0.0
 40
0.0
 40
0.0
 40
0.0
 40
0.0127298966
 40
0.0191878024
 40
0.0257562383
 40
0.0324726747
 40
0.0393737301
 40
0.0464894074
 40
0.0538474007
 40
0.0694026572
 40
0.0862560146
 40
0.1045525098
 40
0.1244204229
 40
0.1459315322
 40
0.1691334755
 40
0.1940347489
 40
0.2206246843
 40
0.2488671033
 40
0.2787133897
 40
0.3101012001
 40
0.3429601591
 40
0.3772135738
 40
0.4127802506
 40
0.4495764078
 40
0.4875161004
 40
0.5265125388
 40
0.5664781965
 40
0.6489534041
 40
0.7342485573
 40
0.8216583792
 40
0.9104759478
 40
1.0
 40
1.0
 40
1.0
 40
1.0
 10
5.7060059166
 20
6.9125173217
 30
0.0
 10
5.7069388435
 20
6.9125170942
 30
0.0
 10
5.7083458772
 20
6.9124626746
 30
0.0
 10
5.7102247186
 20
6.9122777098
 30
0.0
 10
5.7116582751
 20
6.9120788428
 30
0.0
 10
5.7131148534
 20
6.9118182345
 30
0.0
 10
5.7145997072
 20
6.911494121
 30
0.0
 10
5.7161167652
 20
6.9111022071
 30
0.0
 10
5.7182255239
 20
6.9104711188
 30
0.0
 10
5.7209675981
 20
6.9094754358
 30
0.0
 10
5.7243628661
 20
6.9079578262
 30
0.0
 10
5.7279226688
 20
6.9060575318
 30
0.0
 10
5.7316362188
 20
6.9037415882
 30
0.0
 10
5.7354857878
 20
6.9009828292
 30
0.0
 10
5.739444179
 20
6.8977593891
 30
0.0
 10
5.7434818324
 20
6.8940587826
 30
0.0
 10
5.7475642933
 20
6.889873993
 30
0.0
 10
5.751658027
 20
6.8852062827
 30
0.0
 10
5.7557285067
 20
6.8800617952
 30
0.0
 10
5.759743212
 20
6.8744521312
 30
0.0
 10
5.7636716572
 20
6.8683930655
 30
0.0
 10
5.7674849035
 20
6.8619031354
 30
0.0
 10
5.7711576194
 20
6.8550041047
 30
0.0
 10
5.7746657247
 20
6.8477189771
 30
0.0
 10
5.7779885666
 20
6.8400727625
 30
0.0
 10
5.7811072059
 20
6.83209109
 30
0.0
 10
5.7850115538
 20
6.8209204636
 30
0.0
 10
5.7892679081
 20
6.806289723
 30
0.0
 10
5.7932913454
 20
6.7880134459
 30
0.0
 10
5.7962130982
 20
6.7690584311
 30
0.0
 10
5.7979849335
 20
6.7496516328
 30
0.0
 10
5.7983801817
 20
6.7365781248
 30
0.0
 10
5.7983801817
 20
6.7300172388
 30
0.0
 11
5.7060059166
 21
6.9125173217
 31
0.0
 11
5.7088025689
 21
6.9124081889
 31
0.0
 11
5.7102155821
 21
6.9122692461
 31
0.0
 11
5.7116460554
 21
6.9120711185
 31
0.0
 11
5.7130997401
 21
6.9118116002
 31
0.0
 11
5.7145821521
 21
6.9114882929
 31
0.0
 11
5.7160969428
 21
6.9110972725
 31
0.0
 11
5.7176468764
 21
6.9106338889
 31
0.0
 11
5.7208632077
 21
6.9094714141
 31
0.0
 11
5.7242479836
 21
6.9079637712
 31
0.0
 11
5.727799295
 21
6.9060743597
 31
0.0
 11
5.7315089649
 21
6.9037680702
 31
0.0
 11
5.7353565749
 21
6.9010179426
 31
0.0
 11
5.7393161588
 21
6.8978018176
 31
0.0
 11
5.7433561648
 21
6.8941070354
 31
0.0
 11
5.7474428464
 21
6.8899267077
 31
0.0
 11
5.7515413248
 21
6.8852621111
 31
0.0
 11
5.7556172863
 21
6.8801195434
 31
0.0
 11
5.7596377387
 21
6.8745107798
 31
0.0
 11
5.7635718794
 21
6.86845161
 31
0.0
 11
5.7673909357
 21
6.8619608838
 31
0.0
 11
5.771069053
 21
6.855060277
 31
0.0
 11
5.7745824686
 21
6.8477730694
 31
0.0
 11
5.777910191
 21
6.8401242226
 31
0.0
 11
5.7810333466
 21
6.8321395837
 31
0.0
 11
5.7839352534
 21
6.8238457983
 31
0.0
 11
5.7890186704
 21
6.8064400182
 31
0.0
 11
5.793064439
 21
6.7881287403
 31
0.0
 11
5.7960020606
 21
6.769136763
 31
0.0
 11
5.7977833417
 21
6.7496908456
 31
0.0
 11
5.7983801817
 21
6.7300172388
 31
0.0
  0
LINE
  5
249
100
AcDbEntity
  8
0
100
AcDbLine
 62
7
  6
CONTINUOUS
 10
5.8611380853
 20
6.4647613719
 11
5.883519124
 21
6.4653014526
  0
LINE
  5
24A
100
AcDbEntity
  8
0
100
AcDbLine
 62
7
  6
CONTINUOUS
 10
5.8611380853
 20
6.4647613719
 11
5.8422076465
 21
6.4643075093
  0
SPLINE
  5
24B
100
AcDbEntity
  8
0
100
AcDbSpline
 62
6
  6
CONTINUOUS
 70
0
 71
3
 72
37
 73
33
 74
31
 42
0.0000001
 43
0.0000001
 44
0.0000000001
 12
0.0
 22
0.2198524552
 32
0.0
 13
0.2198524487
 23
-0.000053628
 33
0.0
 40
0.0
 40
0.0
 40
0.0
 40
0.0
 40
0.0895200951
 40
0.1783340908
 40
0.2657407976
 40
0.3510333885
 40
0.4335066712
 40
0.4734716172
 40
0.5124675227
 40
0.5504068715
 40
0.5872029258
 40
0.6227696701
 40
0.6570233894
 40
0.6898827662
 40
0.7212713889
 40
0.751118395
 40
0.7793620584
 40
0.8059530669
 40
0.8308558479
 40
0.8540595394
 40
0.8755719588
 40
0.8954421865
 40
0.9137400838
 40
0.9305942336
 40
0.9385265217
 40
0.9461560221
 40
0.9606250433
 40
0.9675272908
 40
0.974246134
 40
0.9808152133
 40
0.9872723891
 40
1.0
 40
1.0
 40
1.0
 40
1.0
 10
5.6136380853
 20
6.7300172388
 30
0.0
 10
5.6136380853
 20
6.7365776431
 30
0.0
 10
5.6140332767
 20
6.7496502164
 30
0.0
 10
5.6158048592
 20
6.7690556805
 30
0.0
 10
5.6187262141
 20
6.7880095008
 30
0.0
 10
5.6227491175
 20
6.8062847637
 30
0.0
 10
5.6270049548
 20
6.82091479
 30
0.0
 10
5.6309087903
 20
6.8320849833
 30
0.0
 10
5.6340271071
 20
6.8400663872
 30
0.0
 10
5.6373495307
 20
6.8477124393
 30
0.0
 10
5.6408573061
 20
6.8549974326
 30
0.0
 10
5.6445296217
 20
6.861896438
 30
0.0
 10
5.6483424862
 20
6.8683864064
 30
0.0
 10
5.6522706373
 20
6.8744455413
 30
0.0
 10
5.6562848966
 20
6.8800554552
 30
0.0
 10
5.6603552154
 20
6.8852000812
 30
0.0
 10
5.6644485179
 20
6.8898682258
 30
0.0
 10
5.6685308891
 20
6.8940532537
 30
0.0
 10
5.6725682402
 20
6.8977544219
 30
0.0
 10
5.676526587
 20
6.90097821
 30
0.0
 10
5.6803759738
 20
6.9037376501
 30
0.0
 10
5.6840896654
 20
6.9060538812
 30
0.0
 10
5.687649133
 20
6.9079549821
 30
0.0
 10
5.6905342777
 20
6.9092447847
 30
0.0
 10
5.6927535978
 20
6.9100934843
 30
0.0
 10
5.6948368872
 20
6.9108040873
 30
0.0
 10
5.6968857028
 20
6.9113782676
 30
0.0
 10
5.6988973951
 20
6.9118169008
 30
0.0
 10
5.7003543011
 20
6.9120772497
 30
0.0
 10
5.7017878765
 20
6.9122768098
 30
0.0
 10
5.703666378
 20
6.9124628837
 30
0.0
 10
5.7050731845
 20
6.9125175493
 30
0.0
 10
5.7060059166
 20
6.9125173217
 30
0.0
 11
5.6136380853
 21
6.7300172388
 31
0.0
 11
5.6142348376
 21
6.7496894024
 31
0.0
 11
5.6160158644
 21
6.7691339812
 31
0.0
 11
5.6189530822
 21
6.7881247596
 31
0.0
 11
5.6229983184
 21
6.8064350169
 31
0.0
 11
5.628081101
 21
6.8238399894
 31
0.0
 11
5.6309826478
 21
6.8321334628
 31
0.0
 11
5.6341054539
 21
6.8401178436
 31
0.0
 11
5.6374327857
 21
6.847766512
 31
0.0
 11
5.6409458453
 21
6.8550536036
 31
0.0
 11
5.6446235733
 21
6.8619541758
 31
0.0
 11
5.6484422615
 21
6.8684449409
 31
0.0
 11
5.652376056
 21
6.8745041932
 31
0.0
 11
5.6563961524
 21
6.8801131836
 31
0.0
 11
5.6604718339
 21
6.8852559305
 31
0.0
 11
5.6645700109
 21
6.8899209143
 31
0.0
 11
5.6686564802
 21
6.8941015406
 31
0.0
 11
5.6726962734
 21
6.8977968096
 31
0.0
 11
5.676655779
 21
6.901013404
 31
0.0
 11
5.6805032109
 21
6.9037640382
 31
0.0
 11
5.6842130067
 21
6.9060708472
 31
0.0
 11
5.6877641869
 21
6.9079609112
 31
0.0
 11
5.6911489075
 21
6.9094688403
 31
0.0
 11
5.6927779987
 21
6.9100912263
 31
0.0
 11
5.6943657767
 21
6.9106320702
 31
0.0
 11
5.6974297619
 21
6.9114870984
 31
0.0
 11
5.6989124307
 21
6.9118102499
 31
0.0
 11
5.7003666195
 21
6.9120697092
 31
0.0
 11
5.7017971157
 21
6.9122683943
 31
0.0
 11
5.7032098537
 21
6.9124080694
 31
0.0
 11
5.7060059166
 21
6.9125173217
 31
0.0
  0
SPLINE
  5
24C
100
AcDbEntity
  8
0
100
AcDbSpline
 62
6
  6
CONTINUOUS
 70
0
 71
3
 72
29
 73
25
 74
23
 42
0.0000001
 43
0.0000001
 44
0.0000000001
 12
0.416142184
 22
0.0000175599
 32
0.0
 13
-0.0
 23
-0.4161421844
 33
0.0
 40
0.0
 40
0.0
 40
0.0
 40
0.0
 40
0.0280567905
 40
0.056129899
 40
0.0842360139
 40
0.1123941152
 40
0.1406250174
 40
0.1689513469
 40
0.197399632
 40
0.2259972438
 40
0.2547735791
 40
0.2837584008
 40
0.3129815453
 40
0.3424723385
 40
0.4023409663
 40
0.4635643404
 40
0.5262530463
 40
0.5904429836
 40
0.6560912975
 40
0.723079635
 40
0.7912237157
 40
0.8602847593
 40
0.9299796134
 40
1.0
 40
1.0
 40
1.0
 40
1.0
 10
5.7060047957
 20
7.0375171511
 30
0.0
 10
5.709896667
 20
7.0375173154
 30
0.0
 10
5.7176856433
 20
7.0372336376
 30
0.0
 10
5.7293106375
 20
7.0359610901
 30
0.0
 10
5.7408279807
 20
7.0338516225
 30
0.0
 10
5.7521870073
 20
7.0309235319
 30
0.0
 10
5.7633424152
 20
7.0271994762
 30
0.0
 10
5.7742540795
 20
7.0227066622
 30
0.0
 10
5.7848878996
 20
7.017475583
 30
0.0
 10
5.7952151851
 20
7.0115374558
 30
0.0
 10
5.8052129787
 20
7.0049249116
 30
0.0
 10
5.814862613
 20
6.9976695292
 30
0.0
 10
5.8241500086
 20
6.9898019826
 30
0.0
 10
5.8360928534
 20
6.9784805754
 30
0.0
 10
5.8500683063
 20
6.9629014697
 30
0.0
 10
5.8651547612
 20
6.9423059039
 30
0.0
 10
5.8786070267
 20
6.9199090069
 30
0.0
 10
5.890384204
 20
6.8959068479
 30
0.0
 10
5.9004461046
 20
6.8704971339
 30
0.0
 10
5.9087510474
 20
6.8438874545
 30
0.0
 10
5.9152593083
 20
6.8162975251
 30
0.0
 10
5.9199357428
 20
6.7879590867
 30
0.0
 10
5.9227532719
 20
6.759116442
 30
0.0
 10
5.9233801817
 20
6.739730051
 30
0.0
 10
5.9233801817
 20
6.7300172388
 30
0.0
 11
5.7060047957
 21
7.0375171511
 31
0.0
 11
5.7176726933
 21
7.0370927339
 31
0.0
 11
5.7292858507
 21
7.0358226336
 31
0.0
 11
5.7407909941
 21
7.0337175527
 31
0.0
 11
5.7521385105
 21
7.0307952088
 31
0.0
 11
5.7632831086
 21
7.0270783463
 31
0.0
 11
5.7741846372
 21
7.0225941021
 31
0.0
 11
5.7848093621
 21
7.0173724118
 31
0.0
 11
5.7951286365
 21
7.011444631
 31
0.0
 11
5.8051195251
 21
7.0048428209
 31
0.0
 11
5.8147635149
 21
6.9975984681
 31
0.0
 11
5.8240462083
 21
6.9897421893
 31
0.0
 11
5.8329564712
 21
6.981303107
 31
0.0
 11
5.8496252779
 21
6.9627868606
 31
0.0
 11
5.8647146236
 21
6.9422583144
 31
0.0
 11
5.8781792684
 21
6.9199142646
 31
0.0
 11
5.8899760316
 21
6.895948146
 31
0.0
 11
5.9000605594
 21
6.8705585448
 31
0.0
 11
5.9083880933
 21
6.8439547653
 31
0.0
 11
5.9149163239
 21
6.8163588021
 31
0.0
 11
5.9196083859
 21
6.7880051965
 31
0.0
 11
5.9224356908
 21
6.7591403641
 31
0.0
 11
5.9233801817
 21
6.7300172388
 31
0.0
  0
SPLINE
  5
24D
100
AcDbEntity
  8
0
100
AcDbSpline
 62
6
  6
CONTINUOUS
 70
0
 71
3
 72
27
 73
23
 74
21
 42
0.0000001
 43
0.0000001
 44
0.0000000001
 12
0.19647605
 22
0.0
 32
0.0
 13
0.0
 23
0.19647605
 33
0.0
 40
0.0
 40
0.0
 40
0.0
 40
0.0
 40
0.0625789607
 40
0.1252937589
 40
0.1880226042
 40
0.2506850295
 40
0.3132904162
 40
0.3445869783
 40
0.375876808
 40
0.4384228417
 40
0.5009408632
 40
0.5321948866
 40
0.563438611
 40
0.6258800504
 40
0.6882870971
 40
0.7194871581
 40
0.7506798399
 40
0.8130296522
 40
0.8753595471
 40
0.9065271136
 40
0.9376918529
 40
1.0
 40
1.0
 40
1.0
 40
1.0
 10
5.5511380853
 20
1.4576589242
 30
0.0
 10
5.5552365076
 20
1.4576589242
 30
0.0
 10
5.563447724
 20
1.4580640286
 30
0.0
 10
5.575648176
 20
1.4598617534
 30
0.0
 10
5.5876240671
 20
1.4628353708
 30
0.0
 10
5.5992420614
 20
1.4669693513
 30
0.0
 10
5.6085373883
 20
1.4713395369
 30
0.0
 10
5.6156843752
 20
1.4753634055
 30
0.0
 10
5.622622115
 20
1.4797310634
 30
0.0
 10
5.6308766773
 20
1.4858199487
 30
0.0
 10
5.6384968336
 20
1.4926825992
 30
0.0
 10
5.644164052
 20
1.4985957983
 30
0.0
 10
5.6495293172
 20
1.504777663
 30
0.0
 10
5.6556513934
 20
1.5129864319
 30
0.0
 10
5.6609389849
 20
1.5217525561
 30
0.0
 10
5.6646342458
 20
1.5290461944
 30
0.0
 10
5.6679621972
 20
1.5365104904
 30
0.0
 10
5.6714236182
 20
1.5461327847
 30
0.0
 10
5.6739238588
 20
1.5560465576
 30
0.0
 10
5.6753298667
 20
1.5640920789
 30
0.0
 10
5.6763343846
 20
1.5721954038
 30
0.0
 10
5.6766359189
 20
1.5783227827
 30
0.0
 10
5.6766359189
 20
1.5824034689
 30
0.0
 11
5.5511380853
 21
1.4576589242
 31
0.0
 11
5.5634185838
 21
1.4582613739
 31
0.0
 11
5.5756089315
 21
1.4600574861
 31
0.0
 11
5.5875697172
 21
1.4630304012
 31
0.0
 11
5.5991694701
 21
1.4671562767
 31
0.0
 11
5.6103009495
 21
1.4723899616
 31
0.0
 11
5.6156590134
 21
1.4754068572
 31
0.0
 11
5.6208615319
 21
1.4786822263
 31
0.0
 11
5.6307515867
 21
1.4859761529
 31
0.0
 11
5.6398785127
 21
1.4941967691
 31
0.0
 11
5.6441271795
 21
1.498630348
 31
0.0
 11
5.64815081
 21
1.5032664393
 31
0.0
 11
5.6554860832
 21
1.5131002412
 31
0.0
 11
5.6618185542
 21
1.523599953
 31
0.0
 11
5.6645887359
 21
1.5290683886
 31
0.0
 11
5.6670844565
 21
1.5346658254
 31
0.0
 11
5.6712318717
 21
1.5461926396
 31
0.0
 11
5.674225824
 21
1.5580673559
 31
0.0
 11
5.6752797287
 21
1.5640996644
 31
0.0
 11
5.6760331675
 21
1.5701762579
 31
0.0
 11
5.6766359189
 21
1.5824034689
 31
0.0
  0
SPLINE
  5
24E
100
AcDbEntity
  8
0
100
AcDbSpline
 62
6
  6
CONTINUOUS
 70
0
 71
3
 72
27
 73
23
 74
21
 42
0.0000001
 43
0.0000001
 44
0.0000000001
 12
-0.1956932769
 22
0.0
 32
0.0
 13
0.0
 23
-0.1956932769
 33
0.0
 40
0.0
 40
0.0
 40
0.0
 40
0.0
 40
0.0625789607
 40
0.1252937589
 40
0.1880226042
 40
0.2506850295
 40
0.3132904162
 40
0.3445869783
 40
0.375876808
 40
0.4384228417
 40
0.5009408632
 40
0.5321948866
 40
0.563438611
 40
0.6258800504
 40
0.6882870971
 40
0.7194871581
 40
0.7506798399
 40
0.8130296522
 40
0.8753595471
 40
0.9065271136
 40
0.9376918529
 40
1.0
 40
1.0
 40
1.0
 40
1.0
 10
5.8611380853
 20
1.8342647934
 30
0.0
 10
5.8570559913
 20
1.8342647934
 30
0.0
 10
5.848877489
 20
1.8338613029
 30
0.0
 10
5.8367256443
 20
1.8320707403
 30
0.0
 10
5.8247974659
 20
1.8291089701
 30
0.0
 10
5.8132257584
 20
1.8249914596
 30
0.0
 10
5.8039674648
 20
1.8206386851
 30
0.0
 10
5.7968489518
 20
1.8166308479
 30
0.0
 10
5.7899388525
 20
1.8122805909
 30
0.0
 10
5.7817171769
 20
1.8062159642
 30
0.0
 10
5.7741273798
 20
1.7993806549
 30
0.0
 10
5.76848274
 20
1.7934910144
 30
0.0
 10
5.7631388503
 20
1.7873337786
 30
0.0
 10
5.7570411649
 20
1.7791577139
 30
0.0
 10
5.7517746394
 20
1.7704265146
 30
0.0
 10
5.7480941007
 20
1.7631619346
 30
0.0
 10
5.744779408
 20
1.7557273768
 30
0.0
 10
5.7413317776
 20
1.7461434183
 30
0.0
 10
5.7388414981
 20
1.7362691425
 30
0.0
 10
5.7374410918
 20
1.7282556751
 30
0.0
 10
5.736440576
 20
1.7201846344
 30
0.0
 10
5.736140243
 20
1.7140816673
 30
0.0
 10
5.736140243
 20
1.7100172388
 30
0.0
 11
5.8611380853
 21
1.8342647934
 31
0.0
 11
5.848906513
 21
1.8336647438
 31
0.0
 11
5.8367647325
 21
1.8318757874
 31
0.0
 11
5.8248515993
 21
1.8289147167
 31
0.0
 11
5.8132980606
 21
1.8248052789
 31
0.0
 11
5.8022109296
 21
1.8195924453
 31
0.0
 11
5.7968742127
 21
1.8165875692
 31
0.0
 11
5.7916924213
 21
1.8133252494
 31
0.0
 11
5.7818417692
 21
1.8060603823
 31
0.0
 11
5.7727512054
 21
1.7978725176
 31
0.0
 11
5.7685194655
 21
1.7934566023
 31
0.0
 11
5.7645118655
 21
1.7888389815
 31
0.0
 11
5.7572058164
 21
1.779044358
 31
0.0
 11
5.7508985744
 21
1.7685864777
 31
0.0
 11
5.7481394293
 21
1.7631398288
 31
0.0
 11
5.7456536518
 21
1.7575646925
 31
0.0
 11
5.7415227602
 21
1.7460838019
 31
0.0
 11
5.738540736
 21
1.7342563952
 31
0.0
 11
5.73749103
 21
1.7282481198
 31
0.0
 11
5.736740593
 21
1.7221957359
 31
0.0
 11
5.736140243
 21
1.7100172388
 31
0.0
  0
SPLINE
  5
24F
100
AcDbEntity
  8
0
100
AcDbSpline
 62
6
  6
CONTINUOUS
 70
0
 71
3
 72
35
 73
31
 74
29
 42
0.0000001
 43
0.0000001
 44
0.0000000001
 12
-0.2935854439
 22
0.0
 32
0.0
 13
0.0
 23
0.2935854439
 33
0.0
 40
0.0
 40
0.0
 40
0.0
 40
0.0
 40
0.0626102664
 40
0.0939683741
 40
0.1253353637
 40
0.1566965318
 40
0.1880418221
 40
0.2193724911
 40
0.2506912746
 40
0.2820006054
 40
0.3133031106
 40
0.3758747771
 40
0.4071603417
 40
0.4384372695
 40
0.4697044097
 40
0.5009617977
 40
0.5322098924
 40
0.563448621
 40
0.594677824
 40
0.6258978004
 40
0.688294823
 40
0.7194914044
 40
0.7506804507
 40
0.7818625188
 40
0.8130389314
 40
0.844210625
 40
0.8753779855
 40
0.906541386
 40
0.9377017331
 40
1.0
 40
1.0
 40
1.0
 40
1.0
 10
5.8611380853
 20
1.523645907
 30
0.0
 10
5.855010931
 20
1.523645907
 30
0.0
 10
5.8458068329
 20
1.5240985794
 30
0.0
 10
5.8336292194
 20
1.5255909356
 30
0.0
 10
5.8245513941
 20
1.5271540258
 30
0.0
 10
5.8155621917
 20
1.5291576805
 30
0.0
 10
5.8066855566
 20
1.5315994729
 30
0.0
 10
5.7979428974
 20
1.5344710061
 30
0.0
 10
5.7893541238
 20
1.5377644153
 30
0.0
 10
5.7809385303
 20
1.541472038
 30
0.0
 10
5.7699793313
 20
1.5469552442
 30
0.0
 10
5.7594379643
 20
1.5532383375
 30
0.0
 10
5.7494026598
 20
1.560262737
 30
0.0
 10
5.7421431631
 20
1.5658918603
 30
0.0
 10
5.7351709956
 20
1.5718685264
 30
0.0
 10
5.7285037429
 20
1.5781795363
 30
0.0
 10
5.7221558905
 20
1.5848078279
 30
0.0
 10
5.7161421858
 20
1.5917369553
 30
0.0
 10
5.7104769414
 20
1.5989506954
 30
0.0
 10
5.703410837
 20
1.6089222935
 30
0.0
 10
5.6970929619
 20
1.6194035712
 30
0.0
 10
5.6915739266
 20
1.6303007754
 30
0.0
 10
5.6878415806
 20
1.6386666196
 30
0.0
 10
5.684527835
 20
1.6472045058
 30
0.0
 10
5.6816410782
 20
1.6558943271
 30
0.0
 10
5.6791861177
 20
1.6647143501
 30
0.0
 10
5.6771684138
 20
1.6736431405
 30
0.0
 10
5.6755930728
 20
1.6826598148
 30
0.0
 10
5.6740906123
 20
1.6947660299
 30
0.0
 10
5.6736397878
 20
1.7039206174
 30
0.0
 10
5.6736397878
 20
1.7100172388
 30
0.0
 11
5.8611380853
 21
1.523645907
 31
0.0
 11
5.8427786186
 21
1.5245448851
 31
0.0
 11
5.8336406826
 21
1.5256646124
 31
0.0
 11
5.8245654024
 21
1.5272276137
 31
0.0
 11
5.8155788708
 21
1.5292312251
 31
0.0
 11
5.8067058534
 21
1.5316717076
 31
0.0
 11
5.7979668957
 21
1.5345419032
 31
0.0
 11
5.7893817061
 21
1.5378339762
 31
0.0
 11
5.7809699931
 21
1.5415400904
 31
0.0
 11
5.7727514645
 21
1.5456524073
 31
0.0
 11
5.7569709275
 21
1.5550564674
 31
0.0
 11
5.7494462025
 21
1.5603235812
 31
0.0
 11
5.742189953
 21
1.5659506803
 31
0.0
 11
5.735220756
 21
1.5719252039
 31
0.0
 11
5.7285560025
 21
1.5782333845
 31
0.0
 11
5.7222106545
 21
1.5848589843
 31
0.0
 11
5.7161993768
 21
1.5917854633
 31
0.0
 11
5.7105368342
 21
1.598996281
 31
0.0
 11
5.7052376704
 21
1.6064748826
 31
0.0
 11
5.6957794305
 21
1.6221631661
 31
0.0
 11
5.691641297
 21
1.6303338826
 31
0.0
 11
5.6879109573
 21
1.6386962271
 31
0.0
 11
5.6845987157
 21
1.6472306152
 31
0.0
 11
5.681712839
 21
1.6559166985
 31
0.0
 11
5.679258838
 21
1.664733095
 31
0.0
 11
5.677242028
 21
1.6736583492
 31
0.0
 11
5.6756677241
 21
1.6826710058
 31
0.0
 11
5.6745411543
 21
1.6917495987
 31
0.0
 11
5.6736397878
 21
1.7100172388
 31
0.0
  0
SPLINE
  5
250
100
AcDbEntity
  8
0
100
AcDbSpline
 62
6
  6
CONTINUOUS
 70
0
 71
3
 72
31
 73
27
 74
25
 42
0.0000001
 43
0.0000001
 44
0.0000000001
 12
-0.1248972518
 22
-0.0056794329
 32
0.0
 13
-0.1081971637
 23
-0.0626494471
 33
0.0
 40
0.0
 40
0.0
 40
0.0
 40
0.0
 40
0.1855995862
 40
0.2763873488
 40
0.3647668471
 40
0.4499927524
 40
0.5313186942
 40
0.6080353619
 40
0.6794824061
 40
0.7450459205
 40
0.8041557272
 40
0.8311307376
 40
0.8563087783
 40
0.8796330408
 40
0.9010551632
 40
0.9205339685
 40
0.9380292048
 40
0.9535033281
 40
0.9669310754
 40
0.9782945664
 40
0.9831984635
 40
0.9875827394
 40
0.9914486746
 40
0.9948007171
 40
0.9976466354
 40
1.0
 40
1.0
 40
1.0
 40
1.0
 10
5.5511380853
 20
6.2667688801
 30
0.0
 10
5.5434111259
 20
6.2664175133
 30
0.0
 10
5.5319044452
 20
6.2658943823
 30
0.0
 10
5.516719156
 20
6.2651856135
 30
0.0
 10
5.505713087
 20
6.264658064
 30
0.0
 10
5.4951018005
 20
6.2641307048
 30
0.0
 10
5.4849771778
 20
6.2636036017
 30
0.0
 10
5.475427593
 20
6.2630768611
 30
0.0
 10
5.4665359437
 20
6.2625506185
 30
0.0
 10
5.4583794136
 20
6.262025059
 30
0.0
 10
5.4520753459
 20
6.2615753002
 30
0.0
 10
5.4474526667
 20
6.2612118156
 30
0.0
 10
5.4443182018
 20
6.2609477378
 30
0.0
 10
5.4414160218
 20
6.2606838052
 30
0.0
 10
5.4387524013
 20
6.2604200526
 30
0.0
 10
5.436332969
 20
6.2601565967
 30
0.0
 10
5.4341629917
 20
6.2598935331
 30
0.0
 10
5.4322471722
 20
6.2596309562
 30
0.0
 10
5.4305895378
 20
6.2593690234
 30
0.0
 10
5.4293726817
 20
6.259142043
 30
0.0
 10
5.4285320425
 20
6.2589571114
 30
0.0
 10
5.4279997986
 20
6.2588254688
 30
0.0
 10
5.427534372
 20
6.258694027
 30
0.0
 10
5.4271357974
 20
6.2585628449
 30
0.0
 10
5.4268040882
 20
6.2584320119
 30
0.0
 10
5.4266091995
 20
6.2583362232
 30
0.0
 10
5.4265243237
 20
6.2582870775
 30
0.0
 11
5.5511380853
 21
6.2667688801
 31
0.0
 11
5.5279574863
 21
6.2657086551
 31
0.0
 11
5.516619013
 21
6.2651785304
 31
0.0
 11
5.5055819708
 21
6.2646484732
 31
0.0
 11
5.4949396848
 21
6.2641183581
 31
0.0
 11
5.4847856308
 21
6.2635882363
 31
0.0
 11
5.4752086884
 21
6.2630581343
 31
0.0
 11
5.466291671
 21
6.262528026
 31
0.0
 11
5.4581116663
 21
6.2619979029
 31
0.0
 11
5.4507404235
 21
6.261467774
 31
0.0
 11
5.4473782696
 21
6.26120271
 31
0.0
 11
5.4442415313
 21
6.2609376475
 31
0.0
 11
5.4413374559
 21
6.2606725873
 31
0.0
 11
5.4386722747
 21
6.2604075297
 31
0.0
 11
5.4362513782
 21
6.2601424741
 31
0.0
 11
5.4340801316
 21
6.2598774203
 31
0.0
 11
5.4321637013
 21
6.2596123675
 31
0.0
 11
5.4305059349
 21
6.2593473147
 31
0.0
 11
5.4291101429
 21
6.2590822604
 31
0.0
 11
5.4285115214
 21
6.2589497322
 31
0.0
 11
5.4279796339
 21
6.258817203
 31
0.0
 11
5.4275148147
 21
6.2586846729
 31
0.0
 11
5.4271172284
 21
6.2585521418
 31
0.0
 11
5.4267870173
 21
6.25841961
 31
0.0
 11
5.4265243237
 21
6.2582870775
 31
0.0
  0
SPLINE
  5
251
100
AcDbEntity
  8
0
100
AcDbSpline
 62
6
  6
CONTINUOUS
 70
0
 71
3
 72
31
 73
27
 74
25
 42
0.0000001
 43
0.0000001
 44
0.0000000001
 12
-0.1248972502
 22
-0.0056794328
 32
0.0
 13
-0.1081965546
 23
-0.0626504958
 33
0.0
 40
0.0
 40
0.0
 40
0.0
 40
0.0
 40
0.1856037607
 40
0.2763964491
 40
0.364779076
 40
0.4500058478
 40
0.5313324689
 40
0.6080480926
 40
0.6794936562
 40
0.7450542344
 40
0.8041613298
 40
0.8311345814
 40
0.8563111046
 40
0.8796344443
 40
0.9010559057
 40
0.9205342718
 40
0.9380293216
 40
0.9535034102
 40
0.9669310835
 40
0.9782945379
 40
0.9831984562
 40
0.987582791
 40
0.9914487609
 40
0.994800794
 40
0.9976466775
 40
1.0
 40
1.0
 40
1.0
 40
1.0
 10
5.5511380853
 20
6.1953403087
 30
0.0
 10
5.5434109522
 20
6.194988934
 30
0.0
 10
5.5319038927
 20
6.1944657866
 30
0.0
 10
5.5167180948
 20
6.1937569909
 30
0.0
 10
5.5057116546
 20
6.193229425
 30
0.0
 10
5.495100174
 20
6.1927020481
 30
0.0
 10
5.4849755304
 20
6.1921749453
 30
0.0
 10
5.4754260232
 20
6.1916481965
 30
0.0
 10
5.4665346012
 20
6.1911219686
 30
0.0
 10
5.4583783688
 20
6.1905964109
 30
0.0
 10
5.4520746087
 20
6.190146678
 30
0.0
 10
5.4474521789
 20
6.1897832059
 30
0.0
 10
5.4443178888
 20
6.1895191378
 30
0.0
 10
5.4414158376
 20
6.1892552171
 30
0.0
 10
5.4387523012
 20
6.1889914713
 30
0.0
 10
5.4363329225
 20
6.1887280193
 30
0.0
 10
5.4341629726
 20
6.1884649585
 30
0.0
 10
5.4322471651
 20
6.1882023848
 30
0.0
 10
5.4305895369
 20
6.1879404514
 30
0.0
 10
5.4293726847
 20
6.1877134704
 30
0.0
 10
5.4285320438
 20
6.1875285386
 30
0.0
 10
5.4279997947
 20
6.187396897
 30
0.0
 10
5.4275343643
 20
6.1872654558
 30
0.0
 10
5.4271357901
 20
6.1871342736
 30
0.0
 10
5.4268040848
 20
6.1870034405
 30
0.0
 10
5.4266091997
 20
6.1869076516
 30
0.0
 10
5.4265243259
 20
6.186858506
 30
0.0
 11
5.5511380853
 21
6.1953403087
 31
0.0
 11
5.5279569653
 21
6.1942800595
 31
0.0
 11
5.516617877
 21
6.1937499048
 31
0.0
 11
5.5055804442
 21
6.1932198278
 31
0.0
 11
5.4949380504
 21
6.1926897024
 31
0.0
 11
5.4847839119
 21
6.1921595736
 31
0.0
 11
5.4752071004
 21
6.1916294709
 31
0.0
 11
5.4662902682
 21
6.1910993692
 31
0.0
 11
5.4581106306
 21
6.1905692592
 31
0.0
 11
5.4507397261
 21
6.1900391523
 31
0.0
 11
5.4473777919
 21
6.1897741011
 31
0.0
 11
5.444241243
 21
6.1895090506
 31
0.0
 11
5.4413372826
 21
6.1892440001
 31
0.0
 11
5.4386721838
 21
6.1889789493
 31
0.0
 11
5.4362513421
 21
6.1887138982
 31
0.0
 11
5.4340801187
 21
6.1884488469
 31
0.0
 11
5.4321636926
 21
6.1881837954
 31
0.0
 11
5.4305059355
 21
6.1879187429
 31
0.0
 11
5.4291101483
 21
6.1876536884
 31
0.0
 11
5.428511524
 21
6.1875211601
 31
0.0
 11
5.427979629
 21
6.1873886309
 31
0.0
 11
5.4275148053
 21
6.1872561008
 31
0.0
 11
5.4271172202
 21
6.1871235699
 31
0.0
 11
5.4267870137
 21
6.1869910382
 31
0.0
 11
5.4265243259
 21
6.186858506
 31
0.0
  0
SPLINE
  5
252
100
AcDbEntity
  8
0
100
AcDbSpline
 62
6
  6
CONTINUOUS
 70
0
 71
3
 72
31
 73
27
 74
25
 42
0.0000001
 43
0.0000001
 44
0.0000000001
 12
-0.1248972556
 22
-0.005679433
 32
0.0
 13
-0.1081973281
 23
-0.0626491709
 33
0.0
 40
0.0
 40
0.0
 40
0.0
 40
0.0
 40
0.185600579
 40
0.2763908952
 40
0.3647725147
 40
0.4499991887
 40
0.531325618
 40
0.6080419532
 40
0.6794883837
 40
0.7450505495
 40
0.804159067
 40
0.831133225
 40
0.8563104697
 40
0.8796341309
 40
0.9010557442
 40
0.9205341231
 40
0.9380290283
 40
0.953502992
 40
0.9669307935
 40
0.9782944177
 40
0.9831983684
 40
0.9875826681
 40
0.9914486201
 40
0.9948006828
 40
0.9976466207
 40
1.0
 40
1.0
 40
1.0
 40
1.0
 10
5.5511380853
 20
6.2310545944
 30
0.0
 10
5.5434110843
 20
6.2307032257
 30
0.0
 10
5.5319042556
 20
6.2301800883
 30
0.0
 10
5.5167187301
 20
6.2294713071
 30
0.0
 10
5.5057124342
 20
6.2289437475
 30
0.0
 10
5.4951010069
 20
6.2284163777
 30
0.0
 10
5.4849763454
 20
6.2278892728
 30
0.0
 10
5.4754267797
 20
6.2273625273
 30
0.0
 10
5.4665352256
 20
6.2268362905
 30
0.0
 10
5.4583788311
 20
6.2263107315
 30
0.0
 10
5.4520749082
 20
6.2258609835
 30
0.0
 10
5.4474523512
 20
6.2254975044
 30
0.0
 10
5.4443179799
 20
6.2252334319
 30
0.0
 10
5.4414158789
 20
6.2249695065
 30
0.0
 10
5.4387523221
 20
6.2247057602
 30
0.0
 10
5.4363329422
 20
6.2244423097
 30
0.0
 10
5.434163003
 20
6.2241792493
 30
0.0
 10
5.4322472017
 20
6.2239166729
 30
0.0
 10
5.430589566
 20
6.2236547407
 30
0.0
 10
5.4293726997
 20
6.2234277602
 30
0.0
 10
5.4285320516
 20
6.223242828
 30
0.0
 10
5.4279998039
 20
6.2231111844
 30
0.0
 10
5.4275343748
 20
6.2229797419
 30
0.0
 10
5.4271357979
 20
6.2228485595
 30
0.0
 10
5.4268040863
 20
6.2227177263
 30
0.0
 10
5.426609196
 20
6.2226219375
 30
0.0
 10
5.4265243195
 20
6.2225727918
 30
0.0
 11
5.5511380853
 21
6.2310545944
 31
0.0
 11
5.5279573617
 21
6.2299943636
 31
0.0
 11
5.5166185691
 21
6.2294642234
 31
0.0
 11
5.5055812616
 21
6.2289341531
 31
0.0
 11
5.4949388794
 21
6.2284040309
 31
0.0
 11
5.4847847644
 21
6.2278739045
 31
0.0
 11
5.4752078634
 21
6.2273438008
 31
0.0
 11
5.4662909225
 21
6.2268136947
 31
0.0
 11
5.4581110862
 21
6.226283577
 31
0.0
 11
5.450740004
 21
6.2257534572
 31
0.0
 11
5.4473779565
 21
6.225488399
 31
0.0
 11
5.4442413174
 21
6.2252233428
 31
0.0
 11
5.4413373168
 21
6.2249582891
 31
0.0
 11
5.4386721989
 21
6.2246932377
 31
0.0
 11
5.4362513554
 21
6.2244281875
 31
0.0
 11
5.43408015
 21
6.2241631373
 31
0.0
 11
5.4321637396
 21
6.223898086
 31
0.0
 11
5.4305059663
 21
6.2236330328
 31
0.0
 11
5.4291101575
 21
6.2233679772
 31
0.0
 11
5.4285115293
 21
6.2232354483
 31
0.0
 11
5.4279796389
 21
6.2231029185
 31
0.0
 11
5.4275148177
 21
6.2229703878
 31
0.0
 11
5.4271172288
 21
6.2228378564
 31
0.0
 11
5.4267870151
 21
6.2227053244
 31
0.0
 11
5.4265243195
 21
6.2225727918
 31
0.0
  0
SPLINE
  5
253
100
AcDbEntity
  8
0
100
AcDbSpline
 62
6
  6
CONTINUOUS
 70
0
 71
3
 72
27
 73
23
 74
21
 42
0.0000001
 43
0.0000001
 44
0.0000000001
 12
0.0
 22
-0.1956932769
 32
0.0
 13
0.1956932769
 23
0.0
 33
0.0
 40
0.0
 40
0.0
 40
0.0
 40
0.0
 40
0.0623081471
 40
0.0934728864
 40
0.1246404529
 40
0.1869703478
 40
0.2493201601
 40
0.2805128419
 40
0.3117129029
 40
0.3741199496
 40
0.436561389
 40
0.4678051134
 40
0.4990591368
 40
0.5615771583
 40
0.624123192
 40
0.6554130217
 40
0.6867095838
 40
0.7493149705
 40
0.8119773958
 40
0.8747062411
 40
0.9374210393
 40
1.0
 40
1.0
 40
1.0
 40
1.0
 10
5.736140243
 20
1.7100172388
 30
0.0
 10
5.736140243
 20
1.7059528103
 30
0.0
 10
5.736440576
 20
1.6998498433
 30
0.0
 10
5.7374410918
 20
1.6917788026
 30
0.0
 10
5.7388414981
 20
1.6837653352
 30
0.0
 10
5.7413317776
 20
1.6738910593
 30
0.0
 10
5.744779408
 20
1.6643071008
 30
0.0
 10
5.7480941007
 20
1.656872543
 30
0.0
 10
5.7517746394
 20
1.6496079631
 30
0.0
 10
5.7570411649
 20
1.6408767637
 30
0.0
 10
5.7631388503
 20
1.6327006991
 30
0.0
 10
5.76848274
 20
1.6265434633
 30
0.0
 10
5.7741273798
 20
1.6206538228
 30
0.0
 10
5.7817171769
 20
1.6138185135
 30
0.0
 10
5.7899388525
 20
1.6077538868
 30
0.0
 10
5.7968489518
 20
1.6034036298
 30
0.0
 10
5.8039674648
 20
1.5993957926
 30
0.0
 10
5.8132257584
 20
1.5950430181
 30
0.0
 10
5.8247974659
 20
1.5909255076
 30
0.0
 10
5.8367256443
 20
1.5879637373
 30
0.0
 10
5.848877489
 20
1.5861731748
 30
0.0
 10
5.8570559913
 20
1.5857696843
 30
0.0
 10
5.8611380853
 20
1.5857696843
 30
0.0
 11
5.736140243
 21
1.7100172388
 31
0.0
 11
5.736740593
 21
1.6978387418
 31
0.0
 11
5.73749103
 21
1.6917863578
 31
0.0
 11
5.738540736
 21
1.6857780824
 31
0.0
 11
5.7415227602
 21
1.6739506758
 31
0.0
 11
5.7456536518
 21
1.6624697852
 31
0.0
 11
5.7481394293
 21
1.6568946488
 31
0.0
 11
5.7508985744
 21
1.6514479999
 31
0.0
 11
5.7572058164
 21
1.6409901196
 31
0.0
 11
5.7645118655
 21
1.6311954962
 31
0.0
 11
5.7685194655
 21
1.6265778753
 31
0.0
 11
5.7727512054
 21
1.6221619601
 31
0.0
 11
5.7818417692
 21
1.6139740953
 31
0.0
 11
5.7916924213
 21
1.6067092283
 31
0.0
 11
5.7968742127
 21
1.6034469085
 31
0.0
 11
5.8022109296
 21
1.6004420323
 31
0.0
 11
5.8132980606
 21
1.5952291987
 31
0.0
 11
5.8248515993
 21
1.591119761
 31
0.0
 11
5.8367647325
 21
1.5881586902
 31
0.0
 11
5.848906513
 21
1.5863697338
 31
0.0
 11
5.8611380853
 21
1.5857696843
 31
0.0
  0
SPLINE
  5
254
100
AcDbEntity
  8
0
100
AcDbSpline
 62
6
  6
CONTINUOUS
 70
0
 71
3
 72
19
 73
15
 74
13
 42
0.0000001
 43
0.0000001
 44
0.0000000001
 12
-0.09611305
 22
0.0171450044
 32
0.0
 13
-0.0973933262
 23
0.0067977626
 33
0.0
 40
0.0
 40
0.0
 40
0.0
 40
0.0
 40
0.0347320884
 40
0.0741578859
 40
0.1181117695
 40
0.1664165487
 40
0.2188876047
 40
0.275318315
 40
0.3354757344
 40
0.3991178606
 40
0.5358039383
 40
0.6831390924
 40
0.8387329674
 40
1.0
 40
1.0
 40
1.0
 40
1.0
 10
5.6663890149
 20
6.166294807
 30
0.0
 10
5.6652762792
 20
6.1664933009
 30
0.0
 10
5.662894534
 20
6.166884151
 30
0.0
 10
5.6590902093
 20
6.167434373
 30
0.0
 10
5.6548401901
 20
6.1679853982
 30
0.0
 10
5.6501625234
 20
6.1685370234
 30
0.0
 10
5.6450762988
 20
6.1690890979
 30
0.0
 10
5.6396022967
 20
6.1696415272
 30
0.0
 10
5.6337630621
 20
6.1701943035
 30
0.0
 10
5.6253196561
 20
6.1709496318
 30
0.0
 10
5.6140440645
 20
6.1718843531
 30
0.0
 10
5.5997796713
 20
6.1729828403
 30
0.0
 10
5.5847131811
 20
6.1740823485
 30
0.0
 10
5.5744269203
 20
6.1748068566
 30
0.0
 10
5.5691914761
 20
6.175172275
 30
0.0
 11
5.6663890149
 21
6.166294807
 31
0.0
 11
5.6630437813
 21
6.166849457
 31
0.0
 11
5.65923485
 21
6.1674044416
 31
0.0
 11
5.654979654
 21
6.1679593809
 31
0.0
 11
5.650296396
 21
6.1685142062
 31
0.0
 11
5.6452037655
 21
6.169069021
 31
0.0
 11
5.6397224308
 21
6.1696238702
 31
0.0
 11
5.6338755136
 21
6.1701787233
 31
0.0
 11
5.6276869377
 21
6.1707335584
 31
0.0
 11
5.6143884566
 21
6.1718432348
 31
0.0
 11
5.6000469499
 21
6.1729528796
 31
0.0
 11
5.584896869
 21
6.1740626373
 31
0.0
 11
5.5691914761
 21
6.175172275
 31
0.0
  0
SPLINE
  5
255
100
AcDbEntity
  8
0
100
AcDbSpline
 62
6
  6
CONTINUOUS
 70
0
 71
3
 72
13
 73
9
 74
7
 42
0.0000001
 43
0.0000001
 44
0.0000000001
 12
0.0076132944
 22
0.000894171
 32
0.0
 13
0.0074462963
 23
0.001820567
 33
0.0
 40
0.0
 40
0.0
 40
0.0
 40
0.0
 40
0.3134498645
 40
0.5850696211
 40
0.7049568369
 40
0.8141108005
 40
0.9124617218
 40
1.0
 40
1.0
 40
1.0
 40
1.0
 10
5.6663890149
 20
6.1957396707
 30
0.0
 10
5.6671844769
 20
6.1958330966
 30
0.0
 10
5.6686681074
 20
6.1960174337
 30
0.0
 10
5.6704513802
 20
6.1962729525
 30
0.0
 10
5.6717138012
 20
6.1964802999
 30
0.0
 10
5.6725370565
 20
6.1966291342
 30
0.0
 10
5.6732762001
 20
6.1967778124
 30
0.0
 10
5.6737394963
 20
6.1968828851
 30
0.0
 10
5.6739567749
 20
6.1969360082
 30
0.0
 11
5.6663890149
 21
6.1957396707
 31
0.0
 11
5.66877314
 21
6.1960385716
 31
0.0
 11
5.6708336774
 21
6.1963376897
 31
0.0
 11
5.6717404307
 21
6.1964872839
 31
0.0
 11
5.6725636831
 21
6.1966368769
 31
0.0
 11
5.6733026177
 21
6.1967864522
 31
0.0
 11
5.6739567749
 21
6.1969360082
 31
0.0
  0
SPLINE
  5
256
100
AcDbEntity
  8
0
100
AcDbSpline
 62
6
  6
CONTINUOUS
 70
0
 71
3
 72
23
 73
19
 74
17
 42
0.0000001
 43
0.0000001
 44
0.0000000001
 12
0.0982156109
 22
0.0158820847
 32
0.0
 13
0.0919483935
 23
0.0380005233
 33
0.0
 40
0.0
 40
0.0
 40
0.0
 40
0.0
 40
0.1599574078
 40
0.3144093911
 40
0.3887782439
 40
0.4608559508
 40
0.5303547506
 40
0.5969966459
 40
0.6605265503
 40
0.7206982432
 40
0.7772865869
 40
0.8300785759
 40
0.8788914956
 40
0.9235705135
 40
0.944316262
 40
0.9639785441
 40
0.9825437359
 40
1.0
 40
1.0
 40
1.0
 40
1.0
 10
5.5691914761
 20
6.175172275
 30
0.0
 10
5.5744282476
 20
6.176019094
 30
0.0
 10
5.5847191635
 20
6.1776984388
 30
0.0
 10
5.5974322516
 20
6.1798478406
 30
0.0
 10
5.6072598446
 20
6.1815794737
 30
0.0
 10
5.6143057465
 20
6.1828616656
 30
0.0
 10
5.6210910945
 20
6.1841435787
 30
0.0
 10
5.6275877915
 20
6.1854252955
 30
0.0
 10
5.6337690249
 20
6.1867065724
 30
0.0
 10
5.6396094534
 20
6.187987566
 30
0.0
 10
5.6450849524
 20
6.1892679223
 30
0.0
 10
5.6501730884
 20
6.190547625
 30
0.0
 10
5.6548531793
 20
6.1918266139
 30
0.0
 10
5.6584820672
 20
6.1929169153
 30
0.0
 10
5.6611640484
 20
6.1937945814
 30
0.0
 10
5.663011693
 20
6.1944362651
 30
0.0
 10
5.6647435717
 20
6.1950776188
 30
0.0
 10
5.6658539897
 20
6.195518555
 30
0.0
 10
5.6663890149
 20
6.1957396707
 30
0.0
 11
5.5691914761
 21
6.175172275
 31
0.0
 11
5.5848968514
 21
6.1777430901
 31
0.0
 11
5.6000468828
 21
6.1803141779
 31
0.0
 11
5.6073334422
 21
6.1815995589
 31
0.0
 11
5.6143884045
 21
6.1828850145
 31
0.0
 11
5.6211824
 21
6.1841704834
 31
0.0
 11
5.6276868981
 21
6.1854559246
 31
0.0
 11
5.6338754874
 21
6.1867413737
 31
0.0
 11
5.6397224112
 21
6.1880268633
 31
0.0
 11
5.6452037496
 21
6.1893123432
 31
0.0
 11
5.650296385
 21
6.1905977446
 31
0.0
 11
5.6549796487
 21
6.1918831702
 31
0.0
 11
5.6592348382
 21
6.1931688555
 31
0.0
 11
5.6611961738
 21
6.1938117859
 31
0.0
 11
5.6630437575
 21
6.1944546432
 31
0.0
 11
5.6647754257
 21
6.1950973105
 31
0.0
 11
5.6663890149
 21
6.1957396707
 31
0.0
  0
SPLINE
  5
257
100
AcDbEntity
  8
0
100
AcDbSpline
 62
6
  6
CONTINUOUS
 70
0
 71
3
 72
31
 73
27
 74
25
 42
0.0000001
 43
0.0000001
 44
0.0000000001
 12
0.1248972535
 22
0.0056794329
 32
0.0
 13
0.1081969059
 23
0.0626498958
 33
0.0
 40
0.0
 40
0.0
 40
0.0
 40
0.0
 40
0.1856021786
 40
0.2763938715
 40
0.3647761669
 40
0.4500029391
 40
0.5313294853
 40
0.6080454426
 40
0.6794914245
 40
0.7450527483
 40
0.8041605024
 40
0.8311341506
 40
0.8563109789
 40
0.8796344349
 40
0.9010559174
 40
0.9205342336
 40
0.9380291672
 40
0.9535031718
 40
0.9669309099
 40
0.9782944624
 40
0.9831984048
 40
0.9875827288
 40
0.9914486926
 40
0.9948007411
 40
0.9976466508
 40
1.0
 40
1.0
 40
1.0
 40
1.0
 10
5.5511380853
 20
6.2247851724
 30
0.0
 10
5.5588651527
 20
6.2251365441
 30
0.0
 10
5.5703721052
 20
6.2256596869
 30
0.0
 10
5.5855577824
 20
6.2263684762
 30
0.0
 10
5.5965641677
 20
6.2268960396
 30
0.0
 10
5.6071756318
 20
6.2274234138
 30
0.0
 10
5.6173002864
 20
6.2279505177
 30
0.0
 10
5.6268498221
 20
6.2284772652
 30
0.0
 10
5.6357413067
 20
6.2290034973
 30
0.0
 10
5.6438976154
 20
6.229529056
 30
0.0
 10
5.6502014503
 20
6.2299787959
 30
0.0
 10
5.6548239369
 20
6.2303422715
 30
0.0
 10
5.6579582611
 20
6.2306063415
 30
0.0
 10
5.6608603308
 20
6.2308702638
 30
0.0
 10
5.6635238709
 20
6.2311340092
 30
0.0
 10
5.6659432438
 20
6.2313974599
 30
0.0
 10
5.6681131833
 20
6.2316605201
 30
0.0
 10
5.670028985
 20
6.2319230949
 30
0.0
 10
5.6716866167
 20
6.2321850277
 30
0.0
 10
5.6729034768
 20
6.2324120086
 30
0.0
 10
5.6737441225
 20
6.2325969407
 30
0.0
 10
5.6742763716
 20
6.2327285833
 30
0.0
 10
5.6747418018
 20
6.2328600253
 30
0.0
 10
5.6751403774
 20
6.2329912076
 30
0.0
 10
5.6754720858
 20
6.2331220407
 30
0.0
 10
5.6756669734
 20
6.2332178297
 30
0.0
 10
5.6757518484
 20
6.2332669754
 30
0.0
 11
5.5511380853
 21
6.2247851724
 31
0.0
 11
5.5743190083
 21
6.2258454125
 31
0.0
 11
5.5856579726
 21
6.2263755611
 31
0.0
 11
5.5966953643
 21
6.2269056357
 31
0.0
 11
5.6073377585
 21
6.22743576
 31
0.0
 11
5.6174918879
 21
6.2279658879
 31
0.0
 11
5.6270687415
 21
6.2284959911
 31
0.0
 11
5.6359856261
 21
6.2290260951
 31
0.0
 11
5.6441653571
 21
6.229556209
 31
0.0
 11
5.6515363439
 21
6.2300863221
 31
0.0
 11
5.6548983277
 21
6.2303513765
 31
0.0
 11
5.6580349148
 21
6.2306164295
 31
0.0
 11
5.6609388898
 21
6.230881481
 31
0.0
 11
5.6636039913
 21
6.2311465315
 31
0.0
 11
5.6660248269
 21
6.2314115815
 31
0.0
 11
5.6681960358
 21
6.2316766318
 31
0.0
 11
5.6701124514
 21
6.231941683
 31
0.0
 11
5.6717702167
 21
6.2322067358
 31
0.0
 11
5.6731660164
 21
6.2324717911
 31
0.0
 11
5.6737646436
 21
6.2326043198
 31
0.0
 11
5.6742965372
 21
6.2327368493
 31
0.0
 11
5.6747613599
 21
6.2328693798
 31
0.0
 11
5.675158947
 21
6.233001911
 31
0.0
 11
5.675489157
 21
6.2331344429
 31
0.0
 11
5.6757518484
 21
6.2332669754
 31
0.0
  0
SPLINE
  5
258
100
AcDbEntity
  8
0
100
AcDbSpline
 62
6
  6
CONTINUOUS
 70
0
 71
3
 72
31
 73
27
 74
25
 42
0.0000001
 43
0.0000001
 44
0.0000000001
 12
0.12489725
 22
0.0056794328
 32
0.0
 13
0.1081966373
 23
0.0626503527
 33
0.0
 40
0.0
 40
0.0
 40
0.0
 40
0.0
 40
0.1856038936
 40
0.2763966541
 40
0.3647793153
 40
0.4500061003
 40
0.5313327569
 40
0.6080483778
 40
0.6794937647
 40
0.7450540014
 40
0.8041608343
 40
0.8311340691
 40
0.8563106092
 40
0.8796339817
 40
0.9010555617
 40
0.9205340839
 40
0.9380292601
 40
0.9535034087
 40
0.9669311075
 40
0.9782945599
 40
0.9831984687
 40
0.9875827895
 40
0.9914487506
 40
0.9948007831
 40
0.997646671
 40
1.0
 40
1.0
 40
1.0
 40
1.0
 10
5.5511380853
 20
6.2604994581
 30
0.0
 10
5.5588652239
 20
6.2608508331
 30
0.0
 10
5.5703722919
 20
6.2613739809
 30
0.0
 10
5.5855580997
 20
6.2620827771
 30
0.0
 10
5.5965645449
 20
6.2626103432
 30
0.0
 10
5.607176029
 20
6.2631377204
 30
0.0
 10
5.6173006744
 20
6.2636648233
 30
0.0
 10
5.6268501756
 20
6.2641915721
 30
0.0
 10
5.635741576
 20
6.2647177985
 30
0.0
 10
5.6438977759
 20
6.265243354
 30
0.0
 10
5.6502015101
 20
6.2656930851
 30
0.0
 10
5.6548239291
 20
6.2660565555
 30
0.0
 10
5.6579582206
 20
6.2663206232
 30
0.0
 10
5.6608602788
 20
6.266584545
 30
0.0
 10
5.6635238279
 20
6.266848292
 30
0.0
 10
5.6659432233
 20
6.2671117451
 30
0.0
 10
5.6681131875
 20
6.2673748069
 30
0.0
 10
5.6700290037
 20
6.2676373816
 30
0.0
 10
5.6716866354
 20
6.2678993152
 30
0.0
 10
5.6729034882
 20
6.2681262963
 30
0.0
 10
5.673744128
 20
6.2683112281
 30
0.0
 10
5.6742763757
 20
6.2684428699
 30
0.0
 10
5.674741805
 20
6.2685743112
 30
0.0
 10
5.675140379
 20
6.2687054934
 30
0.0
 10
5.6754720848
 20
6.2688363265
 30
0.0
 10
5.6756669704
 20
6.2689321154
 30
0.0
 10
5.6757518445
 20
6.2689812611
 30
0.0
 11
5.5511380853
 21
6.2604994581
 31
0.0
 11
5.5743192218
 21
6.2615597081
 31
0.0
 11
5.5856583191
 21
6.2620898633
 31
0.0
 11
5.5966957562
 21
6.2626199404
 31
0.0
 11
5.6073381516
 21
6.263150066
 31
0.0
 11
5.6174922945
 21
6.2636801952
 31
0.0
 11
5.6270691057
 21
6.264210298
 31
0.0
 11
5.6359859158
 21
6.2647403984
 31
0.0
 11
5.6441655108
 21
6.2652705055
 31
0.0
 11
5.6515363825
 21
6.2658006098
 31
0.0
 11
5.6548983147
 21
6.2660656601
 31
0.0
 11
5.6580348658
 21
6.2663307105
 31
0.0
 11
5.6609388302
 21
6.2665957616
 31
0.0
 11
5.6636039438
 21
6.2668608137
 31
0.0
 11
5.6660248049
 21
6.2671258663
 31
0.0
 11
5.6681960441
 21
6.2673909189
 31
0.0
 11
5.6701124776
 21
6.2676559712
 31
0.0
 11
5.6717702379
 21
6.267921024
 31
0.0
 11
5.6731660249
 21
6.2681860785
 31
0.0
 11
5.6737646479
 21
6.2683186067
 31
0.0
 11
5.6742965412
 21
6.2684511359
 31
0.0
 11
5.6747613637
 21
6.268583666
 31
0.0
 11
5.6751589487
 21
6.268716197
 31
0.0
 11
5.6754891558
 21
6.2688487287
 31
0.0
 11
5.6757518445
 21
6.2689812611
 31
0.0
  0
SPLINE
  5
259
100
AcDbEntity
  8
0
100
AcDbSpline
 62
6
  6
CONTINUOUS
 70
0
 71
3
 72
25
 73
21
 74
19
 42
0.0000001
 43
0.0000001
 44
0.0000000001
 12
0.0739085367
 22
0.0034977209
 32
0.0
 13
0.0695511118
 23
0.0252457659
 33
0.0
 40
0.0
 40
0.0
 40
0.0
 40
0.0
 40
0.1839709861
 40
0.3569959996
 40
0.4384343046
 40
0.5160063434
 40
0.5893351577
 40
0.6580426972
 40
0.7217626945
 40
0.7801365299
 40
0.8328160887
 40
0.8794665505
 40
0.9004304394
 40
0.9197716855
 40
0.9374558844
 40
0.9534498906
 40
0.9677233412
 40
0.9802511149
 40
0.9910134919
 40
1.0
 40
1.0
 40
1.0
 40
1.0
 10
5.5691914761
 20
6.175172275
 30
0.0
 10
5.5737238182
 20
6.175386768
 30
0.0
 10
5.5825182297
 20
6.1758159689
 30
0.0
 10
5.5933165511
 20
6.1763884899
 30
0.0
 10
5.6014922484
 20
6.1768594663
 30
0.0
 10
5.6072119071
 20
6.1772096766
 30
0.0
 10
5.6126166839
 20
6.1775641307
 30
0.0
 10
5.6176787354
 20
6.1779229456
 30
0.0
 10
5.622370612
 20
6.1782861971
 30
0.0
 10
5.6266655295
 20
6.1786539273
 30
0.0
 10
5.6305373206
 20
6.1790262008
 30
0.0
 10
5.6334866015
 20
6.1793504472
 30
0.0
 10
5.635614773
 20
6.1796161059
 30
0.0
 10
5.6370319085
 20
6.1798095109
 30
0.0
 10
5.6383250389
 20
6.1800042282
 30
0.0
 10
5.6394914217
 20
6.1802002578
 30
0.0
 10
5.640528404
 20
6.1803975649
 30
0.0
 10
5.6414335492
 20
6.180595972
 30
0.0
 10
5.642204444
 20
6.1807952935
 30
0.0
 10
5.6426694847
 20
6.1809416151
 30
0.0
 10
5.6428778252
 20
6.1810172388
 30
0.0
 11
5.5691914761
 21
6.175172275
 31
0.0
 11
5.582787385
 21
6.1758389482
 31
0.0
 11
5.5955715237
 21
6.1765213366
 31
0.0
 11
5.601587228
 21
6.1768686572
 31
0.0
 11
5.6073160969
 21
6.1772203275
 31
0.0
 11
5.6127300844
 21
6.1775765055
 31
0.0
 11
5.6178010194
 21
6.1779373447
 31
0.0
 11
5.6225015385
 21
6.1783030336
 31
0.0
 11
5.6268047505
 21
6.17867378
 31
0.0
 11
5.6306843987
 21
6.1790497887
 31
0.0
 11
5.6341149808
 21
6.1794312602
 31
0.0
 11
5.6356540894
 21
6.1796241172
 31
0.0
 11
5.6370719169
 21
6.1798184462
 31
0.0
 11
5.6383656531
 21
6.1800142938
 31
0.0
 11
5.6395324877
 21
6.1802117069
 31
0.0
 11
5.6405696783
 21
6.1804107171
 31
0.0
 11
5.6414746577
 21
6.1806113177
 31
0.0
 11
5.6422448865
 21
6.1808134959
 31
0.0
 11
5.6428778252
 21
6.1810172388
 31
0.0
  0
SPLINE
  5
25A
100
AcDbEntity
  8
0
100
AcDbSpline
 62
6
  6
CONTINUOUS
 70
0
 71
3
 72
17
 73
13
 74
11
 42
0.0000001
 43
0.0000001
 44
0.0000000001
 12
0.0074184804
 22
0.0010945859
 32
0.0
 13
0.0064862599
 23
0.003763031
 33
0.0
 40
0.0
 40
0.0
 40
0.0
 40
0.0
 40
0.185351986
 40
0.3537315613
 40
0.5049356998
 40
0.6387838127
 40
0.7551319394
 40
0.8539368616
 40
0.8968191785
 40
0.9354078335
 40
0.9697688508
 40
1.0
 40
1.0
 40
1.0
 40
1.0
 10
5.6428778252
 20
6.1810172388
 30
0.0
 10
5.6433361686
 20
6.1810848667
 30
0.0
 10
5.6442101143
 20
6.1812192717
 30
0.0
 10
5.645454526
 20
6.181430417
 30
0.0
 10
5.6465681999
 20
6.1816413871
 30
0.0
 10
5.6475493247
 20
6.1818520021
 30
0.0
 10
5.6483961649
 20
6.1820621371
 30
0.0
 10
5.6490152734
 20
6.1822442367
 30
0.0
 10
5.6494409638
 20
6.1823922943
 30
0.0
 10
5.6497106316
 20
6.182497951
 30
0.0
 10
5.64994607
 20
6.1826035057
 30
0.0
 10
5.6500892228
 20
6.1826785286
 30
0.0
 10
5.6501545851
 20
6.1827164488
 30
0.0
 11
5.6428778252
 21
6.1810172388
 31
0.0
 11
5.6442514497
 21
6.1812294306
 31
0.0
 11
5.64549611
 21
6.1814417786
 31
0.0
 11
5.646609878
 21
6.1816542287
 31
0.0
 11
5.6475908255
 21
6.1818667268
 31
0.0
 11
5.6484370246
 21
6.1820792189
 31
0.0
 11
5.6491468319
 21
6.1822916649
 31
0.0
 11
5.6494503524
 21
6.1823978717
 31
0.0
 11
5.6497195291
 21
6.1825040701
 31
0.0
 11
5.6499542954
 21
6.1826102618
 31
0.0
 11
5.6501545851
 21
6.1827164488
 31
0.0
  0
SPLINE
  5
25B
100
AcDbEntity
  8
0
100
AcDbSpline
 62
6
  6
CONTINUOUS
 70
0
 71
3
 72
35
 73
31
 74
29
 42
0.0000001
 43
0.0000001
 44
0.0000000001
 12
0.0
 22
0.2935854439
 32
0.0
 13
0.2935854439
 23
0.0
 33
0.0
 40
0.0
 40
0.0
 40
0.0
 40
0.0
 40
0.0622982669
 40
0.093458614
 40
0.1246220145
 40
0.155789375
 40
0.1869610686
 40
0.2181374812
 40
0.2493195493
 40
0.2805085956
 40
0.311705177
 40
0.3741021996
 40
0.405322176
 40
0.436551379
 40
0.4677901076
 40
0.4990382023
 40
0.5302955903
 40
0.5615627305
 40
0.5928396583
 40
0.6241252229
 40
0.6866968894
 40
0.7179993946
 40
0.7493087254
 40
0.7806275089
 40
0.8119581779
 40
0.8433034682
 40
0.8746646363
 40
0.9060316259
 40
0.9373897336
 40
1.0
 40
1.0
 40
1.0
 40
1.0
 10
5.6736397878
 20
1.7100172388
 30
0.0
 10
5.6736397878
 20
1.7161138603
 30
0.0
 10
5.6740906123
 20
1.7252684477
 30
0.0
 10
5.6755930728
 20
1.7373746629
 30
0.0
 10
5.6771684138
 20
1.7463913371
 30
0.0
 10
5.6791861177
 20
1.7553201275
 30
0.0
 10
5.6816410782
 20
1.7641401505
 30
0.0
 10
5.684527835
 20
1.7728299718
 30
0.0
 10
5.6878415806
 20
1.781367858
 30
0.0
 10
5.6915739266
 20
1.7897337023
 30
0.0
 10
5.6970929619
 20
1.8006309065
 30
0.0
 10
5.703410837
 20
1.8111121842
 30
0.0
 10
5.7104769414
 20
1.8210837822
 30
0.0
 10
5.7161421858
 20
1.8282975223
 30
0.0
 10
5.7221558905
 20
1.8352266498
 30
0.0
 10
5.7285037429
 20
1.8418549414
 30
0.0
 10
5.7351709956
 20
1.8481659513
 30
0.0
 10
5.7421431631
 20
1.8541426174
 30
0.0
 10
5.7494026598
 20
1.8597717407
 30
0.0
 10
5.7594379643
 20
1.8667961401
 30
0.0
 10
5.7699793313
 20
1.8730792335
 30
0.0
 10
5.7809385303
 20
1.8785624397
 30
0.0
 10
5.7893541238
 20
1.8822700623
 30
0.0
 10
5.7979428974
 20
1.8855634716
 30
0.0
 10
5.8066855566
 20
1.8884350048
 30
0.0
 10
5.8155621917
 20
1.8908767972
 30
0.0
 10
5.8245513941
 20
1.8928804519
 30
0.0
 10
5.8336292194
 20
1.894443542
 30
0.0
 10
5.8458068329
 20
1.8959358983
 30
0.0
 10
5.855010931
 20
1.8963885707
 30
0.0
 10
5.8611380853
 20
1.8963885707
 30
0.0
 11
5.6736397878
 21
1.7100172388
 31
0.0
 11
5.6745411543
 21
1.7282848789
 31
0.0
 11
5.6756677241
 21
1.7373634719
 31
0.0
 11
5.677242028
 21
1.7463761284
 31
0.0
 11
5.679258838
 21
1.7553013826
 31
0.0
 11
5.681712839
 21
1.7641177791
 31
0.0
 11
5.6845987157
 21
1.7728038625
 31
0.0
 11
5.6879109573
 21
1.7813382506
 31
0.0
 11
5.691641297
 21
1.789700595
 31
0.0
 11
5.6957794305
 21
1.7978713116
 31
0.0
 11
5.7052376704
 21
1.8135595951
 31
0.0
 11
5.7105368342
 21
1.8210381967
 31
0.0
 11
5.7161993768
 21
1.8282490144
 31
0.0
 11
5.7222106545
 21
1.8351754933
 31
0.0
 11
5.7285560025
 21
1.8418010932
 31
0.0
 11
5.735220756
 21
1.8481092738
 31
0.0
 11
5.742189953
 21
1.8540837973
 31
0.0
 11
5.7494462025
 21
1.8597108965
 31
0.0
 11
5.7569709275
 21
1.8649780103
 31
0.0
 11
5.7727514645
 21
1.8743820703
 31
0.0
 11
5.7809699931
 21
1.8784943872
 31
0.0
 11
5.7893817061
 21
1.8822005015
 31
0.0
 11
5.7979668957
 21
1.8854925744
 31
0.0
 11
5.8067058534
 21
1.88836277
 31
0.0
 11
5.8155788708
 21
1.8908032525
 31
0.0
 11
5.8245654024
 21
1.892806864
 31
0.0
 11
5.8336406826
 21
1.8943698653
 31
0.0
 11
5.8427786186
 21
1.8954895926
 31
0.0
 11
5.8611380853
 21
1.8963885707
 31
0.0
  0
SPLINE
  5
25C
100
AcDbEntity
  8
0
100
AcDbSpline
 62
6
  6
CONTINUOUS
 70
0
 71
3
 72
9
 73
5
 74
3
 42
0.0000001
 43
0.0000001
 44
0.0000000001
 12
-0.0000000037
 22
-0.0000638278
 32
0.0
 13
0.0000152035
 23
-0.0000619907
 33
0.0
 40
0.0
 40
0.0
 40
0.0
 40
0.0
 40
0.2479164037
 40
1.0
 40
1.0
 40
1.0
 40
1.0
 10
5.4261380854
 20
6.1864117374
 30
0.0
 10
5.4261380851
 20
6.1864064627
 30
0.0
 10
5.4261387342
 20
6.18638519
 30
0.0
 10
5.4261420316
 20
6.1863640119
 30
0.0
 10
5.426145843
 20
6.1863484712
 30
0.0
 11
5.4261380854
 21
6.1864117374
 31
0.0
 11
5.4261385697
 21
6.1863959208
 31
0.0
 11
5.426145843
 21
6.1863484712
 31
0.0
  0
SPLINE
  5
25D
100
AcDbEntity
  8
0
100
AcDbSpline
 62
6
  6
CONTINUOUS
 70
0
 71
3
 72
38
 73
34
 74
32
 42
0.0000001
 43
0.0000001
 44
0.0000000001
 12
0.0000072465
 22
0.1256416954
 32
0.0
 13
0.125511997
 23
0.0057073871
 33
0.0
 40
0.0
 40
0.0
 40
0.0
 40
0.0
 40
0.0005602639
 40
0.0011593949
 40
0.0018294208
 40
0.00259341
 40
0.0034669353
 40
0.0044603584
 40
0.0068315906
 40
0.0097425575
 40
0.0132103894
 40
0.0172445553
 40
0.0218502819
 40
0.0270289419
 40
0.0327798919
 40
0.0391016009
 40
0.0459919502
 40
0.0614679789
 40
0.0791829366
 40
0.0990963974
 40
0.1211619434
 40
0.145332053
 40
0.1715518816
 40
0.2298788912
 40
0.2955971735
 40
0.3680722934
 40
0.4466168266
 40
0.5304783766
 40
0.6188533025
 40
0.7108812692
 40
0.8056967938
 40
0.9024147091
 40
1.0
 40
1.0
 40
1.0
 40
1.0
 10
5.4261380854
 20
6.2158566011
 30
0.0
 10
5.4261380868
 20
6.2158800653
 30
0.0
 10
5.4261449281
 20
6.2159288341
 30
0.0
 10
5.4261748083
 20
6.2160001034
 30
0.0
 10
5.4262235762
 20
6.2160704926
 30
0.0
 10
5.4262908503
 20
6.2161403012
 30
0.0
 10
5.4263765685
 20
6.2162098646
 30
0.0
 10
5.426524473
 20
6.2163083515
 30
0.0
 10
5.4267589324
 20
6.2164286862
 30
0.0
 10
5.4270988694
 20
6.2165662051
 30
0.0
 10
5.4275128365
 20
6.2167041056
 30
0.0
 10
5.4280008296
 20
6.2168423483
 30
0.0
 10
5.4285628432
 20
6.2169808146
 30
0.0
 10
5.4291985863
 20
6.217119474
 30
0.0
 10
5.4299076676
 20
6.2172582808
 30
0.0
 10
5.4306896368
 20
6.2173972107
 30
0.0
 10
5.4318755565
 20
6.2175901208
 30
0.0
 10
5.4335373377
 20
6.2178283606
 30
0.0
 10
5.4357441953
 20
6.2181049345
 30
0.0
 10
5.438228878
 20
6.218381977
 30
0.0
 10
5.4409853549
 20
6.2186594128
 30
0.0
 10
5.4440071306
 20
6.2189371014
 30
0.0
 10
5.448544045
 20
6.2193213565
 30
0.0
 10
5.4548194565
 20
6.2197956548
 30
0.0
 10
5.4630313537
 20
6.2203478917
 30
0.0
 10
5.4720916305
 20
6.2209011393
 30
0.0
 10
5.4819130065
 20
6.2214550435
 30
0.0
 10
5.4924012289
 20
6.2220094838
 30
0.0
 10
5.5034548701
 20
6.2225642476
 30
0.0
 10
5.5149678069
 20
6.2231192826
 30
0.0
 10
5.5268305332
 20
6.2236745481
 30
0.0
 10
5.5389262491
 20
6.2242298667
 30
0.0
 10
5.547055377
 20
6.2245995201
 30
0.0
 10
5.5511380853
 20
6.2247851724
 30
0.0
 11
5.4261380854
 21
6.2158566011
 31
0.0
 11
5.4261475232
 21
6.2159263581
 31
0.0
 11
5.4261758149
 21
6.215996115
 31
0.0
 11
5.4262229401
 21
6.2160658719
 31
0.0
 11
5.4262888783
 21
6.2161356288
 31
0.0
 11
5.4263736092
 21
6.2162053856
 31
0.0
 11
5.4264771122
 21
6.2162751423
 31
0.0
 11
5.4267403532
 21
6.2164146553
 31
0.0
 11
5.4270784377
 21
6.2165541677
 31
0.0
 11
5.4274912025
 21
6.2166936794
 31
0.0
 11
5.4279784839
 21
6.2168331901
 31
0.0
 11
5.4285400866
 21
6.2169726998
 31
0.0
 11
5.42917561
 21
6.2171122086
 31
0.0
 11
5.4298845735
 21
6.2172517165
 31
0.0
 11
5.4306664961
 21
6.2173912238
 31
0.0
 11
5.4315208968
 21
6.2175307305
 31
0.0
 11
5.433445209
 21
6.2178097431
 31
0.0
 11
5.435653389
 21
6.2180887552
 31
0.0
 11
5.438139744
 21
6.218367767
 31
0.0
 11
5.4408980209
 21
6.2186467787
 31
0.0
 11
5.4439219499
 21
6.2189257899
 31
0.0
 11
5.4472044169
 21
6.2192048011
 31
0.0
 11
5.4545114445
 21
6.2197628264
 31
0.0
 11
5.4627495226
 21
6.2203208581
 31
0.0
 11
5.4718383049
 21
6.2208788857
 31
0.0
 11
5.4816909838
 21
6.2214369064
 31
0.0
 11
5.4922127029
 21
6.2219949494
 31
0.0
 11
5.503302246
 21
6.2225530043
 31
0.0
 11
5.5148513234
 21
6.2231110082
 31
0.0
 11
5.5267510283
 21
6.2236690648
 31
0.0
 11
5.5388900012
 21
6.224227321
 31
0.0
 11
5.5511380853
 21
6.2247851724
 31
0.0
  0
SPLINE
  5
25E
100
AcDbEntity
  8
0
100
AcDbSpline
 62
6
  6
CONTINUOUS
 70
0
 71
3
 72
9
 73
5
 74
3
 42
0.0000001
 43
0.0000001
 44
0.0000000001
 12
0.0000000037
 22
-0.0000632261
 32
0.0
 13
0.0000149329
 23
-0.0000614373
 33
0.0
 40
0.0
 40
0.0
 40
0.0
 40
0.0
 40
0.2479523559
 40
1.0
 40
1.0
 40
1.0
 40
1.0
 10
5.4261380854
 20
6.2221260231
 30
0.0
 10
5.4261380858
 20
6.2221207974
 30
0.0
 10
5.4261387251
 20
6.2220997253
 30
0.0
 10
5.4261419625
 20
6.2220787452
 30
0.0
 10
5.4261457059
 20
6.2220633439
 30
0.0
 11
5.4261380854
 21
6.2221260231
 31
0.0
 11
5.4261385625
 21
6.2221103533
 31
0.0
 11
5.4261457059
 21
6.2220633439
 31
0.0
  0
SPLINE
  5
25F
100
AcDbEntity
  8
0
100
AcDbSpline
 62
6
  6
CONTINUOUS
 70
0
 71
3
 72
38
 73
34
 74
32
 42
0.0000001
 43
0.0000001
 44
0.0000000001
 12
-0.0000073287
 22
0.1256417023
 32
0.0
 13
0.1255120039
 23
0.0057073874
 33
0.0
 40
0.0
 40
0.0
 40
0.0
 40
0.0
 40
0.0005602585
 40
0.0011593797
 40
0.0018294006
 40
0.002593394
 40
0.0034669334
 40
0.0044603792
 40
0.0068316724
 40
0.0097427014
 40
0.0132105708
 40
0.0172447231
 40
0.0218504187
 40
0.0270291205
 40
0.0327801579
 40
0.039101968
 40
0.0459924006
 40
0.0614684136
 40
0.0791831796
 40
0.0990966204
 40
0.1211623032
 40
0.1453327146
 40
0.1715532705
 40
0.229882053
 40
0.2956018619
 40
0.3680781893
 40
0.4466235798
 40
0.5304850931
 40
0.6188599453
 40
0.7108870848
 40
0.8057003035
 40
0.902415456
 40
1.0
 40
1.0
 40
1.0
 40
1.0
 10
5.4261380854
 20
6.2515708868
 30
0.0
 10
5.4261380841
 20
6.2515943507
 30
0.0
 10
5.4261449208
 20
6.2516431198
 30
0.0
 10
5.4261747976
 20
6.2517143898
 30
0.0
 10
5.4262235645
 20
6.2517847794
 30
0.0
 10
5.4262908394
 20
6.251854588
 30
0.0
 10
5.4263765598
 20
6.2519241515
 30
0.0
 10
5.4265244691
 20
6.2520226386
 30
0.0
 10
5.4267589354
 20
6.2521429731
 30
0.0
 10
5.4270988797
 20
6.2522804921
 30
0.0
 10
5.4275128505
 20
6.2524183927
 30
0.0
 10
5.4280008429
 20
6.2525566367
 30
0.0
 10
5.4285628559
 20
6.2526951051
 30
0.0
 10
5.4291986033
 20
6.2528337644
 30
0.0
 10
5.4299076944
 20
6.2529725715
 30
0.0
 10
5.4306896752
 20
6.2531115015
 30
0.0
 10
5.4318756023
 20
6.2533044109
 30
0.0
 10
5.4335373783
 20
6.2535426509
 30
0.0
 10
5.4357442261
 20
6.2538192268
 30
0.0
 10
5.4382289061
 20
6.254096267
 30
0.0
 10
5.4409854007
 20
6.2543737027
 30
0.0
 10
5.4440072253
 20
6.2546513959
 30
0.0
 10
5.4485442571
 20
6.2550356572
 30
0.0
 10
5.4548198372
 20
6.2555099677
 30
0.0
 10
5.4630319233
 20
6.2560622143
 30
0.0
 10
5.472092351
 20
6.2566154678
 30
0.0
 10
5.4819138126
 20
6.2571693721
 30
0.0
 10
5.4924020668
 20
6.2577238141
 30
0.0
 10
5.5034556696
 20
6.2582785715
 30
0.0
 10
5.5149684729
 20
6.2588336005
 30
0.0
 10
5.5268309533
 20
6.2593888529
 30
0.0
 10
5.5389264265
 20
6.2599441606
 30
0.0
 10
5.5470554081
 20
6.2603138072
 30
0.0
 10
5.5511380853
 20
6.2604994581
 30
0.0
 11
5.4261380854
 21
6.2515708868
 31
0.0
 11
5.4261475167
 21
6.251640644
 31
0.0
 11
5.4261758046
 21
6.2517104011
 31
0.0
 11
5.4262229284
 21
6.2517801582
 31
0.0
 11
5.4262888672
 21
6.2518499152
 31
0.0
 11
5.4263736002
 21
6.2519196722
 31
0.0
 11
5.4264771066
 21
6.2519894291
 31
0.0
 11
5.426740356
 21
6.2521289425
 31
0.0
 11
5.4270784488
 21
6.2522684554
 31
0.0
 11
5.4274912184
 21
6.2524079675
 31
0.0
 11
5.427978498
 21
6.2525474788
 31
0.0
 11
5.4285400965
 21
6.2526869891
 31
0.0
 11
5.4291756252
 21
6.2528264985
 31
0.0
 11
5.4298845998
 21
6.2529660071
 31
0.0
 11
5.4306665352
 21
6.2531055149
 31
0.0
 11
5.4315209465
 21
6.253245022
 31
0.0
 11
5.4334452568
 21
6.2535240346
 31
0.0
 11
5.4356534128
 21
6.2538030457
 31
0.0
 11
5.4381397655
 21
6.2540820565
 31
0.0
 11
5.4408980599
 21
6.2543610683
 31
0.0
 11
5.4439220268
 21
6.2546400824
 31
0.0
 11
5.4472045852
 21
6.2549190994
 31
0.0
 11
5.4545118355
 21
6.2554771394
 31
0.0
 11
5.4627501056
 21
6.2560351815
 31
0.0
 11
5.4718390401
 21
6.2565932149
 31
0.0
 11
5.4816918272
 21
6.2571512379
 31
0.0
 11
5.4922135424
 21
6.257709279
 31
0.0
 11
5.503303077
 21
6.2582673306
 31
0.0
 11
5.5148520512
 21
6.2588253287
 31
0.0
 11
5.5267514675
 21
6.2593833709
 31
0.0
 11
5.5388900943
 21
6.259941611
 31
0.0
 11
5.5511380853
 21
6.2604994581
 31
0.0
  0
SPLINE
  5
260
100
AcDbEntity
  8
0
100
AcDbSpline
 62
6
  6
CONTINUOUS
 70
0
 71
3
 72
9
 73
5
 74
3
 42
0.0000001
 43
0.0000001
 44
0.0000000001
 12
0.0000000014
 22
-0.0000633942
 32
0.0
 13
0.0000150082
 23
-0.000061592
 33
0.0
 40
0.0
 40
0.0
 40
0.0
 40
0.0
 40
0.2479423746
 40
1.0
 40
1.0
 40
1.0
 40
1.0
 10
5.4261380853
 20
6.2578403087
 30
0.0
 10
5.4261380854
 20
6.2578350693
 30
0.0
 10
5.4261387274
 20
6.2578139412
 30
0.0
 10
5.4261419815
 20
6.2577929057
 30
0.0
 10
5.4261457438
 20
6.2577774655
 30
0.0
 11
5.4261380853
 21
6.2578403087
 31
0.0
 11
5.4261385643
 21
6.2578245979
 31
0.0
 11
5.4261457438
 21
6.2577774655
 31
0.0
  0
SPLINE
  5
261
100
AcDbEntity
  8
0
100
AcDbSpline
 62
6
  6
CONTINUOUS
 70
0
 71
3
 72
13
 73
9
 74
7
 42
0.0000001
 43
0.0000001
 44
0.0000000001
 12
-0.0074748319
 22
-0.0018408146
 32
0.0
 13
-0.0076456109
 23
-0.0008979665
 33
0.0
 40
0.0
 40
0.0
 40
0.0
 40
0.0
 40
0.087207036
 40
0.1853201719
 40
0.2943322685
 40
0.4141739218
 40
0.6859868681
 40
1.0
 40
1.0
 40
1.0
 40
1.0
 10
5.6739883796
 20
6.1674988996
 30
0.0
 10
5.6737710937
 20
6.1674453889
 30
0.0
 10
5.6733073919
 20
6.1673395785
 30
0.0
 10
5.6725670337
 20
6.1671899552
 30
0.0
 10
5.671741449
 20
6.1670401711
 30
0.0
 10
5.6704737404
 20
6.1668314146
 30
0.0
 10
5.6686811369
 20
6.1665742154
 30
0.0
 10
5.6671892889
 20
6.1663887981
 30
0.0
 10
5.6663890149
 20
6.166294807
 30
0.0
 11
5.6739883796
 21
6.1674988996
 31
0.0
 11
5.6733341384
 21
6.1673483749
 31
0.0
 11
5.6725940027
 21
6.1671978309
 31
0.0
 11
5.6717684267
 21
6.1670472687
 31
0.0
 11
5.6708582353
 21
6.1668967046
 31
0.0
 11
5.6687875461
 21
6.1665956462
 31
0.0
 11
5.6663890149
 21
6.166294807
 31
0.0
  0
SPLINE
  5
262
100
AcDbEntity
  8
0
100
AcDbSpline
 62
6
  6
CONTINUOUS
 70
0
 71
3
 72
25
 73
21
 74
19
 42
0.0000001
 43
0.0000001
 44
0.0000000001
 12
-0.1196686449
 22
-0.0282807642
 32
0.0
 13
-0.1228380441
 23
-0.0055857948
 33
0.0
 40
0.0
 40
0.0
 40
0.0
 40
0.0
 40
0.0095492093
 40
0.0208934246
 40
0.0340210053
 40
0.0489166814
 40
0.065558182
 40
0.0839147023
 40
0.1039540616
 40
0.1256434693
 40
0.1738142655
 40
0.2280720796
 40
0.2880276942
 40
0.3532333423
 40
0.4232155134
 40
0.4974564216
 40
0.5754146039
 40
0.6565026423
 40
0.8256837261
 40
1.0
 40
1.0
 40
1.0
 40
1.0
 10
5.6738029294
 20
6.2031684675
 30
0.0
 10
5.6734220158
 20
6.2030784479
 30
0.0
 10
5.6725834747
 20
6.2029031501
 30
0.0
 10
5.6712099658
 20
6.2026615675
 30
0.0
 10
5.6696145304
 20
6.2024192771
 30
0.0
 10
5.6677998957
 20
6.2021765033
 30
0.0
 10
5.6657692826
 20
6.2019334131
 30
0.0
 10
5.6635265225
 20
6.2016900376
 30
0.0
 10
5.6610757763
 20
6.2014464369
 30
0.0
 10
5.6574063467
 20
6.2011095661
 30
0.0
 10
5.6523358873
 20
6.2006934787
 30
0.0
 10
5.6456976482
 20
6.2002087173
 30
0.0
 10
5.6383595514
 20
6.1997233126
 30
0.0
 10
5.6303757048
 20
6.1992372294
 30
0.0
 10
5.6218053453
 20
6.1987508103
 30
0.0
 10
5.6127115148
 20
6.1982640168
 30
0.0
 10
5.6031618665
 20
6.197777037
 30
0.0
 10
5.5897245168
 20
6.1971181411
 30
0.0
 10
5.5723404896
 20
6.1963044289
 30
0.0
 10
5.558275642
 20
6.1956648737
 30
0.0
 10
5.5511380853
 20
6.1953403087
 30
0.0
 11
5.6738029294
 21
6.2031684675
 31
0.0
 11
5.6726544764
 21
6.2029238366
 31
0.0
 11
5.6712811527
 21
6.202679208
 31
0.0
 11
5.6696855635
 21
6.2024345813
 31
0.0
 11
5.667870326
 21
6.2021899558
 31
0.0
 11
5.6658386785
 21
6.2019453311
 31
0.0
 11
5.6635947641
 21
6.2017007065
 31
0.0
 11
5.6611427972
 21
6.2014560816
 31
0.0
 11
5.6584870021
 21
6.2012114557
 31
0.0
 11
5.6525839215
 21
6.2007222003
 31
0.0
 11
5.645930074
 21
6.2002329401
 31
0.0
 11
5.6385738856
 21
6.1997436773
 31
0.0
 11
5.6305708155
 21
6.1992544205
 31
0.0
 11
5.6219793784
 21
6.1987651713
 31
0.0
 11
5.6128634669
 21
6.1982759096
 31
0.0
 11
5.6032898353
 21
6.1977866286
 31
0.0
 11
5.593330857
 21
6.1972973719
 31
0.0
 11
5.5725505359
 21
6.1963188195
 31
0.0
 11
5.5511380853
 21
6.1953403087
 31
0.0
  0
SPLINE
  5
263
100
AcDbEntity
  8
0
100
AcDbSpline
 62
6
  6
CONTINUOUS
 70
0
 71
3
 72
9
 73
5
 74
3
 42
0.0000001
 43
0.0000001
 44
0.0000000001
 12
0.0000000001
 22
0.0000635396
 32
0.0
 13
-0.0000150737
 23
0.0000617257
 33
0.0
 40
0.0
 40
0.0
 40
0.0
 40
0.0
 40
0.2479336277
 40
1.0
 40
1.0
 40
1.0
 40
1.0
 10
5.6761380853
 20
6.2337137438
 30
0.0
 10
5.6761380853
 20
6.233718995
 30
0.0
 10
5.6761374409
 20
6.2337401717
 30
0.0
 10
5.6761341722
 20
6.2337612549
 30
0.0
 10
5.6761303934
 20
6.2337767289
 30
0.0
 11
5.6761380853
 21
6.2337137438
 31
0.0
 11
5.6761376044
 21
6.2337294901
 31
0.0
 11
5.6761303934
 21
6.2337767289
 31
0.0
  0
SPLINE
  5
264
100
AcDbEntity
  8
0
100
AcDbSpline
 62
6
  6
CONTINUOUS
 70
0
 71
3
 72
38
 73
34
 74
32
 42
0.0000001
 43
0.0000001
 44
0.0000000001
 12
-0.0000061314
 22
-0.1256416958
 32
0.0
 13
-0.1255119974
 23
-0.0057073871
 33
0.0
 40
0.0
 40
0.0
 40
0.0
 40
0.0
 40
0.000560264
 40
0.001159395
 40
0.0018294218
 40
0.0025934131
 40
0.0034669415
 40
0.0044603685
 40
0.0068316092
 40
0.0097425828
 40
0.0132104162
 40
0.0172445747
 40
0.0218502883
 40
0.0270289401
 40
0.0327798881
 40
0.0391016018
 40
0.0459919636
 40
0.0614680435
 40
0.0791831137
 40
0.0990967383
 40
0.1211624221
 40
0.1453325768
 40
0.1715524246
 40
0.2298793208
 40
0.2955972325
 40
0.3680720799
 40
0.4466165594
 40
0.5304781454
 40
0.6188530829
 40
0.7108810741
 40
0.8056966636
 40
0.9024146627
 40
1.0
 40
1.0
 40
1.0
 40
1.0
 10
5.6761380852
 20
6.2399831659
 30
0.0
 10
5.676138084
 20
6.2399597017
 30
0.0
 10
5.676131243
 20
6.2399109328
 30
0.0
 10
5.6761013629
 20
6.2398396635
 30
0.0
 10
5.6760525949
 20
6.2397692741
 30
0.0
 10
5.6759853204
 20
6.2396994655
 30
0.0
 10
5.6758996018
 20
6.239629902
 30
0.0
 10
5.6757516966
 20
6.2395314151
 30
0.0
 10
5.6755172363
 20
6.2394110804
 30
0.0
 10
5.6751772985
 20
6.2392735614
 30
0.0
 10
5.6747633314
 20
6.2391356609
 30
0.0
 10
5.6742753391
 20
6.2389974182
 30
0.0
 10
5.6737133269
 20
6.2388589517
 30
0.0
 10
5.6730775847
 20
6.2387202924
 30
0.0
 10
5.6723685036
 20
6.2385814856
 30
0.0
 10
5.6715865338
 20
6.2384425557
 30
0.0
 10
5.6704006112
 20
6.2382496454
 30
0.0
 10
5.6687388226
 20
6.2380114048
 30
0.0
 10
5.6665319514
 20
6.2377348297
 30
0.0
 10
5.6640472513
 20
6.2374577862
 30
0.0
 10
5.66129076
 20
6.2371803493
 30
0.0
 10
5.6582689758
 20
6.2369026593
 30
0.0
 10
5.6537320634
 20
6.2365184051
 30
0.0
 10
5.6474566712
 20
6.2360441094
 30
0.0
 10
5.6392448057
 20
6.2354918741
 30
0.0
 10
5.6301845579
 20
6.2349386287
 30
0.0
 10
5.6203631941
 20
6.234384725
 30
0.0
 10
5.6098749719
 20
6.2338302845
 30
0.0
 10
5.5988213277
 20
6.2332755205
 30
0.0
 10
5.5873083865
 20
6.2327204853
 30
0.0
 10
5.575445653
 20
6.2321652194
 30
0.0
 10
5.5633499289
 20
6.2316099004
 30
0.0
 10
5.5552207955
 20
6.2312402468
 30
0.0
 10
5.5511380853
 20
6.2310545944
 30
0.0
 11
5.6761380852
 21
6.2399831659
 31
0.0
 11
5.6761286478
 21
6.2399134089
 31
0.0
 11
5.6761003563
 21
6.2398436519
 31
0.0
 11
5.676053231
 21
6.2397738949
 31
0.0
 11
5.6759872924
 21
6.239704138
 31
0.0
 11
5.6759025611
 21
6.2396343811
 31
0.0
 11
5.6757990575
 21
6.2395646244
 31
0.0
 11
5.6755358154
 21
6.2394251112
 31
0.0
 11
5.67519773
 21
6.2392855987
 31
0.0
 11
5.6747849651
 21
6.239146087
 31
0.0
 11
5.6742976846
 21
6.2390065763
 31
0.0
 11
5.6737360836
 21
6.2388670666
 31
0.0
 11
5.6731005612
 21
6.2387275579
 31
0.0
 11
5.672391598
 21
6.23858805
 31
0.0
 11
5.6716096748
 21
6.2384485427
 31
0.0
 11
5.6707552725
 21
6.2383090358
 31
0.0
 11
5.6688309539
 21
6.2380300227
 31
0.0
 11
5.6666227598
 21
6.2377510094
 31
0.0
 11
5.6641363843
 21
6.2374719959
 31
0.0
 11
5.6613780901
 21
6.2371929829
 31
0.0
 11
5.6583541555
 21
6.2369139709
 31
0.0
 11
5.655071686
 21
6.2366349598
 31
0.0
 11
5.6477646725
 21
6.2360769367
 31
0.0
 11
5.6395266409
 21
6.2355189081
 31
0.0
 11
5.6304378927
 21
6.2349608827
 31
0.0
 11
5.6205852205
 21
6.2344028623
 31
0.0
 11
5.6100634968
 21
6.2338448189
 31
0.0
 11
5.5989739523
 21
6.2332867639
 31
0.0
 11
5.5874248718
 21
6.2327287598
 31
0.0
 11
5.5755251586
 21
6.2321707028
 31
0.0
 11
5.5633861752
 21
6.231612446
 31
0.0
 11
5.5511380853
 21
6.2310545944
 31
0.0
  0
SPLINE
  5
265
100
AcDbEntity
  8
0
100
AcDbSpline
 62
6
  6
CONTINUOUS
 70
0
 71
3
 72
9
 73
5
 74
3
 42
0.0000001
 43
0.0000001
 44
0.0000000001
 12
0.0000000031
 22
0.0000637842
 32
0.0
 13
-0.0000151839
 23
0.0000619506
 33
0.0
 40
0.0
 40
0.0
 40
0.0
 40
0.0
 40
0.2479189913
 40
1.0
 40
1.0
 40
1.0
 40
1.0
 10
5.6761380852
 20
6.2694280296
 30
0.0
 10
5.6761380854
 20
6.2694333007
 30
0.0
 10
5.6761374371
 20
6.2694545589
 30
0.0
 10
5.676134144
 20
6.2694757227
 30
0.0
 10
5.6761303375
 20
6.2694912533
 30
0.0
 11
5.6761380852
 21
6.2694280296
 31
0.0
 11
5.6761376014
 21
6.2694438355
 31
0.0
 11
5.6761303375
 21
6.2694912533
 31
0.0
  0
SPLINE
  5
266
100
AcDbEntity
  8
0
100
AcDbSpline
 62
6
  6
CONTINUOUS
 70
0
 71
3
 72
53
 73
49
 74
47
 42
0.0000001
 43
0.0000001
 44
0.0000000001
 12
0.172101974
 22
0.0999008507
 32
0.0
 13
0.1721441997
 23
0.0998280719
 33
0.0
 40
0.0
 40
0.0
 40
0.0
 40
0.0
 40
0.0014240865
 40
0.0030858081
 40
0.0049913371
 40
0.0071438674
 40
0.0095450103
 40
0.0121955024
 40
0.0182445433
 40
0.025288631
 40
0.0333203419
 40
0.0423248266
 40
0.0522846211
 40
0.0631815544
 40
0.0749957958
 40
0.1012731274
 40
0.1309009352
 40
0.1636340508
 40
0.1991984317
 40
0.2372967081
 40
0.2776080695
 40
0.3197941533
 40
0.363498944
 40
0.4083549627
 40
0.5000001077
 40
0.5916452495
 40
0.6365009402
 40
0.6802060491
 40
0.722391839
 40
0.7627034786
 40
0.8008015118
 40
0.836366115
 40
0.8690990525
 40
0.8987270136
 40
0.9250042434
 40
0.9368172235
 40
0.947715491
 40
0.9576766287
 40
0.9666797547
 40
0.9747100611
 40
0.9817555374
 40
0.9878060282
 40
0.9904561287
 40
0.9928562984
 40
0.9950078375
 40
0.9969129062
 40
0.9985750278
 40
1.0
 40
1.0
 40
1.0
 40
1.0
 10
5.4521217526
 20
6.2016947484
 30
0.0
 10
5.4522034486
 20
6.2017421708
 30
0.0
 10
5.4523859633
 20
6.2018354925
 30
0.0
 10
5.4526907975
 20
6.201965118
 30
0.0
 10
5.453047467
 20
6.2020949059
 30
0.0
 10
5.4534558322
 20
6.2022248455
 30
0.0
 10
5.453915723
 20
6.2023549289
 30
0.0
 10
5.4546293544
 20
6.2025366108
 30
0.0
 10
5.4556496838
 20
6.2027603582
 30
0.0
 10
5.457026946
 20
6.2030192405
 30
0.0
 10
5.4586031583
 20
6.2032785627
 30
0.0
 10
5.4603749787
 20
6.2035383421
 30
0.0
 10
5.4623386305
 20
6.2037984353
 30
0.0
 10
5.4644901007
 20
6.2040587775
 30
0.0
 10
5.467719615
 20
6.2044189603
 30
0.0
 10
5.4721896493
 20
6.2048637041
 30
0.0
 10
5.4780464162
 20
6.2053815683
 30
0.0
 10
5.4845213025
 20
6.2059002568
 30
0.0
 10
5.4915596325
 20
6.2064196205
 30
0.0
 10
5.4991018763
 20
6.2069394178
 30
0.0
 10
5.5070843027
 20
6.2074595679
 30
0.0
 10
5.5154393538
 20
6.2079799428
 30
0.0
 10
5.5240964086
 20
6.2085005145
 30
0.0
 10
5.5360293453
 20
6.2091997175
 30
0.0
 10
5.5511380938
 20
6.2100627415
 30
0.0
 10
5.5662468209
 20
6.210925757
 30
0.0
 10
5.578179756
 20
6.2116249714
 30
0.0
 10
5.5868367914
 20
6.2121455313
 30
0.0
 10
5.5951918619
 20
6.2126659183
 30
0.0
 10
5.6031742718
 20
6.2131860567
 30
0.0
 10
5.610716532
 20
6.2137058649
 30
0.0
 10
5.6177548494
 20
6.2142252194
 30
0.0
 10
5.6242297486
 20
6.2147439127
 30
0.0
 10
5.6300865061
 20
6.2152617842
 30
0.0
 10
5.6345564648
 20
6.2157064829
 30
0.0
 10
5.6377859689
 20
6.2160667383
 30
0.0
 10
5.6399375371
 20
6.2163270494
 30
0.0
 10
5.6419012837
 20
6.2165870956
 30
0.0
 10
5.6436730044
 20
6.216846909
 30
0.0
 10
5.6452491136
 20
6.2171062945
 30
0.0
 10
5.6466264788
 20
6.2173651357
 30
0.0
 10
5.6476469879
 20
6.2175888261
 30
0.0
 10
5.6483606193
 20
6.2177705335
 30
0.0
 10
5.6488203442
 20
6.2179006303
 30
0.0
 10
5.6492285353
 20
6.2180305869
 30
0.0
 10
5.6495851223
 20
6.2181603949
 30
0.0
 10
5.6498900173
 20
6.2182900136
 30
0.0
 10
5.650072637
 20
6.2183833144
 30
0.0
 10
5.6501544039
 20
6.2184307318
 30
0.0
 11
5.4521217526
 21
6.2016947484
 31
0.0
 11
5.4523731739
 21
6.2018254982
 31
0.0
 11
5.4526769019
 21
6.2019562481
 31
0.0
 11
5.4530328387
 21
6.202086998
 31
0.0
 11
5.4534407397
 21
6.2022177478
 31
0.0
 11
5.4539003194
 21
6.2023484977
 31
0.0
 11
5.4544112927
 21
6.2024792476
 31
0.0
 11
5.455586278
 21
6.2027407473
 31
0.0
 11
5.456963413
 21
6.2030022471
 31
0.0
 11
5.458540151
 21
6.2032637468
 31
0.0
 11
5.4603128202
 21
6.2035252465
 31
0.0
 11
5.4622774491
 21
6.2037867463
 31
0.0
 11
5.4644300661
 21
6.204048246
 31
0.0
 11
5.4667664602
 21
6.2043097458
 31
0.0
 11
5.4719693146
 21
6.2048327453
 31
0.0
 11
5.4778418769
 21
6.2053557447
 31
0.0
 11
5.4843345944
 21
6.2058787442
 31
0.0
 11
5.4913924003
 21
6.2064017437
 31
0.0
 11
5.4989557307
 21
6.2069247432
 31
0.0
 11
5.5069604491
 21
6.2074477427
 31
0.0
 11
5.515338989
 21
6.2079707421
 31
0.0
 11
5.5240203128
 21
6.2084937416
 31
0.0
 11
5.5329311305
 21
6.2090167411
 31
0.0
 11
5.5511380941
 21
6.2100627401
 31
0.0
 11
5.5693450569
 21
6.211108739
 31
0.0
 11
5.5782558093
 21
6.2116317385
 31
0.0
 11
5.5869371965
 21
6.212154738
 31
0.0
 11
5.5953156778
 21
6.2126777375
 31
0.0
 11
5.6033204517
 21
6.213200737
 31
0.0
 11
5.6108837336
 21
6.2137237365
 31
0.0
 11
5.6179415839
 21
6.2142467359
 31
0.0
 11
5.6244342658
 21
6.2147697354
 31
0.0
 11
5.6303068587
 21
6.2152927349
 31
0.0
 11
5.6355096927
 21
6.2158157344
 31
0.0
 11
5.6378458343
 21
6.2160772341
 31
0.0
 11
5.6399987187
 21
6.2163387339
 31
0.0
 11
5.6419636173
 21
6.2166002336
 31
0.0
 11
5.6437360132
 21
6.2168617333
 31
0.0
 11
5.6453124678
 21
6.2171232331
 31
0.0
 11
5.6466898841
 21
6.2173847328
 31
0.0
 11
5.6478651651
 21
6.2176462326
 31
0.0
 11
5.6483760578
 21
6.2177769824
 31
0.0
 11
5.6488354363
 21
6.2179077323
 31
0.0
 11
5.6492431301
 21
6.2180384822
 31
0.0
 11
5.6495989693
 21
6.2181692321
 31
0.0
 11
5.649902784
 21
6.2182999819
 31
0.0
 11
5.6501544039
 21
6.2184307318
 31
0.0
  0
SPLINE
  5
267
100
AcDbEntity
  8
0
100
AcDbSpline
 62
6
  6
CONTINUOUS
 70
0
 71
3
 72
53
 73
49
 74
47
 42
0.0000001
 43
0.0000001
 44
0.0000000001
 12
0.1721030265
 22
0.0998993753
 32
0.0
 13
0.1721447048
 23
0.0998275389
 33
0.0
 40
0.0
 40
0.0
 40
0.0
 40
0.0
 40
0.0014242491
 40
0.0030864164
 40
0.0049921962
 40
0.0071446903
 40
0.0095456139
 40
0.0121958128
 40
0.0182444956
 40
0.0252892005
 40
0.0333211398
 40
0.0423251318
 40
0.0522845706
 40
0.0631820666
 40
0.0749965315
 40
0.1012730802
 40
0.1309015817
 40
0.1636340096
 40
0.1991989658
 40
0.2372966746
 40
0.2776084724
 40
0.3197941288
 40
0.3634992012
 40
0.4083549479
 40
0.5000001031
 40
0.591645255
 40
0.6365007252
 40
0.6802060644
 40
0.7223914729
 40
0.762703503
 40
0.8008010066
 40
0.8363661473
 40
0.8690984251
 40
0.8987270521
 40
0.9250035153
 40
0.9368169494
 40
0.9477155332
 40
0.9576760881
 40
0.9666789517
 40
0.9747097466
 40
0.9817555776
 40
0.9878054708
 40
0.9904552738
 40
0.9928554553
 40
0.9950071994
 40
0.9969125506
 40
0.9985749201
 40
1.0
 40
1.0
 40
1.0
 40
1.0
 10
5.4521216571
 20
6.2374090342
 30
0.0
 10
5.452203363
 20
6.2374564614
 30
0.0
 10
5.4523859208
 20
6.2375497895
 30
0.0
 10
5.4526908268
 20
6.2376793922
 30
0.0
 10
5.4530475416
 20
6.2378091826
 30
0.0
 10
5.4534559054
 20
6.2379391268
 30
0.0
 10
5.4539157577
 20
6.2380692137
 30
0.0
 10
5.4546293284
 20
6.2382509025
 30
0.0
 10
5.4556496532
 20
6.2384746667
 30
0.0
 10
5.4570269563
 20
6.2387335143
 30
0.0
 10
5.458603193
 20
6.2389928379
 30
0.0
 10
5.4603749714
 20
6.2392526309
 30
0.0
 10
5.4623386045
 20
6.2395127348
 30
0.0
 10
5.4644901078
 20
6.2397730569
 30
0.0
 10
5.4677196254
 20
6.2401332358
 30
0.0
 10
5.4721896694
 20
6.2405780113
 30
0.0
 10
5.4780463933
 20
6.2410958346
 30
0.0
 10
5.4845213208
 20
6.2416145594
 30
0.0
 10
5.491559614
 20
6.2421338923
 30
0.0
 10
5.4991018919
 20
6.2426537152
 30
0.0
 10
5.5070842894
 20
6.2431738443
 30
0.0
 10
5.515439366
 20
6.243694236
 30
0.0
 10
5.5240964012
 20
6.244214795
 30
0.0
 10
5.5360293488
 20
6.2449140081
 30
0.0
 10
5.5511380938
 20
6.2457770271
 30
0.0
 10
5.5662468207
 20
6.246640039
 30
0.0
 10
5.5781797669
 20
6.2473392616
 30
0.0
 10
5.5868367857
 20
6.2478598107
 30
0.0
 10
5.5951918783
 20
6.2483802125
 30
0.0
 10
5.6031742617
 20
6.2489003318
 30
0.0
 10
5.6107165531
 20
6.2494201639
 30
0.0
 10
5.6177548354
 20
6.2499394891
 30
0.0
 10
5.6242297734
 20
6.250458218
 30
0.0
 10
5.6300864892
 20
6.2509760471
 30
0.0
 10
5.6345564712
 20
6.2514207859
 30
0.0
 10
5.6377859802
 20
6.2517810239
 30
0.0
 10
5.6399375646
 20
6.2520413212
 30
0.0
 10
5.6419012752
 20
6.2523013854
 30
0.0
 10
5.6436729722
 20
6.2525612077
 30
0.0
 10
5.6452491234
 20
6.2528205813
 30
0.0
 10
5.6466265111
 20
6.2530793991
 30
0.0
 10
5.6476469808
 20
6.2533031084
 30
0.0
 10
5.6483605492
 20
6.2534848276
 30
0.0
 10
5.6488202695
 20
6.2536149219
 30
0.0
 10
5.6492284963
 20
6.2537448764
 30
0.0
 10
5.6495851368
 20
6.2538746811
 30
0.0
 10
5.6498900799
 20
6.2540042951
 30
0.0
 10
5.6500727263
 20
6.2540975969
 30
0.0
 10
5.6501544996
 20
6.2541450176
 30
0.0
 11
5.4521216571
 21
6.2374090342
 31
0.0
 11
5.4523731152
 21
6.2375397841
 31
0.0
 11
5.45267694
 21
6.237670534
 31
0.0
 11
5.4530329304
 21
6.2378012838
 31
0.0
 11
5.4534408241
 21
6.2379320337
 31
0.0
 11
5.453900359
 21
6.2380627836
 31
0.0
 11
5.4544112724
 21
6.2381935334
 31
0.0
 11
5.4555861858
 21
6.2384550332
 31
0.0
 11
5.4569634471
 21
6.2387165329
 31
0.0
 11
5.4585402325
 21
6.2389780327
 31
0.0
 11
5.4603128041
 21
6.2392395324
 31
0.0
 11
5.4622773633
 21
6.2395010321
 31
0.0
 11
5.464430095
 21
6.2397625319
 31
0.0
 11
5.4667665359
 21
6.2400240316
 31
0.0
 11
5.4719692382
 21
6.2405470311
 31
0.0
 11
5.4778419441
 21
6.2410700306
 31
0.0
 11
5.4843345298
 21
6.2415930301
 31
0.0
 11
5.4913924566
 21
6.2421160296
 31
0.0
 11
5.4989556803
 21
6.242639029
 31
0.0
 11
5.5069604925
 21
6.2431620285
 31
0.0
 11
5.5153389544
 21
6.243685028
 31
0.0
 11
5.5240203418
 21
6.2442080275
 31
0.0
 11
5.5329311129
 21
6.244731027
 31
0.0
 11
5.551138094
 21
6.2457770259
 31
0.0
 11
5.5693450745
 21
6.2468230249
 31
0.0
 11
5.5782557906
 21
6.2473460244
 31
0.0
 11
5.5869372311
 21
6.2478690238
 31
0.0
 11
5.5953156436
 21
6.2483920233
 31
0.0
 11
5.6033205021
 21
6.2489150228
 31
0.0
 11
5.6108836848
 21
6.2494380223
 31
0.0
 11
5.6179416484
 21
6.2499610218
 31
0.0
 11
5.6244342042
 21
6.2504840212
 31
0.0
 11
5.6303069352
 21
6.2510070207
 31
0.0
 11
5.6355096204
 21
6.2515300202
 31
0.0
 11
5.6378458549
 21
6.2517915199
 31
0.0
 11
5.6399988046
 21
6.2520530197
 31
0.0
 11
5.6419635879
 21
6.2523145194
 31
0.0
 11
5.6437359325
 21
6.2525760192
 31
0.0
 11
5.6453124871
 21
6.2528375189
 31
0.0
 11
5.6466899764
 21
6.2530990186
 31
0.0
 11
5.6478651366
 21
6.2533605184
 31
0.0
 11
5.6483759688
 21
6.2534912682
 31
0.0
 11
5.64883535
 21
6.2536220181
 31
0.0
 11
5.6492430871
 21
6.253752768
 31
0.0
 11
5.6495989866
 21
6.2538835179
 31
0.0
 11
5.6499028552
 21
6.2540142677
 31
0.0
 11
5.6501544996
 21
6.2541450176
 31
0.0
  0
SPLINE
  5
268
100
AcDbEntity
  8
0
100
AcDbSpline
 62
6
  6
CONTINUOUS
 70
0
 71
3
 72
27
 73
23
 74
21
 42
0.0000001
 43
0.0000001
 44
0.0000000001
 12
0.1956932769
 22
0.0
 32
0.0
 13
0.0
 23
0.1956932769
 33
0.0
 40
0.0
 40
0.0
 40
0.0
 40
0.0
 40
0.0625789607
 40
0.1252937589
 40
0.1880226042
 40
0.2506850295
 40
0.3132904162
 40
0.3445869783
 40
0.375876808
 40
0.4384228417
 40
0.5009408632
 40
0.5321948866
 40
0.563438611
 40
0.6258800504
 40
0.6882870971
 40
0.7194871581
 40
0.7506798399
 40
0.8130296522
 40
0.8753595471
 40
0.9065271136
 40
0.9376918529
 40
1.0
 40
1.0
 40
1.0
 40
1.0
 10
5.8611380853
 20
1.5857696843
 30
0.0
 10
5.8652201792
 20
1.5857696843
 30
0.0
 10
5.8733986816
 20
1.5861731748
 30
0.0
 10
5.8855505262
 20
1.5879637373
 30
0.0
 10
5.8974787047
 20
1.5909255076
 30
0.0
 10
5.9090504121
 20
1.5950430181
 30
0.0
 10
5.9183087058
 20
1.5993957926
 30
0.0
 10
5.9254272187
 20
1.6034036298
 30
0.0
 10
5.932337318
 20
1.6077538868
 30
0.0
 10
5.9405589937
 20
1.6138185135
 30
0.0
 10
5.9481487908
 20
1.6206538228
 30
0.0
 10
5.9537934306
 20
1.6265434633
 30
0.0
 10
5.9591373202
 20
1.6327006991
 30
0.0
 10
5.9652350057
 20
1.6408767637
 30
0.0
 10
5.9705015311
 20
1.6496079631
 30
0.0
 10
5.9741820699
 20
1.656872543
 30
0.0
 10
5.9774967625
 20
1.6643071008
 30
0.0
 10
5.980944393
 20
1.6738910593
 30
0.0
 10
5.9834346725
 20
1.6837653352
 30
0.0
 10
5.9848350787
 20
1.6917788026
 30
0.0
 10
5.9858355945
 20
1.6998498433
 30
0.0
 10
5.9861359276
 20
1.7059528103
 30
0.0
 10
5.9861359276
 20
1.7100172388
 30
0.0
 11
5.8611380853
 21
1.5857696843
 31
0.0
 11
5.8733696576
 21
1.5863697338
 31
0.0
 11
5.8855114381
 21
1.5881586902
 31
0.0
 11
5.8974245713
 21
1.591119761
 31
0.0
 11
5.90897811
 21
1.5952291987
 31
0.0
 11
5.9200652409
 21
1.6004420323
 31
0.0
 11
5.9254019579
 21
1.6034469085
 31
0.0
 11
5.9305837492
 21
1.6067092283
 31
0.0
 11
5.9404344014
 21
1.6139740953
 31
0.0
 11
5.9495249652
 21
1.6221619601
 31
0.0
 11
5.9537567051
 21
1.6265778753
 31
0.0
 11
5.9577643051
 21
1.6311954962
 31
0.0
 11
5.9650703541
 21
1.6409901196
 31
0.0
 11
5.9713775962
 21
1.6514479999
 31
0.0
 11
5.9741367413
 21
1.6568946488
 31
0.0
 11
5.9766225188
 21
1.6624697852
 31
0.0
 11
5.9807534104
 21
1.6739506758
 31
0.0
 11
5.9837354346
 21
1.6857780824
 31
0.0
 11
5.9847851405
 21
1.6917863578
 31
0.0
 11
5.9855355775
 21
1.6978387418
 31
0.0
 11
5.9861359276
 21
1.7100172388
 31
0.0
  0
SPLINE
  5
269
100
AcDbEntity
  8
0
100
AcDbSpline
 62
6
  6
CONTINUOUS
 70
0
 71
3
 72
35
 73
31
 74
29
 42
0.0000001
 43
0.0000001
 44
0.0000000001
 12
0.2935854439
 22
0.0
 32
0.0
 13
0.0
 23
-0.2935854439
 33
0.0
 40
0.0
 40
0.0
 40
0.0
 40
0.0
 40
0.0626102664
 40
0.0939683741
 40
0.1253353637
 40
0.1566965318
 40
0.1880418221
 40
0.2193724911
 40
0.2506912746
 40
0.2820006054
 40
0.3133031106
 40
0.3758747771
 40
0.4071603417
 40
0.4384372695
 40
0.4697044097
 40
0.5009617977
 40
0.5322098924
 40
0.563448621
 40
0.594677824
 40
0.6258978004
 40
0.688294823
 40
0.7194914044
 40
0.7506804507
 40
0.7818625188
 40
0.8130389314
 40
0.844210625
 40
0.8753779855
 40
0.906541386
 40
0.9377017331
 40
1.0
 40
1.0
 40
1.0
 40
1.0
 10
5.8611380853
 20
1.8963885707
 30
0.0
 10
5.8672652396
 20
1.8963885707
 30
0.0
 10
5.8764693377
 20
1.8959358983
 30
0.0
 10
5.8886469511
 20
1.894443542
 30
0.0
 10
5.8977247764
 20
1.8928804519
 30
0.0
 10
5.9067139789
 20
1.8908767972
 30
0.0
 10
5.915590614
 20
1.8884350048
 30
0.0
 10
5.9243332731
 20
1.8855634716
 30
0.0
 10
5.9329220467
 20
1.8822700623
 30
0.0
 10
5.9413376402
 20
1.8785624397
 30
0.0
 10
5.9522968393
 20
1.8730792335
 30
0.0
 10
5.9628382063
 20
1.8667961401
 30
0.0
 10
5.9728735107
 20
1.8597717407
 30
0.0
 10
5.9801330075
 20
1.8541426174
 30
0.0
 10
5.987105175
 20
1.8481659513
 30
0.0
 10
5.9937724277
 20
1.8418549414
 30
0.0
 10
6.00012028
 20
1.8352266498
 30
0.0
 10
6.0061339847
 20
1.8282975223
 30
0.0
 10
6.0117992292
 20
1.8210837822
 30
0.0
 10
6.0188653335
 20
1.8111121842
 30
0.0
 10
6.0251832086
 20
1.8006309065
 30
0.0
 10
6.0307022439
 20
1.7897337023
 30
0.0
 10
6.0344345899
 20
1.781367858
 30
0.0
 10
6.0377483355
 20
1.7728299718
 30
0.0
 10
6.0406350924
 20
1.7641401505
 30
0.0
 10
6.0430900528
 20
1.7553201275
 30
0.0
 10
6.0451077567
 20
1.7463913371
 30
0.0
 10
6.0466830978
 20
1.7373746629
 30
0.0
 10
6.0481855583
 20
1.7252684477
 30
0.0
 10
6.0486363827
 20
1.7161138603
 30
0.0
 10
6.0486363827
 20
1.7100172388
 30
0.0
 11
5.8611380853
 21
1.8963885707
 31
0.0
 11
5.8794975519
 21
1.8954895926
 31
0.0
 11
5.888635488
 21
1.8943698653
 31
0.0
 11
5.8977107681
 21
1.892806864
 31
0.0
 11
5.9066972997
 21
1.8908032525
 31
0.0
 11
5.9155703171
 21
1.88836277
 31
0.0
 11
5.9243092749
 21
1.8854925744
 31
0.0
 11
5.9328944645
 21
1.8822005015
 31
0.0
 11
5.9413061774
 21
1.8784943872
 31
0.0
 11
5.949524706
 21
1.8743820703
 31
0.0
 11
5.965305243
 21
1.8649780103
 31
0.0
 11
5.9728299681
 21
1.8597108965
 31
0.0
 11
5.9800862176
 21
1.8540837973
 31
0.0
 11
5.9870554145
 21
1.8481092738
 31
0.0
 11
5.9937201681
 21
1.8418010932
 31
0.0
 11
6.0000655161
 21
1.8351754933
 31
0.0
 11
6.0060767937
 21
1.8282490144
 31
0.0
 11
6.0117393364
 21
1.8210381967
 31
0.0
 11
6.0170385002
 21
1.8135595951
 31
0.0
 11
6.0264967401
 21
1.7978713116
 31
0.0
 11
6.0306348735
 21
1.789700595
 31
0.0
 11
6.0343652132
 21
1.7813382506
 31
0.0
 11
6.0376774549
 21
1.7728038625
 31
0.0
 11
6.0405633316
 21
1.7641177791
 31
0.0
 11
6.0430173325
 21
1.7553013826
 31
0.0
 11
6.0450341425
 21
1.7463761284
 31
0.0
 11
6.0466084464
 21
1.7373634719
 31
0.0
 11
6.0477350162
 21
1.7282848789
 31
0.0
 11
6.0486363827
 21
1.7100172388
 31
0.0
  0
ENDSEC
  0
SECTION
  2
OBJECTS
  0
DICTIONARY
  5
C
100
AcDbDictionary
280
0
281
1
  3
ACAD_GROUP
350
D
  3
ACAD_MLINESTYLE
350
17
  3
ACAD_LAYOUT
350
1A
  3
ACAD_PLOTSETTINGS
350
19
  3
ACAD_PLOTSTYLENAME
350
E
  0
DICTIONARY
  5
D
102
{ACAD_REACTORS
330
C
102
}
100
AcDbDictionary
280
0
281
1
  0
ACDBDICTIONARYWDFLT
  5
E
102
{ACAD_REACTORS
330
C
102
}
100
AcDbDictionary
281
1
  3
Normal
350
F
100
AcDbDictionaryWithDefault
340
F
  0
DICTIONARY
  5
17
102
{ACAD_REACTORS
330
C
102
}
100
AcDbDictionary
280
0
281
1
  3
Standard
350
18
  0
DICTIONARY
  5
19
102
{ACAD_REACTORS
330
C
102
}
100
AcDbDictionary
281
1
  0
DICTIONARY
  5
1A
102
{ACAD_REACTORS
330
C
102
}
100
AcDbDictionary
281
1
  3
Model
350
26A
  3
Layout1
350
26B
  0
ACDBPLACEHOLDER
  5
F
102
{ACAD_REACTORS
330
E
102
}
  0
MLINESTYLE
  5
18
102
{ACAD_REACTORS
330
17
102
}
100
AcDbMlineStyle
  2
STANDARD
 70
0
  3

 62
256
 51
90.0
 52
90.0
 71
2
 49
0.5
 62
256
  6
BYLAYER
 49
-0.5
 62
256
  6
BYLAYER
  0
LAYOUT
  5
26A
102
{ACAD_REACTORS
330
1A
102
}
100
AcDbPlotSettings
  1

  2
none_device
  4
ISO_A4_(297.00_x_210.00_MM)
  6

 40
0.0
 41
0.0
 42
0.0
 43
0.0
 44
297.0
 45
210.0
 46
0.0
 47
0.0
 48
0.0
 49
0.0
140
0.0
141
0.0
142
1.0
143
1.0
 70
1024
 72
0
 73
0
 74
0
  7

 75
0
147
1.0
148
0.0
149
0.0
100
AcDbLayout
  1
Model
 70
0
 71
0
 10
0.0
 20
0.0
 11
11.6929133858
 21
8.2677165354
 12
0.0
 22
0.0
 32
0.0
 14
0.0
 24
0.0
 34
0.0
 15
0.0
 25
0.0
 35
0.0
146
0.0
 13
0.0
 23
0.0
 33
0.0
 16
1.0
 26
0.0
 36
0.0
 17
0.0
 27
1.0
 37
0.0
 76
0
330
204
345
0
346
0
  0
LAYOUT
  5
26B
102
{ACAD_REACTORS
330
1A
102
}
100
AcDbPlotSettings
  1

  2
none_device
  4
ISO_A4_(297.00_x_210.00_MM)
  6

 40
0.0
 41
0.0
 42
0.0
 43
0.0
 44
297.0
 45
210.0
 46
0.0
 47
0.0
 48
0.0
 49
0.0
140
0.0
141
0.0
142
1.0
143
1.0
 70
0
 72
0
 73
0
 74
0
  7

 75
0
147
1.0
148
0.0
149
0.0
100
AcDbLayout
  1
Layout1
 70
0
 71
1
 10
0.0
 20
0.0
 11
11.6929133858
 21
8.2677165354
 12
0.0
 22
0.0
 32
0.0
 14
0.0
 24
0.0
 34
0.0
 15
0.0
 25
0.0
 35
0.0
146
0.0
 13
0.0
 23
0.0
 33
0.0
 16
1.0
 26
0.0
 36
0.0
 17
0.0
 27
1.0
 37
0.0
 76
0
330
205
345
0
346
0
  0
ENDSEC
  0
EOF
