999
DXF file: 6-027_Right.dxf
999
Pro/ENGINEER 2023134 by Parametric Technology Corporation
  0
SECTION
  2
HEADER
  9
$ACADVER
  1
AC1032
  9
$DWGCODEPAGE
  3
ANSI_1252
  9
$EXTMAX
 10
11.0
 20
8.5
 30
0.0
  9
$EXTMIN
 10
0.0
 20
0.0
 30
0.0
  9
$LIMMIN
 10
0.0
 20
0.0
  9
$LIMMAX
 10
11.0
 20
8.5
  9
$VIEWCTR
 10
5.5
 20
4.25
  9
$VIEWSIZE
 40
8.5
  9
$CLAYER
  8
0
  9
$LTSCALE
 40
0.605
  9
$CELTYPE
  6
BYLAYER
  9
$DIMSCALE
 40
1.0
  9
$DIMASZ
 40
0.1
  9
$DIMEXO
 40
0.0625
  9
$DIMDLI
 40
0.418
  9
$DIMEXE
 40
0.125
  9
$DIMCEN
 40
0.099
  9
$DIMLFAC
 40
1.0
  9
$DIMBLK
  1
_FILLED
  9
$DIMALT
 70
1
  9
$DIMALTD
 70
2
  9
$DIMALTTD
 70
2
  9
$DIMALTF
 40
25.4
  9
$DIMTXT
 40
0.08
  9
$DIMTOL
 70
1
  9
$DIMLIM
 70
0
  9
$DIMTFAC
 40
1.0
  9
$DIMTP
 40
0.001
  9
$DIMTM
 40
0.001
  9
$DIMGAP
 40
0.09
  9
$DIMDSEP
 70
46
  9
$AUNITS
 70
0
  9
$PDMODE
 70
3
  9
$PDSIZE
 40
0.3125
  9
$HANDSEED
  5
24E
  9
$TILEMODE
 70
1
  9
$MEASUREMENT
 70
0
  9
$INSUNITS
 70
1
  0
ENDSEC
  0
SECTION
  2
CLASSES
  0
CLASS
  1
ACDBDICTIONARYWDFLT
  2
AcDbDictionaryWithDefault
  3
AutoCAD 2000
 90
0
 91
1
280
0
281
0
  0
CLASS
  1
ACDBPLACEHOLDER
  2
AcDbPlaceHolder
  3
AutoCAD 2000
 90
0
 91
1
280
0
281
0
  0
CLASS
  1
LAYOUT
  2
AcDbLayout
  3
AutoCAD 2000
 90
0
 91
0
280
0
281
0
  0
ENDSEC
  0
SECTION
  2
TABLES
  0
TABLE
  2
VPORT
  5
8
100
AcDbSymbolTable
 70
2
  0
VPORT
  5
1F4
100
AcDbSymbolTableRecord
100
AcDbViewportTableRecord
  2
*ACTIVE
 70
0
 10
0.0
 20
0.0
 11
1.0
 21
1.0
 12
5.5
 22
4.25
 13
0.0
 23
0.0
 14
1.0
 24
1.0
 15
0.0
 25
0.0
 16
0.0
 26
0.0
 36
1.0
 17
0.0
 27
0.0
 37
0.0
 40
8.5
 41
1.2941176471
 42
50.0
 43
0.0
 44
0.0
 50
0.0
 51
0.0
 71
0
 72
100
 73
1
 74
1
 75
0
 76
0
 77
0
 78
0
  0
ENDTAB
  0
TABLE
  2
LTYPE
  5
5
100
AcDbSymbolTable
 70
6
  0
LTYPE
  5
14
100
AcDbSymbolTableRecord
100
AcDbLinetypeTableRecord
  2
BYBLOCK
 70
0
  3

 72
65
 73
0
 40
0.0
  0
LTYPE
  5
15
100
AcDbSymbolTableRecord
100
AcDbLinetypeTableRecord
  2
BYLAYER
 70
0
  3

 72
65
 73
0
 40
0.0
  0
LTYPE
  5
16
100
AcDbSymbolTableRecord
100
AcDbLinetypeTableRecord
  2
CONTINUOUS
 70
64
  3
Solid line
 72
65
 73
0
 40
0.0
  0
LTYPE
  5
1F5
100
AcDbSymbolTableRecord
100
AcDbLinetypeTableRecord
  2
CENTER
 70
64
  3
____ _ ____ _ ____ _ ____ _ ____ _ ____ _ ____
 72
65
 73
4
 40
0.6
 49
0.375
 74
0
 49
-0.075
 74
0
 49
0.075
 74
0
 49
-0.075
 74
0
  0
LTYPE
  5
1F6
100
AcDbSymbolTableRecord
100
AcDbLinetypeTableRecord
  2
HIDDEN
 70
64
  3
- - - - - - - - - - - - - - - - - - - -
 72
65
 73
2
 40
0.2
 49
0.1
 74
0
 49
-0.1
 74
0
  0
LTYPE
  5
1F7
100
AcDbSymbolTableRecord
100
AcDbLinetypeTableRecord
  2
PHANTOM
 70
64
  3
_____ _ _ _____ _ _ _____ _ _ _____
 72
65
 73
6
 40
0.8
 49
0.45
 74
0
 49
-0.05
 74
0
 49
0.1
 74
0
 49
-0.05
 74
0
 49
0.1
 74
0
 49
-0.05
 74
0
  0
LTYPE
  5
1F8
100
AcDbSymbolTableRecord
100
AcDbLinetypeTableRecord
  2
DOT
 70
64
  3
. . . . . . . . . . . . . . . . . . . .
 72
65
 73
2
 40
0.2
 49
0.1
 74
0
 49
-0.1
 74
0
  0
LTYPE
  5
1F9
100
AcDbSymbolTableRecord
100
AcDbLinetypeTableRecord
  2
DASHED
 70
64
  3
- - - - - - - - - - - - - - - - - - - -
 72
65
 73
2
 40
0.2
 49
0.1
 74
0
 49
-0.1
 74
0
  0
ENDTAB
  0
TABLE
  2
LAYER
  5
2
100
AcDbSymbolTable
 70
36
  0
LAYER
  5
10
100
AcDbSymbolTableRecord
100
AcDbLayerTableRecord
  2
0
 70
0
 62
7
  6
CONTINUOUS
370
-3
390
F
  0
LAYER
  5
1FA
100
AcDbSymbolTableRecord
100
AcDbLayerTableRecord
  2
DEFAULT_1
 70
0
 62
7
  6
CENTER
370
-3
390
F
  0
LAYER
  5
1FB
100
AcDbSymbolTableRecord
100
AcDbLayerTableRecord
  2
DEFAULT_2
 70
0
 62
8
  6
HIDDEN
370
-3
390
F
  0
LAYER
  5
1FC
100
AcDbSymbolTableRecord
100
AcDbLayerTableRecord
  2
DEFAULT_3
 70
0
 62
7
  6
PHANTOM
370
-3
390
F
  0
LAYER
  5
1FD
100
AcDbSymbolTableRecord
100
AcDbLayerTableRecord
  2
ALL_ASSEMBLY_MEMBERS
 70
0
 62
7
  6
CONTINUOUS
370
-3
390
F
  0
LAYER
  5
1FE
100
AcDbSymbolTableRecord
100
AcDbLayerTableRecord
  2
ALL_FEATURES
 70
0
 62
7
  6
CONTINUOUS
370
-3
390
F
  0
LAYER
  5
1FF
100
AcDbSymbolTableRecord
100
AcDbLayerTableRecord
  2
AXES_FEATURES
 70
0
 62
7
  6
CONTINUOUS
370
-3
390
F
  0
LAYER
  5
200
100
AcDbSymbolTableRecord
100
AcDbLayerTableRecord
  2
CHAMFER_FEATURES
 70
0
 62
7
  6
CONTINUOUS
370
-3
390
F
  0
LAYER
  5
201
100
AcDbSymbolTableRecord
100
AcDbLayerTableRecord
  2
CUT_FEATURES
 70
0
 62
7
  6
CONTINUOUS
370
-3
390
F
  0
LAYER
  5
202
100
AcDbSymbolTableRecord
100
AcDbLayerTableRecord
  2
DATUM_PLANES
 70
0
 62
7
  6
CONTINUOUS
370
-3
390
F
  0
LAYER
  5
203
100
AcDbSymbolTableRecord
100
AcDbLayerTableRecord
  2
DEFAULT_COORDINATE_SYSTEM
 70
0
 62
7
  6
CONTINUOUS
370
-3
390
F
  0
LAYER
  5
204
100
AcDbSymbolTableRecord
100
AcDbLayerTableRecord
  2
DEFAULT_DATUM_AXES
 70
0
 62
7
  6
CONTINUOUS
370
-3
390
F
  0
LAYER
  5
205
100
AcDbSymbolTableRecord
100
AcDbLayerTableRecord
  2
DEFAULT_DATUM_CURVES
 70
0
 62
7
  6
CONTINUOUS
370
-3
390
F
  0
LAYER
  5
206
100
AcDbSymbolTableRecord
100
AcDbLayerTableRecord
  2
DEFAULT_DATUM_PLANES
 70
0
 62
7
  6
CONTINUOUS
370
-3
390
F
  0
LAYER
  5
207
100
AcDbSymbolTableRecord
100
AcDbLayerTableRecord
  2
DIMENSIONS
 70
0
 62
7
  6
CONTINUOUS
370
-3
390
F
  0
LAYER
  5
208
100
AcDbSymbolTableRecord
100
AcDbLayerTableRecord
  2
PROTRUSION_FEATURES
 70
0
 62
7
  6
CONTINUOUS
370
-3
390
F
  0
LAYER
  5
209
100
AcDbSymbolTableRecord
100
AcDbLayerTableRecord
  2
QUILTS
 70
0
 62
7
  6
CONTINUOUS
370
-3
390
F
  0
LAYER
  5
20A
100
AcDbSymbolTableRecord
100
AcDbLayerTableRecord
  2
ROUND_FEATURES
 70
0
 62
7
  6
CONTINUOUS
370
-3
390
F
  0
ENDTAB
  0
TABLE
  2
STYLE
  5
3
100
AcDbSymbolTable
 70
1
  0
STYLE
  5
11
100
AcDbSymbolTableRecord
100
AcDbTextStyleTableRecord
  2
STANDARD
 70
0
 40
0.0
 41
0.8
 50
0.0
 71
0
 42
0.2
  3
txt
  4

  0
STYLE
  5
20B
100
AcDbSymbolTableRecord
100
AcDbTextStyleTableRecord
  2
TEXTSTYLE_1
 70
0
 40
0.0
 41
0.8
 50
0.0
 71
0
 42
0.2
  3
gdt
  4

  0
ENDTAB
  0
TABLE
  2
VIEW
  5
6
100
AcDbSymbolTable
 70
0
  0
ENDTAB
  0
TABLE
  2
UCS
  5
7
100
AcDbSymbolTable
 70
0
  0
ENDTAB
  0
TABLE
  2
APPID
  5
9
100
AcDbSymbolTable
 70
1
  0
APPID
  5
20C
100
AcDbSymbolTableRecord
100
AcDbRegAppTableRecord
  2
ACAD
 70
0
  0
ENDTAB
  0
TABLE
  2
BLOCK_RECORD
  5
1
100
AcDbSymbolTable
 70
0
  0
BLOCK_RECORD
  5
20D
100
AcDbSymbolTableRecord
100
AcDbBlockTableRecord
  2
*Model_Space
  0
BLOCK_RECORD
  5
20E
100
AcDbSymbolTableRecord
100
AcDbBlockTableRecord
  2
*Paper_Space
  0
BLOCK_RECORD
  5
20F
100
AcDbSymbolTableRecord
100
AcDbBlockTableRecord
  2
_FILLED
  0
ENDTAB
  0
TABLE
  2
DIMSTYLE
  5
A
100
AcDbSymbolTable
 70
1
100
AcDbDimStyleTable
 71
0
  0
DIMSTYLE
105
210
100
AcDbSymbolTableRecord
100
AcDbDimStyleTableRecord
  2
STANDARD
 70
0
  3

  4

 40
1.0
 41
0.1
 42
0.0625
 43
0.38
 44
0.125
 45
0.0
 46
0.0
 47
0.001
 48
0.001
140
0.08
141
0.09
142
0.0
143
25.4
144
1.0
145
0.0
146
1.0
147
0.09
 71
1
 72
0
 73
1
 74
1
 75
0
 76
0
 77
0
 78
4
 79
1
170
1
171
2
172
0
173
0
174
0
175
0
176
0
177
0
178
0
270
2
179
3
271
3
272
3
273
2
274
2
275
0
280
0
281
0
282
0
283
1
284
4
285
0
286
0
287
3
288
0
340
11
278
46
341
20F
342
20F
343
20F
344
20F
  0
ENDTAB
  0
ENDSEC
  0
SECTION
  2
BLOCKS
  0
BLOCK
  5
20
100
AcDbEntity
  8
0
100
AcDbBlockBegin
  2
*Model_Space
 70
0
 10
0.0
 20
0.0
 30
0.0
  3
*Model_Space
  1

  0
ENDBLK
  5
21
100
AcDbEntity
  8
0
100
AcDbBlockEnd
  0
BLOCK
  5
1C
100
AcDbEntity
  8
0
100
AcDbBlockBegin
  2
*Paper_Space
 70
0
 10
0.0
 20
0.0
 30
0.0
  3
*Paper_Space
  1

  0
ENDBLK
  5
1D
100
AcDbEntity
  8
0
100
AcDbBlockEnd
  0
BLOCK
  5
211
100
AcDbEntity
  8
0
100
AcDbBlockBegin
  2
_FILLED
 70
64
 10
0.0
 20
0.0
  3
_FILLED
  1

  0
SOLID
  5
212
100
AcDbEntity
  8
0
  6
BYBLOCK
 62
0
100
AcDbTrace
 10
0.0
 20
0.0
 11
-1.0
 21
0.2
 12
-1.0
 22
-0.2
 13
-1.0
 23
-0.2
  0
ENDBLK
  5
213
100
AcDbEntity
  8
0
  6
BYBLOCK
 62
0
100
AcDbBlockEnd
  0
ENDSEC
  0
SECTION
  2
ENTITIES
  0
MTEXT
  5
214
100
AcDbEntity
  8
0
100
AcDbMText
 62
2
  6
CONTINUOUS
  7
STANDARD
 71
2
 72
1
 10
5.5647007132
 20
1.1790807251
 30
0.0
 11
1.0
 21
0.0
 31
0.0
 73
2
 44
0.9
  1
SCALE 1.000
 40
0.08
 41
0.704
  0
LINE
  5
215
100
AcDbEntity
  8
0
100
AcDbLine
 62
7
  6
CONTINUOUS
 10
0.0
 20
0.0
 11
0.0
 21
8.5
  0
LINE
  5
216
100
AcDbEntity
  8
0
100
AcDbLine
 62
7
  6
CONTINUOUS
 10
0.0
 20
0.0
 11
11.0
 21
0.0
  0
LINE
  5
217
100
AcDbEntity
  8
0
100
AcDbLine
 62
7
  6
CONTINUOUS
 10
0.0
 20
8.5
 11
11.0
 21
8.5
  0
LINE
  5
218
100
AcDbEntity
  8
0
100
AcDbLine
 62
7
  6
CONTINUOUS
 10
11.0
 20
0.0
 11
11.0
 21
8.5
  0
LINE
  5
219
100
AcDbEntity
  8
ALL_ASSEMBLY_MEMBERS
100
AcDbLine
 62
7
  6
CONTINUOUS
 10
5.3620793269
 20
3.1355901064
 11
5.7370793269
 21
3.1355901064
  0
LINE
  5
21A
100
AcDbEntity
  8
ALL_ASSEMBLY_MEMBERS
100
AcDbLine
 62
7
  6
CONTINUOUS
 10
5.1140793269
 20
3.1855901064
 11
5.3620793269
 21
3.1855901064
  0
LINE
  5
21B
100
AcDbEntity
  8
ALL_FEATURES
100
AcDbLine
 62
7
  6
CONTINUOUS
 10
4.3620793269
 20
6.9345901064
 11
4.3620793269
 21
6.4645901064
  0
LINE
  5
21C
100
AcDbEntity
  8
ALL_FEATURES
100
AcDbLine
 62
7
  6
CONTINUOUS
 10
5.0995793269
 20
6.4145901064
 11
5.0995793269
 21
6.4645901064
  0
LINE
  5
21D
100
AcDbEntity
  8
ALL_ASSEMBLY_MEMBERS
100
AcDbLine
 62
7
  6
CONTINUOUS
 10
5.1140793269
 20
1.8645901064
 11
5.1140793269
 21
6.3645901064
  0
LINE
  5
21E
100
AcDbEntity
  8
ALL_FEATURES
100
AcDbLine
 62
7
  6
CONTINUOUS
 10
5.1498293269
 20
6.3645901064
 11
5.1473392247
 21
6.4098646914
  0
LINE
  5
21F
100
AcDbEntity
  8
ALL_FEATURES
100
AcDbLine
 62
7
  6
CONTINUOUS
 10
5.1772151155
 20
6.9645901064
 11
5.1772155778
 21
6.9835916266
  0
LINE
  5
220
100
AcDbEntity
  8
ALL_FEATURES
100
AcDbLine
 62
7
  6
CONTINUOUS
 10
5.3022151155
 20
6.9645901064
 11
5.3022155777
 21
6.9835885853
  0
LINE
  5
221
100
AcDbEntity
  8
ALL_FEATURES
100
AcDbLine
 62
7
  6
CONTINUOUS
 10
5.3445793269
 20
6.4145901064
 11
5.3445793269
 21
6.4645901064
  0
LINE
  5
222
100
AcDbEntity
  8
ALL_ASSEMBLY_MEMBERS
100
AcDbLine
 62
7
  6
CONTINUOUS
 10
5.3620793269
 20
1.8145901064
 11
5.3620793269
 21
6.3145901064
  0
LINE
  5
223
100
AcDbEntity
  8
ALL_ASSEMBLY_MEMBERS
100
AcDbLine
 62
7
  6
CONTINUOUS
 10
5.3650793269
 20
6.3145901064
 11
5.3650793269
 21
6.3645901064
  0
LINE
  5
224
100
AcDbEntity
  8
ALL_FEATURES
100
AcDbLine
 62
7
  6
CONTINUOUS
 10
5.3293293269
 20
6.3645901064
 11
5.3318194291
 21
6.4098646914
  0
LINE
  5
225
100
AcDbEntity
  8
ALL_FEATURES
100
AcDbLine
 62
7
  6
CONTINUOUS
 10
5.486957674
 20
6.983572767
 11
5.4869572122
 21
6.9645901064
  0
LINE
  5
226
100
AcDbEntity
  8
ALL_FEATURES
100
AcDbLine
 62
7
  6
CONTINUOUS
 10
5.6820793269
 20
6.3145901064
 11
5.6940318486
 21
6.4102102801
  0
LINE
  5
227
100
AcDbEntity
  8
ALL_FEATURES
100
AcDbLine
 62
7
  6
CONTINUOUS
 10
5.611957674
 20
6.9835697258
 11
5.6119572122
 21
6.9645901064
  0
LINE
  5
228
100
AcDbEntity
  8
ALL_ASSEMBLY_MEMBERS
100
AcDbLine
 62
7
  6
CONTINUOUS
 10
5.7370793269
 20
1.8145901064
 11
5.7370793269
 21
6.3145901064
  0
LINE
  5
229
100
AcDbEntity
  8
ALL_FEATURES
100
AcDbLine
 62
7
  6
CONTINUOUS
 10
5.7545793269
 20
6.4145901064
 11
5.7545793269
 21
6.4645901064
  0
LINE
  5
22A
100
AcDbEntity
  8
ALL_FEATURES
100
AcDbLine
 62
7
  6
CONTINUOUS
 10
5.4170793269
 20
6.3145901064
 11
5.4051268052
 21
6.4102102801
  0
LINE
  5
22B
100
AcDbEntity
  8
ALL_FEATURES
100
AcDbLine
 62
7
  6
CONTINUOUS
 10
6.7370793269
 20
6.9345901064
 11
6.7370793269
 21
6.4645901064
  0
LINE
  5
22C
100
AcDbEntity
  8
ALL_ASSEMBLY_MEMBERS
100
AcDbLine
 62
7
  6
CONTINUOUS
 10
5.3620793269
 20
6.3145901064
 11
5.7370793269
 21
6.3145901064
  0
LINE
  5
22D
100
AcDbEntity
  8
ALL_ASSEMBLY_MEMBERS
100
AcDbLine
 62
7
  6
CONTINUOUS
 10
5.1140793269
 20
6.3645901064
 11
5.3650793269
 21
6.3645901064
  0
LINE
  5
22E
100
AcDbEntity
  8
ALL_FEATURES
100
AcDbLine
 62
7
  6
CONTINUOUS
 10
5.1473392247
 20
6.4098646914
 11
5.3318194291
 21
6.4098646914
  0
LINE
  5
22F
100
AcDbEntity
  8
ALL_FEATURES
100
AcDbLine
 62
7
  6
CONTINUOUS
 10
5.6940318486
 20
6.4102102801
 11
5.4051268052
 21
6.4102102801
  0
LINE
  5
230
100
AcDbEntity
  8
ALL_FEATURES
100
AcDbLine
 62
7
  6
CONTINUOUS
 10
5.0995793269
 20
6.4145901064
 11
5.7545793269
 21
6.4145901064
  0
LINE
  5
231
100
AcDbEntity
  8
ALL_FEATURES
100
AcDbLine
 62
7
  6
CONTINUOUS
 10
4.3620793269
 20
6.4645901064
 11
6.7370793269
 21
6.4645901064
  0
LINE
  5
232
100
AcDbEntity
  8
0
100
AcDbLine
 62
7
  6
CONTINUOUS
 10
4.3620793269
 20
6.9345901064
 11
6.7370793269
 21
6.9345901064
  0
LINE
  5
233
100
AcDbEntity
  8
0
100
AcDbLine
 62
7
  6
CONTINUOUS
 10
4.3920793269
 20
6.9645901064
 11
6.7070793269
 21
6.9645901064
  0
LINE
  5
234
100
AcDbEntity
  8
ALL_FEATURES
100
AcDbLine
 62
7
  6
CONTINUOUS
 10
5.611957674
 20
6.9835697258
 11
5.486957674
 21
6.983572767
  0
LINE
  5
235
100
AcDbEntity
  8
ALL_FEATURES
100
AcDbLine
 62
7
  6
CONTINUOUS
 10
5.1772155778
 20
6.9835916266
 11
5.3022155777
 21
6.9835885853
  0
ARC
  5
236
100
AcDbEntity
  8
ALL_ASSEMBLY_MEMBERS
100
AcDbCircle
 62
7
  6
CONTINUOUS
 10
5.2405818951
 20
1.8647197555
 40
0.1245124442
100
AcDbArc
 50
337.2207579621
 51
348.9566106724
  0
CIRCLE
  5
237
100
AcDbEntity
  8
ALL_FEATURES
100
AcDbCircle
 62
7
  6
CONTINUOUS
 10
5.5495793269
 20
6.7295901064
 40
0.0625
  0
ARC
  5
238
100
AcDbEntity
  8
0
100
AcDbCircle
 62
7
  6
CONTINUOUS
 10
6.7070793269
 20
6.9345901064
 40
0.03
100
AcDbArc
 50
0.0
 51
90.0
  0
ARC
  5
239
100
AcDbEntity
  8
0
100
AcDbCircle
 62
7
  6
CONTINUOUS
 10
4.3920793269
 20
6.9345901064
 40
0.03
100
AcDbArc
 50
90.0
 51
180.0
  0
ARC
  5
23A
100
AcDbEntity
  8
ALL_FEATURES
100
AcDbCircle
 62
7
  6
CONTINUOUS
 10
5.3368118837
 20
6.4095901064
 40
0.005
100
AcDbArc
 50
90.0
 51
176.8519039004
  0
ARC
  5
23B
100
AcDbEntity
  8
ALL_FEATURES
100
AcDbCircle
 62
7
  6
CONTINUOUS
 10
5.1423467701
 20
6.4095901064
 40
0.005
100
AcDbArc
 50
3.1480960996
 51
90.0
  0
ARC
  5
23C
100
AcDbEntity
  8
ALL_FEATURES
100
AcDbCircle
 62
7
  6
CONTINUOUS
 10
5.698993238
 20
6.4095901064
 40
0.005
100
AcDbArc
 50
90.0
 51
172.8749836511
  0
ARC
  5
23D
100
AcDbEntity
  8
ALL_FEATURES
100
AcDbCircle
 62
7
  6
CONTINUOUS
 10
5.4001654158
 20
6.4095901064
 40
0.005
100
AcDbArc
 50
7.1250163489
 51
90.0
  0
SPLINE
  5
23E
100
AcDbEntity
  8
ALL_FEATURES
100
AcDbSpline
 62
7
  6
CONTINUOUS
 70
0
 71
3
 72
37
 73
33
 74
0
 42
0.0000001
 43
0.0000001
 44
0.0000000001
 40
0.0
 40
0.0
 40
0.0
 40
0.0
 40
0.0350175243
 40
0.0700137051
 40
0.1049338403
 40
0.1397269805
 40
0.1743560766
 40
0.2087881783
 40
0.2429913549
 40
0.2769348716
 40
0.3439174013
 40
0.3769205506
 40
0.4095709288
 40
0.4737525184
 40
0.5052878111
 40
0.536449271
 40
0.5976649399
 40
0.62776522
 40
0.6575461033
 40
0.6870324781
 40
0.7162537443
 40
0.7452351516
 40
0.7740078857
 40
0.802604671
 40
0.8310498862
 40
0.8452270888
 40
0.8593784445
 40
0.8876087037
 40
0.9157644986
 40
0.9438704705
 40
0.9719438325
 40
1.0
 40
1.0
 40
1.0
 40
1.0
 10
5.1772155778
 20
6.9835916266
 30
0.0
 10
5.177215696
 20
6.988449542
 30
0.0
 10
5.1773735742
 20
6.9981631413
 30
0.0
 10
5.178081552
 20
7.0127056182
 30
0.0
 10
5.1792595964
 20
7.0271865479
 30
0.0
 10
5.1809069811
 20
7.041570354
 30
0.0
 10
5.1830202758
 20
7.055824756
 30
0.0
 10
5.1855960359
 20
7.0699196801
 30
0.0
 10
5.1886310702
 20
7.0838259427
 30
0.0
 10
5.1932624267
 20
7.1019938431
 30
0.0
 10
5.1988040801
 20
7.1197483778
 30
0.0
 10
5.2052661635
 20
7.1369807757
 30
0.0
 10
5.2122343541
 20
7.1535937059
 30
0.0
 10
5.220090038
 20
7.1696018737
 30
0.0
 10
5.2288405502
 20
7.1848798642
 30
0.0
 10
5.2380340127
 20
7.1994099132
 30
0.0
 10
5.2480936457
 20
7.213141044
 30
0.0
 10
5.2590085192
 20
7.2259193438
 30
0.0
 10
5.2675397731
 20
7.2349232984
 30
0.0
 10
5.2764535862
 20
7.24337253
 30
0.0
 10
5.2857413243
 20
7.2512391877
 30
0.0
 10
5.2953911762
 20
7.2584943086
 30
0.0
 10
5.3053894328
 20
7.2651065001
 30
0.0
 10
5.3157174072
 20
7.2710433283
 30
0.0
 10
5.3245898016
 20
7.2754079578
 30
0.0
 10
5.3318233013
 20
7.2785273173
 30
0.0
 10
5.3391304084
 20
7.281389257
 30
0.0
 10
5.3484206896
 20
7.28448955
 30
0.0
 10
5.3597801069
 20
7.2874184893
 30
0.0
 10
5.3712989111
 20
7.2895253443
 30
0.0
 10
5.3829249704
 20
7.2907975821
 30
0.0
 10
5.390714727
 20
7.2910813219
 30
0.0
 10
5.3946069064
 20
7.2910805291
 30
0.0
  0
SPLINE
  5
23F
100
AcDbEntity
  8
ALL_FEATURES
100
AcDbSpline
 62
7
  6
CONTINUOUS
 70
0
 71
3
 72
38
 73
34
 74
0
 42
0.0000001
 43
0.0000001
 44
0.0000000001
 40
0.0
 40
0.0
 40
0.0
 40
0.0
 40
0.0127124237
 40
0.0257393734
 40
0.0393763598
 40
0.0538506526
 40
0.0693869679
 40
0.0862220041
 40
0.1045330013
 40
0.1243988026
 40
0.1459003612
 40
0.169105987
 40
0.1940108218
 40
0.2205976206
 40
0.2488429613
 40
0.278690467
 40
0.3100776816
 40
0.3429376912
 40
0.4127422854
 40
0.4495382764
 40
0.4874776946
 40
0.5264731171
 40
0.5664377738
 40
0.6072842791
 40
0.6489243041
 40
0.6912689804
 40
0.7342282539
 40
0.7777125218
 40
0.8216385253
 40
0.8659247641
 40
0.9104852975
 40
0.9552143649
 40
1.0
 40
1.0
 40
1.0
 40
1.0
 10
5.3945918469
 20
7.166091486
 30
0.0
 10
5.3955235244
 20
7.1660918873
 30
0.0
 10
5.3974108809
 20
7.1660141364
 30
0.0
 10
5.400277796
 20
7.1656615929
 30
0.0
 10
5.4032378094
 20
7.165074114
 30
0.0
 10
5.4063218932
 20
7.1642130302
 30
0.0
 10
5.4095517102
 20
7.1630393054
 30
0.0
 10
5.4129436339
 20
7.1615177898
 30
0.0
 10
5.4165026631
 20
7.159616983
 30
0.0
 10
5.4202173412
 20
7.1573021658
 30
0.0
 10
5.424066804
 20
7.1545439168
 30
0.0
 10
5.4280242308
 20
7.1513192766
 30
0.0
 10
5.4320621267
 20
7.1476182899
 30
0.0
 10
5.4361457756
 20
7.1434340048
 30
0.0
 10
5.4402382774
 20
7.1387648084
 30
0.0
 10
5.444309251
 20
7.1336201903
 30
0.0
 10
5.4483246608
 20
7.1280104276
 30
0.0
 10
5.4536690318
 20
7.1197634769
 30
0.0
 10
5.4586500198
 20
7.1108217686
 30
0.0
 10
5.4632457524
 20
7.1012754963
 30
0.0
 10
5.466569062
 20
7.0936290492
 30
0.0
 10
5.4696873054
 20
7.0856472204
 30
0.0
 10
5.4725845028
 20
7.077356516
 30
0.0
 10
5.4752471007
 20
7.0687844319
 30
0.0
 10
5.4776605136
 20
7.0599579672
 30
0.0
 10
5.4798145962
 20
7.0509054902
 30
0.0
 10
5.4817004294
 20
7.0416554039
 30
0.0
 10
5.4833085941
 20
7.032235466
 30
0.0
 10
5.4846333257
 20
7.0226733587
 30
0.0
 10
5.4856694631
 20
7.0129963772
 30
0.0
 10
5.4864115724
 20
7.0032333866
 30
0.0
 10
5.4868581417
 20
6.9934159041
 30
0.0
 10
5.4869577539
 20
6.9868550499
 30
0.0
 10
5.486957674
 20
6.983572767
 30
0.0
  0
SPLINE
  5
240
100
AcDbEntity
  8
ALL_FEATURES
100
AcDbSpline
 62
7
  6
CONTINUOUS
 70
0
 71
3
 72
42
 73
38
 74
0
 42
0.0000001
 43
0.0000001
 44
0.0000000001
 40
0.0
 40
0.0
 40
0.0
 40
0.0
 40
0.0447876695
 40
0.0895187183
 40
0.1340813
 40
0.1783696515
 40
0.2222976887
 40
0.2657837982
 40
0.3087447777
 40
0.3510910829
 40
0.3927326074
 40
0.433580439
 40
0.4735461959
 40
0.5125423839
 40
0.5504823117
 40
0.5872785865
 40
0.6570822945
 40
0.6899414922
 40
0.721327427
 40
0.7511723898
 40
0.7794160414
 40
0.8060004877
 40
0.8309001833
 40
0.8541042404
 40
0.8756040528
 40
0.8954602332
 40
0.9137674934
 40
0.9306107604
 40
0.9385262704
 40
0.946143581
 40
0.9606051918
 40
0.9675124343
 40
0.974241598
 40
0.9808202481
 40
0.9872805028
 40
0.9936606473
 40
1.0
 40
1.0
 40
1.0
 40
1.0
 10
5.3022155777
 20
6.9835885853
 30
0.0
 10
5.3022156576
 20
6.9868709677
 30
0.0
 10
5.302315595
 20
6.9934320125
 30
0.0
 10
5.3027626735
 20
7.0032497685
 30
0.0
 10
5.3035053086
 20
7.0130130226
 30
0.0
 10
5.3045419974
 20
7.0226902543
 30
0.0
 10
5.3058673061
 20
7.0322525778
 30
0.0
 10
5.3074760413
 20
7.0416726872
 30
0.0
 10
5.3093624953
 20
7.0509228898
 30
0.0
 10
5.3115172373
 20
7.0599754294
 30
0.0
 10
5.3139312281
 20
7.0688019315
 30
0.0
 10
5.3165944981
 20
7.0773739686
 30
0.0
 10
5.3194924159
 20
7.0856645271
 30
0.0
 10
5.3226111752
 20
7.0936462033
 30
0.0
 10
5.325935231
 20
7.1012923171
 30
0.0
 10
5.3305318084
 20
7.1108379924
 30
0.0
 10
5.3355134507
 20
7.119779059
 30
0.0
 10
5.3408587395
 20
7.1280249685
 30
0.0
 10
5.3448741682
 20
7.1336341768
 30
0.0
 10
5.3489458581
 20
7.1387776007
 30
0.0
 10
5.3530386455
 20
7.1434457558
 30
0.0
 10
5.3571219439
 20
7.147629334
 30
0.0
 10
5.3611603038
 20
7.1513287332
 30
0.0
 10
5.3651178351
 20
7.1545521
 30
0.0
 10
5.3689663674
 20
7.1573098878
 30
0.0
 10
5.3726806557
 20
7.1596232146
 30
0.0
 10
5.376240048
 20
7.1615222519
 30
0.0
 10
5.3791229532
 20
7.1628139869
 30
0.0
 10
5.3813390028
 20
7.1636634277
 30
0.0
 10
5.3834198908
 20
7.1643731961
 30
0.0
 10
5.3854682854
 20
7.164945436
 30
0.0
 10
5.3874811112
 20
7.165382059
 30
0.0
 10
5.3889402314
 20
7.165640784
 30
0.0
 10
5.3903754084
 20
7.1658409833
 30
0.0
 10
5.3917916465
 20
7.1659849039
 30
0.0
 10
5.393194967
 20
7.1660716481
 30
0.0
 10
5.3941272508
 20
7.1660912858
 30
0.0
 10
5.3945918469
 20
7.166091486
 30
0.0
  0
SPLINE
  5
241
100
AcDbEntity
  8
ALL_FEATURES
100
AcDbSpline
 62
7
  6
CONTINUOUS
 70
0
 71
3
 72
35
 73
31
 74
0
 42
0.0000001
 43
0.0000001
 44
0.0000000001
 40
0.0
 40
0.0
 40
0.0
 40
0.0
 40
0.0280567026
 40
0.0561303215
 40
0.0701800587
 40
0.0842398013
 40
0.1123974649
 40
0.1406287392
 40
0.1689529568
 40
0.1974009063
 40
0.2259986208
 40
0.2547723595
 40
0.2837568854
 40
0.3129796952
 40
0.3424675386
 40
0.4023332192
 40
0.4635530014
 40
0.5262382903
 40
0.5904231151
 40
0.6230749999
 40
0.6560794237
 40
0.7230640973
 40
0.7570082955
 40
0.7912119684
 40
0.8256444615
 40
0.8602738327
 40
0.8950671026
 40
0.929987135
 40
0.9649829723
 40
1.0
 40
1.0
 40
1.0
 40
1.0
 10
5.3946069064
 20
7.2910805291
 30
0.0
 10
5.3984988507
 20
7.2910797363
 30
0.0
 10
5.4062877682
 20
7.2907939519
 30
0.0
 10
5.4159737775
 20
7.2897330707
 30
0.0
 10
5.4236652751
 20
7.2884666271
 30
0.0
 10
5.4313176406
 20
7.2869222076
 30
0.0
 10
5.4407887438
 20
7.2844786903
 30
0.0
 10
5.4519437902
 20
7.2807544456
 30
0.0
 10
5.4628545441
 20
7.2762592348
 30
0.0
 10
5.4734874461
 20
7.2710265763
 30
0.0
 10
5.4838143072
 20
7.2650879402
 30
0.0
 10
5.4938108009
 20
7.2584736341
 30
0.0
 10
5.503459414
 20
7.2512172342
 30
0.0
 10
5.5127459699
 20
7.2433490472
 30
0.0
 10
5.5246871454
 20
7.2320266001
 30
0.0
 10
5.5386604189
 20
7.2164467645
 30
0.0
 10
5.5537447288
 20
7.1958504769
 30
0.0
 10
5.5671944659
 20
7.1734540328
 30
0.0
 10
5.57695249
 20
7.1535639042
 30
0.0
 10
5.5839190773
 20
7.1369505158
 30
0.0
 10
5.5903793384
 20
7.1197183747
 30
0.0
 10
5.5959192524
 20
7.1019642081
 30
0.0
 10
5.6005490207
 20
7.0837969729
 30
0.0
 10
5.603582875
 20
7.0698913861
 30
0.0
 10
5.6061575074
 20
7.0557972502
 30
0.0
 10
5.6082697514
 20
7.0415437385
 30
0.0
 10
5.6099161455
 20
7.027160935
 30
0.0
 10
5.6110932717
 20
7.0126811331
 30
0.0
 10
5.6118004151
 20
6.9981399051
 30
0.0
 10
5.6119577921
 20
6.9884271864
 30
0.0
 10
5.611957674
 20
6.9835697258
 30
0.0
  0
SPLINE
  5
242
100
AcDbEntity
  8
ALL_ASSEMBLY_MEMBERS
100
AcDbSpline
 62
7
  6
CONTINUOUS
 70
0
 71
3
 72
21
 73
17
 74
0
 42
0.0000001
 43
0.0000001
 44
0.0000000001
 40
0.0
 40
0.0
 40
0.0
 40
0.0
 40
0.1250681694
 40
0.2503613262
 40
0.312990506
 40
0.3755730645
 40
0.4381200191
 40
0.5006423188
 40
0.563149481
 40
0.6256383351
 40
0.6881014864
 40
0.7505341418
 40
0.812938813
 40
0.8753179177
 40
0.9376710145
 40
1.0
 40
1.0
 40
1.0
 40
1.0
 10
5.2395793269
 20
1.7398455616
 30
0.0
 10
5.2457122819
 20
1.7398455616
 30
0.0
 10
5.258005836
 20
1.7407519996
 30
0.0
 10
5.2730447231
 20
1.7440891754
 30
0.0
 10
5.2846798888
 20
1.7480582851
 30
0.0
 10
5.293161248
 20
1.7516629212
 30
0.0
 10
5.3013521076
 20
1.7558740395
 30
0.0
 10
5.309209705
 20
1.7606716865
 30
0.0
 10
5.3166909615
 20
1.7660323181
 30
0.0
 10
5.3237587033
 20
1.7719227764
 30
0.0
 10
5.3303750165
 20
1.7783109707
 30
0.0
 10
5.3365010157
 20
1.7851654221
 30
0.0
 10
5.3421013802
 20
1.7924503333
 30
0.0
 10
5.3471504633
 20
1.800122992
 30
0.0
 10
5.3516213488
 20
1.808141593
 30
0.0
 10
5.3541991891
 20
1.8136928955
 30
0.0
 10
5.3553828027
 20
1.8165108313
 30
0.0
  0
SPLINE
  5
243
100
AcDbEntity
  8
ALL_ASSEMBLY_MEMBERS
100
AcDbSpline
 62
7
  6
CONTINUOUS
 70
0
 71
3
 72
23
 73
19
 74
0
 42
0.0000001
 43
0.0000001
 44
0.0000000001
 40
0.0
 40
0.0
 40
0.0
 40
0.0
 40
0.062312889
 40
0.1246307668
 40
0.1869654053
 40
0.2493199626
 40
0.3116983572
 40
0.3741101532
 40
0.4365563446
 40
0.4990398506
 40
0.5615626299
 40
0.6241134237
 40
0.6866857413
 40
0.7492958925
 40
0.8119630866
 40
0.8746967058
 40
0.9374162768
 40
1.0
 40
1.0
 40
1.0
 40
1.0
 10
5.1140814933
 20
1.8645901064
 30
0.0
 10
5.1140814933
 20
1.8605094202
 30
0.0
 10
5.1144828551
 20
1.8523419057
 30
0.0
 10
5.1162936152
 20
1.8402133711
 30
0.0
 10
5.1192940909
 20
1.8283194432
 30
0.0
 10
5.1234467285
 20
1.8167732443
 30
0.0
 10
5.1287223171
 20
1.8056890583
 30
0.0
 10
5.1350662449
 20
1.7951732321
 30
0.0
 10
5.1424120714
 20
1.7853223562
 30
0.0
 10
5.1506990622
 20
1.7762388962
 30
0.0
 10
5.1598408683
 20
1.7680067665
 30
0.0
 10
5.1697454226
 20
1.7607000964
 30
0.0
 10
5.1803245553
 20
1.7543982077
 30
0.0
 10
5.1914750529
 20
1.7491562127
 30
0.0
 10
5.203093425
 20
1.7450219481
 30
0.0
 10
5.2150692147
 20
1.7420484071
 30
0.0
 10
5.2272696944
 20
1.7402506615
 30
0.0
 10
5.2354809046
 20
1.7398455616
 30
0.0
 10
5.2395793269
 20
1.7398455616
 30
0.0
  0
SPLINE
  5
244
100
AcDbEntity
  8
ALL_ASSEMBLY_MEMBERS
100
AcDbSpline
 62
7
  6
CONTINUOUS
 70
0
 71
3
 72
23
 73
19
 74
0
 42
0.0000001
 43
0.0000001
 44
0.0000000001
 40
0.0
 40
0.0
 40
0.0
 40
0.0
 40
0.0625837232
 40
0.1253032942
 40
0.1880369134
 40
0.2507041075
 40
0.3133142587
 40
0.3758865763
 40
0.4384373701
 40
0.5009601494
 40
0.5634436554
 40
0.6258898468
 40
0.6883016428
 40
0.7506800374
 40
0.8130345947
 40
0.8753692332
 40
0.937687111
 40
1.0
 40
1.0
 40
1.0
 40
1.0
 10
5.5495793269
 20
1.938837661
 30
0.0
 10
5.545497233
 20
1.938837661
 30
0.0
 10
5.5373187368
 20
1.9384341751
 30
0.0
 10
5.5251668645
 20
1.9366435918
 30
0.0
 10
5.5132387872
 20
1.9336818975
 30
0.0
 10
5.5016667034
 20
1.9295641041
 30
0.0
 10
5.4905606301
 20
1.9243429936
 30
0.0
 10
5.4800236453
 20
1.918066212
 30
0.0
 10
5.4701585514
 20
1.9107886521
 30
0.0
 10
5.4610531669
 20
1.9025893198
 30
0.0
 10
5.452799192
 20
1.8935420488
 30
0.0
 10
5.4454826316
 20
1.8837304194
 30
0.0
 10
5.4391639785
 20
1.873256489
 30
0.0
 10
5.4339094082
 20
1.8622164631
 30
0.0
 10
5.4297733149
 20
1.8507162649
 30
0.0
 10
5.4267847933
 20
1.8388697232
 30
0.0
 10
5.4249812474
 20
1.8267895095
 30
0.0
 10
5.4245814846
 20
1.8186545349
 30
0.0
 10
5.4245814846
 20
1.8145901064
 30
0.0
  0
SPLINE
  5
245
100
AcDbEntity
  8
ALL_ASSEMBLY_MEMBERS
100
AcDbSpline
 62
7
  6
CONTINUOUS
 70
0
 71
3
 72
24
 73
20
 74
0
 42
0.0000001
 43
0.0000001
 44
0.0000000001
 40
0.0
 40
0.0
 40
0.0
 40
0.0
 40
0.0626232405
 40
0.1253427944
 40
0.1567104612
 40
0.1880622468
 40
0.2507060066
 40
0.3133120657
 40
0.3758966982
 40
0.4384534493
 40
0.5009719996
 40
0.5634530005
 40
0.6258961877
 40
0.68830614
 40
0.7506858112
 40
0.8130381555
 40
0.8753712319
 40
0.9376888238
 40
1.0
 40
1.0
 40
1.0
 40
1.0
 10
5.5495793269
 20
1.6282187746
 30
0.0
 10
5.5434521726
 20
1.6282187746
 30
0.0
 10
5.5311807931
 20
1.628822124
 30
0.0
 10
5.5159868864
 20
1.6310595064
 30
0.0
 10
5.5040033931
 20
1.6337305696
 30
0.0
 10
5.4921728707
 20
1.6369848489
 30
0.0
 10
5.4777118873
 20
1.6421286971
 30
0.0
 10
5.4610534749
 20
1.6499585356
 30
0.0
 10
5.4452491041
 20
1.6593789502
 30
0.0
 10
5.4304438543
 20
1.6702878082
 30
0.0
 10
5.4167878632
 20
1.6825904779
 30
0.0
 10
5.4044116817
 20
1.6961644103
 30
0.0
 10
5.3934300449
 20
1.7108765587
 30
0.0
 10
5.3839580629
 20
1.726591446
 30
0.0
 10
5.3760743951
 20
1.7431503787
 30
0.0
 10
5.3698666686
 20
1.7603998689
 30
0.0
 10
5.3653885445
 20
1.7781709237
 30
0.0
 10
5.3626814083
 20
1.7962908814
 30
0.0
 10
5.3620810295
 20
1.808493485
 30
0.0
 10
5.3620810295
 20
1.8145901064
 30
0.0
  0
SPLINE
  5
246
100
AcDbEntity
  8
ALL_ASSEMBLY_MEMBERS
100
AcDbSpline
 62
7
  6
CONTINUOUS
 70
0
 71
3
 72
23
 73
19
 74
0
 42
0.0000001
 43
0.0000001
 44
0.0000000001
 40
0.0
 40
0.0
 40
0.0
 40
0.0
 40
0.062312889
 40
0.1246307668
 40
0.1869654053
 40
0.2493199626
 40
0.3116983572
 40
0.3741101532
 40
0.4365563446
 40
0.4990398506
 40
0.5615626299
 40
0.6241134237
 40
0.6866857413
 40
0.7492958925
 40
0.8119630866
 40
0.8746967058
 40
0.9374162768
 40
1.0
 40
1.0
 40
1.0
 40
1.0
 10
5.6745771692
 20
1.8145901064
 30
0.0
 10
5.6745771692
 20
1.8186545349
 30
0.0
 10
5.6741774064
 20
1.8267895095
 30
0.0
 10
5.6723738606
 20
1.8388697232
 30
0.0
 10
5.6693853389
 20
1.8507162649
 30
0.0
 10
5.6652492457
 20
1.8622164631
 30
0.0
 10
5.6599946754
 20
1.873256489
 30
0.0
 10
5.6536760222
 20
1.8837304194
 30
0.0
 10
5.6463594619
 20
1.8935420488
 30
0.0
 10
5.638105487
 20
1.9025893198
 30
0.0
 10
5.6290001024
 20
1.9107886521
 30
0.0
 10
5.6191350085
 20
1.918066212
 30
0.0
 10
5.6085980237
 20
1.9243429936
 30
0.0
 10
5.5974919505
 20
1.9295641041
 30
0.0
 10
5.5859198666
 20
1.9336818975
 30
0.0
 10
5.5739917893
 20
1.9366435918
 30
0.0
 10
5.5618399171
 20
1.9384341751
 30
0.0
 10
5.5536614209
 20
1.938837661
 30
0.0
 10
5.5495793269
 20
1.938837661
 30
0.0
  0
SPLINE
  5
247
100
AcDbEntity
  8
ALL_ASSEMBLY_MEMBERS
100
AcDbSpline
 62
7
  6
CONTINUOUS
 70
0
 71
3
 72
24
 73
20
 74
0
 42
0.0000001
 43
0.0000001
 44
0.0000000001
 40
0.0
 40
0.0
 40
0.0
 40
0.0
 40
0.0623111762
 40
0.1246287681
 40
0.1869618445
 40
0.2493141888
 40
0.31169386
 40
0.3741038123
 40
0.4365469995
 40
0.4990280004
 40
0.5615465507
 40
0.6241033018
 40
0.6866879343
 40
0.7492939934
 40
0.8119377532
 40
0.8432895388
 40
0.8746572056
 40
0.9373767595
 40
1.0
 40
1.0
 40
1.0
 40
1.0
 10
5.7370776244
 20
1.8145901064
 30
0.0
 10
5.7370776244
 20
1.808493485
 30
0.0
 10
5.7364772455
 20
1.7962908814
 30
0.0
 10
5.7337701093
 20
1.7781709237
 30
0.0
 10
5.7292919852
 20
1.7603998689
 30
0.0
 10
5.7230842588
 20
1.7431503787
 30
0.0
 10
5.7152005909
 20
1.726591446
 30
0.0
 10
5.705728609
 20
1.7108765587
 30
0.0
 10
5.6947469722
 20
1.6961644103
 30
0.0
 10
5.6823707906
 20
1.6825904779
 30
0.0
 10
5.6687147995
 20
1.6702878082
 30
0.0
 10
5.6539095497
 20
1.6593789502
 30
0.0
 10
5.6381051789
 20
1.6499585356
 30
0.0
 10
5.6214467665
 20
1.6421286971
 30
0.0
 10
5.6069857832
 20
1.6369848489
 30
0.0
 10
5.5951552607
 20
1.6337305696
 30
0.0
 10
5.5831717674
 20
1.6310595064
 30
0.0
 10
5.5679778608
 20
1.628822124
 30
0.0
 10
5.5557064812
 20
1.6282187746
 30
0.0
 10
5.5495793269
 20
1.6282187746
 30
0.0
  0
SPLINE
  5
248
100
AcDbEntity
  8
ALL_ASSEMBLY_MEMBERS
100
AcDbSpline
 62
7
  6
CONTINUOUS
 70
0
 71
3
 72
23
 73
19
 74
0
 42
0.0000001
 43
0.0000001
 44
0.0000000001
 40
0.0
 40
0.0
 40
0.0
 40
0.0
 40
0.062312889
 40
0.1246307668
 40
0.1869654053
 40
0.2493199626
 40
0.3116983572
 40
0.3741101532
 40
0.4365563446
 40
0.4990398506
 40
0.5615626299
 40
0.6241134237
 40
0.6866857413
 40
0.7492958925
 40
0.8119630866
 40
0.8746967058
 40
0.9374162768
 40
1.0
 40
1.0
 40
1.0
 40
1.0
 10
5.4245814846
 20
1.8145901064
 30
0.0
 10
5.4245814846
 20
1.8105256779
 30
0.0
 10
5.4249812474
 20
1.8023907033
 30
0.0
 10
5.4267847933
 20
1.7903104896
 30
0.0
 10
5.4297733149
 20
1.7784639479
 30
0.0
 10
5.4339094082
 20
1.7669637498
 30
0.0
 10
5.4391639785
 20
1.7559237238
 30
0.0
 10
5.4454826316
 20
1.7454497934
 30
0.0
 10
5.452799192
 20
1.735638164
 30
0.0
 10
5.4610531669
 20
1.726590893
 30
0.0
 10
5.4701585514
 20
1.7183915607
 30
0.0
 10
5.4800236453
 20
1.7111140008
 30
0.0
 10
5.4905606301
 20
1.7048372193
 30
0.0
 10
5.5016667034
 20
1.6996161087
 30
0.0
 10
5.5132387872
 20
1.6954983153
 30
0.0
 10
5.5251668645
 20
1.692536621
 30
0.0
 10
5.5373187368
 20
1.6907460377
 30
0.0
 10
5.545497233
 20
1.6903425519
 30
0.0
 10
5.5495793269
 20
1.6903425519
 30
0.0
  0
SPLINE
  5
249
100
AcDbEntity
  8
ALL_ASSEMBLY_MEMBERS
100
AcDbSpline
 62
7
  6
CONTINUOUS
 70
0
 71
3
 72
24
 73
20
 74
0
 42
0.0000001
 43
0.0000001
 44
0.0000000001
 40
0.0
 40
0.0
 40
0.0
 40
0.0
 40
0.0623111762
 40
0.1246287681
 40
0.1869618445
 40
0.2493141888
 40
0.31169386
 40
0.3741038123
 40
0.4365469995
 40
0.4990280004
 40
0.5615465507
 40
0.6241033018
 40
0.6866879343
 40
0.7492939934
 40
0.8119377532
 40
0.8432895388
 40
0.8746572056
 40
0.9373767595
 40
1.0
 40
1.0
 40
1.0
 40
1.0
 10
5.3620810295
 20
1.8145901064
 30
0.0
 10
5.3620810295
 20
1.8206867279
 30
0.0
 10
5.3626814083
 20
1.8328893314
 30
0.0
 10
5.3653885445
 20
1.8510092891
 30
0.0
 10
5.3698666686
 20
1.8687803439
 30
0.0
 10
5.3760743951
 20
1.8860298342
 30
0.0
 10
5.3839580629
 20
1.9025887668
 30
0.0
 10
5.3934300449
 20
1.9183036541
 30
0.0
 10
5.4044116817
 20
1.9330158025
 30
0.0
 10
5.4167878632
 20
1.9465897349
 30
0.0
 10
5.4304438543
 20
1.9588924046
 30
0.0
 10
5.4452491041
 20
1.9698012626
 30
0.0
 10
5.4610534749
 20
1.9792216772
 30
0.0
 10
5.4777118873
 20
1.9870515157
 30
0.0
 10
5.4921728707
 20
1.9921953639
 30
0.0
 10
5.5040033931
 20
1.9954496432
 30
0.0
 10
5.5159868864
 20
1.9981207064
 30
0.0
 10
5.5311807931
 20
2.0003580888
 30
0.0
 10
5.5434521726
 20
2.0009614382
 30
0.0
 10
5.5495793269
 20
2.0009614382
 30
0.0
  0
SPLINE
  5
24A
100
AcDbEntity
  8
ALL_ASSEMBLY_MEMBERS
100
AcDbSpline
 62
7
  6
CONTINUOUS
 70
0
 71
3
 72
24
 73
20
 74
0
 42
0.0000001
 43
0.0000001
 44
0.0000000001
 40
0.0
 40
0.0
 40
0.0
 40
0.0
 40
0.0626232405
 40
0.1253427944
 40
0.1567104612
 40
0.1880622468
 40
0.2507060066
 40
0.3133120657
 40
0.3758966982
 40
0.4384534493
 40
0.5009719996
 40
0.5634530005
 40
0.6258961877
 40
0.68830614
 40
0.7506858112
 40
0.8130381555
 40
0.8753712319
 40
0.9376888238
 40
1.0
 40
1.0
 40
1.0
 40
1.0
 10
5.5495793269
 20
2.0009614382
 30
0.0
 10
5.5557064812
 20
2.0009614382
 30
0.0
 10
5.5679778608
 20
2.0003580888
 30
0.0
 10
5.5831717674
 20
1.9981207064
 30
0.0
 10
5.5951552607
 20
1.9954496432
 30
0.0
 10
5.6069857832
 20
1.9921953639
 30
0.0
 10
5.6214467665
 20
1.9870515157
 30
0.0
 10
5.6381051789
 20
1.9792216772
 30
0.0
 10
5.6539095497
 20
1.9698012626
 30
0.0
 10
5.6687147995
 20
1.9588924046
 30
0.0
 10
5.6823707906
 20
1.9465897349
 30
0.0
 10
5.6947469722
 20
1.9330158025
 30
0.0
 10
5.705728609
 20
1.9183036541
 30
0.0
 10
5.7152005909
 20
1.9025887668
 30
0.0
 10
5.7230842588
 20
1.8860298342
 30
0.0
 10
5.7292919852
 20
1.8687803439
 30
0.0
 10
5.7337701093
 20
1.8510092891
 30
0.0
 10
5.7364772455
 20
1.8328893314
 30
0.0
 10
5.7370776244
 20
1.8206867279
 30
0.0
 10
5.7370776244
 20
1.8145901064
 30
0.0
  0
SPLINE
  5
24B
100
AcDbEntity
  8
ALL_ASSEMBLY_MEMBERS
100
AcDbSpline
 62
7
  6
CONTINUOUS
 70
0
 71
3
 72
23
 73
19
 74
0
 42
0.0000001
 43
0.0000001
 44
0.0000000001
 40
0.0
 40
0.0
 40
0.0
 40
0.0
 40
0.0625837232
 40
0.1253032942
 40
0.1880369134
 40
0.2507041075
 40
0.3133142587
 40
0.3758865763
 40
0.4384373701
 40
0.5009601494
 40
0.5634436554
 40
0.6258898468
 40
0.6883016428
 40
0.7506800374
 40
0.8130345947
 40
0.8753692332
 40
0.937687111
 40
1.0
 40
1.0
 40
1.0
 40
1.0
 10
5.5495793269
 20
1.6903425519
 30
0.0
 10
5.5536614209
 20
1.6903425519
 30
0.0
 10
5.5618399171
 20
1.6907460377
 30
0.0
 10
5.5739917893
 20
1.692536621
 30
0.0
 10
5.5859198666
 20
1.6954983153
 30
0.0
 10
5.5974919505
 20
1.6996161087
 30
0.0
 10
5.6085980237
 20
1.7048372193
 30
0.0
 10
5.6191350085
 20
1.7111140008
 30
0.0
 10
5.6290001024
 20
1.7183915607
 30
0.0
 10
5.638105487
 20
1.726590893
 30
0.0
 10
5.6463594619
 20
1.735638164
 30
0.0
 10
5.6536760222
 20
1.7454497934
 30
0.0
 10
5.6599946754
 20
1.7559237238
 30
0.0
 10
5.6652492457
 20
1.7669637498
 30
0.0
 10
5.6693853389
 20
1.7784639479
 30
0.0
 10
5.6723738606
 20
1.7903104896
 30
0.0
 10
5.6741774064
 20
1.8023907033
 30
0.0
 10
5.6745771692
 20
1.8105256779
 30
0.0
 10
5.6745771692
 20
1.8145901064
 30
0.0
  0
ENDSEC
  0
SECTION
  2
OBJECTS
  0
DICTIONARY
  5
C
100
AcDbDictionary
280
0
281
1
  3
ACAD_GROUP
350
D
  3
ACAD_MLINESTYLE
350
17
  3
ACAD_LAYOUT
350
1A
  3
ACAD_PLOTSETTINGS
350
19
  3
ACAD_PLOTSTYLENAME
350
E
  0
DICTIONARY
  5
D
102
{ACAD_REACTORS
330
C
102
}
100
AcDbDictionary
280
0
281
1
  0
ACDBDICTIONARYWDFLT
  5
E
102
{ACAD_REACTORS
330
C
102
}
100
AcDbDictionary
281
1
  3
Normal
350
F
100
AcDbDictionaryWithDefault
340
F
  0
DICTIONARY
  5
17
102
{ACAD_REACTORS
330
C
102
}
100
AcDbDictionary
280
0
281
1
  3
Standard
350
18
  0
DICTIONARY
  5
19
102
{ACAD_REACTORS
330
C
102
}
100
AcDbDictionary
281
1
  0
DICTIONARY
  5
1A
102
{ACAD_REACTORS
330
C
102
}
100
AcDbDictionary
281
1
  3
Model
350
24C
  3
Layout1
350
24D
  0
ACDBPLACEHOLDER
  5
F
102
{ACAD_REACTORS
330
E
102
}
  0
MLINESTYLE
  5
18
102
{ACAD_REACTORS
330
17
102
}
100
AcDbMlineStyle
  2
STANDARD
 70
0
  3

 62
256
 51
90.0
 52
90.0
 71
2
 49
0.5
 62
256
  6
BYLAYER
 49
-0.5
 62
256
  6
BYLAYER
  0
LAYOUT
  5
24C
102
{ACAD_REACTORS
330
1A
102
}
100
AcDbPlotSettings
  1

  2
none_device
  4
ANSI_A_(11.00_x_8.50_Inches)
  6

 40
0.0
 41
0.0
 42
0.0
 43
0.0
 44
279.4
 45
215.9
 46
0.0
 47
0.0
 48
0.0
 49
0.0
140
0.0
141
0.0
142
1.0
143
1.0
 70
1024
 72
0
 73
0
 74
0
  7

 75
0
147
1.0
148
0.0
149
0.0
100
AcDbLayout
  1
Model
 70
0
 71
0
 10
0.0
 20
0.0
 11
11.0
 21
8.5
 12
0.0
 22
0.0
 32
0.0
 14
0.0
 24
0.0
 34
0.0
 15
0.0
 25
0.0
 35
0.0
146
0.0
 13
0.0
 23
0.0
 33
0.0
 16
1.0
 26
0.0
 36
0.0
 17
0.0
 27
1.0
 37
0.0
 76
0
330
20D
345
0
346
0
  0
LAYOUT
  5
24D
102
{ACAD_REACTORS
330
1A
102
}
100
AcDbPlotSettings
  1

  2
none_device
  4
ANSI_A_(11.00_x_8.50_Inches)
  6

 40
0.0
 41
0.0
 42
0.0
 43
0.0
 44
279.4
 45
215.9
 46
0.0
 47
0.0
 48
0.0
 49
0.0
140
0.0
141
0.0
142
1.0
143
1.0
 70
0
 72
0
 73
0
 74
0
  7

 75
0
147
1.0
148
0.0
149
0.0
100
AcDbLayout
  1
Layout1
 70
0
 71
1
 10
0.0
 20
0.0
 11
11.0
 21
8.5
 12
0.0
 22
0.0
 32
0.0
 14
0.0
 24
0.0
 34
0.0
 15
0.0
 25
0.0
 35
0.0
146
0.0
 13
0.0
 23
0.0
 33
0.0
 16
1.0
 26
0.0
 36
0.0
 17
0.0
 27
1.0
 37
0.0
 76
0
330
20E
345
0
346
0
  0
ENDSEC
  0
EOF
