999
DXF file: 6-027_Top.dxf
999
Pro/ENGINEER 2023134 by Parametric Technology Corporation
  0
SECTION
  2
HEADER
  9
$ACADVER
  1
AC1032
  9
$DWGCODEPAGE
  3
ANSI_1252
  9
$EXTMAX
 10
11.0
 20
8.5
 30
0.0
  9
$EXTMIN
 10
0.0
 20
0.0
 30
0.0
  9
$LIMMIN
 10
0.0
 20
0.0
  9
$LIMMAX
 10
11.0
 20
8.5
  9
$VIEWCTR
 10
5.5
 20
4.25
  9
$VIEWSIZE
 40
8.5
  9
$CLAYER
  8
0
  9
$LTSCALE
 40
0.605
  9
$CELTYPE
  6
BYLAYER
  9
$DIMSCALE
 40
1.0
  9
$DIMASZ
 40
0.1
  9
$DIMEXO
 40
0.0625
  9
$DIMDLI
 40
0.418
  9
$DIMEXE
 40
0.125
  9
$DIMCEN
 40
0.099
  9
$DIMLFAC
 40
1.0
  9
$DIMBLK
  1
_FILLED
  9
$DIMALT
 70
1
  9
$DIMALTD
 70
2
  9
$DIMALTTD
 70
2
  9
$DIMALTF
 40
25.4
  9
$DIMTXT
 40
0.08
  9
$DIMTOL
 70
1
  9
$DIMLIM
 70
0
  9
$DIMTFAC
 40
1.0
  9
$DIMTP
 40
0.001
  9
$DIMTM
 40
0.001
  9
$DIMGAP
 40
0.09
  9
$DIMDSEP
 70
46
  9
$AUNITS
 70
0
  9
$PDMODE
 70
3
  9
$PDSIZE
 40
0.3125
  9
$HANDSEED
  5
23F
  9
$TILEMODE
 70
1
  9
$MEASUREMENT
 70
0
  9
$INSUNITS
 70
1
  0
ENDSEC
  0
SECTION
  2
CLASSES
  0
CLASS
  1
ACDBDICTIONARYWDFLT
  2
AcDbDictionaryWithDefault
  3
AutoCAD 2000
 90
0
 91
1
280
0
281
0
  0
CLASS
  1
ACDBPLACEHOLDER
  2
AcDbPlaceHolder
  3
AutoCAD 2000
 90
0
 91
1
280
0
281
0
  0
CLASS
  1
LAYOUT
  2
AcDbLayout
  3
AutoCAD 2000
 90
0
 91
0
280
0
281
0
  0
ENDSEC
  0
SECTION
  2
TABLES
  0
TABLE
  2
VPORT
  5
8
100
AcDbSymbolTable
 70
2
  0
VPORT
  5
1F4
100
AcDbSymbolTableRecord
100
AcDbViewportTableRecord
  2
*ACTIVE
 70
0
 10
0.0
 20
0.0
 11
1.0
 21
1.0
 12
5.5
 22
4.25
 13
0.0
 23
0.0
 14
1.0
 24
1.0
 15
0.0
 25
0.0
 16
0.0
 26
0.0
 36
1.0
 17
0.0
 27
0.0
 37
0.0
 40
8.5
 41
1.2941176471
 42
50.0
 43
0.0
 44
0.0
 50
0.0
 51
0.0
 71
0
 72
100
 73
1
 74
1
 75
0
 76
0
 77
0
 78
0
  0
ENDTAB
  0
TABLE
  2
LTYPE
  5
5
100
AcDbSymbolTable
 70
6
  0
LTYPE
  5
14
100
AcDbSymbolTableRecord
100
AcDbLinetypeTableRecord
  2
BYBLOCK
 70
0
  3

 72
65
 73
0
 40
0.0
  0
LTYPE
  5
15
100
AcDbSymbolTableRecord
100
AcDbLinetypeTableRecord
  2
BYLAYER
 70
0
  3

 72
65
 73
0
 40
0.0
  0
LTYPE
  5
16
100
AcDbSymbolTableRecord
100
AcDbLinetypeTableRecord
  2
CONTINUOUS
 70
64
  3
Solid line
 72
65
 73
0
 40
0.0
  0
LTYPE
  5
1F5
100
AcDbSymbolTableRecord
100
AcDbLinetypeTableRecord
  2
CENTER
 70
64
  3
____ _ ____ _ ____ _ ____ _ ____ _ ____ _ ____
 72
65
 73
4
 40
0.6
 49
0.375
 74
0
 49
-0.075
 74
0
 49
0.075
 74
0
 49
-0.075
 74
0
  0
LTYPE
  5
1F6
100
AcDbSymbolTableRecord
100
AcDbLinetypeTableRecord
  2
HIDDEN
 70
64
  3
- - - - - - - - - - - - - - - - - - - -
 72
65
 73
2
 40
0.2
 49
0.1
 74
0
 49
-0.1
 74
0
  0
LTYPE
  5
1F7
100
AcDbSymbolTableRecord
100
AcDbLinetypeTableRecord
  2
PHANTOM
 70
64
  3
_____ _ _ _____ _ _ _____ _ _ _____
 72
65
 73
6
 40
0.8
 49
0.45
 74
0
 49
-0.05
 74
0
 49
0.1
 74
0
 49
-0.05
 74
0
 49
0.1
 74
0
 49
-0.05
 74
0
  0
LTYPE
  5
1F8
100
AcDbSymbolTableRecord
100
AcDbLinetypeTableRecord
  2
DOT
 70
64
  3
. . . . . . . . . . . . . . . . . . . .
 72
65
 73
2
 40
0.2
 49
0.1
 74
0
 49
-0.1
 74
0
  0
LTYPE
  5
1F9
100
AcDbSymbolTableRecord
100
AcDbLinetypeTableRecord
  2
DASHED
 70
64
  3
- - - - - - - - - - - - - - - - - - - -
 72
65
 73
2
 40
0.2
 49
0.1
 74
0
 49
-0.1
 74
0
  0
ENDTAB
  0
TABLE
  2
LAYER
  5
2
100
AcDbSymbolTable
 70
36
  0
LAYER
  5
10
100
AcDbSymbolTableRecord
100
AcDbLayerTableRecord
  2
0
 70
0
 62
7
  6
CONTINUOUS
370
-3
390
F
  0
LAYER
  5
1FA
100
AcDbSymbolTableRecord
100
AcDbLayerTableRecord
  2
DEFAULT_1
 70
0
 62
7
  6
CENTER
370
-3
390
F
  0
LAYER
  5
1FB
100
AcDbSymbolTableRecord
100
AcDbLayerTableRecord
  2
DEFAULT_2
 70
0
 62
8
  6
HIDDEN
370
-3
390
F
  0
LAYER
  5
1FC
100
AcDbSymbolTableRecord
100
AcDbLayerTableRecord
  2
DEFAULT_3
 70
0
 62
7
  6
PHANTOM
370
-3
390
F
  0
LAYER
  5
1FD
100
AcDbSymbolTableRecord
100
AcDbLayerTableRecord
  2
ALL_ASSEMBLY_MEMBERS
 70
0
 62
7
  6
CONTINUOUS
370
-3
390
F
  0
LAYER
  5
1FE
100
AcDbSymbolTableRecord
100
AcDbLayerTableRecord
  2
ALL_FEATURES
 70
0
 62
7
  6
CONTINUOUS
370
-3
390
F
  0
LAYER
  5
1FF
100
AcDbSymbolTableRecord
100
AcDbLayerTableRecord
  2
AXES_FEATURES
 70
0
 62
7
  6
CONTINUOUS
370
-3
390
F
  0
LAYER
  5
200
100
AcDbSymbolTableRecord
100
AcDbLayerTableRecord
  2
CHAMFER_FEATURES
 70
0
 62
7
  6
CONTINUOUS
370
-3
390
F
  0
LAYER
  5
201
100
AcDbSymbolTableRecord
100
AcDbLayerTableRecord
  2
CUT_FEATURES
 70
0
 62
7
  6
CONTINUOUS
370
-3
390
F
  0
LAYER
  5
202
100
AcDbSymbolTableRecord
100
AcDbLayerTableRecord
  2
DATUM_PLANES
 70
0
 62
7
  6
CONTINUOUS
370
-3
390
F
  0
LAYER
  5
203
100
AcDbSymbolTableRecord
100
AcDbLayerTableRecord
  2
DEFAULT_COORDINATE_SYSTEM
 70
0
 62
7
  6
CONTINUOUS
370
-3
390
F
  0
LAYER
  5
204
100
AcDbSymbolTableRecord
100
AcDbLayerTableRecord
  2
DEFAULT_DATUM_AXES
 70
0
 62
7
  6
CONTINUOUS
370
-3
390
F
  0
LAYER
  5
205
100
AcDbSymbolTableRecord
100
AcDbLayerTableRecord
  2
DEFAULT_DATUM_CURVES
 70
0
 62
7
  6
CONTINUOUS
370
-3
390
F
  0
LAYER
  5
206
100
AcDbSymbolTableRecord
100
AcDbLayerTableRecord
  2
DEFAULT_DATUM_PLANES
 70
0
 62
7
  6
CONTINUOUS
370
-3
390
F
  0
LAYER
  5
207
100
AcDbSymbolTableRecord
100
AcDbLayerTableRecord
  2
DIMENSIONS
 70
0
 62
7
  6
CONTINUOUS
370
-3
390
F
  0
LAYER
  5
208
100
AcDbSymbolTableRecord
100
AcDbLayerTableRecord
  2
PROTRUSION_FEATURES
 70
0
 62
7
  6
CONTINUOUS
370
-3
390
F
  0
LAYER
  5
209
100
AcDbSymbolTableRecord
100
AcDbLayerTableRecord
  2
QUILTS
 70
0
 62
7
  6
CONTINUOUS
370
-3
390
F
  0
LAYER
  5
20A
100
AcDbSymbolTableRecord
100
AcDbLayerTableRecord
  2
ROUND_FEATURES
 70
0
 62
7
  6
CONTINUOUS
370
-3
390
F
  0
ENDTAB
  0
TABLE
  2
STYLE
  5
3
100
AcDbSymbolTable
 70
1
  0
STYLE
  5
11
100
AcDbSymbolTableRecord
100
AcDbTextStyleTableRecord
  2
STANDARD
 70
0
 40
0.0
 41
0.8
 50
0.0
 71
0
 42
0.2
  3
txt
  4

  0
STYLE
  5
20B
100
AcDbSymbolTableRecord
100
AcDbTextStyleTableRecord
  2
TEXTSTYLE_1
 70
0
 40
0.0
 41
0.8
 50
0.0
 71
0
 42
0.2
  3
gdt
  4

  0
ENDTAB
  0
TABLE
  2
VIEW
  5
6
100
AcDbSymbolTable
 70
0
  0
ENDTAB
  0
TABLE
  2
UCS
  5
7
100
AcDbSymbolTable
 70
0
  0
ENDTAB
  0
TABLE
  2
APPID
  5
9
100
AcDbSymbolTable
 70
1
  0
APPID
  5
20C
100
AcDbSymbolTableRecord
100
AcDbRegAppTableRecord
  2
ACAD
 70
0
  0
ENDTAB
  0
TABLE
  2
BLOCK_RECORD
  5
1
100
AcDbSymbolTable
 70
0
  0
BLOCK_RECORD
  5
20D
100
AcDbSymbolTableRecord
100
AcDbBlockTableRecord
  2
*Model_Space
  0
BLOCK_RECORD
  5
20E
100
AcDbSymbolTableRecord
100
AcDbBlockTableRecord
  2
*Paper_Space
  0
BLOCK_RECORD
  5
20F
100
AcDbSymbolTableRecord
100
AcDbBlockTableRecord
  2
_FILLED
  0
ENDTAB
  0
TABLE
  2
DIMSTYLE
  5
A
100
AcDbSymbolTable
 70
1
100
AcDbDimStyleTable
 71
0
  0
DIMSTYLE
105
210
100
AcDbSymbolTableRecord
100
AcDbDimStyleTableRecord
  2
STANDARD
 70
0
  3

  4

 40
1.0
 41
0.1
 42
0.0625
 43
0.38
 44
0.125
 45
0.0
 46
0.0
 47
0.001
 48
0.001
140
0.08
141
0.09
142
0.0
143
25.4
144
1.0
145
0.0
146
1.0
147
0.09
 71
1
 72
0
 73
1
 74
1
 75
0
 76
0
 77
0
 78
4
 79
1
170
1
171
2
172
0
173
0
174
0
175
0
176
0
177
0
178
0
270
2
179
3
271
3
272
3
273
2
274
2
275
0
280
0
281
0
282
0
283
1
284
4
285
0
286
0
287
3
288
0
340
11
278
46
341
20F
342
20F
343
20F
344
20F
  0
ENDTAB
  0
ENDSEC
  0
SECTION
  2
BLOCKS
  0
BLOCK
  5
20
100
AcDbEntity
  8
0
100
AcDbBlockBegin
  2
*Model_Space
 70
0
 10
0.0
 20
0.0
 30
0.0
  3
*Model_Space
  1

  0
ENDBLK
  5
21
100
AcDbEntity
  8
0
100
AcDbBlockEnd
  0
BLOCK
  5
1C
100
AcDbEntity
  8
0
100
AcDbBlockBegin
  2
*Paper_Space
 70
0
 10
0.0
 20
0.0
 30
0.0
  3
*Paper_Space
  1

  0
ENDBLK
  5
1D
100
AcDbEntity
  8
0
100
AcDbBlockEnd
  0
BLOCK
  5
211
100
AcDbEntity
  8
0
100
AcDbBlockBegin
  2
_FILLED
 70
64
 10
0.0
 20
0.0
  3
_FILLED
  1

  0
SOLID
  5
212
100
AcDbEntity
  8
0
  6
BYBLOCK
 62
0
100
AcDbTrace
 10
0.0
 20
0.0
 11
-1.0
 21
0.2
 12
-1.0
 22
-0.2
 13
-1.0
 23
-0.2
  0
ENDBLK
  5
213
100
AcDbEntity
  8
0
  6
BYBLOCK
 62
0
100
AcDbBlockEnd
  0
ENDSEC
  0
SECTION
  2
ENTITIES
  0
MTEXT
  5
214
100
AcDbEntity
  8
0
100
AcDbMText
 62
2
  6
CONTINUOUS
  7
STANDARD
 71
2
 72
1
 10
5.5672862294
 20
2.8230116758
 30
0.0
 11
1.0
 21
0.0
 31
0.0
 73
2
 44
0.9
  1
SCALE 1.000
 40
0.08
 41
0.704
  0
LINE
  5
215
100
AcDbEntity
  8
0
100
AcDbLine
 62
7
  6
CONTINUOUS
 10
0.0
 20
0.0
 11
0.0
 21
8.5
  0
LINE
  5
216
100
AcDbEntity
  8
0
100
AcDbLine
 62
7
  6
CONTINUOUS
 10
0.0
 20
0.0
 11
11.0
 21
0.0
  0
LINE
  5
217
100
AcDbEntity
  8
0
100
AcDbLine
 62
7
  6
CONTINUOUS
 10
0.0
 20
8.5
 11
11.0
 21
8.5
  0
LINE
  5
218
100
AcDbEntity
  8
0
100
AcDbLine
 62
7
  6
CONTINUOUS
 10
11.0
 20
0.0
 11
11.0
 21
8.5
  0
LINE
  5
219
100
AcDbEntity
  8
ALL_ASSEMBLY_MEMBERS
100
AcDbLine
 62
7
  6
CONTINUOUS
 10
4.1727852357
 20
4.0241497253
 11
4.2536311208
 21
4.0241497253
  0
LINE
  5
21A
100
AcDbEntity
  8
ALL_ASSEMBLY_MEMBERS
100
AcDbLine
 62
7
  6
CONTINUOUS
 10
6.9195808401
 20
4.2721497253
 11
6.5272608609
 21
4.2721497253
  0
LINE
  5
21B
100
AcDbEntity
  8
ALL_ASSEMBLY_MEMBERS
100
AcDbLine
 62
7
  6
CONTINUOUS
 10
4.1727852357
 20
4.2751497253
 11
4.1844818095
 21
4.2751497253
  0
LINE
  5
21C
100
AcDbEntity
  8
0
100
AcDbLine
 62
7
  6
CONTINUOUS
 10
5.8279085937
 20
4.7320006019
 11
4.8844574821
 21
4.1872988486
  0
LINE
  5
21D
100
AcDbEntity
  8
DEFAULT_1
100
AcDbLine
 62
7
  6
CENTER
 10
5.6735817406
 20
4.5135734914
 11
5.7214257837
 21
4.5411962626
  0
LINE
  5
21E
100
AcDbEntity
  8
DEFAULT_1
100
AcDbLine
 62
7
  6
CENTER
 10
5.6581830379
 20
4.4766773558
 11
5.6581830379
 21
4.4870675904
  0
LINE
  5
21F
100
AcDbEntity
  8
ALL_FEATURES
100
AcDbLine
 62
7
  6
CONTINUOUS
 10
5.3168421346
 20
4.1982150399
 11
5.6965259945
 21
4.5079571361
  0
LINE
  5
220
100
AcDbEntity
  8
ALL_FEATURES
100
AcDbLine
 62
7
  6
CONTINUOUS
 10
5.3958579755
 20
4.1013569123
 11
5.7755418354
 21
4.4110990085
  0
LINE
  5
221
100
AcDbEntity
  8
DEFAULT_1
100
AcDbLine
 62
7
  6
CENTER
 10
5.7987843352
 20
4.4057259591
 11
5.7509402921
 21
4.3781031879
  0
LINE
  5
222
100
AcDbEntity
  8
ALL_ASSEMBLY_MEMBERS
100
AcDbLine
 62
7
  6
CONTINUOUS
 10
6.9195808401
 20
4.6471497253
 11
6.5272608592
 21
4.6471497253
  0
LINE
  5
223
100
AcDbEntity
  8
DEFAULT_1
100
AcDbLine
 62
7
  6
CENTER
 10
5.7509402921
 20
4.5411962626
 11
5.7987843352
 21
4.5135734914
  0
LINE
  5
224
100
AcDbEntity
  8
DEFAULT_1
100
AcDbLine
 62
7
  6
CENTER
 10
5.8141830379
 20
4.4870675904
 11
5.8141830379
 21
4.4322318602
  0
ARC
  5
225
100
AcDbEntity
  8
0
100
AcDbCircle
 62
7
  6
CONTINUOUS
 10
4.9494574821
 20
4.0747155462
 40
0.13
100
AcDbArc
 50
120.0
 51
220.2380954419
  0
ARC
  5
226
100
AcDbEntity
  8
ALL_FEATURES
100
AcDbCircle
 62
7
  6
CONTINUOUS
 10
5.3561830379
 20
4.1496497253
 40
0.1065
100
AcDbArc
 50
75.2181528762
 51
3.0260338643
  0
ARC
  5
227
100
AcDbEntity
  8
0
100
AcDbCircle
 62
7
  6
CONTINUOUS
 10
5.3562206696
 20
4.1532547336
 40
0.1059248791
100
AcDbArc
 50
172.8511812087
 51
185.3057961534
  0
ARC
  5
228
100
AcDbEntity
  8
0
100
AcDbCircle
 62
7
  6
CONTINUOUS
 10
5.355684744
 20
4.1532223264
 40
0.1053881249
100
AcDbArc
 50
185.4809755554
 51
195.0928488855
  0
ARC
  5
229
100
AcDbEntity
  8
0
100
AcDbCircle
 62
7
  6
CONTINUOUS
 10
5.3555592652
 20
4.153213229
 40
0.105262351
100
AcDbArc
 50
185.3165922026
 51
185.4825700266
  0
ARC
  5
22A
100
AcDbEntity
  8
0
100
AcDbCircle
 62
7
  6
CONTINUOUS
 10
5.3561830714
 20
4.1496497518
 40
0.105
100
AcDbArc
 50
75.8137284073
 51
2.5792931181
  0
ARC
  5
22B
100
AcDbEntity
  8
0
100
AcDbCircle
 62
7
  6
CONTINUOUS
 10
5.3438858185
 20
4.154811737
 40
0.1049935058
100
AcDbArc
 50
245.5002225347
 51
250.8422350544
  0
ARC
  5
22C
100
AcDbEntity
  8
0
100
AcDbCircle
 62
7
  6
CONTINUOUS
 10
5.3560724342
 20
4.1496211802
 40
0.1048858031
100
AcDbArc
 50
189.067413827
 51
193.137991066
  0
ARC
  5
22D
100
AcDbEntity
  8
ALL_FEATURES
100
AcDbCircle
 62
7
  6
CONTINUOUS
 10
5.3561830379
 20
4.1496497253
 40
0.065
100
AcDbArc
 50
113.6150280416
 51
324.6756769366
  0
ARC
  5
22E
100
AcDbEntity
  8
ALL_FEATURES
100
AcDbCircle
 62
7
  6
CONTINUOUS
 10
5.3563500549
 20
4.149785976
 40
0.0625
100
AcDbArc
 50
129.207203505
 51
309.207203505
  0
CIRCLE
  5
22F
100
AcDbEntity
  8
0
100
AcDbCircle
 62
7
  6
CONTINUOUS
 10
5.3561830379
 20
4.4596497253
 40
1.1875
  0
CIRCLE
  5
230
100
AcDbEntity
  8
0
100
AcDbCircle
 62
7
  6
CONTINUOUS
 10
5.3561830379
 20
4.4596497253
 40
1.1575
  0
CIRCLE
  5
231
100
AcDbEntity
  8
ALL_FEATURES
100
AcDbCircle
 62
7
  6
CONTINUOUS
 10
5.3561830379
 20
4.4596497253
 40
0.69
  0
CIRCLE
  5
232
100
AcDbEntity
  8
ALL_FEATURES
100
AcDbCircle
 62
7
  6
CONTINUOUS
 10
5.3561830379
 20
4.7846497253
 40
0.25
  0
CIRCLE
  5
233
100
AcDbEntity
  8
ALL_FEATURES
100
AcDbCircle
 62
7
  6
CONTINUOUS
 10
4.9361830379
 20
4.4596497253
 40
0.164
  0
ARC
  5
234
100
AcDbEntity
  8
0
100
AcDbCircle
 62
7
  6
CONTINUOUS
 10
5.7361830379
 20
4.4596497253
 40
0.166
100
AcDbArc
 50
241.4267013281
 51
196.9617425096
  0
ARC
  5
235
100
AcDbEntity
  8
ALL_FEATURES
100
AcDbCircle
 62
7
  6
CONTINUOUS
 10
5.7361830379
 20
4.4596497253
 40
0.153
100
AcDbArc
 50
243.405654609
 51
194.9987802704
  0
ARC
  5
236
100
AcDbEntity
  8
0
100
AcDbCircle
 62
7
  6
CONTINUOUS
 10
5.8929085937
 20
4.6194172994
 40
0.13
100
AcDbArc
 50
21.9363867163
 51
120.0
  0
ARC
  5
237
100
AcDbEntity
  8
ALL_FEATURES
100
AcDbCircle
 62
7
  6
CONTINUOUS
 10
5.7361830379
 20
4.4596497253
 40
0.083
100
AcDbArc
 50
268.2212225089
 51
170.2177016073
  0
ARC
  5
238
100
AcDbEntity
  8
ALL_FEATURES
100
AcDbCircle
 62
7
  6
CONTINUOUS
 10
5.7360339151
 20
4.4595280725
 40
0.0625
100
AcDbArc
 50
309.207203505
 51
129.207203505
  0
SPLINE
  5
239
100
AcDbEntity
  8
ALL_ASSEMBLY_MEMBERS
100
AcDbSpline
 62
7
  6
CONTINUOUS
 70
0
 71
3
 72
30
 73
26
 74
0
 42
0.0000001
 43
0.0000001
 44
0.0000000001
 40
0.0
 40
0.0
 40
0.0
 40
0.0
 40
0.1914400932
 40
0.2850412448
 40
0.3758527332
 40
0.4630481871
 40
0.5458387721
 40
0.6234612325
 40
0.6952097231
 40
0.760392507
 40
0.8183974645
 40
0.844560936
 40
0.8687575949
 40
0.8909350099
 40
0.9110460652
 40
0.9290658752
 40
0.9449863389
 40
0.9588114612
 40
0.970566129
 40
0.9803141208
 40
0.9882002011
 40
0.9915427812
 40
0.9945616755
 40
0.9973439411
 40
1.0
 40
1.0
 40
1.0
 40
1.0
 10
4.159035743
 20
4.1496497253
 30
0.0
 10
4.159035743
 20
4.1414923005
 30
0.0
 10
4.1591650046
 20
4.1293458719
 30
0.0
 10
4.1596007064
 20
4.1133361537
 30
0.0
 10
4.1600519342
 20
4.1017711982
 30
0.0
 10
4.1606237456
 20
4.090672809
 30
0.0
 10
4.1613106401
 20
4.0801440111
 30
0.0
 10
4.1621067048
 20
4.070283058
 30
0.0
 10
4.1630022581
 20
4.0611841366
 30
0.0
 10
4.1639887223
 20
4.0529358515
 30
0.0
 10
4.1649073763
 20
4.0466374492
 30
0.0
 10
4.1656913582
 20
4.0420867221
 30
0.0
 10
4.1662754878
 20
4.0390512989
 30
0.0
 10
4.1668745644
 20
4.0362820756
 30
0.0
 10
4.1674874446
 20
4.0337860304
 30
0.0
 10
4.1681123545
 20
4.0315687016
 30
0.0
 10
4.1687473834
 20
4.0296341382
 30
0.0
 10
4.1693906544
 20
4.0279857817
 30
0.0
 10
4.1700408456
 20
4.0266257589
 30
0.0
 10
4.1706965396
 20
4.0255560207
 30
0.0
 10
4.1712801181
 20
4.024869688
 30
0.0
 10
4.1717562822
 20
4.0244899923
 30
0.0
 10
4.1720964854
 20
4.0242961525
 30
0.0
 10
4.1724395771
 20
4.0241784691
 30
0.0
 10
4.1726720587
 20
4.0241518916
 30
0.0
 10
4.1727852357
 20
4.0241518916
 30
0.0
  0
SPLINE
  5
23A
100
AcDbEntity
  8
ALL_ASSEMBLY_MEMBERS
100
AcDbSpline
 62
7
  6
CONTINUOUS
 70
0
 71
3
 72
30
 73
26
 74
0
 42
0.0000001
 43
0.0000001
 44
0.0000000001
 40
0.0
 40
0.0
 40
0.0
 40
0.0
 40
0.0026560589
 40
0.0054383245
 40
0.0084572188
 40
0.0117997989
 40
0.0196858792
 40
0.029433871
 40
0.0411885388
 40
0.0550136611
 40
0.0709341248
 40
0.0889539348
 40
0.1090649901
 40
0.1312424051
 40
0.155439064
 40
0.1816025355
 40
0.239607493
 40
0.3047902769
 40
0.3765387675
 40
0.4541612279
 40
0.5369518129
 40
0.6241472668
 40
0.7149587552
 40
0.8085599068
 40
1.0
 40
1.0
 40
1.0
 40
1.0
 10
4.1727852357
 20
4.2751475589
 30
0.0
 10
4.1726720587
 20
4.2751475589
 30
0.0
 10
4.1724395771
 20
4.2751209815
 30
0.0
 10
4.1720964854
 20
4.2750032981
 30
0.0
 10
4.1717562822
 20
4.2748094583
 30
0.0
 10
4.1712801181
 20
4.2744297626
 30
0.0
 10
4.1706965396
 20
4.2737434298
 30
0.0
 10
4.1700408456
 20
4.2726736917
 30
0.0
 10
4.1693906544
 20
4.2713136688
 30
0.0
 10
4.1687473834
 20
4.2696653123
 30
0.0
 10
4.1681123545
 20
4.267730749
 30
0.0
 10
4.1674874446
 20
4.2655134201
 30
0.0
 10
4.1668745644
 20
4.263017375
 30
0.0
 10
4.1662754878
 20
4.2602481516
 30
0.0
 10
4.1656913582
 20
4.2572127285
 30
0.0
 10
4.1649073763
 20
4.2526620014
 30
0.0
 10
4.1639887223
 20
4.246363599
 30
0.0
 10
4.1630022581
 20
4.238115314
 30
0.0
 10
4.1621067048
 20
4.2290163926
 30
0.0
 10
4.1613106401
 20
4.2191554394
 30
0.0
 10
4.1606237456
 20
4.2086266415
 30
0.0
 10
4.1600519342
 20
4.1975282524
 30
0.0
 10
4.1596007064
 20
4.1859632969
 30
0.0
 10
4.1591650046
 20
4.1699535787
 30
0.0
 10
4.159035743
 20
4.15780715
 30
0.0
 10
4.159035743
 20
4.1496497253
 30
0.0
  0
SPLINE
  5
23B
100
AcDbEntity
  8
ALL_ASSEMBLY_MEMBERS
100
AcDbSpline
 62
7
  6
CONTINUOUS
 70
0
 71
3
 72
32
 73
28
 74
0
 42
0.0000001
 43
0.0000001
 44
0.0000000001
 40
0.0
 40
0.0
 40
0.0
 40
0.0
 40
0.0961301099
 40
0.1915056313
 40
0.2850519767
 40
0.3758295245
 40
0.4630209762
 40
0.5458246622
 40
0.6234716286
 40
0.6952089806
 40
0.7603782985
 40
0.8183956174
 40
0.8445533862
 40
0.8687414758
 40
0.8909155866
 40
0.9110347294
 40
0.9290631877
 40
0.9449832115
 40
0.9588028939
 40
0.9705520139
 40
0.9802987728
 40
0.9844658892
 40
0.9881983181
 40
0.9915420191
 40
0.9945615176
 40
0.9973439781
 40
1.0
 40
1.0
 40
1.0
 40
1.0
 10
6.9401229109
 20
4.4596497253
 30
0.0
 10
6.9401229109
 20
4.4657696366
 30
0.0
 10
6.9400570941
 20
4.47796152
 30
0.0
 10
6.9397641263
 20
4.4961067017
 30
0.0
 10
6.9392784838
 20
4.5139069157
 30
0.0
 10
6.9386047191
 20
4.5311796213
 30
0.0
 10
6.9377507258
 20
4.5477596312
 30
0.0
 10
6.9367236142
 20
4.5634922759
 30
0.0
 10
6.9355355157
 20
4.5782268353
 30
0.0
 10
6.9341971086
 20
4.5918210627
 30
0.0
 10
6.9327222743
 20
4.6041434988
 30
0.0
 10
6.9313511404
 20
4.6135534008
 30
0.0
 10
6.9301794771
 20
4.6203522425
 30
0.0
 10
6.9293065123
 20
4.6248861336
 30
0.0
 10
6.9284111579
 20
4.6290231821
 30
0.0
 10
6.9274957795
 20
4.6327533342
 30
0.0
 10
6.9265625623
 20
4.6360673781
 30
0.0
 10
6.9256137729
 20
4.638957788
 30
0.0
 10
6.9246524733
 20
4.6414200139
 30
0.0
 10
6.9236810882
 20
4.6434500509
 30
0.0
 10
6.9228247421
 20
4.6448478255
 30
0.0
 10
6.922123268
 20
4.6457271766
 30
0.0
 10
6.9216222126
 20
4.6462403931
 30
0.0
 10
6.9211181098
 20
4.6466423504
 30
0.0
 10
6.9206098844
 20
4.6469322878
 30
0.0
 10
6.9200972791
 20
4.6471082712
 30
0.0
 10
6.9197499299
 20
4.6471480227
 30
0.0
 10
6.9195808401
 20
4.6471480227
 30
0.0
  0
SPLINE
  5
23C
100
AcDbEntity
  8
ALL_ASSEMBLY_MEMBERS
100
AcDbSpline
 62
7
  6
CONTINUOUS
 70
0
 71
3
 72
32
 73
28
 74
0
 42
0.0000001
 43
0.0000001
 44
0.0000000001
 40
0.0
 40
0.0
 40
0.0
 40
0.0
 40
0.0026560219
 40
0.0054384824
 40
0.0084579809
 40
0.0118016819
 40
0.0155341108
 40
0.0197012272
 40
0.0294479861
 40
0.0411971061
 40
0.0550167885
 40
0.0709368123
 40
0.0889652706
 40
0.1090844134
 40
0.1312585242
 40
0.1554466138
 40
0.1816043826
 40
0.2396217015
 40
0.3047910194
 40
0.3765283714
 40
0.4541753378
 40
0.5369790238
 40
0.6241704755
 40
0.7149480233
 40
0.8084943687
 40
0.9038698901
 40
1.0
 40
1.0
 40
1.0
 40
1.0
 10
6.9195808401
 20
4.2721514278
 30
0.0
 10
6.9197499299
 20
4.2721514278
 30
0.0
 10
6.9200972791
 20
4.2721911794
 30
0.0
 10
6.9206098844
 20
4.2723671627
 30
0.0
 10
6.9211181098
 20
4.2726571002
 30
0.0
 10
6.9216222126
 20
4.2730590574
 30
0.0
 10
6.922123268
 20
4.2735722739
 30
0.0
 10
6.9228247421
 20
4.274451625
 30
0.0
 10
6.9236810882
 20
4.2758493997
 30
0.0
 10
6.9246524733
 20
4.2778794367
 30
0.0
 10
6.9256137729
 20
4.2803416626
 30
0.0
 10
6.9265625623
 20
4.2832320724
 30
0.0
 10
6.9274957795
 20
4.2865461163
 30
0.0
 10
6.9284111579
 20
4.2902762685
 30
0.0
 10
6.9293065123
 20
4.294413317
 30
0.0
 10
6.9301794771
 20
4.298947208
 30
0.0
 10
6.9313511404
 20
4.3057460497
 30
0.0
 10
6.9327222743
 20
4.3151559517
 30
0.0
 10
6.9341971086
 20
4.3274783878
 30
0.0
 10
6.9355355157
 20
4.3410726152
 30
0.0
 10
6.9367236142
 20
4.3558071747
 30
0.0
 10
6.9377507258
 20
4.3715398193
 30
0.0
 10
6.9386047191
 20
4.3881198292
 30
0.0
 10
6.9392784838
 20
4.4053925349
 30
0.0
 10
6.9397641263
 20
4.4231927488
 30
0.0
 10
6.9400570941
 20
4.4413379305
 30
0.0
 10
6.9401229109
 20
4.4535298139
 30
0.0
 10
6.9401229109
 20
4.4596497253
 30
0.0
  0
ENDSEC
  0
SECTION
  2
OBJECTS
  0
DICTIONARY
  5
C
100
AcDbDictionary
280
0
281
1
  3
ACAD_GROUP
350
D
  3
ACAD_MLINESTYLE
350
17
  3
ACAD_LAYOUT
350
1A
  3
ACAD_PLOTSETTINGS
350
19
  3
ACAD_PLOTSTYLENAME
350
E
  0
DICTIONARY
  5
D
102
{ACAD_REACTORS
330
C
102
}
100
AcDbDictionary
280
0
281
1
  0
ACDBDICTIONARYWDFLT
  5
E
102
{ACAD_REACTORS
330
C
102
}
100
AcDbDictionary
281
1
  3
Normal
350
F
100
AcDbDictionaryWithDefault
340
F
  0
DICTIONARY
  5
17
102
{ACAD_REACTORS
330
C
102
}
100
AcDbDictionary
280
0
281
1
  3
Standard
350
18
  0
DICTIONARY
  5
19
102
{ACAD_REACTORS
330
C
102
}
100
AcDbDictionary
281
1
  0
DICTIONARY
  5
1A
102
{ACAD_REACTORS
330
C
102
}
100
AcDbDictionary
281
1
  3
Model
350
23D
  3
Layout1
350
23E
  0
ACDBPLACEHOLDER
  5
F
102
{ACAD_REACTORS
330
E
102
}
  0
MLINESTYLE
  5
18
102
{ACAD_REACTORS
330
17
102
}
100
AcDbMlineStyle
  2
STANDARD
 70
0
  3

 62
256
 51
90.0
 52
90.0
 71
2
 49
0.5
 62
256
  6
BYLAYER
 49
-0.5
 62
256
  6
BYLAYER
  0
LAYOUT
  5
23D
102
{ACAD_REACTORS
330
1A
102
}
100
AcDbPlotSettings
  1

  2
none_device
  4
ANSI_A_(11.00_x_8.50_Inches)
  6

 40
0.0
 41
0.0
 42
0.0
 43
0.0
 44
279.4
 45
215.9
 46
0.0
 47
0.0
 48
0.0
 49
0.0
140
0.0
141
0.0
142
1.0
143
1.0
 70
1024
 72
0
 73
0
 74
0
  7

 75
0
147
1.0
148
0.0
149
0.0
100
AcDbLayout
  1
Model
 70
0
 71
0
 10
0.0
 20
0.0
 11
11.0
 21
8.5
 12
0.0
 22
0.0
 32
0.0
 14
0.0
 24
0.0
 34
0.0
 15
0.0
 25
0.0
 35
0.0
146
0.0
 13
0.0
 23
0.0
 33
0.0
 16
1.0
 26
0.0
 36
0.0
 17
0.0
 27
1.0
 37
0.0
 76
0
330
20D
345
0
346
0
  0
LAYOUT
  5
23E
102
{ACAD_REACTORS
330
1A
102
}
100
AcDbPlotSettings
  1

  2
none_device
  4
ANSI_A_(11.00_x_8.50_Inches)
  6

 40
0.0
 41
0.0
 42
0.0
 43
0.0
 44
279.4
 45
215.9
 46
0.0
 47
0.0
 48
0.0
 49
0.0
140
0.0
141
0.0
142
1.0
143
1.0
 70
0
 72
0
 73
0
 74
0
  7

 75
0
147
1.0
148
0.0
149
0.0
100
AcDbLayout
  1
Layout1
 70
0
 71
1
 10
0.0
 20
0.0
 11
11.0
 21
8.5
 12
0.0
 22
0.0
 32
0.0
 14
0.0
 24
0.0
 34
0.0
 15
0.0
 25
0.0
 35
0.0
146
0.0
 13
0.0
 23
0.0
 33
0.0
 16
1.0
 26
0.0
 36
0.0
 17
0.0
 27
1.0
 37
0.0
 76
0
330
20E
345
0
346
0
  0
ENDSEC
  0
EOF
