  0
SECTION
  2
HEADER
  9
$ACADVER
  1
AC1015
  9
$DWGCODEPAGE
  3
ANSI_1252
  9
$EXTMAX
 10
11.6929133858
 20
8.2677165354
 30
0.0
  9
$EXTMIN
 10
0.0
 20
0.0
 30
0.0
  9
$LIMMIN
 10
0.0
 20
0.0
  9
$LIMMAX
 10
11.6929133858
 20
8.2677165354
  9
$VIEWCTR
 10
5.8464566929
 20
4.1338582677
  9
$VIEWSIZE
 40
8.2677165354
  9
$CLAYER
  8
0
  9
$LTSCALE
 40
0.6431102362
  9
$CELTYPE
  6
BYLAYER
  9
$DIMSCALE
 40
1.0
  9
$DIMASZ
 40
0.1875
  9
$DIMEXO
 40
0.0730807087
  9
$DIMDLI
 40
0.4443307087
  9
$DIMEXE
 40
0.2104724409
  9
$DIMCEN
 40
0.1052362205
  9
$DIMLFAC
 40
1.0
  9
$DIMBLK
  1
_CLOSED
  9
$DIMTXT
 40
0.15625
  9
$DIMTOL
 70
0
  9
$DIMLIM
 70
0
  9
$DIMTFAC
 40
1.0
  9
$PDMODE
 70
3
  9
$PDSIZE
 40
0.3125
  9
$HANDSEED
  5
235
  9
$TILEMODE
 70
1
  9
$MEASUREMENT
 70
0
  9
$INSUNITS
 70
1
  0
ENDSEC
  0
SECTION
  2
CLASSES
  0
CLASS
  1
ACDBDICTIONARYWDFLT
  2
AcDbDictionaryWithDefault
  3
AutoCAD 2000
 90
0
280
0
281
0
  0
CLASS
  1
ACDBPLACEHOLDER
  2
AcDbPlaceHolder
  3
AutoCAD 2000
 90
0
280
0
281
0
  0
CLASS
  1
LAYOUT
  2
AcDbLayout
  3
AutoCAD 2000
 90
0
280
0
281
0
  0
ENDSEC
  0
SECTION
  2
TABLES
  0
TABLE
  2
VPORT
  5
8
100
AcDbSymbolTable
 70
2
  0
VPORT
  5
1F4
100
AcDbSymbolTableRecord
100
AcDbViewportTableRecord
  2
*ACTIVE
 70
0
 10
0.0
 20
0.0
 11
1.0
 21
1.0
 12
5.8464566929
 22
4.1338582677
 13
0.0
 23
0.0
 14
1.0
 24
1.0
 15
0.0
 25
0.0
 16
0.0
 26
0.0
 36
1.0
 17
0.0
 27
0.0
 37
0.0
 40
8.2677165354
 41
1.4142857143
 42
50.0
 43
0.0
 44
0.0
 50
0.0
 51
0.0
 71
0
 72
100
 73
1
 74
1
 75
0
 76
0
 77
0
 78
0
  0
ENDTAB
  0
TABLE
  2
LTYPE
  5
5
100
AcDbSymbolTable
 70
6
  0
LTYPE
  5
14
100
AcDbSymbolTableRecord
100
AcDbLinetypeTableRecord
  2
BYBLOCK
 70
0
  3

 72
65
 73
0
 40
0.0
  0
LTYPE
  5
15
100
AcDbSymbolTableRecord
100
AcDbLinetypeTableRecord
  2
BYLAYER
 70
0
  3

 72
65
 73
0
 40
0.0
  0
LTYPE
  5
16
100
AcDbSymbolTableRecord
100
AcDbLinetypeTableRecord
  2
CONTINUOUS
 70
64
  3
Solid line
 72
65
 73
0
 40
0.0
  0
LTYPE
  5
1F5
100
AcDbSymbolTableRecord
100
AcDbLinetypeTableRecord
  2
CENTER
 70
64
  3
____ _ ____ _ ____ _ ____ _ ____ _ ____ _ ____
 72
65
 73
4
 40
0.6
 49
0.375
 74
0
 49
-0.075
 74
0
 49
0.075
 74
0
 49
-0.075
 74
0
  0
LTYPE
  5
1F6
100
AcDbSymbolTableRecord
100
AcDbLinetypeTableRecord
  2
HIDDEN
 70
64
  3
- - - - - - - - - - - - - - - - - - - -
 72
65
 73
2
 40
0.2
 49
0.1
 74
0
 49
-0.1
 74
0
  0
LTYPE
  5
1F7
100
AcDbSymbolTableRecord
100
AcDbLinetypeTableRecord
  2
PHANTOM
 70
64
  3
_____ _ _ _____ _ _ _____ _ _ _____
 72
65
 73
6
 40
0.8
 49
0.45
 74
0
 49
-0.05
 74
0
 49
0.1
 74
0
 49
-0.05
 74
0
 49
0.1
 74
0
 49
-0.05
 74
0
  0
LTYPE
  5
1F8
100
AcDbSymbolTableRecord
100
AcDbLinetypeTableRecord
  2
DOT
 70
64
  3
. . . . . . . . . . . . . . . . . . . .
 72
65
 73
2
 40
0.2
 49
0.1
 74
0
 49
-0.1
 74
0
  0
LTYPE
  5
1F9
100
AcDbSymbolTableRecord
100
AcDbLinetypeTableRecord
  2
DASHED
 70
64
  3
- - - - - - - - - - - - - - - - - - - -
 72
65
 73
2
 40
0.2
 49
0.1
 74
0
 49
-0.1
 74
0
  0
ENDTAB
  0
TABLE
  2
LAYER
  5
2
100
AcDbSymbolTable
 70
36
  0
LAYER
  5
10
100
AcDbSymbolTableRecord
100
AcDbLayerTableRecord
  2
0
 70
0
 62
7
  6
CONTINUOUS
370
-3
390
F
  0
LAYER
  5
1FA
100
AcDbSymbolTableRecord
100
AcDbLayerTableRecord
  2
DEFAULT_1
 70
0
 62
7
  6
CENTER
370
-3
390
F
  0
LAYER
  5
1FB
100
AcDbSymbolTableRecord
100
AcDbLayerTableRecord
  2
DEFAULT_2
 70
0
 62
8
  6
HIDDEN
370
-3
390
F
  0
LAYER
  5
1FC
100
AcDbSymbolTableRecord
100
AcDbLayerTableRecord
  2
DEFAULT_3
 70
0
 62
7
  6
PHANTOM
370
-3
390
F
  0
LAYER
  5
1FD
100
AcDbSymbolTableRecord
100
AcDbLayerTableRecord
  2
3_ALL_SYMBOLS
 70
0
 62
7
  6
CONTINUOUS
370
-3
390
F
  0
LAYER
  5
1FE
100
AcDbSymbolTableRecord
100
AcDbLayerTableRecord
  2
DEFAULT_COORDINATE_SYSTEM
 70
0
 62
7
  6
CONTINUOUS
370
-3
390
F
  0
LAYER
  5
1FF
100
AcDbSymbolTableRecord
100
AcDbLayerTableRecord
  2
DEFAULT_DATUM_AXES
 70
0
 62
7
  6
CONTINUOUS
370
-3
390
F
  0
LAYER
  5
200
100
AcDbSymbolTableRecord
100
AcDbLayerTableRecord
  2
DEFAULT_DATUM_CURVES
 70
0
 62
7
  6
CONTINUOUS
370
-3
390
F
  0
LAYER
  5
201
100
AcDbSymbolTableRecord
100
AcDbLayerTableRecord
  2
DEFAULT_DATUM_PLANES
 70
0
 62
7
  6
CONTINUOUS
370
-3
390
F
  0
ENDTAB
  0
TABLE
  2
STYLE
  5
3
100
AcDbSymbolTable
 70
1
  0
STYLE
  5
11
100
AcDbSymbolTableRecord
100
AcDbTextStyleTableRecord
  2
STANDARD
 70
0
 40
0.0
 41
0.8
 50
0.0
 71
0
 42
0.2
  3
txt
  4

  0
STYLE
  5
202
100
AcDbSymbolTableRecord
100
AcDbTextStyleTableRecord
  2
TEXTSTYLE_1
 70
0
 40
0.0
 41
0.8
 50
0.0
 71
0
 42
0.2
  3
gdt
  4

  0
ENDTAB
  0
TABLE
  2
VIEW
  5
6
100
AcDbSymbolTable
 70
0
  0
ENDTAB
  0
TABLE
  2
UCS
  5
7
100
AcDbSymbolTable
 70
0
  0
ENDTAB
  0
TABLE
  2
APPID
  5
9
100
AcDbSymbolTable
 70
1
  0
APPID
  5
203
100
AcDbSymbolTableRecord
100
AcDbRegAppTableRecord
  2
ACAD
 70
0
  0
ENDTAB
  0
TABLE
  2
BLOCK_RECORD
  5
1
100
AcDbSymbolTable
 70
0
  0
BLOCK_RECORD
  5
204
100
AcDbSymbolTableRecord
100
AcDbBlockTableRecord
  2
*Model_Space
  0
BLOCK_RECORD
  5
205
100
AcDbSymbolTableRecord
100
AcDbBlockTableRecord
  2
*Paper_Space
  0
ENDTAB
  0
TABLE
  2
DIMSTYLE
  5
A
100
AcDbSymbolTable
 70
1
100
AcDbDimStyleTable
 71
0
  0
DIMSTYLE
105
206
100
AcDbSymbolTableRecord
100
AcDbDimStyleTableRecord
  2
STANDARD
 70
0
  3

  4

 40
1.0
 41
0.1875
 42
0.0625
 43
0.38
 44
0.18
 45
0.0
 46
0.0
 47
0.01
 48
0.01
140
0.15625
141
0.09
142
0.0
143
25.4
144
1.0
145
0.0
146
1.0
147
0.09
 71
0.0
 72
0.0
 73
1
 74
1
 75
0
 76
0
 77
0
 78
4
170
0
171
2
172
0
173
0
174
0
175
0
176
0
177
0
178
0
270
2
271
2
272
2
273
2
274
2
275
0
280
0
281
0
282
0
283
1
284
4
285
0
286
0
287
3
288
0
340
11
  0
ENDTAB
  0
ENDSEC
  0
SECTION
  2
BLOCKS
  0
BLOCK
  5
20
100
AcDbEntity
  8
0
100
AcDbBlockBegin
  2
*Model_Space
 70
0
 10
0.0
 20
0.0
 30
0.0
  3
*Model_Space
  1

  0
ENDBLK
  5
21
100
AcDbEntity
  8
0
100
AcDbBlockEnd
  0
BLOCK
  5
1C
100
AcDbEntity
  8
0
100
AcDbBlockBegin
  2
*Paper_Space
 70
0
 10
0.0
 20
0.0
 30
0.0
  3
*Paper_Space
  1

  0
ENDBLK
  5
1D
100
AcDbEntity
  8
0
100
AcDbBlockEnd
  0
ENDSEC
  0
SECTION
  2
ENTITIES
  0
LINE
  5
207
100
AcDbEntity
  8
0
100
AcDbLine
 62
6
  6
CONTINUOUS
 10
4.291713387
 20
3.8332710446
 11
4.3706817163
 21
3.8332710446
  0
LINE
  5
208
100
AcDbEntity
  8
0
100
AcDbLine
 62
6
  6
CONTINUOUS
 10
7.0385089914
 20
4.0812710446
 11
6.6466745682
 21
4.0812710446
  0
LINE
  5
209
100
AcDbEntity
  8
0
100
AcDbLine
 62
6
  6
CONTINUOUS
 10
4.291713387
 20
4.0842710446
 11
4.303129328
 21
4.0842710446
  0
LINE
  5
20A
100
AcDbEntity
  8
0
100
AcDbLine
 62
6
  6
CONTINUOUS
 10
5.5783638608
 20
3.9396952535
 11
5.5801111892
 21
3.9587710446
  0
LINE
  5
20B
100
AcDbEntity
  8
0
100
AcDbLine
 62
6
  6
CONTINUOUS
 10
6.1630019872
 20
4.214861398
 11
6.0121135777
 21
4.214861398
  0
LINE
  5
20C
100
AcDbEntity
  8
0
100
AcDbLine
 62
6
  6
CONTINUOUS
 10
5.4356032687
 20
4.0072001084
 11
5.8152871289
 21
4.3169422049
  0
LINE
  5
20D
100
AcDbEntity
  8
0
100
AcDbLine
 62
6
  6
CONTINUOUS
 10
6.1630019872
 20
4.3226806912
 11
6.0121135777
 21
4.3226806912
  0
LINE
  5
20E
100
AcDbEntity
  8
0
100
AcDbLine
 62
6
  6
CONTINUOUS
 10
5.5146191096
 20
3.9103419808
 11
5.8943029698
 21
4.2200840773
  0
LINE
  5
20F
100
AcDbEntity
  8
0
100
AcDbLine
 62
6
  6
CONTINUOUS
 10
7.0385089914
 20
4.4562710446
 11
6.6466745682
 21
4.4562710446
  0
CIRCLE
  5
210
100
AcDbEntity
  8
0
100
AcDbCircle
 62
6
  6
CONTINUOUS
 10
5.0551111892
 20
4.2687710446
 40
0.164
  0
ARC
  5
211
100
AcDbEntity
  8
0
100
AcDbCircle
 62
7
  6
CONTINUOUS
 10
5.4655834541
 20
3.9611604381
 40
0.124122078
100
AcDbArc
 50
71.4162830348
 51
78.7945965568
  0
ARC
  5
212
100
AcDbEntity
  8
0
100
AcDbCircle
 62
7
  6
CONTINUOUS
 10
5.4660287809
 20
3.9624952928
 40
0.1227149028
100
AcDbArc
 50
65.3486744227
 51
71.414743307
  0
ARC
  5
213
100
AcDbEntity
  8
0
100
AcDbCircle
 62
7
  6
CONTINUOUS
 10
5.4753124262
 20
3.955165931
 40
0.1109665557
100
AcDbArc
 50
3.4203863803
 51
6.6039479588
  0
ARC
  5
214
100
AcDbEntity
  8
0
100
AcDbCircle
 62
7
  6
CONTINUOUS
 10
5.4750928659
 20
3.9587726008
 40
0.1064815242
100
AcDbArc
 50
161.1341967031
 51
335.6187960579
  0
ARC
  5
215
100
AcDbEntity
  8
0
100
AcDbCircle
 62
7
  6
CONTINUOUS
 10
5.47872707
 20
3.9586051701
 40
0.1056747668
100
AcDbArc
 50
77.2177862292
 51
99.0675813891
  0
ARC
  5
216
100
AcDbEntity
  8
0
100
AcDbCircle
 62
6
  6
CONTINUOUS
 10
5.4751111892
 20
3.9587710446
 40
0.105
100
AcDbArc
 50
161.1496415353
 51
349.5327074936
  0
ARC
  5
217
100
AcDbEntity
  8
0
100
AcDbCircle
 62
6
  6
CONTINUOUS
 10
5.4751111892
 20
3.9587710446
 40
0.105
100
AcDbArc
 50
75.7505326974
 51
97.1330436876
  0
ARC
  5
218
100
AcDbEntity
  8
0
100
AcDbCircle
 62
6
  6
CONTINUOUS
 10
5.4751111892
 20
3.9587710446
 40
0.105
100
AcDbArc
 50
0.0
 51
2.5677648924
  0
ARC
  5
219
100
AcDbEntity
  8
0
100
AcDbCircle
 62
7
  6
CONTINUOUS
 10
5.4751111892
 20
3.9587710446
 40
0.065
100
AcDbArc
 50
114.4043811137
 51
324.8547504984
  0
ARC
  5
21A
100
AcDbEntity
  8
0
100
AcDbCircle
 62
9
  6
CONTINUOUS
 10
5.4751111892
 20
3.9587710446
 40
0.0625
100
AcDbArc
 50
129.207203505
 51
309.207203505
  0
ARC
  5
21B
100
AcDbEntity
  8
0
100
AcDbCircle
 62
7
  6
CONTINUOUS
 10
5.475692753
 20
3.968554835
 40
0.1105412905
100
AcDbArc
 50
354.9751680004
 51
359.9012491692
  0
ARC
  5
21C
100
AcDbEntity
  8
0
100
AcDbCircle
 62
6
  6
CONTINUOUS
 10
5.478451975
 20
3.971692201
 40
0.1048348573
100
AcDbArc
 50
162.0395264682
 51
168.4423344341
  0
ARC
  5
21D
100
AcDbEntity
  8
0
100
AcDbCircle
 62
6
  6
CONTINUOUS
 10
5.6151111892
 20
4.0387710446
 40
0.3125
100
AcDbArc
 50
73.4066256774
 51
14.1556238523
  0
CIRCLE
  5
21E
100
AcDbEntity
  8
0
100
AcDbCircle
 62
6
  6
CONTINUOUS
 10
5.4751111892
 20
4.2687710446
 40
1.1875
  0
CIRCLE
  5
21F
100
AcDbEntity
  8
0
100
AcDbCircle
 62
6
  6
CONTINUOUS
 10
5.4751111892
 20
4.2687710446
 40
0.69
  0
ARC
  5
220
100
AcDbEntity
  8
0
100
AcDbCircle
 62
7
  6
CONTINUOUS
 10
5.8559379434
 20
4.2646352219
 40
0.1744771732
100
AcDbArc
 50
1.3582640449
 51
19.4710831827
  0
ARC
  5
221
100
AcDbEntity
  8
0
100
AcDbCircle
 62
6
  6
CONTINUOUS
 10
5.8551111892
 20
4.2687710446
 40
0.17
100
AcDbArc
 50
341.5047399749
 51
18.5030492053
  0
ARC
  5
222
100
AcDbEntity
  8
0
100
AcDbCircle
 62
6
  6
CONTINUOUS
 10
5.8551111892
 20
4.2687710446
 40
0.166
100
AcDbArc
 50
18.9508479535
 51
196.9813903682
  0
ARC
  5
223
100
AcDbEntity
  8
0
100
AcDbCircle
 62
6
  6
CONTINUOUS
 10
5.8551111892
 20
4.2687710446
 40
0.166
100
AcDbArc
 50
241.4416748453
 51
341.0491520465
  0
ARC
  5
224
100
AcDbEntity
  8
0
100
AcDbCircle
 62
7
  6
CONTINUOUS
 10
5.8665123731
 20
4.2699211955
 40
0.1655583243
100
AcDbArc
 50
94.0918306595
 51
98.229031455
  0
ARC
  5
225
100
AcDbEntity
  8
0
100
AcDbCircle
 62
7
  6
CONTINUOUS
 10
5.8444763034
 20
4.2644142306
 40
0.1639520491
100
AcDbArc
 50
104.0259566387
 51
120.3887459659
  0
ARC
  5
226
100
AcDbEntity
  8
0
100
AcDbCircle
 62
7
  6
CONTINUOUS
 10
5.8661997572
 20
4.2717558204
 40
0.163697377
100
AcDbArc
 50
98.2126487236
 51
112.0517222499
  0
ARC
  5
227
100
AcDbEntity
  8
0
100
AcDbCircle
 62
6
  6
CONTINUOUS
 10
5.8551111892
 20
4.2687710446
 40
0.153
100
AcDbArc
 50
243.405654609
 51
194.9987802704
  0
ARC
  5
228
100
AcDbEntity
  8
0
100
AcDbCircle
 62
6
  6
CONTINUOUS
 10
5.8551111892
 20
4.2687710446
 40
0.083
100
AcDbArc
 50
268.4010789389
 51
170.1512408145
  0
ARC
  5
229
100
AcDbEntity
  8
0
100
AcDbCircle
 62
9
  6
CONTINUOUS
 10
5.8547950494
 20
4.2685131411
 40
0.0625
100
AcDbArc
 50
309.207203505
 51
129.207203505
  0
CIRCLE
  5
22A
100
AcDbEntity
  8
0
100
AcDbCircle
 62
6
  6
CONTINUOUS
 10
5.4751111892
 20
4.6187710446
 40
0.2345
  0
SPLINE
  5
22B
100
AcDbEntity
  8
0
100
AcDbSpline
 62
6
  6
CONTINUOUS
 70
0
 71
3
 72
38
 73
34
 74
32
 42
0.0000001
 43
0.0000001
 44
0.0000000001
 12
0.1909910637
 22
0.0
 32
0.0
 13
0.0
 23
0.1909910637
 33
0.0
 40
0.0
 40
0.0
 40
0.0
 40
0.0
 40
0.0026559845
 40
0.005438406
 40
0.0084578621
 40
0.0118015161
 40
0.0155338926
 40
0.0197009504
 40
0.0243335838
 40
0.0294528475
 40
0.0350732584
 40
0.0412047992
 40
0.0478542578
 40
0.0550261291
 40
0.0627232323
 40
0.0709471397
 40
0.0889753448
 40
0.109094205
 40
0.1312680043
 40
0.1554557541
 40
0.1816131554
 40
0.2096924365
 40
0.239631261
 40
0.2713582076
 40
0.3048007855
 40
0.3765371298
 40
0.4541830054
 40
0.5369855282
 40
0.624175755
 40
0.7149520276
 40
0.808497059
 40
0.9038712405
 40
1.0
 40
1.0
 40
1.0
 40
1.0
 10
7.0385089914
 20
4.0812727472
 30
0.0
 10
7.0386780812
 20
4.0812727472
 30
0.0
 10
7.0390254303
 20
4.0813124988
 30
0.0
 10
7.0395380362
 20
4.0814884817
 30
0.0
 10
7.0400462591
 20
4.081778421
 30
0.0
 10
7.0405503729
 20
4.0821803702
 30
0.0
 10
7.0410513795
 20
4.0826936222
 30
0.0
 10
7.0415497749
 20
4.083317973
 30
0.0
 10
7.0420459566
 20
4.0840530744
 30
0.0
 10
7.0425399237
 20
4.0848985713
 30
0.0
 10
7.0430315262
 20
4.0858540259
 30
0.0
 10
7.0435205287
 20
4.086918948
 30
0.0
 10
7.0440066584
 20
4.0880927991
 30
0.0
 10
7.0444896168
 20
4.0893750069
 30
0.0
 10
7.0449691202
 20
4.0907649703
 30
0.0
 10
7.0456236351
 20
4.0928250048
 30
0.0
 10
7.0464238972
 20
4.0956674781
 30
0.0
 10
7.0473393178
 20
4.0993975748
 30
0.0
 10
7.0482346691
 20
4.1035346395
 30
0.0
 10
7.0491075925
 20
4.1080685299
 30
0.0
 10
7.0499557485
 20
4.1129890282
 30
0.0
 10
7.0507766243
 20
4.1182849319
 30
0.0
 10
7.0515683658
 20
4.1239434926
 30
0.0
 10
7.0523292188
 20
4.1299506035
 30
0.0
 10
7.0533233093
 20
4.1386098255
 30
0.0
 10
7.0544636152
 20
4.1501939625
 30
0.0
 10
7.0556517809
 20
4.1649284857
 30
0.0
 10
7.0566788726
 20
4.1806611411
 30
0.0
 10
7.0575328716
 20
4.1972411479
 30
0.0
 10
7.0582066347
 20
4.2145138544
 30
0.0
 10
7.0586922777
 20
4.2323140681
 30
0.0
 10
7.0589852454
 20
4.2504592499
 30
0.0
 10
7.0590510622
 20
4.2626511333
 30
0.0
 10
7.0590510622
 20
4.2687710446
 30
0.0
 11
7.0385089914
 21
4.0812727472
 31
0.0
 11
7.0390131228
 21
4.0813290826
 31
0.0
 11
7.0395169498
 21
4.0814980888
 31
0.0
 11
7.0400201678
 21
4.0817797658
 31
0.0
 11
7.0405224725
 21
4.0821741137
 31
0.0
 11
7.0410235594
 21
4.0826811322
 31
0.0
 11
7.0415231259
 21
4.0833006834
 31
0.0
 11
7.0420208751
 21
4.08403219
 31
0.0
 11
7.0425165116
 21
4.0848749874
 31
0.0
 11
7.0430097397
 21
4.0858284113
 31
0.0
 11
7.0435002638
 21
4.0868917974
 31
0.0
 11
7.0439877883
 21
4.0880644812
 31
0.0
 11
7.0444720176
 21
4.0893457983
 31
0.0
 11
7.044952656
 21
4.0907350844
 31
0.0
 11
7.045429408
 21
4.092231675
 31
0.0
 11
7.0463700785
 21
4.0955439167
 31
0.0
 11
7.0472917861
 21
4.0992742564
 31
0.0
 11
7.0481923722
 21
4.1034123898
 31
0.0
 11
7.0490696803
 21
4.107947965
 31
0.0
 11
7.0499215536
 21
4.1128706297
 31
0.0
 11
7.050745854
 21
4.1181697935
 31
0.0
 11
7.0515406389
 21
4.1238323361
 31
0.0
 11
7.0523040837
 21
4.1298436138
 31
0.0
 11
7.0530343652
 21
4.1361889618
 31
0.0
 11
7.0543881795
 21
4.1498229123
 31
0.0
 11
7.0555889527
 21
4.1646038868
 31
0.0
 11
7.0566254794
 21
4.1803844239
 31
0.0
 11
7.0574872363
 21
4.1970146654
 31
0.0
 11
7.0581664489
 21
4.2143388128
 31
0.0
 11
7.0586562822
 21
4.2321983617
 31
0.0
 11
7.0589519757
 21
4.250411578
 31
0.0
 11
7.0590510622
 21
4.2687710446
 31
0.0
  0
SPLINE
  5
22C
100
AcDbEntity
  8
0
100
AcDbSpline
 62
6
  6
CONTINUOUS
 70
0
 71
3
 72
37
 73
33
 74
31
 42
0.0000001
 43
0.0000001
 44
0.0000000001
 12
-0.1278358329
 22
0.0
 32
0.0
 13
-0.0
 23
-0.1278358329
 33
0.0
 40
0.0
 40
0.0
 40
0.0
 40
0.0
 40
0.0026559906
 40
0.0054381846
 40
0.0084570013
 40
0.0117994954
 40
0.0155301374
 40
0.0196954172
 40
0.0243278541
 40
0.0294484642
 40
0.0350713059
 40
0.0412058276
 40
0.0478582385
 40
0.0550324288
 40
0.0709524831
 40
0.0889718295
 40
0.1090823675
 40
0.1312592121
 40
0.1554552486
 40
0.1816180471
 40
0.2096928144
 40
0.2396231092
 40
0.2713508995
 40
0.3048053516
 40
0.3765519967
 40
0.4541724605
 40
0.536960916
 40
0.624154127
 40
0.7149632796
 40
0.8085620237
 40
0.9039339924
 40
1.0
 40
1.0
 40
1.0
 40
1.0
 10
4.291713387
 20
4.0842688783
 30
0.0
 10
4.29160021
 20
4.0842688783
 30
0.0
 10
4.2913677299
 20
4.0842422989
 30
0.0
 10
4.2910246308
 20
4.0841246249
 30
0.0
 10
4.2906844585
 20
4.0839307459
 30
0.0
 10
4.2903470348
 20
4.0836619602
 30
0.0
 10
4.2900116686
 20
4.0833187322
 30
0.0
 10
4.2896780093
 20
4.0829010876
 30
0.0
 10
4.2893459307
 20
4.0824090688
 30
0.0
 10
4.289015334
 20
4.0818429585
 30
0.0
 10
4.28868632
 20
4.0812031052
 30
0.0
 10
4.2883590451
 20
4.0804899178
 30
0.0
 10
4.2880336726
 20
4.0797038399
 30
0.0
 10
4.2875870277
 20
4.0785173825
 30
0.0
 10
4.2870405405
 20
4.0768520226
 30
0.0
 10
4.2864155846
 20
4.074634754
 30
0.0
 10
4.2858027205
 20
4.0721386897
 30
0.0
 10
4.2852036321
 20
4.0693694729
 30
0.0
 10
4.2846195352
 20
4.0663340449
 30
0.0
 10
4.2840519498
 20
4.0630402013
 30
0.0
 10
4.2835023358
 20
4.0594958588
 30
0.0
 10
4.282972133
 20
4.0557089823
 30
0.0
 10
4.2824628765
 20
4.0516880671
 30
0.0
 10
4.281797925
 20
4.0458911635
 30
0.0
 10
4.2810348762
 20
4.0381376941
 30
0.0
 10
4.2802387848
 20
4.0282767638
 30
0.0
 10
4.2795519012
 20
4.0177479603
 30
0.0
 10
4.2789800748
 20
4.0066495682
 30
0.0
 10
4.2785288984
 20
3.9950846316
 30
0.0
 10
4.2782043611
 20
3.9831668241
 30
0.0
 10
4.2780080581
 20
3.9710222156
 30
0.0
 10
4.2779638942
 20
3.962864604
 30
0.0
 10
4.2779638942
 20
3.9587710446
 30
0.0
 11
4.291713387
 21
4.0842688783
 31
0.0
 11
4.2913759526
 21
4.0842312063
 31
0.0
 11
4.2910387222
 21
4.0841181904
 31
0.0
 11
4.2907018997
 21
4.0839298306
 31
0.0
 11
4.2903656892
 21
4.0836661268
 31
0.0
 11
4.2900302945
 21
4.0833270791
 31
0.0
 11
4.2896959198
 21
4.0829126881
 31
0.0
 11
4.2893627666
 21
4.0824230968
 31
0.0
 11
4.2890310315
 21
4.0818587833
 31
0.0
 11
4.2887009102
 21
4.0812202739
 31
0.0
 11
4.2883725984
 21
4.0805080946
 31
0.0
 11
4.2880462918
 21
4.0797227716
 31
0.0
 11
4.2877221861
 21
4.078864831
 31
0.0
 11
4.2870813604
 21
4.0769332017
 31
0.0
 11
4.2864516869
 21
4.0747174158
 31
0.0
 11
4.2858347307
 21
4.0722216952
 31
0.0
 11
4.2852319932
 21
4.0694515136
 31
0.0
 11
4.2846448595
 21
4.0664146289
 31
0.0
 11
4.2840747024
 21
4.0631190425
 31
0.0
 11
4.2835228947
 21
4.0595727556
 31
0.0
 11
4.282990809
 21
4.0557837693
 31
0.0
 11
4.2824798135
 21
4.0517601389
 31
0.0
 11
4.2819911392
 21
4.047511472
 31
0.0
 11
4.281085053
 21
4.038384546
 31
0.0
 11
4.2802811077
 21
4.0284944912
 31
0.0
 11
4.2795875668
 21
4.0179339089
 31
0.0
 11
4.2790107038
 21
4.0068024294
 31
0.0
 11
4.2785559449
 21
3.9952026765
 31
0.0
 11
4.2782282666
 21
3.9832418908
 31
0.0
 11
4.278030297
 21
3.9710515432
 31
0.0
 11
4.2779638942
 21
3.9587710446
 31
0.0
  0
SPLINE
  5
22D
100
AcDbEntity
  8
0
100
AcDbSpline
 62
7
  6
CONTINUOUS
 70
0
 71
3
 72
13
 73
9
 74
7
 42
0.0000001
 43
0.0000001
 44
0.0000000001
 12
-0.0040757323
 22
-0.0463088901
 32
0.0
 13
-0.0230061493
 23
-0.040396064
 33
0.0
 40
0.0
 40
0.0
 40
0.0
 40
0.0
 40
0.2499221822
 40
0.3749577045
 40
0.5000409048
 40
0.6251638722
 40
0.7502597881
 40
1.0
 40
1.0
 40
1.0
 40
1.0
 10
5.5858092147
 20
3.9588728013
 30
0.0
 10
5.5854696761
 20
3.9550149283
 30
0.0
 10
5.5846540071
 20
3.9492476446
 30
0.0
 10
5.5829605728
 20
3.9416837663
 30
0.0
 10
5.5813870525
 20
3.9360828866
 30
0.0
 10
5.5795134485
 20
3.9305741052
 30
0.0
 10
5.5766272924
 20
3.923381781
 30
0.0
 10
5.5740286136
 20
3.9181700829
 30
0.0
 10
5.5721134267
 20
3.9148072424
 30
0.0
 11
5.5858092147
 21
3.9588728013
 31
0.0
 11
5.5841805647
 21
3.9473691614
 31
0.0
 11
5.5829103071
 21
3.9416970174
 31
0.0
 11
5.5813372624
 21
3.9360989755
 31
0.0
 11
5.5794644771
 21
3.9305920053
 31
0.0
 11
5.577298406
 21
3.9251950104
 31
0.0
 11
5.5721134267
 21
3.9148072424
 31
0.0
  0
SPLINE
  5
22E
100
AcDbEntity
  8
0
100
AcDbSpline
 62
6
  6
CONTINUOUS
 70
0
 71
3
 72
38
 73
34
 74
32
 42
0.0000001
 43
0.0000001
 44
0.0000000001
 12
0.0
 22
0.1909910637
 32
0.0
 13
-0.1909910637
 23
0.0
 33
0.0
 40
0.0
 40
0.0
 40
0.0
 40
0.0
 40
0.0961287595
 40
0.191502941
 40
0.2850479724
 40
0.375824245
 40
0.4630144718
 40
0.5458169946
 40
0.6234628702
 40
0.6951992145
 40
0.7286417924
 40
0.760368739
 40
0.7903075635
 40
0.8183868446
 40
0.8445442459
 40
0.8687319957
 40
0.890905795
 40
0.9110246552
 40
0.9290528603
 40
0.9372767677
 40
0.9449738709
 40
0.9521457422
 40
0.9587952008
 40
0.9649267416
 40
0.9705471525
 40
0.9756664162
 40
0.9802990496
 40
0.9844661074
 40
0.9881984839
 40
0.9915421379
 40
0.994561594
 40
0.9973440155
 40
1.0
 40
1.0
 40
1.0
 40
1.0
 10
7.0590510622
 20
4.2687710446
 30
0.0
 10
7.0590510622
 20
4.274890956
 30
0.0
 10
7.0589852454
 20
4.2870828393
 30
0.0
 10
7.0586922777
 20
4.3052280211
 30
0.0
 10
7.0582066347
 20
4.3230282348
 30
0.0
 10
7.0575328716
 20
4.3403009414
 30
0.0
 10
7.0566788726
 20
4.3568809481
 30
0.0
 10
7.0556517809
 20
4.3726136035
 30
0.0
 10
7.0544636152
 20
4.3873481267
 30
0.0
 10
7.0533233093
 20
4.3989322637
 30
0.0
 10
7.0523292188
 20
4.4075914857
 30
0.0
 10
7.0515683658
 20
4.4135985966
 30
0.0
 10
7.0507766243
 20
4.4192571573
 30
0.0
 10
7.0499557485
 20
4.424553061
 30
0.0
 10
7.0491075925
 20
4.4294735593
 30
0.0
 10
7.0482346691
 20
4.4340074497
 30
0.0
 10
7.0473393178
 20
4.4381445144
 30
0.0
 10
7.0464238972
 20
4.4418746111
 30
0.0
 10
7.0456236351
 20
4.4447170844
 30
0.0
 10
7.0449691202
 20
4.4467771189
 30
0.0
 10
7.0444896168
 20
4.4481670823
 30
0.0
 10
7.0440066584
 20
4.4494492901
 30
0.0
 10
7.0435205287
 20
4.4506231412
 30
0.0
 10
7.0430315262
 20
4.4516880633
 30
0.0
 10
7.0425399237
 20
4.4526435179
 30
0.0
 10
7.0420459566
 20
4.4534890148
 30
0.0
 10
7.0415497749
 20
4.4542241162
 30
0.0
 10
7.0410513795
 20
4.454848467
 30
0.0
 10
7.0405503729
 20
4.455361719
 30
0.0
 10
7.0400462591
 20
4.4557636682
 30
0.0
 10
7.0395380362
 20
4.4560536075
 30
0.0
 10
7.0390254303
 20
4.4562295904
 30
0.0
 10
7.0386780812
 20
4.456269342
 30
0.0
 10
7.0385089914
 20
4.456269342
 30
0.0
 11
7.0590510622
 21
4.2687710446
 31
0.0
 11
7.0589519757
 21
4.2871305113
 31
0.0
 11
7.0586562822
 21
4.3053437275
 31
0.0
 11
7.0581664489
 21
4.3232032765
 31
0.0
 11
7.0574872363
 21
4.3405274238
 31
0.0
 11
7.0566254794
 21
4.3571576654
 31
0.0
 11
7.0555889527
 21
4.3729382024
 31
0.0
 11
7.0543881795
 21
4.3877191769
 31
0.0
 11
7.0530343652
 21
4.4013531274
 31
0.0
 11
7.0523040837
 21
4.4076984754
 31
0.0
 11
7.0515406389
 21
4.4137097531
 31
0.0
 11
7.050745854
 21
4.4193722957
 31
0.0
 11
7.0499215536
 21
4.4246714595
 31
0.0
 11
7.0490696803
 21
4.4295941243
 31
0.0
 11
7.0481923722
 21
4.4341296994
 31
0.0
 11
7.0472917861
 21
4.4382678329
 31
0.0
 11
7.0463700785
 21
4.4419981726
 31
0.0
 11
7.045429408
 21
4.4453104142
 31
0.0
 11
7.044952656
 21
4.4468070048
 31
0.0
 11
7.0444720176
 21
4.4481962909
 31
0.0
 11
7.0439877883
 21
4.449477608
 31
0.0
 11
7.0435002638
 21
4.4506502918
 31
0.0
 11
7.0430097397
 21
4.4517136779
 31
0.0
 11
7.0425165116
 21
4.4526671018
 31
0.0
 11
7.0420208751
 21
4.4535098993
 31
0.0
 11
7.0415231259
 21
4.4542414058
 31
0.0
 11
7.0410235594
 21
4.454860957
 31
0.0
 11
7.0405224725
 21
4.4553679756
 31
0.0
 11
7.0400201678
 21
4.4557623234
 31
0.0
 11
7.0395169498
 21
4.4560440004
 31
0.0
 11
7.0390131228
 21
4.4562130066
 31
0.0
 11
7.0385089914
 21
4.456269342
 31
0.0
  0
SPLINE
  5
22F
100
AcDbEntity
  8
0
100
AcDbSpline
 62
7
  6
CONTINUOUS
 70
0
 71
3
 72
15
 73
11
 74
9
 42
0.0000001
 43
0.0000001
 44
0.0000000001
 12
-0.0560165809
 22
-0.0124079415
 32
0.0
 13
-0.0407166838
 23
-0.0404223455
 33
0.0
 40
0.0
 40
0.0
 40
0.0
 40
0.0
 40
0.1249948564
 40
0.2500026708
 40
0.3749992109
 40
0.499999688
 40
0.6250004157
 40
0.7499968803
 40
0.8750048957
 40
1.0
 40
1.0
 40
1.0
 40
1.0
 10
5.4620729449
 20
4.062958396
 30
0.0
 10
5.4597390167
 20
4.0624414197
 30
0.0
 10
5.4551048173
 20
4.0612467721
 30
0.0
 10
5.4482949494
 20
4.058979942
 30
0.0
 10
5.4416585189
 20
4.0562453129
 30
0.0
 10
5.4352296095
 20
4.0530535282
 30
0.0
 10
5.4290412945
 20
4.0494170171
 30
0.0
 10
5.4231259303
 20
4.0453509909
 30
0.0
 10
5.417516195
 20
4.0408733657
 30
0.0
 10
5.4139997079
 20
4.0376265606
 30
0.0
 10
5.4123032459
 20
4.0359423622
 30
0.0
 11
5.4620729449
 21
4.062958396
 31
0.0
 11
5.4551286124
 21
4.0611676943
 31
0.0
 11
5.4483236707
 21
4.0589019056
 31
0.0
 11
5.4416931532
 21
4.0561691432
 31
0.0
 11
5.435269713
 21
4.0529794085
 31
0.0
 11
5.4290867371
 21
4.0493454014
 31
0.0
 11
5.4231770322
 21
4.0452825112
 31
0.0
 11
5.4175718544
 21
4.0408077845
 31
0.0
 11
5.4123032459
 21
4.0359423622
 31
0.0
  0
SPLINE
  5
230
100
AcDbEntity
  8
0
100
AcDbSpline
 62
6
  6
CONTINUOUS
 70
0
 71
3
 72
37
 73
33
 74
31
 42
0.0000001
 43
0.0000001
 44
0.0000000001
 12
0.0
 22
-0.1278358329
 32
0.0
 13
0.1278358329
 23
-0.0
 33
0.0
 40
0.0
 40
0.0
 40
0.0
 40
0.0
 40
0.0960660076
 40
0.1914379763
 40
0.2850367204
 40
0.375845873
 40
0.463039084
 40
0.5458275395
 40
0.6234480033
 40
0.6951946484
 40
0.7286491005
 40
0.7603768908
 40
0.7903071856
 40
0.8183819529
 40
0.8445447514
 40
0.8687407879
 40
0.8909176325
 40
0.9110281705
 40
0.9290475169
 40
0.9449675712
 40
0.9521417615
 40
0.9587941724
 40
0.9649286941
 40
0.9705515358
 40
0.9756721459
 40
0.9803045828
 40
0.9844698626
 40
0.9882005046
 40
0.9915429987
 40
0.9945618154
 40
0.9973440094
 40
1.0
 40
1.0
 40
1.0
 40
1.0
 10
4.2779638942
 20
3.9587710446
 30
0.0
 10
4.2779638942
 20
3.9546774852
 30
0.0
 10
4.2780080581
 20
3.9465198736
 30
0.0
 10
4.2782043611
 20
3.9343752651
 30
0.0
 10
4.2785288984
 20
3.9224574576
 30
0.0
 10
4.2789800748
 20
3.910892521
 30
0.0
 10
4.2795519012
 20
3.8997941289
 30
0.0
 10
4.2802387848
 20
3.8892653254
 30
0.0
 10
4.2810348762
 20
3.8794043951
 30
0.0
 10
4.281797925
 20
3.8716509257
 30
0.0
 10
4.2824628765
 20
3.8658540221
 30
0.0
 10
4.282972133
 20
3.8618331069
 30
0.0
 10
4.2835023358
 20
3.8580462304
 30
0.0
 10
4.2840519498
 20
3.8545018879
 30
0.0
 10
4.2846195352
 20
3.8512080443
 30
0.0
 10
4.2852036321
 20
3.8481726163
 30
0.0
 10
4.2858027205
 20
3.8454033996
 30
0.0
 10
4.2864155846
 20
3.8429073352
 30
0.0
 10
4.2870405405
 20
3.8406900666
 30
0.0
 10
4.2875870277
 20
3.8390247068
 30
0.0
 10
4.2880336726
 20
3.8378382493
 30
0.0
 10
4.2883590451
 20
3.8370521715
 30
0.0
 10
4.28868632
 20
3.836338984
 30
0.0
 10
4.289015334
 20
3.8356991307
 30
0.0
 10
4.2893459307
 20
3.8351330204
 30
0.0
 10
4.2896780093
 20
3.8346410016
 30
0.0
 10
4.2900116686
 20
3.834223357
 30
0.0
 10
4.2903470348
 20
3.8338801291
 30
0.0
 10
4.2906844585
 20
3.8336113434
 30
0.0
 10
4.2910246308
 20
3.8334174643
 30
0.0
 10
4.2913677299
 20
3.8332997903
 30
0.0
 10
4.29160021
 20
3.833273211
 30
0.0
 10
4.291713387
 20
3.833273211
 30
0.0
 11
4.2779638942
 21
3.9587710446
 31
0.0
 11
4.278030297
 21
3.946490546
 31
0.0
 11
4.2782282666
 21
3.9343001984
 31
0.0
 11
4.2785559449
 21
3.9223394127
 31
0.0
 11
4.2790107038
 21
3.9107396598
 31
0.0
 11
4.2795875668
 21
3.8996081803
 31
0.0
 11
4.2802811077
 21
3.889047598
 31
0.0
 11
4.281085053
 21
3.8791575432
 31
0.0
 11
4.2819911392
 21
3.8700306172
 31
0.0
 11
4.2824798135
 21
3.8657819504
 31
0.0
 11
4.282990809
 21
3.8617583199
 31
0.0
 11
4.2835228947
 21
3.8579693336
 31
0.0
 11
4.2840747024
 21
3.8544230467
 31
0.0
 11
4.2846448595
 21
3.8511274603
 31
0.0
 11
4.2852319932
 21
3.8480905757
 31
0.0
 11
4.2858347307
 21
3.845320394
 31
0.0
 11
4.2864516869
 21
3.8428246734
 31
0.0
 11
4.2870813604
 21
3.8406088875
 31
0.0
 11
4.2877221861
 21
3.8386772582
 31
0.0
 11
4.2880462918
 21
3.8378193176
 31
0.0
 11
4.2883725984
 21
3.8370339946
 31
0.0
 11
4.2887009102
 21
3.8363218153
 31
0.0
 11
4.2890310315
 21
3.8356833059
 31
0.0
 11
4.2893627666
 21
3.8351189925
 31
0.0
 11
4.2896959198
 21
3.8346294011
 31
0.0
 11
4.2900302945
 21
3.8342150101
 31
0.0
 11
4.2903656892
 21
3.8338759624
 31
0.0
 11
4.2907018997
 21
3.8336122586
 31
0.0
 11
4.2910387222
 21
3.8334238988
 31
0.0
 11
4.2913759526
 21
3.8333108829
 31
0.0
 11
4.291713387
 21
3.833273211
 31
0.0
  0
SPLINE
  5
231
100
AcDbEntity
  8
0
100
AcDbSpline
 62
6
  6
CONTINUOUS
 70
0
 71
3
 72
15
 73
11
 74
9
 42
0.0000001
 43
0.0000001
 44
0.0000000001
 12
-0.0478488709
 22
-0.031659104
 32
0.0
 13
-0.0235254016
 23
-0.0523294257
 33
0.0
 40
0.0
 40
0.0
 40
0.0
 40
0.0
 40
0.1249877517
 40
0.2500075035
 40
0.3750038572
 40
0.5000002476
 40
0.6249947439
 40
0.749988503
 40
0.8750098304
 40
1.0
 40
1.0
 40
1.0
 40
1.0
 10
5.4123032459
 20
4.0359423622
 30
0.0
 10
5.4103097383
 20
4.0346233621
 30
0.0
 10
5.4064164562
 20
4.0318393806
 30
0.0
 10
5.4008927223
 20
4.0272559629
 30
0.0
 10
5.3957100027
 20
4.0222895114
 30
0.0
 10
5.3908928341
 20
4.0169686664
 30
0.0
 10
5.386461936
 20
4.0113222686
 30
0.0
 10
5.3824364705
 20
4.0053794183
 30
0.0
 10
5.3788340383
 20
3.9991716105
 30
0.0
 10
5.3767229441
 20
3.9948765139
 30
0.0
 10
5.3757427961
 20
3.9926962927
 30
0.0
 11
5.4123032459
 21
4.0359423622
 31
0.0
 11
5.4064696211
 21
4.0317718317
 31
0.0
 11
5.400949247
 21
4.0271918416
 31
0.0
 11
5.3957708705
 21
4.0222303903
 31
0.0
 11
5.3909571839
 21
4.0169143735
 31
0.0
 11
5.386529544
 21
4.0112729146
 31
0.0
 11
5.382507252
 21
4.0053356919
 31
0.0
 11
5.3789064081
 21
3.9991319785
 31
0.0
 11
5.3757427961
 21
3.9926962927
 31
0.0
  0
SPLINE
  5
232
100
AcDbEntity
  8
0
100
AcDbSpline
 62
6
  6
CONTINUOUS
 70
0
 71
3
 72
34
 73
30
 74
28
 42
0.0000001
 43
0.0000001
 44
0.0000000001
 12
-0.0610889903
 22
0.209530519
 32
0.0
 13
0.2180931768
 23
-0.0083826821
 33
0.0
 40
0.0
 40
0.0
 40
0.0
 40
0.0
 40
0.0624362635
 40
0.1249653191
 40
0.187453715
 40
0.2187045092
 40
0.2499548541
 40
0.2812075093
 40
0.3124632325
 40
0.3437203158
 40
0.3749759877
 40
0.4062305194
 40
0.43748572
 40
0.4687411921
 40
0.4999954339
 40
0.5312491927
 40
0.562503967
 40
0.5937592467
 40
0.6250135512
 40
0.6874952259
 40
0.7187479676
 40
0.7499973304
 40
0.7812445486
 40
0.8124948598
 40
0.8437521666
 40
0.8750194502
 40
0.9062951085
 40
0.9375659109
 40
1.0
 40
1.0
 40
1.0
 40
1.0
 10
5.3705583986
 20
3.9384987979
 30
0.0
 10
5.3692870092
 20
3.9428595655
 30
0.0
 10
5.3673056829
 20
3.9517625658
 30
0.0
 10
5.3660411346
 20
3.9653751304
 30
0.0
 10
5.3664253413
 20
3.9767702768
 30
0.0
 10
5.3675751868
 20
3.9857951123
 30
0.0
 10
5.3688547416
 20
3.9924994004
 30
0.0
 10
5.3705447112
 20
3.9991121594
 30
0.0
 10
5.3726345941
 20
4.0056101322
 30
0.0
 10
5.3751144746
 20
4.0119696897
 30
0.0
 10
5.3779750487
 20
4.0181672453
 30
0.0
 10
5.381204233
 20
4.0241807391
 30
0.0
 10
5.3847866593
 20
4.0299906208
 30
0.0
 10
5.3887077485
 20
4.0355774881
 30
0.0
 10
5.3929533928
 20
4.0409217249
 30
0.0
 10
5.3975072739
 20
4.0460057437
 30
0.0
 10
5.4023507263
 20
4.0508145931
 30
0.0
 10
5.4074661787
 20
4.0553335364
 30
0.0
 10
5.4146228947
 20
4.0609495955
 30
0.0
 10
5.4222568994
 20
4.0659340125
 30
0.0
 10
5.4302707637
 20
4.0702377356
 30
0.0
 10
5.4364571934
 20
4.0731186814
 30
0.0
 10
5.4427969304
 20
4.0756429615
 30
0.0
 10
5.4492694538
 20
4.0778060436
 30
0.0
 10
5.4558545647
 20
4.0796028582
 30
0.0
 10
5.4625317372
 20
4.0810281653
 30
0.0
 10
5.469279511
 20
4.0820777557
 30
0.0
 10
5.4783305236
 20
4.0829769709
 30
0.0
 10
5.4851648918
 20
4.0830908113
 30
0.0
 10
5.489703708
 20
4.0829163562
 30
0.0
 11
5.3705583986
 21
3.9384987979
 31
0.0
 11
5.3675913116
 21
3.9517988324
 31
0.0
 11
5.3663287301
 21
3.9653875328
 31
0.0
 11
5.366782942
 21
3.979018323
 31
0.0
 11
5.367644701
 21
3.9857842816
 31
0.0
 11
5.3689230932
 21
3.9924839234
 31
0.0
 11
5.3706112793
 21
3.9990927352
 31
0.0
 11
5.3726995499
 21
4.0055869347
 31
0.0
 11
5.3751779702
 21
4.0119427968
 31
0.0
 11
5.3780365302
 21
4.0181366633
 31
0.0
 11
5.3812630831
 21
4.0241467639
 31
0.0
 11
5.3848430948
 21
4.0299534378
 31
0.0
 11
5.3887619053
 21
4.0355371352
 31
0.0
 11
5.3930047931
 21
4.0408783891
 31
0.0
 11
5.3975554759
 21
4.0459598197
 31
0.0
 11
5.4023960285
 21
4.0507662452
 31
0.0
 11
5.4075084469
 21
4.0552825886
 31
0.0
 11
5.412874693
 21
4.0594938449
 31
0.0
 11
5.4242909698
 21
4.0669526227
 31
0.0
 11
5.4303002005
 21
4.0701799696
 31
0.0
 11
5.4364829141
 21
4.0730593127
 31
0.0
 11
5.4428187585
 21
4.0755826544
 31
0.0
 11
5.4492874977
 21
4.0777447829
 31
0.0
 11
5.4558689041
 21
4.0795406968
 31
0.0
 11
5.4625427448
 21
4.0809654007
 31
0.0
 11
5.469287555
 21
4.0820153604
 31
0.0
 11
5.4760790792
 21
4.0826903518
 31
0.0
 11
5.489703708
 21
4.0829163562
 31
0.0
  0
ENDSEC
  0
SECTION
  2
OBJECTS
  0
DICTIONARY
  5
C
100
AcDbDictionary
280
0
281
1
  3
ACAD_GROUP
350
D
  3
ACAD_MLINESTYLE
350
17
  3
ACAD_LAYOUT
350
1A
  3
ACAD_PLOTSETTINGS
350
19
  3
ACAD_PLOTSTYLENAME
350
E
  0
DICTIONARY
  5
D
102
{ACAD_REACTORS
330
C
102
}
100
AcDbDictionary
280
0
281
1
  0
ACDBDICTIONARYWDFLT
  5
E
102
{ACAD_REACTORS
330
C
102
}
100
AcDbDictionary
281
1
  3
Normal
350
F
100
AcDbDictionaryWithDefault
340
F
  0
DICTIONARY
  5
17
102
{ACAD_REACTORS
330
C
102
}
100
AcDbDictionary
280
0
281
1
  3
Standard
350
18
  0
DICTIONARY
  5
19
102
{ACAD_REACTORS
330
C
102
}
100
AcDbDictionary
281
1
  0
DICTIONARY
  5
1A
102
{ACAD_REACTORS
330
C
102
}
100
AcDbDictionary
281
1
  3
Model
350
233
  3
Layout1
350
234
  0
ACDBPLACEHOLDER
  5
F
102
{ACAD_REACTORS
330
E
102
}
  0
MLINESTYLE
  5
18
102
{ACAD_REACTORS
330
17
102
}
100
AcDbMlineStyle
  2
STANDARD
 70
0
  3

 62
256
 51
90.0
 52
90.0
 71
2
 49
0.5
 62
256
  6
BYLAYER
 49
-0.5
 62
256
  6
BYLAYER
  0
LAYOUT
  5
233
102
{ACAD_REACTORS
330
1A
102
}
100
AcDbPlotSettings
  1

  2
none_device
  4
ISO_A4_(297.00_x_210.00_MM)
  6

 40
0.0
 41
0.0
 42
0.0
 43
0.0
 44
297.0
 45
210.0
 46
0.0
 47
0.0
 48
0.0
 49
0.0
140
0.0
141
0.0
142
1.0
143
1.0
 70
1024
 72
0
 73
0
 74
0
  7

 75
0
147
1.0
148
0.0
149
0.0
100
AcDbLayout
  1
Model
 70
0
 71
0
 10
0.0
 20
0.0
 11
11.6929133858
 21
8.2677165354
 12
0.0
 22
0.0
 32
0.0
 14
0.0
 24
0.0
 34
0.0
 15
0.0
 25
0.0
 35
0.0
146
0.0
 13
0.0
 23
0.0
 33
0.0
 16
1.0
 26
0.0
 36
0.0
 17
0.0
 27
1.0
 37
0.0
 76
0
330
204
345
0
346
0
  0
LAYOUT
  5
234
102
{ACAD_REACTORS
330
1A
102
}
100
AcDbPlotSettings
  1

  2
none_device
  4
ISO_A4_(297.00_x_210.00_MM)
  6

 40
0.0
 41
0.0
 42
0.0
 43
0.0
 44
297.0
 45
210.0
 46
0.0
 47
0.0
 48
0.0
 49
0.0
140
0.0
141
0.0
142
1.0
143
1.0
 70
0
 72
0
 73
0
 74
0
  7

 75
0
147
1.0
148
0.0
149
0.0
100
AcDbLayout
  1
Layout1
 70
0
 71
1
 10
0.0
 20
0.0
 11
11.6929133858
 21
8.2677165354
 12
0.0
 22
0.0
 32
0.0
 14
0.0
 24
0.0
 34
0.0
 15
0.0
 25
0.0
 35
0.0
146
0.0
 13
0.0
 23
0.0
 33
0.0
 16
1.0
 26
0.0
 36
0.0
 17
0.0
 27
1.0
 37
0.0
 76
0
330
205
345
0
346
0
  0
ENDSEC
  0
EOF
