999
DXF file: 6-028_Front.dxf
999
Pro/ENGINEER 2023134 by Parametric Technology Corporation
  0
SECTION
  2
HEADER
  9
$ACADVER
  1
AC1032
  9
$DWGCODEPAGE
  3
ANSI_1252
  9
$EXTMAX
 10
11.0
 20
8.5
 30
0.0
  9
$EXTMIN
 10
0.0
 20
0.0
 30
0.0
  9
$LIMMIN
 10
0.0
 20
0.0
  9
$LIMMAX
 10
11.0
 20
8.5
  9
$VIEWCTR
 10
5.5
 20
4.25
  9
$VIEWSIZE
 40
8.5
  9
$CLAYER
  8
0
  9
$LTSCALE
 40
0.605
  9
$CELTYPE
  6
BYLAYER
  9
$DIMSCALE
 40
1.0
  9
$DIMASZ
 40
0.1
  9
$DIMEXO
 40
0.0625
  9
$DIMDLI
 40
0.418
  9
$DIMEXE
 40
0.125
  9
$DIMCEN
 40
0.099
  9
$DIMLFAC
 40
1.0
  9
$DIMBLK
  1
_FILLED
  9
$DIMALT
 70
1
  9
$DIMALTD
 70
2
  9
$DIMALTTD
 70
2
  9
$DIMALTF
 40
25.4
  9
$DIMTXT
 40
0.08
  9
$DIMTOL
 70
1
  9
$DIMLIM
 70
0
  9
$DIMTFAC
 40
1.0
  9
$DIMTP
 40
0.001
  9
$DIMTM
 40
0.001
  9
$DIMGAP
 40
0.09
  9
$DIMDSEP
 70
46
  9
$AUNITS
 70
0
  9
$PDMODE
 70
3
  9
$PDSIZE
 40
0.3125
  9
$HANDSEED
  5
245
  9
$TILEMODE
 70
1
  9
$MEASUREMENT
 70
0
  9
$INSUNITS
 70
1
  0
ENDSEC
  0
SECTION
  2
CLASSES
  0
CLASS
  1
ACDBDICTIONARYWDFLT
  2
AcDbDictionaryWithDefault
  3
AutoCAD 2000
 90
0
 91
1
280
0
281
0
  0
CLASS
  1
ACDBPLACEHOLDER
  2
AcDbPlaceHolder
  3
AutoCAD 2000
 90
0
 91
1
280
0
281
0
  0
CLASS
  1
LAYOUT
  2
AcDbLayout
  3
AutoCAD 2000
 90
0
 91
0
280
0
281
0
  0
ENDSEC
  0
SECTION
  2
TABLES
  0
TABLE
  2
VPORT
  5
8
100
AcDbSymbolTable
 70
2
  0
VPORT
  5
1F4
100
AcDbSymbolTableRecord
100
AcDbViewportTableRecord
  2
*ACTIVE
 70
0
 10
0.0
 20
0.0
 11
1.0
 21
1.0
 12
5.5
 22
4.25
 13
0.0
 23
0.0
 14
1.0
 24
1.0
 15
0.0
 25
0.0
 16
0.0
 26
0.0
 36
1.0
 17
0.0
 27
0.0
 37
0.0
 40
8.5
 41
1.2941176471
 42
50.0
 43
0.0
 44
0.0
 50
0.0
 51
0.0
 71
0
 72
100
 73
1
 74
1
 75
0
 76
0
 77
0
 78
0
  0
ENDTAB
  0
TABLE
  2
LTYPE
  5
5
100
AcDbSymbolTable
 70
6
  0
LTYPE
  5
14
100
AcDbSymbolTableRecord
100
AcDbLinetypeTableRecord
  2
BYBLOCK
 70
0
  3

 72
65
 73
0
 40
0.0
  0
LTYPE
  5
15
100
AcDbSymbolTableRecord
100
AcDbLinetypeTableRecord
  2
BYLAYER
 70
0
  3

 72
65
 73
0
 40
0.0
  0
LTYPE
  5
16
100
AcDbSymbolTableRecord
100
AcDbLinetypeTableRecord
  2
CONTINUOUS
 70
64
  3
Solid line
 72
65
 73
0
 40
0.0
  0
LTYPE
  5
1F5
100
AcDbSymbolTableRecord
100
AcDbLinetypeTableRecord
  2
CENTER
 70
64
  3
____ _ ____ _ ____ _ ____ _ ____ _ ____ _ ____
 72
65
 73
4
 40
0.6
 49
0.375
 74
0
 49
-0.075
 74
0
 49
0.075
 74
0
 49
-0.075
 74
0
  0
LTYPE
  5
1F6
100
AcDbSymbolTableRecord
100
AcDbLinetypeTableRecord
  2
HIDDEN
 70
64
  3
- - - - - - - - - - - - - - - - - - - -
 72
65
 73
2
 40
0.2
 49
0.1
 74
0
 49
-0.1
 74
0
  0
LTYPE
  5
1F7
100
AcDbSymbolTableRecord
100
AcDbLinetypeTableRecord
  2
PHANTOM
 70
64
  3
_____ _ _ _____ _ _ _____ _ _ _____
 72
65
 73
6
 40
0.8
 49
0.45
 74
0
 49
-0.05
 74
0
 49
0.1
 74
0
 49
-0.05
 74
0
 49
0.1
 74
0
 49
-0.05
 74
0
  0
LTYPE
  5
1F8
100
AcDbSymbolTableRecord
100
AcDbLinetypeTableRecord
  2
DOT
 70
64
  3
. . . . . . . . . . . . . . . . . . . .
 72
65
 73
2
 40
0.2
 49
0.1
 74
0
 49
-0.1
 74
0
  0
LTYPE
  5
1F9
100
AcDbSymbolTableRecord
100
AcDbLinetypeTableRecord
  2
DASHED
 70
64
  3
- - - - - - - - - - - - - - - - - - - -
 72
65
 73
2
 40
0.2
 49
0.1
 74
0
 49
-0.1
 74
0
  0
ENDTAB
  0
TABLE
  2
LAYER
  5
2
100
AcDbSymbolTable
 70
36
  0
LAYER
  5
10
100
AcDbSymbolTableRecord
100
AcDbLayerTableRecord
  2
0
 70
0
 62
7
  6
CONTINUOUS
370
-3
390
F
  0
LAYER
  5
1FA
100
AcDbSymbolTableRecord
100
AcDbLayerTableRecord
  2
DEFAULT_1
 70
0
 62
7
  6
CENTER
370
-3
390
F
  0
LAYER
  5
1FB
100
AcDbSymbolTableRecord
100
AcDbLayerTableRecord
  2
DEFAULT_2
 70
0
 62
8
  6
HIDDEN
370
-3
390
F
  0
LAYER
  5
1FC
100
AcDbSymbolTableRecord
100
AcDbLayerTableRecord
  2
DEFAULT_3
 70
0
 62
7
  6
PHANTOM
370
-3
390
F
  0
LAYER
  5
1FD
100
AcDbSymbolTableRecord
100
AcDbLayerTableRecord
  2
ALL_ASSEMBLY_MEMBERS
 70
0
 62
7
  6
CONTINUOUS
370
-3
390
F
  0
LAYER
  5
1FE
100
AcDbSymbolTableRecord
100
AcDbLayerTableRecord
  2
ALL_FEATURES
 70
0
 62
7
  6
CONTINUOUS
370
-3
390
F
  0
LAYER
  5
1FF
100
AcDbSymbolTableRecord
100
AcDbLayerTableRecord
  2
AXES_FEATURES
 70
0
 62
7
  6
CONTINUOUS
370
-3
390
F
  0
LAYER
  5
200
100
AcDbSymbolTableRecord
100
AcDbLayerTableRecord
  2
CHAMFER_FEATURES
 70
0
 62
7
  6
CONTINUOUS
370
-3
390
F
  0
LAYER
  5
201
100
AcDbSymbolTableRecord
100
AcDbLayerTableRecord
  2
CUT_FEATURES
 70
0
 62
7
  6
CONTINUOUS
370
-3
390
F
  0
LAYER
  5
202
100
AcDbSymbolTableRecord
100
AcDbLayerTableRecord
  2
DATUM_PLANES
 70
0
 62
7
  6
CONTINUOUS
370
-3
390
F
  0
LAYER
  5
203
100
AcDbSymbolTableRecord
100
AcDbLayerTableRecord
  2
DEFAULT_COORDINATE_SYSTEM
 70
0
 62
7
  6
CONTINUOUS
370
-3
390
F
  0
LAYER
  5
204
100
AcDbSymbolTableRecord
100
AcDbLayerTableRecord
  2
DEFAULT_DATUM_AXES
 70
0
 62
7
  6
CONTINUOUS
370
-3
390
F
  0
LAYER
  5
205
100
AcDbSymbolTableRecord
100
AcDbLayerTableRecord
  2
DEFAULT_DATUM_CURVES
 70
0
 62
7
  6
CONTINUOUS
370
-3
390
F
  0
LAYER
  5
206
100
AcDbSymbolTableRecord
100
AcDbLayerTableRecord
  2
DEFAULT_DATUM_PLANES
 70
0
 62
7
  6
CONTINUOUS
370
-3
390
F
  0
LAYER
  5
207
100
AcDbSymbolTableRecord
100
AcDbLayerTableRecord
  2
DIMENSIONS
 70
0
 62
7
  6
CONTINUOUS
370
-3
390
F
  0
LAYER
  5
208
100
AcDbSymbolTableRecord
100
AcDbLayerTableRecord
  2
PROTRUSION_FEATURES
 70
0
 62
7
  6
CONTINUOUS
370
-3
390
F
  0
LAYER
  5
209
100
AcDbSymbolTableRecord
100
AcDbLayerTableRecord
  2
QUILTS
 70
0
 62
7
  6
CONTINUOUS
370
-3
390
F
  0
LAYER
  5
20A
100
AcDbSymbolTableRecord
100
AcDbLayerTableRecord
  2
ROUND_FEATURES
 70
0
 62
7
  6
CONTINUOUS
370
-3
390
F
  0
LAYER
  5
20B
100
AcDbSymbolTableRecord
100
AcDbLayerTableRecord
  2
XSEC_DATUMS
 70
0
 62
7
  6
CONTINUOUS
370
-3
390
F
  0
ENDTAB
  0
TABLE
  2
STYLE
  5
3
100
AcDbSymbolTable
 70
1
  0
STYLE
  5
11
100
AcDbSymbolTableRecord
100
AcDbTextStyleTableRecord
  2
STANDARD
 70
0
 40
0.0
 41
0.8
 50
0.0
 71
0
 42
0.2
  3
txt
  4

  0
STYLE
  5
20C
100
AcDbSymbolTableRecord
100
AcDbTextStyleTableRecord
  2
TEXTSTYLE_1
 70
0
 40
0.0
 41
0.8
 50
0.0
 71
0
 42
0.2
  3
gdt
  4

  0
ENDTAB
  0
TABLE
  2
VIEW
  5
6
100
AcDbSymbolTable
 70
0
  0
ENDTAB
  0
TABLE
  2
UCS
  5
7
100
AcDbSymbolTable
 70
0
  0
ENDTAB
  0
TABLE
  2
APPID
  5
9
100
AcDbSymbolTable
 70
1
  0
APPID
  5
20D
100
AcDbSymbolTableRecord
100
AcDbRegAppTableRecord
  2
ACAD
 70
0
  0
ENDTAB
  0
TABLE
  2
BLOCK_RECORD
  5
1
100
AcDbSymbolTable
 70
0
  0
BLOCK_RECORD
  5
20E
100
AcDbSymbolTableRecord
100
AcDbBlockTableRecord
  2
*Model_Space
  0
BLOCK_RECORD
  5
20F
100
AcDbSymbolTableRecord
100
AcDbBlockTableRecord
  2
*Paper_Space
  0
BLOCK_RECORD
  5
210
100
AcDbSymbolTableRecord
100
AcDbBlockTableRecord
  2
_FILLED
  0
ENDTAB
  0
TABLE
  2
DIMSTYLE
  5
A
100
AcDbSymbolTable
 70
1
100
AcDbDimStyleTable
 71
0
  0
DIMSTYLE
105
211
100
AcDbSymbolTableRecord
100
AcDbDimStyleTableRecord
  2
STANDARD
 70
0
  3

  4

 40
1.0
 41
0.1
 42
0.0625
 43
0.38
 44
0.125
 45
0.0
 46
0.0
 47
0.001
 48
0.001
140
0.08
141
0.09
142
0.0
143
25.4
144
1.0
145
0.0
146
1.0
147
0.09
 71
1
 72
0
 73
1
 74
1
 75
0
 76
0
 77
0
 78
4
 79
1
170
1
171
2
172
0
173
0
174
0
175
0
176
0
177
0
178
0
270
2
179
3
271
3
272
3
273
2
274
2
275
0
280
0
281
0
282
0
283
1
284
4
285
0
286
0
287
3
288
0
340
11
278
46
341
210
342
210
343
210
344
210
  0
ENDTAB
  0
ENDSEC
  0
SECTION
  2
BLOCKS
  0
BLOCK
  5
20
100
AcDbEntity
  8
0
100
AcDbBlockBegin
  2
*Model_Space
 70
0
 10
0.0
 20
0.0
 30
0.0
  3
*Model_Space
  1

  0
ENDBLK
  5
21
100
AcDbEntity
  8
0
100
AcDbBlockEnd
  0
BLOCK
  5
1C
100
AcDbEntity
  8
0
100
AcDbBlockBegin
  2
*Paper_Space
 70
0
 10
0.0
 20
0.0
 30
0.0
  3
*Paper_Space
  1

  0
ENDBLK
  5
1D
100
AcDbEntity
  8
0
100
AcDbBlockEnd
  0
BLOCK
  5
212
100
AcDbEntity
  8
0
100
AcDbBlockBegin
  2
_FILLED
 70
64
 10
0.0
 20
0.0
  3
_FILLED
  1

  0
SOLID
  5
213
100
AcDbEntity
  8
0
  6
BYBLOCK
 62
0
100
AcDbTrace
 10
0.0
 20
0.0
 11
-1.0
 21
0.2
 12
-1.0
 22
-0.2
 13
-1.0
 23
-0.2
  0
ENDBLK
  5
214
100
AcDbEntity
  8
0
  6
BYBLOCK
 62
0
100
AcDbBlockEnd
  0
ENDSEC
  0
SECTION
  2
ENTITIES
  0
MTEXT
  5
215
100
AcDbEntity
  8
0
100
AcDbMText
 62
2
  6
CONTINUOUS
  7
STANDARD
 71
2
 72
1
 10
5.4036744505
 20
1.2960786647
 30
0.0
 11
1.0
 21
0.0
 31
0.0
 73
2
 44
0.9
  1
SCALE 1.000
 40
0.08
 41
0.704
  0
LINE
  5
216
100
AcDbEntity
  8
0
100
AcDbLine
 62
7
  6
CONTINUOUS
 10
0.0
 20
0.0
 11
0.0
 21
8.5
  0
LINE
  5
217
100
AcDbEntity
  8
0
100
AcDbLine
 62
7
  6
CONTINUOUS
 10
0.0
 20
0.0
 11
11.0
 21
0.0
  0
LINE
  5
218
100
AcDbEntity
  8
0
100
AcDbLine
 62
7
  6
CONTINUOUS
 10
0.0
 20
8.5
 11
11.0
 21
8.5
  0
LINE
  5
219
100
AcDbEntity
  8
0
100
AcDbLine
 62
7
  6
CONTINUOUS
 10
11.0
 20
0.0
 11
11.0
 21
8.5
  0
LINE
  5
21A
100
AcDbEntity
  8
ALL_ASSEMBLY_MEMBERS
100
AcDbLine
 62
7
  6
CONTINUOUS
 10
4.1250036642
 20
1.9973319039
 11
4.1525026496
 21
1.7478428144
  0
LINE
  5
21B
100
AcDbEntity
  8
ALL_ASSEMBLY_MEMBERS
100
AcDbLine
 62
7
  6
CONTINUOUS
 10
5.1966509591
 20
3.1935873592
 11
5.4476509591
 21
3.1935873592
  0
LINE
  5
21C
100
AcDbEntity
  8
ALL_ASSEMBLY_MEMBERS
100
AcDbLine
 62
7
  6
CONTINUOUS
 10
5.5146509591
 20
3.1935873592
 11
5.8896509591
 21
3.1935873592
  0
LINE
  5
21D
100
AcDbEntity
  8
ALL_ASSEMBLY_MEMBERS
100
AcDbLine
 62
7
  6
CONTINUOUS
 10
5.1966509591
 20
3.1935873592
 11
5.1966509591
 21
6.3725873592
  0
LINE
  5
21E
100
AcDbEntity
  8
ALL_FEATURES
100
AcDbLine
 62
7
  6
CONTINUOUS
 10
5.229910857
 20
6.4178619442
 11
5.2324009591
 21
6.3725873592
  0
LINE
  5
21F
100
AcDbEntity
  8
ALL_FEATURES
100
AcDbLine
 62
7
  6
CONTINUOUS
 10
5.2598166044
 20
6.9475873592
 11
5.2598179763
 21
6.9935892227
  0
LINE
  5
220
100
AcDbEntity
  8
ALL_FEATURES
100
AcDbLine
 62
7
  6
CONTINUOUS
 10
5.3848166044
 20
6.9475873592
 11
5.3848179762
 21
6.9935854947
  0
LINE
  5
221
100
AcDbEntity
  8
ALL_FEATURES
100
AcDbLine
 62
7
  6
CONTINUOUS
 10
5.4143910613
 20
6.4178619442
 11
5.4119009591
 21
6.3725873592
  0
LINE
  5
222
100
AcDbEntity
  8
ALL_ASSEMBLY_MEMBERS
100
AcDbLine
 62
7
  6
CONTINUOUS
 10
5.4476509591
 20
3.1935873592
 11
5.4476509591
 21
6.3725873592
  0
LINE
  5
223
100
AcDbEntity
  8
ALL_ASSEMBLY_MEMBERS
100
AcDbLine
 62
7
  6
CONTINUOUS
 10
5.5146509591
 20
3.1935873592
 11
5.5146509591
 21
6.3725873592
  0
LINE
  5
224
100
AcDbEntity
  8
ALL_FEATURES
100
AcDbLine
 62
7
  6
CONTINUOUS
 10
5.6395018362
 20
6.9935703632
 11
5.6395004648
 21
6.9475873592
  0
LINE
  5
225
100
AcDbEntity
  8
ALL_FEATURES
100
AcDbLine
 62
7
  6
CONTINUOUS
 10
5.8466034808
 20
6.4182075328
 11
5.8409009591
 21
6.3725873592
  0
LINE
  5
226
100
AcDbEntity
  8
ALL_FEATURES
100
AcDbLine
 62
7
  6
CONTINUOUS
 10
5.7645018361
 20
6.9935666352
 11
5.7645004649
 21
6.9475873592
  0
LINE
  5
227
100
AcDbEntity
  8
ALL_FEATURES
100
AcDbLine
 62
7
  6
CONTINUOUS
 10
5.5576984374
 20
6.4182075328
 11
5.5634009591
 21
6.3725873592
  0
LINE
  5
228
100
AcDbEntity
  8
ALL_ASSEMBLY_MEMBERS
100
AcDbLine
 62
7
  6
CONTINUOUS
 10
5.8896509591
 20
3.1935873592
 11
5.8896509591
 21
6.3725873592
  0
LINE
  5
229
100
AcDbEntity
  8
ALL_ASSEMBLY_MEMBERS
100
AcDbLine
 62
7
  6
CONTINUOUS
 10
6.8650066905
 20
1.6862160273
 11
6.9060908321
 21
2.058958691
  0
LINE
  5
22A
100
AcDbEntity
  8
ALL_ASSEMBLY_MEMBERS
100
AcDbLine
 62
7
  6
CONTINUOUS
 10
5.1966509591
 20
6.3725873592
 11
5.4476509591
 21
6.3725873592
  0
LINE
  5
22B
100
AcDbEntity
  8
ALL_ASSEMBLY_MEMBERS
100
AcDbLine
 62
7
  6
CONTINUOUS
 10
5.5146509591
 20
6.3725873592
 11
5.8896509591
 21
6.3725873592
  0
LINE
  5
22C
100
AcDbEntity
  8
ALL_FEATURES
100
AcDbLine
 62
7
  6
CONTINUOUS
 10
5.229910857
 20
6.4178619442
 11
5.4143910613
 21
6.4178619442
  0
LINE
  5
22D
100
AcDbEntity
  8
ALL_FEATURES
100
AcDbLine
 62
7
  6
CONTINUOUS
 10
5.8466034808
 20
6.4182075328
 11
5.5576984374
 21
6.4182075328
  0
LINE
  5
22E
100
AcDbEntity
  8
ALL_FEATURES
100
AcDbLine
 62
7
  6
CONTINUOUS
 10
3.901258069
 20
6.4225873592
 11
6.7430438493
 21
6.4225873592
  0
LINE
  5
22F
100
AcDbEntity
  8
ALL_FEATURES
100
AcDbLine
 62
7
  6
CONTINUOUS
 10
4.0575670221
 20
6.6010214767
 11
6.5867348961
 21
6.6010214767
  0
LINE
  5
230
100
AcDbEntity
  8
ALL_FEATURES
100
AcDbLine
 62
7
  6
CONTINUOUS
 10
4.3871509591
 20
6.9475873592
 11
6.2571509591
 21
6.9475873592
  0
LINE
  5
231
100
AcDbEntity
  8
ALL_FEATURES
100
AcDbLine
 62
7
  6
CONTINUOUS
 10
5.7645018361
 20
6.9935666352
 11
5.6395018362
 21
6.9935703632
  0
LINE
  5
232
100
AcDbEntity
  8
ALL_FEATURES
100
AcDbLine
 62
7
  6
CONTINUOUS
 10
5.2598179763
 20
6.9935892227
 11
5.3848179762
 21
6.9935854947
  0
ARC
  5
233
100
AcDbEntity
  8
ALL_ASSEMBLY_MEMBERS
100
AcDbCircle
 62
7
  6
CONTINUOUS
 10
7.0311509591
 20
3.1935873592
 40
1.5165
100
AcDbArc
 50
180.0
 51
263.7101798228
  0
ARC
  5
234
100
AcDbEntity
  8
ALL_ASSEMBLY_MEMBERS
100
AcDbCircle
 62
7
  6
CONTINUOUS
 10
3.9931509591
 20
3.1935873592
 40
1.4545
100
AcDbArc
 50
276.2898201772
 51
360.0
  0
ARC
  5
235
100
AcDbEntity
  8
ALL_ASSEMBLY_MEMBERS
100
AcDbCircle
 62
7
  6
CONTINUOUS
 10
3.9931509591
 20
3.1935873592
 40
1.2035
100
AcDbArc
 50
276.2898201772
 51
360.0
  0
ARC
  5
236
100
AcDbEntity
  8
ALL_ASSEMBLY_MEMBERS
100
AcDbCircle
 62
7
  6
CONTINUOUS
 10
7.0311509591
 20
3.1935873592
 40
1.1415
100
AcDbArc
 50
180.0
 51
263.7101798228
  0
ARC
  5
237
100
AcDbEntity
  8
ALL_FEATURES
100
AcDbCircle
 62
7
  6
CONTINUOUS
 10
4.3871509591
 20
6.6175873592
 40
0.33
100
AcDbArc
 50
90.0
 51
182.877437115
  0
ARC
  5
238
100
AcDbEntity
  8
ALL_FEATURES
100
AcDbCircle
 62
7
  6
CONTINUOUS
 10
6.2571509591
 20
6.6175873592
 40
0.33
100
AcDbArc
 50
357.122562885
 51
90.0
  0
ARC
  5
239
100
AcDbEntity
  8
ALL_FEATURES
100
AcDbCircle
 62
7
  6
CONTINUOUS
 10
4.081258069
 20
6.4225873592
 40
0.18
100
AcDbArc
 50
97.5630383368
 51
180.0
  0
ARC
  5
23A
100
AcDbEntity
  8
ALL_FEATURES
100
AcDbCircle
 62
7
  6
CONTINUOUS
 10
6.5630438493
 20
6.4225873592
 40
0.18
100
AcDbArc
 50
0.0
 51
82.4369616632
  0
ARC
  5
23B
100
AcDbEntity
  8
ALL_FEATURES
100
AcDbCircle
 62
7
  6
CONTINUOUS
 10
5.2249184023
 20
6.4175873592
 40
0.005
100
AcDbArc
 50
3.1480961
 51
89.9999999995
  0
ARC
  5
23C
100
AcDbEntity
  8
ALL_FEATURES
100
AcDbCircle
 62
7
  6
CONTINUOUS
 10
5.4193835159
 20
6.4175873592
 40
0.005
100
AcDbArc
 50
90.0000000006
 51
176.8519039
  0
ARC
  5
23D
100
AcDbEntity
  8
ALL_FEATURES
100
AcDbCircle
 62
7
  6
CONTINUOUS
 10
5.552737048
 20
6.4175873592
 40
0.005
100
AcDbArc
 50
7.1250163509
 51
89.9999999993
  0
ARC
  5
23E
100
AcDbEntity
  8
ALL_FEATURES
100
AcDbCircle
 62
7
  6
CONTINUOUS
 10
5.8515648702
 20
6.4175873592
 40
0.005
100
AcDbArc
 50
90.0000000007
 51
172.8749836491
  0
SPLINE
  5
23F
100
AcDbEntity
  8
ALL_FEATURES
100
AcDbSpline
 62
7
  6
CONTINUOUS
 70
0
 71
3
 72
35
 73
31
 74
0
 42
0.0000001
 43
0.0000001
 44
0.0000000001
 40
0.0
 40
0.0
 40
0.0
 40
0.0
 40
0.0291177579
 40
0.0582532223
 40
0.0874229554
 40
0.1166447686
 40
0.1459364649
 40
0.1753139663
 40
0.204795308
 40
0.2343980111
 40
0.2641370832
 40
0.2940291479
 40
0.324088788
 40
0.3543278722
 40
0.415373785
 40
0.4772629501
 40
0.5085476663
 40
0.540055834
 40
0.5717867412
 40
0.6037369592
 40
0.6682549039
 40
0.7008198845
 40
0.7335682109
 40
0.7664842355
 40
0.7995503004
 40
0.8660471253
 40
0.8994562384
 40
0.9329410511
 40
0.9664680175
 40
1.0
 40
1.0
 40
1.0
 40
1.0
 10
5.5121729374
 20
7.3010778883
 30
0.0
 10
5.516453225
 20
7.3010774987
 30
0.0
 10
5.5250186737
 20
7.3008137824
 30
0.0
 10
5.5378231377
 20
7.2996340866
 30
0.0
 10
5.5505474614
 20
7.2976735953
 30
0.0
 10
5.5631516404
 20
7.2949402409
 30
0.0
 10
5.5755987832
 20
7.2914486373
 30
0.0
 10
5.5878522634
 20
7.2872107835
 30
0.0
 10
5.5998782555
 20
7.2822444599
 30
0.0
 10
5.6116457363
 20
7.2765702853
 30
0.0
 10
5.6231241845
 20
7.2702069773
 30
0.0
 10
5.6342867274
 20
7.2631782737
 30
0.0
 10
5.6451088535
 20
7.2555079582
 30
0.0
 10
5.6590933529
 20
7.2444233627
 30
0.0
 10
5.6756136522
 20
7.2290611755
 30
0.0
 10
5.6906082563
 20
7.212007303
 30
0.0
 10
5.7016970506
 20
7.1974071162
 30
0.0
 10
5.7095746066
 20
7.1859547063
 30
0.0
 10
5.7169690957
 20
7.1740694522
 30
0.0
 10
5.7261961796
 20
7.1576321234
 30
0.0
 10
5.7343730287
 20
7.140485675
 30
0.0
 10
5.7414763299
 20
7.1227673414
 30
0.0
 10
5.746283366
 20
7.1091466253
 30
0.0
 10
5.7505450795
 20
7.0952687145
 30
0.0
 10
5.755499172
 20
7.0764308472
 30
0.0
 10
5.7593205132
 20
7.0572357352
 30
0.0
 10
5.7620026376
 20
7.0378079561
 30
0.0
 10
5.7634435896
 20
7.0231125105
 30
0.0
 10
5.7643092741
 20
7.0083545268
 30
0.0
 10
5.7645019832
 20
6.9984958104
 30
0.0
 10
5.7645018361
 20
6.9935666352
 30
0.0
  0
SPLINE
  5
240
100
AcDbEntity
  8
ALL_FEATURES
100
AcDbSpline
 62
7
  6
CONTINUOUS
 70
0
 71
3
 72
37
 73
33
 74
0
 42
0.0000001
 43
0.0000001
 44
0.0000000001
 40
0.0
 40
0.0
 40
0.0
 40
0.0
 40
0.0386624567
 40
0.0772970351
 40
0.1158278394
 40
0.1541834837
 40
0.1923101173
 40
0.2301585843
 40
0.2676795198
 40
0.3048203012
 40
0.3415275701
 40
0.3777495656
 40
0.4134380675
 40
0.4485460503
 40
0.4830283286
 40
0.5168445269
 40
0.5499558761
 40
0.5823260139
 40
0.6139276379
 40
0.6447364982
 40
0.7038842455
 40
0.7597460225
 40
0.7864769089
 40
0.8124439959
 40
0.8376823611
 40
0.8622398073
 40
0.8861947591
 40
0.9096282947
 40
0.932620298
 40
0.955269266
 40
0.9776906952
 40
1.0
 40
1.0
 40
1.0
 40
1.0
 10
5.3848179762
 20
6.9935854947
 30
0.0
 10
5.3848180703
 20
6.9967387335
 30
0.0
 10
5.3849363213
 20
7.0030435627
 30
0.0
 10
5.3854653276
 20
7.0124775251
 30
0.0
 10
5.3863440378
 20
7.0218603977
 30
0.0
 10
5.3875709123
 20
7.0311623258
 30
0.0
 10
5.3891399647
 20
7.0403562496
 30
0.0
 10
5.3910451088
 20
7.0494169376
 30
0.0
 10
5.3932803512
 20
7.0583190461
 30
0.0
 10
5.3958357788
 20
7.0670376542
 30
0.0
 10
5.3987012687
 20
7.0755476921
 30
0.0
 10
5.4018670087
 20
7.0838240267
 30
0.0
 10
5.4053186619
 20
7.0918434838
 30
0.0
 10
5.4090416906
 20
7.0995835529
 30
0.0
 10
5.4130221452
 20
7.107021771
 30
0.0
 10
5.4172415973
 20
7.1141384356
 30
0.0
 10
5.4216813531
 20
7.1209148976
 30
0.0
 10
5.4263237202
 20
7.1273326002
 30
0.0
 10
5.4311471343
 20
7.1333772491
 30
0.0
 10
5.4377007168
 20
7.1408205225
 30
0.0
 10
5.4462135565
 20
7.1491562
 30
0.0
 10
5.4552951705
 20
7.1563484548
 30
0.0
 10
5.4626799799
 20
7.1612402529
 30
0.0
 10
5.4681732988
 20
7.1644453262
 30
0.0
 10
5.4736857725
 20
7.1672449027
 30
0.0
 10
5.4792050324
 20
7.1696452648
 30
0.0
 10
5.4847220656
 20
7.1716544059
 30
0.0
 10
5.4902305258
 20
7.173281744
 30
0.0
 10
5.4957260238
 20
7.1745381498
 30
0.0
 10
5.5012088679
 20
7.1754299222
 30
0.0
 10
5.5066821857
 20
7.1759609432
 30
0.0
 10
5.5103314431
 20
7.1760779572
 30
0.0
 10
5.5121509489
 20
7.176077973
 30
0.0
  0
SPLINE
  5
241
100
AcDbEntity
  8
ALL_FEATURES
100
AcDbSpline
 62
7
  6
CONTINUOUS
 70
0
 71
3
 72
38
 73
34
 74
0
 42
0.0000001
 43
0.0000001
 44
0.0000000001
 40
0.0
 40
0.0
 40
0.0
 40
0.0
 40
0.0223104958
 40
0.0447332526
 40
0.0673815412
 40
0.0903698284
 40
0.1138024611
 40
0.1377584186
 40
0.1623148129
 40
0.1875493132
 40
0.2135155269
 40
0.2402461256
 40
0.2677744236
 40
0.2961242513
 40
0.3552697745
 40
0.3860771056
 40
0.4176778336
 40
0.450046924
 40
0.4831572026
 40
0.5169726763
 40
0.5514542782
 40
0.5865615983
 40
0.6222496066
 40
0.6584712039
 40
0.6951781811
 40
0.7323188493
 40
0.7698398155
 40
0.8076883514
 40
0.8458150742
 40
0.8841708868
 40
0.9227020283
 40
0.9613370748
 40
1.0
 40
1.0
 40
1.0
 40
1.0
 10
5.5121509489
 20
7.176077973
 30
0.0
 10
5.5139708348
 20
7.1760779888
 30
0.0
 10
5.5176208614
 20
7.1759614004
 30
0.0
 10
5.5230953185
 20
7.1754318544
 30
0.0
 10
5.5285790548
 20
7.1745416354
 30
0.0
 10
5.534075094
 20
7.1732855302
 30
0.0
 10
5.5395842679
 20
7.1716585367
 30
0.0
 10
5.5451024197
 20
7.16965004
 30
0.0
 10
5.550622689
 20
7.1672504575
 30
0.0
 10
5.5561359461
 20
7.164451273
 30
0.0
 10
5.5616299265
 20
7.1612463674
 30
0.0
 10
5.5670886881
 20
7.1576309995
 30
0.0
 10
5.5724939281
 20
7.1536013191
 30
0.0
 10
5.579703591
 20
7.1475912492
 30
0.0
 10
5.5866138104
 20
7.140826225
 30
0.0
 10
5.5931682166
 20
7.1333827503
 30
0.0
 10
5.5979923676
 20
7.127337386
 30
0.0
 10
5.6026355947
 20
7.1209191264
 30
0.0
 10
5.6070761479
 20
7.1141419436
 30
0.0
 10
5.6112961717
 20
7.1070243585
 30
0.0
 10
5.6152773046
 20
7.0995852079
 30
0.0
 10
5.619000943
 20
7.0918441133
 30
0.0
 10
5.6224530151
 20
7.0838234956
 30
0.0
 10
5.6256191884
 20
7.0755459557
 30
0.0
 10
5.6284850403
 20
7.0670346339
 30
0.0
 10
5.6310406721
 20
7.0583146443
 30
0.0
 10
5.6332760603
 20
7.0494111021
 30
0.0
 10
5.6351812666
 20
7.0403489395
 30
0.0
 10
5.6367502534
 20
7.0311535055
 30
0.0
 10
5.6379769629
 20
7.0218500346
 30
0.0
 10
5.6388554
 20
7.0124655841
 30
0.0
 10
5.6393840157
 20
7.0030300237
 30
0.0
 10
5.6395019303
 20
6.9967241305
 30
0.0
 10
5.6395018362
 20
6.9935703632
 30
0.0
  0
SPLINE
  5
242
100
AcDbEntity
  8
ALL_FEATURES
100
AcDbSpline
 62
7
  6
CONTINUOUS
 70
0
 71
3
 72
37
 73
33
 74
0
 42
0.0000001
 43
0.0000001
 44
0.0000000001
 40
0.0
 40
0.0
 40
0.0
 40
0.0
 40
0.0335316707
 40
0.0670582323
 40
0.1005424576
 40
0.133950784
 40
0.2004457326
 40
0.233510768
 40
0.2664256364
 40
0.2991726498
 40
0.331736218
 40
0.396251168
 40
0.4281997882
 40
0.4599290245
 40
0.4914354971
 40
0.5227184828
 40
0.5537794772
 40
0.5846229364
 40
0.6152556618
 40
0.6456853602
 40
0.6759230152
 40
0.7059809601
 40
0.7358711823
 40
0.7656090591
 40
0.795210321
 40
0.8246902654
 40
0.8540671424
 40
0.8833577605
 40
0.9125785384
 40
0.941747893
 40
0.9708827776
 40
1.0
 40
1.0
 40
1.0
 40
1.0
 10
5.2598179763
 20
6.9935892227
 30
0.0
 10
5.2598181233
 20
6.9985185818
 30
0.0
 10
5.260011435
 20
7.0083776411
 30
0.0
 10
5.2608780599
 20
7.0231360683
 30
0.0
 10
5.2623199877
 20
7.0378318474
 30
0.0
 10
5.2650034317
 20
7.0572598853
 30
0.0
 10
5.2688261475
 20
7.0764551021
 30
0.0
 10
5.2737816284
 20
7.0952929254
 30
0.0
 10
5.2780443477
 20
7.1091706979
 30
0.0
 10
5.2828524455
 20
7.1227911493
 30
0.0
 10
5.2899571
 20
7.1405089907
 30
0.0
 10
5.29813528
 20
7.1576548219
 30
0.0
 10
5.307363678
 20
7.174091336
 30
0.0
 10
5.3147590765
 20
7.1859760192
 30
0.0
 10
5.3226374406
 20
7.1974274265
 30
0.0
 10
5.330986177
 20
7.208417792
 30
0.0
 10
5.339789917
 20
7.2189205105
 30
0.0
 10
5.3490335801
 20
7.2289086508
 30
0.0
 10
5.3587009026
 20
7.2383553026
 30
0.0
 10
5.3687729597
 20
7.2472354052
 30
0.0
 10
5.3792308536
 20
7.2555227259
 30
0.0
 10
5.3900533995
 20
7.2631918236
 30
0.0
 10
5.4012164937
 20
7.2702196398
 30
0.0
 10
5.4126958071
 20
7.2765812602
 30
0.0
 10
5.4244637763
 20
7.2822544309
 30
0.0
 10
5.4364903124
 20
7.2872197428
 30
0.0
 10
5.4487446323
 20
7.2914556082
 30
0.0
 10
5.4611921882
 20
7.2949464196
 30
0.0
 10
5.4737969305
 20
7.2976784166
 30
0.0
 10
5.4865218863
 20
7.2996367317
 30
0.0
 10
5.4993267858
 20
7.3008156877
 30
0.0
 10
5.507892529
 20
7.301078278
 30
0.0
 10
5.5121729374
 20
7.3010778883
 30
0.0
  0
ENDSEC
  0
SECTION
  2
OBJECTS
  0
DICTIONARY
  5
C
100
AcDbDictionary
280
0
281
1
  3
ACAD_GROUP
350
D
  3
ACAD_MLINESTYLE
350
17
  3
ACAD_LAYOUT
350
1A
  3
ACAD_PLOTSETTINGS
350
19
  3
ACAD_PLOTSTYLENAME
350
E
  0
DICTIONARY
  5
D
102
{ACAD_REACTORS
330
C
102
}
100
AcDbDictionary
280
0
281
1
  0
ACDBDICTIONARYWDFLT
  5
E
102
{ACAD_REACTORS
330
C
102
}
100
AcDbDictionary
281
1
  3
Normal
350
F
100
AcDbDictionaryWithDefault
340
F
  0
DICTIONARY
  5
17
102
{ACAD_REACTORS
330
C
102
}
100
AcDbDictionary
280
0
281
1
  3
Standard
350
18
  0
DICTIONARY
  5
19
102
{ACAD_REACTORS
330
C
102
}
100
AcDbDictionary
281
1
  0
DICTIONARY
  5
1A
102
{ACAD_REACTORS
330
C
102
}
100
AcDbDictionary
281
1
  3
Model
350
243
  3
Layout1
350
244
  0
ACDBPLACEHOLDER
  5
F
102
{ACAD_REACTORS
330
E
102
}
  0
MLINESTYLE
  5
18
102
{ACAD_REACTORS
330
17
102
}
100
AcDbMlineStyle
  2
STANDARD
 70
0
  3

 62
256
 51
90.0
 52
90.0
 71
2
 49
0.5
 62
256
  6
BYLAYER
 49
-0.5
 62
256
  6
BYLAYER
  0
LAYOUT
  5
243
102
{ACAD_REACTORS
330
1A
102
}
100
AcDbPlotSettings
  1

  2
none_device
  4
ANSI_A_(11.00_x_8.50_Inches)
  6

 40
0.0
 41
0.0
 42
0.0
 43
0.0
 44
279.4
 45
215.9
 46
0.0
 47
0.0
 48
0.0
 49
0.0
140
0.0
141
0.0
142
1.0
143
1.0
 70
1024
 72
0
 73
0
 74
0
  7

 75
0
147
1.0
148
0.0
149
0.0
100
AcDbLayout
  1
Model
 70
0
 71
0
 10
0.0
 20
0.0
 11
11.0
 21
8.5
 12
0.0
 22
0.0
 32
0.0
 14
0.0
 24
0.0
 34
0.0
 15
0.0
 25
0.0
 35
0.0
146
0.0
 13
0.0
 23
0.0
 33
0.0
 16
1.0
 26
0.0
 36
0.0
 17
0.0
 27
1.0
 37
0.0
 76
0
330
20E
345
0
346
0
  0
LAYOUT
  5
244
102
{ACAD_REACTORS
330
1A
102
}
100
AcDbPlotSettings
  1

  2
none_device
  4
ANSI_A_(11.00_x_8.50_Inches)
  6

 40
0.0
 41
0.0
 42
0.0
 43
0.0
 44
279.4
 45
215.9
 46
0.0
 47
0.0
 48
0.0
 49
0.0
140
0.0
141
0.0
142
1.0
143
1.0
 70
0
 72
0
 73
0
 74
0
  7

 75
0
147
1.0
148
0.0
149
0.0
100
AcDbLayout
  1
Layout1
 70
0
 71
1
 10
0.0
 20
0.0
 11
11.0
 21
8.5
 12
0.0
 22
0.0
 32
0.0
 14
0.0
 24
0.0
 34
0.0
 15
0.0
 25
0.0
 35
0.0
146
0.0
 13
0.0
 23
0.0
 33
0.0
 16
1.0
 26
0.0
 36
0.0
 17
0.0
 27
1.0
 37
0.0
 76
0
330
20F
345
0
346
0
  0
ENDSEC
  0
EOF
