  0
SECTION
  2
HEADER
  9
$ACADVER
  1
AC1015
  9
$DWGCODEPAGE
  3
ANSI_1252
  9
$EXTMAX
 10
11.6929133858
 20
8.2677165354
 30
0.0
  9
$EXTMIN
 10
0.0
 20
0.0
 30
0.0
  9
$LIMMIN
 10
0.0
 20
0.0
  9
$LIMMAX
 10
11.6929133858
 20
8.2677165354
  9
$VIEWCTR
 10
5.8464566929
 20
4.1338582677
  9
$VIEWSIZE
 40
8.2677165354
  9
$CLAYER
  8
0
  9
$LTSCALE
 40
0.6431102362
  9
$CELTYPE
  6
BYLAYER
  9
$DIMSCALE
 40
1.0
  9
$DIMASZ
 40
0.1875
  9
$DIMEXO
 40
0.0730807087
  9
$DIMDLI
 40
0.4443307087
  9
$DIMEXE
 40
0.2104724409
  9
$DIMCEN
 40
0.1052362205
  9
$DIMLFAC
 40
1.0
  9
$DIMBLK
  1
_CLOSED
  9
$DIMTXT
 40
0.15625
  9
$DIMTOL
 70
0
  9
$DIMLIM
 70
0
  9
$DIMTFAC
 40
1.0
  9
$PDMODE
 70
3
  9
$PDSIZE
 40
0.3125
  9
$HANDSEED
  5
22F
  9
$TILEMODE
 70
1
  9
$MEASUREMENT
 70
0
  9
$INSUNITS
 70
1
  0
ENDSEC
  0
SECTION
  2
CLASSES
  0
CLASS
  1
ACDBDICTIONARYWDFLT
  2
AcDbDictionaryWithDefault
  3
AutoCAD 2000
 90
0
280
0
281
0
  0
CLASS
  1
ACDBPLACEHOLDER
  2
AcDbPlaceHolder
  3
AutoCAD 2000
 90
0
280
0
281
0
  0
CLASS
  1
LAYOUT
  2
AcDbLayout
  3
AutoCAD 2000
 90
0
280
0
281
0
  0
ENDSEC
  0
SECTION
  2
TABLES
  0
TABLE
  2
VPORT
  5
8
100
AcDbSymbolTable
 70
2
  0
VPORT
  5
1F4
100
AcDbSymbolTableRecord
100
AcDbViewportTableRecord
  2
*ACTIVE
 70
0
 10
0.0
 20
0.0
 11
1.0
 21
1.0
 12
5.8464566929
 22
4.1338582677
 13
0.0
 23
0.0
 14
1.0
 24
1.0
 15
0.0
 25
0.0
 16
0.0
 26
0.0
 36
1.0
 17
0.0
 27
0.0
 37
0.0
 40
8.2677165354
 41
1.4142857143
 42
50.0
 43
0.0
 44
0.0
 50
0.0
 51
0.0
 71
0
 72
100
 73
1
 74
1
 75
0
 76
0
 77
0
 78
0
  0
ENDTAB
  0
TABLE
  2
LTYPE
  5
5
100
AcDbSymbolTable
 70
6
  0
LTYPE
  5
14
100
AcDbSymbolTableRecord
100
AcDbLinetypeTableRecord
  2
BYBLOCK
 70
0
  3

 72
65
 73
0
 40
0.0
  0
LTYPE
  5
15
100
AcDbSymbolTableRecord
100
AcDbLinetypeTableRecord
  2
BYLAYER
 70
0
  3

 72
65
 73
0
 40
0.0
  0
LTYPE
  5
16
100
AcDbSymbolTableRecord
100
AcDbLinetypeTableRecord
  2
CONTINUOUS
 70
64
  3
Solid line
 72
65
 73
0
 40
0.0
  0
LTYPE
  5
1F5
100
AcDbSymbolTableRecord
100
AcDbLinetypeTableRecord
  2
CENTER
 70
64
  3
____ _ ____ _ ____ _ ____ _ ____ _ ____ _ ____
 72
65
 73
4
 40
0.6
 49
0.375
 74
0
 49
-0.075
 74
0
 49
0.075
 74
0
 49
-0.075
 74
0
  0
LTYPE
  5
1F6
100
AcDbSymbolTableRecord
100
AcDbLinetypeTableRecord
  2
HIDDEN
 70
64
  3
- - - - - - - - - - - - - - - - - - - -
 72
65
 73
2
 40
0.2
 49
0.1
 74
0
 49
-0.1
 74
0
  0
LTYPE
  5
1F7
100
AcDbSymbolTableRecord
100
AcDbLinetypeTableRecord
  2
PHANTOM
 70
64
  3
_____ _ _ _____ _ _ _____ _ _ _____
 72
65
 73
6
 40
0.8
 49
0.45
 74
0
 49
-0.05
 74
0
 49
0.1
 74
0
 49
-0.05
 74
0
 49
0.1
 74
0
 49
-0.05
 74
0
  0
LTYPE
  5
1F8
100
AcDbSymbolTableRecord
100
AcDbLinetypeTableRecord
  2
DOT
 70
64
  3
. . . . . . . . . . . . . . . . . . . .
 72
65
 73
2
 40
0.2
 49
0.1
 74
0
 49
-0.1
 74
0
  0
LTYPE
  5
1F9
100
AcDbSymbolTableRecord
100
AcDbLinetypeTableRecord
  2
DASHED
 70
64
  3
- - - - - - - - - - - - - - - - - - - -
 72
65
 73
2
 40
0.2
 49
0.1
 74
0
 49
-0.1
 74
0
  0
ENDTAB
  0
TABLE
  2
LAYER
  5
2
100
AcDbSymbolTable
 70
36
  0
LAYER
  5
10
100
AcDbSymbolTableRecord
100
AcDbLayerTableRecord
  2
0
 70
0
 62
7
  6
CONTINUOUS
370
-3
390
F
  0
LAYER
  5
1FA
100
AcDbSymbolTableRecord
100
AcDbLayerTableRecord
  2
DEFAULT_1
 70
0
 62
7
  6
CENTER
370
-3
390
F
  0
LAYER
  5
1FB
100
AcDbSymbolTableRecord
100
AcDbLayerTableRecord
  2
DEFAULT_2
 70
0
 62
8
  6
HIDDEN
370
-3
390
F
  0
LAYER
  5
1FC
100
AcDbSymbolTableRecord
100
AcDbLayerTableRecord
  2
DEFAULT_3
 70
0
 62
7
  6
PHANTOM
370
-3
390
F
  0
LAYER
  5
1FD
100
AcDbSymbolTableRecord
100
AcDbLayerTableRecord
  2
3_ALL_SYMBOLS
 70
0
 62
7
  6
CONTINUOUS
370
-3
390
F
  0
LAYER
  5
1FE
100
AcDbSymbolTableRecord
100
AcDbLayerTableRecord
  2
DEFAULT_COORDINATE_SYSTEM
 70
0
 62
7
  6
CONTINUOUS
370
-3
390
F
  0
LAYER
  5
1FF
100
AcDbSymbolTableRecord
100
AcDbLayerTableRecord
  2
DEFAULT_DATUM_AXES
 70
0
 62
7
  6
CONTINUOUS
370
-3
390
F
  0
LAYER
  5
200
100
AcDbSymbolTableRecord
100
AcDbLayerTableRecord
  2
DEFAULT_DATUM_CURVES
 70
0
 62
7
  6
CONTINUOUS
370
-3
390
F
  0
LAYER
  5
201
100
AcDbSymbolTableRecord
100
AcDbLayerTableRecord
  2
DEFAULT_DATUM_PLANES
 70
0
 62
7
  6
CONTINUOUS
370
-3
390
F
  0
ENDTAB
  0
TABLE
  2
STYLE
  5
3
100
AcDbSymbolTable
 70
1
  0
STYLE
  5
11
100
AcDbSymbolTableRecord
100
AcDbTextStyleTableRecord
  2
STANDARD
 70
0
 40
0.0
 41
0.8
 50
0.0
 71
0
 42
0.2
  3
txt
  4

  0
STYLE
  5
202
100
AcDbSymbolTableRecord
100
AcDbTextStyleTableRecord
  2
TEXTSTYLE_1
 70
0
 40
0.0
 41
0.8
 50
0.0
 71
0
 42
0.2
  3
gdt
  4

  0
ENDTAB
  0
TABLE
  2
VIEW
  5
6
100
AcDbSymbolTable
 70
0
  0
ENDTAB
  0
TABLE
  2
UCS
  5
7
100
AcDbSymbolTable
 70
0
  0
ENDTAB
  0
TABLE
  2
APPID
  5
9
100
AcDbSymbolTable
 70
1
  0
APPID
  5
203
100
AcDbSymbolTableRecord
100
AcDbRegAppTableRecord
  2
ACAD
 70
0
  0
ENDTAB
  0
TABLE
  2
BLOCK_RECORD
  5
1
100
AcDbSymbolTable
 70
0
  0
BLOCK_RECORD
  5
204
100
AcDbSymbolTableRecord
100
AcDbBlockTableRecord
  2
*Model_Space
  0
BLOCK_RECORD
  5
205
100
AcDbSymbolTableRecord
100
AcDbBlockTableRecord
  2
*Paper_Space
  0
ENDTAB
  0
TABLE
  2
DIMSTYLE
  5
A
100
AcDbSymbolTable
 70
1
100
AcDbDimStyleTable
 71
0
  0
DIMSTYLE
105
206
100
AcDbSymbolTableRecord
100
AcDbDimStyleTableRecord
  2
STANDARD
 70
0
  3

  4

 40
1.0
 41
0.1875
 42
0.0625
 43
0.38
 44
0.18
 45
0.0
 46
0.0
 47
0.01
 48
0.01
140
0.15625
141
0.09
142
0.0
143
25.4
144
1.0
145
0.0
146
1.0
147
0.09
 71
0.0
 72
0.0
 73
1
 74
1
 75
0
 76
0
 77
0
 78
4
170
0
171
2
172
0
173
0
174
0
175
0
176
0
177
0
178
0
270
2
271
2
272
2
273
2
274
2
275
0
280
0
281
0
282
0
283
1
284
4
285
0
286
0
287
3
288
0
340
11
  0
ENDTAB
  0
ENDSEC
  0
SECTION
  2
BLOCKS
  0
BLOCK
  5
20
100
AcDbEntity
  8
0
100
AcDbBlockBegin
  2
*Model_Space
 70
0
 10
0.0
 20
0.0
 30
0.0
  3
*Model_Space
  1

  0
ENDBLK
  5
21
100
AcDbEntity
  8
0
100
AcDbBlockEnd
  0
BLOCK
  5
1C
100
AcDbEntity
  8
0
100
AcDbBlockBegin
  2
*Paper_Space
 70
0
 10
0.0
 20
0.0
 30
0.0
  3
*Paper_Space
  1

  0
ENDBLK
  5
1D
100
AcDbEntity
  8
0
100
AcDbBlockEnd
  0
ENDSEC
  0
SECTION
  2
ENTITIES
  0
LINE
  5
207
100
AcDbEntity
  8
0
100
AcDbLine
 62
6
  6
CONTINUOUS
 10
4.590028512
 20
4.0082932848
 11
4.655347141
 21
4.0082932848
  0
LINE
  5
208
100
AcDbEntity
  8
0
100
AcDbLine
 62
6
  6
CONTINUOUS
 10
7.3368241164
 20
4.2562932848
 11
6.9575972565
 21
4.2562932848
  0
LINE
  5
209
100
AcDbEntity
  8
0
100
AcDbLine
 62
6
  6
CONTINUOUS
 10
5.7339183937
 20
4.1822223486
 11
6.1136022539
 21
4.491964445
  0
LINE
  5
20A
100
AcDbEntity
  8
0
100
AcDbLine
 62
6
  6
CONTINUOUS
 10
5.8129342347
 20
4.085364221
 11
6.1926180948
 21
4.3951063175
  0
LINE
  5
20B
100
AcDbEntity
  8
0
100
AcDbLine
 62
6
  6
CONTINUOUS
 10
7.3368241164
 20
4.6312932848
 11
6.9575972565
 21
4.6312932848
  0
CIRCLE
  5
20C
100
AcDbEntity
  8
0
100
AcDbCircle
 62
6
  6
CONTINUOUS
 10
5.3534263142
 20
4.4437932848
 40
0.164
  0
ARC
  5
20D
100
AcDbEntity
  8
0
100
AcDbCircle
 62
6
  6
CONTINUOUS
 10
5.7636163579
 20
4.1340063954
 40
0.1062227573
100
AcDbArc
 50
82.5854099353
 51
91.7188377005
  0
ARC
  5
20E
100
AcDbEntity
  8
0
100
AcDbCircle
 62
7
  6
CONTINUOUS
 10
5.7734263142
 20
4.1337932848
 40
0.1055
100
AcDbArc
 50
75.66297568
 51
87.1885483543
  0
ARC
  5
20F
100
AcDbEntity
  8
0
100
AcDbCircle
 62
7
  6
CONTINUOUS
 10
5.7734263142
 20
4.1337932848
 40
0.1055
100
AcDbArc
 50
314.1564861785
 51
2.8499933355
  0
ARC
  5
210
100
AcDbEntity
  8
0
100
AcDbCircle
 62
7
  6
CONTINUOUS
 10
5.7770321916
 20
4.1339208491
 40
0.1053824751
100
AcDbArc
 50
89.8506061928
 51
99.0873540798
  0
ARC
  5
211
100
AcDbEntity
  8
0
100
AcDbCircle
 62
6
  6
CONTINUOUS
 10
5.7734263142
 20
4.1337932848
 40
0.105
100
AcDbArc
 50
75.7505326974
 51
97.1330436876
  0
ARC
  5
212
100
AcDbEntity
  8
0
100
AcDbCircle
 62
6
  6
CONTINUOUS
 10
5.7734263142
 20
4.1337932848
 40
0.105
100
AcDbArc
 50
161.1496415353
 51
2.8434813255
  0
ARC
  5
213
100
AcDbEntity
  8
0
100
AcDbCircle
 62
6
  6
CONTINUOUS
 10
5.763812166
 20
4.135805261
 40
0.1044136714
100
AcDbArc
 50
81.8574050783
 51
82.564574632
  0
ARC
  5
214
100
AcDbEntity
  8
0
100
AcDbCircle
 62
6
  6
CONTINUOUS
 10
5.7734263142
 20
4.1337932848
 40
0.065
100
AcDbArc
 50
114.4043811137
 51
324.8547504984
  0
ARC
  5
215
100
AcDbEntity
  8
0
100
AcDbCircle
 62
9
  6
CONTINUOUS
 10
5.7734263142
 20
4.1337932848
 40
0.0625
100
AcDbArc
 50
129.207203505
 51
309.207203505
  0
ARC
  5
216
100
AcDbEntity
  8
0
100
AcDbCircle
 62
6
  6
CONTINUOUS
 10
5.9134263142
 20
4.2137932848
 40
0.3125
100
AcDbArc
 50
72.296416915
 51
15.2658326148
  0
CIRCLE
  5
217
100
AcDbEntity
  8
0
100
AcDbCircle
 62
6
  6
CONTINUOUS
 10
5.7734263142
 20
4.4437932848
 40
1.2
  0
CIRCLE
  5
218
100
AcDbEntity
  8
0
100
AcDbCircle
 62
6
  6
CONTINUOUS
 10
5.7734263142
 20
4.4437932848
 40
1.0495496744
  0
CIRCLE
  5
219
100
AcDbEntity
  8
0
100
AcDbCircle
 62
9
  6
CONTINUOUS
 10
5.7734263142
 20
4.4437932848
 40
0.812
  0
CIRCLE
  5
21A
100
AcDbEntity
  8
0
100
AcDbCircle
 62
6
  6
CONTINUOUS
 10
5.7734263142
 20
4.4437932848
 40
0.741
  0
ARC
  5
21B
100
AcDbEntity
  8
0
100
AcDbCircle
 62
6
  6
CONTINUOUS
 10
6.1534263142
 20
4.4437932848
 40
0.16
100
AcDbArc
 50
242.3179648348
 51
196.098407203
  0
ARC
  5
21C
100
AcDbEntity
  8
0
100
AcDbCircle
 62
6
  6
CONTINUOUS
 10
6.1534263142
 20
4.4437932848
 40
0.153
100
AcDbArc
 50
243.405654609
 51
194.9987802704
  0
ARC
  5
21D
100
AcDbEntity
  8
0
100
AcDbCircle
 62
6
  6
CONTINUOUS
 10
6.1534263142
 20
4.4437932848
 40
0.083
100
AcDbArc
 50
268.4010789389
 51
170.1512408145
  0
ARC
  5
21E
100
AcDbEntity
  8
0
100
AcDbCircle
 62
9
  6
CONTINUOUS
 10
6.1531101744
 20
4.4435353812
 40
0.0625
100
AcDbArc
 50
309.207203505
 51
129.207203505
  0
CIRCLE
  5
21F
100
AcDbEntity
  8
0
100
AcDbCircle
 62
6
  6
CONTINUOUS
 10
5.7734263142
 20
4.7937932848
 40
0.2345
  0
SPLINE
  5
220
100
AcDbEntity
  8
0
100
AcDbSpline
 62
6
  6
CONTINUOUS
 70
0
 71
3
 72
35
 73
31
 74
29
 42
0.0000001
 43
0.0000001
 44
0.0000000001
 12
-0.1024547209
 22
-0.0744606277
 32
0.0
 13
0.0
 23
-0.1266544705
 33
0.0
 40
0.0
 40
0.0
 40
0.0
 40
0.0
 40
0.003279649
 40
0.0069217525
 40
0.0109642261
 40
0.0154338172
 40
0.0203481068
 40
0.0257191401
 40
0.031555179
 40
0.0378617798
 40
0.0518982386
 40
0.0678435877
 40
0.085697049
 40
0.1054489531
 40
0.1270722172
 40
0.1505243629
 40
0.1757597759
 40
0.20273099
 40
0.2313892207
 40
0.2616845048
 40
0.2935568748
 40
0.326933247
 40
0.3978990266
 40
0.4739825623
 40
0.5545625014
 40
0.6389672608
 40
0.7265152581
 40
0.8164740689
 40
0.907946284
 40
1.0
 40
1.0
 40
1.0
 40
1.0
 10
4.5889346372
 20
4.258894467
 30
0.0
 10
4.588822632
 20
4.2588130654
 30
0.0
 10
4.588598699
 20
4.2586238567
 30
0.0
 10
4.5882806756
 20
4.2582865303
 30
0.0
 10
4.5879640199
 20
4.2578819934
 30
0.0
 10
4.5876487791
 20
4.2574103955
 30
0.0
 10
4.5873348581
 20
4.2568719788
 30
0.0
 10
4.5870223723
 20
4.2562670643
 30
0.0
 10
4.5867114307
 20
4.2555960152
 30
0.0
 10
4.5862837354
 20
4.2545766718
 30
0.0
 10
4.5857596924
 20
4.2531361166
 30
0.0
 10
4.5851594368
 20
4.2512073216
 30
0.0
 10
4.5845689278
 20
4.2490245298
 30
0.0
 10
4.5839898069
 20
4.2465916729
 30
0.0
 10
4.5834233851
 20
4.243913789
 30
0.0
 10
4.5828707414
 20
4.2409971029
 30
0.0
 10
4.5823331714
 20
4.2378483355
 30
0.0
 10
4.581811915
 20
4.2344742724
 30
0.0
 10
4.5813081924
 20
4.2308817259
 30
0.0
 10
4.5808233241
 20
4.2270779132
 30
0.0
 10
4.5803584024
 20
4.2230710244
 30
0.0
 10
4.5797537903
 20
4.2173520879
 30
0.0
 10
4.579060201
 20
4.2097660683
 30
0.0
 10
4.5783369848
 20
4.2001828956
 30
0.0
 10
4.5777143504
 20
4.1900241952
 30
0.0
 10
4.5771966661
 20
4.1793750477
 30
0.0
 10
4.576789009
 20
4.1683249025
 30
0.0
 10
4.5764960463
 20
4.1569726622
 30
0.0
 10
4.5763188533
 20
4.1454278072
 30
0.0
 10
4.5762790193
 20
4.137679623
 30
0.0
 10
4.5762790193
 20
4.1337932848
 30
0.0
 11
4.5889346372
 21
4.258894467
 31
0.0
 11
4.5886156255
 21
4.2586284333
 31
0.0
 11
4.5882973847
 21
4.2582945021
 31
0.0
 11
4.5879800893
 21
4.2578926751
 31
0.0
 11
4.5876639115
 21
4.2574231076
 31
0.0
 11
4.5873490189
 21
4.2568862228
 31
0.0
 11
4.5870355792
 21
4.2562824708
 31
0.0
 11
4.5867237596
 21
4.2556123017
 31
0.0
 11
4.5864137276
 21
4.2548761655
 31
0.0
 11
4.5857996963
 21
4.2532077926
 31
0.0
 11
4.5851948246
 21
4.2512809528
 31
0.0
 11
4.584600452
 21
4.2490992471
 31
0.0
 11
4.5840179141
 21
4.2466663502
 31
0.0
 11
4.5834484658
 21
4.2439875233
 31
0.0
 11
4.5828932848
 21
4.2410695497
 31
0.0
 11
4.5823535453
 21
4.2379192745
 31
0.0
 11
4.5818304217
 21
4.2345435423
 31
0.0
 11
4.5813250884
 21
4.2309491982
 31
0.0
 11
4.5808387173
 21
4.2271431153
 31
0.0
 11
4.5803723746
 21
4.2231333644
 31
0.0
 11
4.5799269844
 21
4.2189296266
 31
0.0
 11
4.5791027185
 21
4.2099793682
 31
0.0
 11
4.5783732319
 21
4.2003706997
 31
0.0
 11
4.5777451998
 21
4.190184232
 31
0.0
 11
4.5772235558
 21
4.1795067266
 31
0.0
 11
4.5768129392
 21
4.1684259869
 31
0.0
 11
4.5765173766
 21
4.1570361355
 31
0.0
 11
4.5763388735
 21
4.1454521458
 31
0.0
 11
4.5762790193
 21
4.1337932848
 31
0.0
  0
SPLINE
  5
221
100
AcDbEntity
  8
0
100
AcDbSpline
 62
6
  6
CONTINUOUS
 70
0
 71
3
 72
41
 73
37
 74
35
 42
0.0000001
 43
0.0000001
 44
0.0000000001
 12
0.0
 22
0.146117793
 32
0.0
 13
0.146117793
 23
0.0
 33
0.0
 40
0.0
 40
0.0
 40
0.0
 40
0.0
 40
0.0398534693
 40
0.0597863035
 40
0.0796832288
 40
0.0995126324
 40
0.1192490493
 40
0.1388946766
 40
0.1584524515
 40
0.1972806461
 40
0.2356662303
 40
0.2735922709
 40
0.3110585914
 40
0.3296090821
 40
0.3480307821
 40
0.3844855344
 40
0.4204146581
 40
0.4557938294
 40
0.4905971252
 40
0.5247994893
 40
0.5583704726
 40
0.591276963
 40
0.6234852796
 40
0.6549600948
 40
0.7155515799
 40
0.7445964806
 40
0.7727542986
 40
0.7999854152
 40
0.826253891
 40
0.8515286919
 40
0.8757848776
 40
0.8990070481
 40
0.9211923073
 40
0.9423511356
 40
0.9625078276
 40
1.0
 40
1.0
 40
1.0
 40
1.0
 10
6.7000787489
 20
4.4437932848
 30
0.0
 10
6.7000787489
 20
4.4457343851
 30
0.0
 10
6.7002266921
 20
4.4486487066
 30
0.0
 10
6.7006968966
 20
4.4525020103
 30
0.0
 10
6.7011808019
 20
4.4553683055
 30
0.0
 10
6.7017905018
 20
4.4582005423
 30
0.0
 10
6.7025211127
 20
4.4609913297
 30
0.0
 10
6.7033630324
 20
4.463736644
 30
0.0
 10
6.7046185352
 20
4.4673247296
 30
0.0
 10
6.7064179312
 20
4.4716854853
 30
0.0
 10
6.7088827547
 20
4.4767263029
 30
0.0
 10
6.7115947711
 20
4.4815619848
 30
0.0
 10
6.714029542
 20
4.4854380061
 30
0.0
 10
6.7160560999
 20
4.4884445738
 30
0.0
 10
6.7181141142
 20
4.4913696739
 30
0.0
 10
6.7207627237
 20
4.4949130473
 30
0.0
 10
6.7240510012
 20
4.4990052038
 30
0.0
 10
6.7274130089
 20
4.5029315037
 30
0.0
 10
6.7308305274
 20
4.5066966216
 30
0.0
 10
6.734289634
 20
4.5103023745
 30
0.0
 10
6.7377753022
 20
4.5137522458
 30
0.0
 10
6.7412757053
 20
4.5170469584
 30
0.0
 10
6.7447814823
 20
4.520184913
 30
0.0
 10
6.7493907998
 20
4.5241087892
 30
0.0
 10
6.7540244632
 20
4.5277644802
 30
0.0
 10
6.7586734639
 20
4.5311275595
 30
0.0
 10
6.7620746614
 20
4.5334404066
 30
0.0
 10
6.7654328974
 20
4.535572545
 30
0.0
 10
6.7687413154
 20
4.5375171621
 30
0.0
 10
6.7719929774
 20
4.539267544
 30
0.0
 10
6.7751819557
 20
4.540815148
 30
0.0
 10
6.7783025007
 20
4.5421511201
 30
0.0
 10
6.7813484659
 20
4.5432665212
 30
0.0
 10
6.7843145345
 20
4.544152465
 30
0.0
 10
6.7880604959
 20
4.5449945783
 30
0.0
 10
6.7908724436
 20
4.5452932848
 30
0.0
 10
6.7926985348
 20
4.5452932848
 30
0.0
 11
6.7000787489
 21
4.4437932848
 31
0.0
 11
6.7003670128
 21
4.4496094466
 31
0.0
 11
6.7007191566
 21
4.4525006218
 31
0.0
 11
6.7012026985
 21
4.4553674232
 31
0.0
 11
6.7018121813
 21
4.4582000234
 31
0.0
 11
6.7025414747
 21
4.4609901263
 31
0.0
 11
6.7033820599
 21
4.4637348706
 31
0.0
 11
6.7043248889
 21
4.4664326002
 31
0.0
 11
6.7064810852
 21
4.4716803909
 31
0.0
 11
6.7089394889
 21
4.4767217278
 31
0.0
 11
6.7116454418
 21
4.4815578335
 31
0.0
 11
6.7145525469
 21
4.4861966746
 31
0.0
 11
6.7160670844
 21
4.4884446279
 31
0.0
 11
6.7176157318
 21
4.4906462513
 31
0.0
 11
6.7208027682
 21
4.4949143192
 31
0.0
 11
6.7240889583
 21
4.4990084906
 31
0.0
 11
6.7274500866
 21
4.5029361896
 31
0.0
 11
6.7308674487
 21
4.5067021867
 31
0.0
 11
6.7343264453
 21
4.5103092753
 31
0.0
 11
6.737812699
 21
4.5137600984
 31
0.0
 11
6.7413141958
 21
4.5170553275
 31
0.0
 11
6.7448210422
 21
4.520193866
 31
0.0
 11
6.7483234566
 21
4.5231744994
 31
0.0
 11
6.7552808817
 21
4.5286497705
 31
0.0
 11
6.7587204976
 21
4.5311358077
 31
0.0
 11
6.7621240657
 21
4.5334474452
 31
0.0
 11
6.7654845834
 21
4.5355779308
 31
0.0
 11
6.7687950914
 21
4.5375203572
 31
0.0
 11
6.7720487284
 21
4.5392675893
 31
0.0
 11
6.7752391961
 21
4.5408111879
 31
0.0
 11
6.7783603963
 21
4.5421422505
 31
0.0
 11
6.78140623
 21
4.5432518738
 31
0.0
 11
6.7843702699
 21
4.5441310558
 31
0.0
 11
6.7872452584
 21
4.5447705451
 31
0.0
 11
6.7926985348
 21
4.5452932848
 31
0.0
  0
SPLINE
  5
222
100
AcDbEntity
  8
0
100
AcDbSpline
 62
6
  6
CONTINUOUS
 70
0
 71
3
 72
39
 73
35
 74
33
 42
0.0000001
 43
0.0000001
 44
0.0000000001
 12
-0.1461155776
 22
0.0
 32
0.0
 13
0.0
 23
0.1461155776
 33
0.0
 40
0.0
 40
0.0
 40
0.0
 40
0.0
 40
0.0374927099
 40
0.0576493239
 40
0.0788080631
 40
0.1009935084
 40
0.1242163399
 40
0.1484735527
 40
0.1737496263
 40
0.2000195552
 40
0.2272523013
 40
0.2554119008
 40
0.284458688
 40
0.345054189
 40
0.3765312257
 40
0.4087417575
 40
0.4416503925
 40
0.4752235336
 40
0.5094282633
 40
0.5442336823
 40
0.5796145482
 40
0.6155463732
 40
0.6889588267
 40
0.7264283609
 40
0.7643576062
 40
0.8027380001
 40
0.8415643199
 40
0.8611225522
 40
0.8807672685
 40
0.900499626
 40
0.9203230502
 40
0.9402159783
 40
0.9601466807
 40
1.0
 40
1.0
 40
1.0
 40
1.0
 10
6.7926985348
 20
4.3422932848
 30
0.0
 10
6.7908724452
 20
4.3422932848
 30
0.0
 10
6.7880605156
 20
4.3425919583
 30
0.0
 10
6.7843145891
 20
4.343434048
 30
0.0
 10
6.781348565
 20
4.3443199812
 30
0.0
 10
6.7783026183
 20
4.3454353978
 30
0.0
 10
6.775182044
 20
4.3467714025
 30
0.0
 10
6.7719929878
 20
4.3483190522
 30
0.0
 10
6.7687411999
 20
4.3500694674
 30
0.0
 10
6.7654326443
 20
4.3520141551
 30
0.0
 10
6.76207427
 20
4.3541464057
 30
0.0
 10
6.7586729274
 20
4.3564593875
 30
0.0
 10
6.754023708
 20
4.3598226535
 30
0.0
 10
6.749389796
 20
4.3634785274
 30
0.0
 10
6.7447803252
 20
4.3674027168
 30
0.0
 10
6.7412743348
 20
4.3705408046
 30
0.0
 10
6.7377737433
 20
4.3738356781
 30
0.0
 10
6.7342881071
 20
4.3772859352
 30
0.0
 10
6.7308287548
 20
4.3808917989
 30
0.0
 10
6.7274109915
 20
4.3846569722
 30
0.0
 10
6.7240492603
 20
4.3885839494
 30
0.0
 10
6.7196332527
 20
4.3940790125
 30
0.0
 10
6.7154497568
 20
4.3998886159
 30
0.0
 10
6.711593275
 20
4.4060278582
 30
0.0
 10
6.7088806476
 20
4.410863312
 30
0.0
 10
6.7064164485
 20
4.4159041235
 30
0.0
 10
6.7046179912
 20
4.4202648378
 30
0.0
 10
6.7033626575
 20
4.423852795
 30
0.0
 10
6.7025206919
 20
4.4265978159
 30
0.0
 10
6.7017897695
 20
4.4293879212
 30
0.0
 10
6.7011797998
 20
4.4322193616
 30
0.0
 10
6.7006961159
 20
4.4350850573
 30
0.0
 10
6.7002263425
 20
4.43893805
 30
0.0
 10
6.7000787489
 20
4.4418522212
 30
0.0
 10
6.7000787489
 20
4.4437932848
 30
0.0
 11
6.7926985348
 21
4.3422932848
 31
0.0
 11
6.78724526
 21
4.3428159933
 31
0.0
 11
6.7843703237
 21
4.3434554593
 31
0.0
 11
6.781406342
 21
4.3443346269
 31
0.0
 11
6.7783605347
 21
4.3454442584
 31
0.0
 11
6.7752392995
 21
4.346775354
 31
0.0
 11
6.7720487463
 21
4.3483189972
 31
0.0
 11
6.7687949851
 21
4.3500662727
 31
0.0
 11
6.7654843401
 21
4.3520087701
 31
0.0
 11
6.7621236812
 21
4.3541393651
 31
0.0
 11
6.7587199641
 21
4.3564511354
 31
0.0
 11
6.7552801867
 21
4.3589373099
 31
0.0
 11
6.748322433
 21
4.3644128953
 31
0.0
 11
6.7448198688
 21
4.3673937459
 31
0.0
 11
6.7413128262
 21
4.3705324435
 31
0.0
 11
6.7378111766
 21
4.3738278612
 31
0.0
 11
6.7343248779
 21
4.3772789813
 31
0.0
 11
6.730865666
 21
4.3808862372
 31
0.0
 11
6.7274481422
 21
4.3846524024
 31
0.0
 11
6.7240871833
 21
4.3885804692
 31
0.0
 11
6.7208007271
 21
4.392674831
 31
0.0
 11
6.714550954
 21
4.4013927719
 31
0.0
 11
6.7116438094
 21
4.4060320445
 31
0.0
 11
6.708937378
 21
4.4108683228
 31
0.0
 11
6.7064797329
 21
4.4159090912
 31
0.0
 11
6.7043243719
 21
4.4211568359
 31
0.0
 11
6.7033816292
 21
4.4238546206
 31
0.0
 11
6.7025409541
 21
4.4265991527
 31
0.0
 11
6.7018114285
 21
4.4293885365
 31
0.0
 11
6.701201799
 21
4.4322201665
 31
0.0
 11
6.7007184141
 21
4.4350863574
 31
0.0
 11
6.7003665777
 21
4.4379772118
 31
0.0
 11
6.7000787489
 21
4.4437932848
 31
0.0
  0
SPLINE
  5
223
100
AcDbEntity
  8
0
100
AcDbSpline
 62
6
  6
CONTINUOUS
 70
0
 71
3
 72
38
 73
34
 74
32
 42
0.0000001
 43
0.0000001
 44
0.0000000001
 12
0.1909910637
 22
0.0
 32
0.0
 13
0.0
 23
0.1909910637
 33
0.0
 40
0.0
 40
0.0
 40
0.0
 40
0.0
 40
0.0026559845
 40
0.005438406
 40
0.0084578621
 40
0.0118015161
 40
0.0155338926
 40
0.0197009504
 40
0.0243335838
 40
0.0294528475
 40
0.0350732584
 40
0.0412047992
 40
0.0478542578
 40
0.0550261291
 40
0.0627232323
 40
0.0709471397
 40
0.0889753448
 40
0.109094205
 40
0.1312680043
 40
0.1554557541
 40
0.1816131554
 40
0.2096924365
 40
0.239631261
 40
0.2713582076
 40
0.3048007855
 40
0.3765371298
 40
0.4541830054
 40
0.5369855282
 40
0.624175755
 40
0.7149520276
 40
0.808497059
 40
0.9038712405
 40
1.0
 40
1.0
 40
1.0
 40
1.0
 10
7.3368241164
 20
4.2562949874
 30
0.0
 10
7.3369932062
 20
4.2562949874
 30
0.0
 10
7.3373405553
 20
4.256334739
 30
0.0
 10
7.3378531612
 20
4.2565107219
 30
0.0
 10
7.3383613841
 20
4.2568006612
 30
0.0
 10
7.3388654979
 20
4.2572026104
 30
0.0
 10
7.3393665045
 20
4.2577158624
 30
0.0
 10
7.3398649
 20
4.2583402132
 30
0.0
 10
7.3403610816
 20
4.2590753146
 30
0.0
 10
7.3408550488
 20
4.2599208115
 30
0.0
 10
7.3413466512
 20
4.2608762661
 30
0.0
 10
7.3418356537
 20
4.2619411882
 30
0.0
 10
7.3423217834
 20
4.2631150393
 30
0.0
 10
7.3428047418
 20
4.2643972471
 30
0.0
 10
7.3432842453
 20
4.2657872105
 30
0.0
 10
7.3439387601
 20
4.267847245
 30
0.0
 10
7.3447390223
 20
4.2706897183
 30
0.0
 10
7.3456544428
 20
4.274419815
 30
0.0
 10
7.3465497941
 20
4.2785568797
 30
0.0
 10
7.3474227175
 20
4.2830907701
 30
0.0
 10
7.3482708735
 20
4.2880112684
 30
0.0
 10
7.3490917493
 20
4.2933071721
 30
0.0
 10
7.3498834908
 20
4.2989657328
 30
0.0
 10
7.3506443439
 20
4.3049728437
 30
0.0
 10
7.3516384343
 20
4.3136320657
 30
0.0
 10
7.3527787402
 20
4.3252162027
 30
0.0
 10
7.3539669059
 20
4.3399507259
 30
0.0
 10
7.3549939976
 20
4.3556833813
 30
0.0
 10
7.3558479966
 20
4.372263388
 30
0.0
 10
7.3565217598
 20
4.3895360946
 30
0.0
 10
7.3570074027
 20
4.4073363083
 30
0.0
 10
7.3573003704
 20
4.4254814901
 30
0.0
 10
7.3573661872
 20
4.4376733734
 30
0.0
 10
7.3573661872
 20
4.4437932848
 30
0.0
 11
7.3368241164
 21
4.2562949874
 31
0.0
 11
7.3373282478
 21
4.2563513228
 31
0.0
 11
7.3378320748
 21
4.256520329
 31
0.0
 11
7.3383352928
 21
4.256802006
 31
0.0
 11
7.3388375975
 21
4.2571963538
 31
0.0
 11
7.3393386844
 21
4.2577033724
 31
0.0
 11
7.3398382509
 21
4.2583229236
 31
0.0
 11
7.3403360002
 21
4.2590544301
 31
0.0
 11
7.3408316366
 21
4.2598972276
 31
0.0
 11
7.3413248647
 21
4.2608506515
 31
0.0
 11
7.3418153888
 21
4.2619140376
 31
0.0
 11
7.3423029133
 21
4.2630867214
 31
0.0
 11
7.3427871426
 21
4.2643680385
 31
0.0
 11
7.343267781
 21
4.2657573246
 31
0.0
 11
7.3437445331
 21
4.2672539152
 31
0.0
 11
7.3446852035
 21
4.2705661568
 31
0.0
 11
7.3456069111
 21
4.2742964965
 31
0.0
 11
7.3465074972
 21
4.27843463
 31
0.0
 11
7.3473848053
 21
4.2829702051
 31
0.0
 11
7.3482366786
 21
4.2878928699
 31
0.0
 11
7.349060979
 21
4.2931920337
 31
0.0
 11
7.3498557639
 21
4.2988545763
 31
0.0
 11
7.3506192087
 21
4.304865854
 31
0.0
 11
7.3513494902
 21
4.311211202
 31
0.0
 11
7.3527033046
 21
4.3248451525
 31
0.0
 11
7.3539040777
 21
4.339626127
 31
0.0
 11
7.3549406045
 21
4.355406664
 31
0.0
 11
7.3558023613
 21
4.3720369056
 31
0.0
 11
7.3564815739
 21
4.3893610529
 31
0.0
 11
7.3569714072
 21
4.4072206019
 31
0.0
 11
7.3572671008
 21
4.4254338181
 31
0.0
 11
7.3573661872
 21
4.4437932848
 31
0.0
  0
SPLINE
  5
224
100
AcDbEntity
  8
0
100
AcDbSpline
 62
6
  6
CONTINUOUS
 70
0
 71
3
 72
34
 73
30
 74
28
 42
0.0000001
 43
0.0000001
 44
0.0000000001
 12
-0.2107361037
 22
-0.0062770982
 32
0.0
 13
0.0587104693
 23
-0.2024899706
 33
0.0
 40
0.0
 40
0.0
 40
0.0
 40
0.0
 40
0.0312831591
 40
0.0625537332
 40
0.093816768
 40
0.1250770969
 40
0.1563378407
 40
0.1876013751
 40
0.2188679663
 40
0.2501358429
 40
0.2814029081
 40
0.3126701776
 40
0.3439380441
 40
0.3752050394
 40
0.4377068573
 40
0.5002021884
 40
0.5314571122
 40
0.562709607
 40
0.5939598816
 40
0.6252070554
 40
0.6564519033
 40
0.6876955305
 40
0.7189376659
 40
0.7501781922
 40
0.8126304056
 40
0.8750761033
 40
0.9063168982
 40
0.9375636405
 40
1.0
 40
1.0
 40
1.0
 40
1.0
 10
5.7604302193
 20
4.240181358
 30
0.0
 10
5.7582327223
 20
4.2401159022
 30
0.0
 10
5.7538414383
 20
4.2398492875
 30
0.0
 10
5.7472936994
 20
4.2390441177
 30
0.0
 10
5.740808692
 20
4.2378412269
 30
0.0
 10
5.7344092816
 20
4.2362476591
 30
0.0
 10
5.7281179393
 20
4.2342699657
 30
0.0
 10
5.7219564993
 20
4.2319175728
 30
0.0
 10
5.7159457091
 20
4.2292021873
 30
0.0
 10
5.7101062887
 20
4.2261350558
 30
0.0
 10
5.7044590875
 20
4.2227268714
 30
0.0
 10
5.6990223163
 20
4.2189923783
 30
0.0
 10
5.6938126764
 20
4.2149468332
 30
0.0
 10
5.6871941382
 20
4.2091604402
 30
0.0
 10
5.6795694136
 20
4.2012210909
 30
0.0
 10
5.6729022984
 20
4.1924640612
 30
0.0
 10
5.6681945462
 20
4.1850425871
 30
0.0
 10
5.6649829514
 20
4.1792851593
 30
0.0
 10
5.6620998622
 20
4.1733572503
 30
0.0
 10
5.6595536567
 20
4.1672775716
 30
0.0
 10
5.6573505985
 20
4.161065861
 30
0.0
 10
5.6554947673
 20
4.1547421802
 30
0.0
 10
5.6539908075
 20
4.1483258364
 30
0.0
 10
5.6524599584
 20
4.1396766017
 30
0.0
 10
5.6514355594
 20
4.1287283317
 30
0.0
 10
5.6516039104
 20
4.1177341988
 30
0.0
 10
5.6524448575
 20
4.1089908332
 30
0.0
 10
5.6537530471
 20
4.1003066025
 30
0.0
 10
5.6552527408
 20
4.0938792673
 30
0.0
 10
5.6564746301
 20
4.0896650218
 30
0.0
 11
5.7604302193
 21
4.240181358
 31
0.0
 11
5.7538469277
 21
4.2397816456
 31
0.0
 11
5.7473033661
 21
4.2389777129
 31
0.0
 11
5.7408226592
 21
4.2377760521
 31
0.0
 11
5.7344273261
 21
4.2361836495
 31
0.0
 11
5.7281398439
 21
4.2342076052
 31
0.0
 11
5.7219818833
 21
4.2318571882
 31
0.0
 11
5.7159743897
 21
4.2291436195
 31
0.0
 11
5.7101382826
 21
4.2260781892
 31
0.0
 11
5.7044941708
 21
4.2226724947
 31
0.0
 11
5.6990602049
 21
4.2189405603
 31
0.0
 11
5.6938533681
 21
4.2148975626
 31
0.0
 11
5.6888906363
 21
4.2105586858
 31
0.0
 11
5.6797605141
 21
4.2010570915
 31
0.0
 11
5.6717779282
 21
4.1905746439
 31
0.0
 11
5.6682476994
 21
4.185010608
 31
0.0
 11
5.6650375884
 21
4.1792565268
 31
0.0
 11
5.6621558828
 21
4.1733316751
 31
0.0
 11
5.6596107604
 21
4.1672553414
 31
0.0
 11
5.6574084248
 21
4.1610470616
 31
0.0
 11
5.655553373
 21
4.154726586
 31
0.0
 11
5.6540500358
 21
4.1483136722
 31
0.0
 11
5.6529016962
 21
4.1418281242
 31
0.0
 11
5.651674067
 21
4.128718706
 31
0.0
 11
5.6518728462
 21
4.1155548072
 31
0.0
 11
5.6525032435
 21
4.1089985612
 31
0.0
 11
5.6534841314
 21
4.1024842584
 31
0.0
 11
5.6564746301
 21
4.0896650218
 31
0.0
  0
SPLINE
  5
225
100
AcDbEntity
  8
0
100
AcDbSpline
 62
7
  6
CONTINUOUS
 70
0
 71
3
 72
15
 73
11
 74
9
 42
0.0000001
 43
0.0000001
 44
0.0000000001
 12
-0.0560165809
 22
-0.0124079415
 32
0.0
 13
-0.0407166838
 23
-0.0404223455
 33
0.0
 40
0.0
 40
0.0
 40
0.0
 40
0.0
 40
0.1249948564
 40
0.2500026708
 40
0.3749992109
 40
0.499999688
 40
0.6250004157
 40
0.7499968803
 40
0.8750048957
 40
1.0
 40
1.0
 40
1.0
 40
1.0
 10
5.7603880699
 20
4.2379806362
 30
0.0
 10
5.7580541418
 20
4.2374636599
 30
0.0
 10
5.7534199423
 20
4.2362690122
 30
0.0
 10
5.7466100745
 20
4.2340021822
 30
0.0
 10
5.7399736439
 20
4.231267553
 30
0.0
 10
5.7335447345
 20
4.2280757683
 30
0.0
 10
5.7273564195
 20
4.2244392573
 30
0.0
 10
5.7214410554
 20
4.2203732311
 30
0.0
 10
5.71583132
 20
4.2158956059
 30
0.0
 10
5.712314833
 20
4.2126488008
 30
0.0
 10
5.7106183709
 20
4.2109646024
 30
0.0
 11
5.7603880699
 21
4.2379806362
 31
0.0
 11
5.7534437374
 21
4.2361899344
 31
0.0
 11
5.7466387957
 21
4.2339241458
 31
0.0
 11
5.7400082782
 21
4.2311913834
 31
0.0
 11
5.733584838
 21
4.2280016486
 31
0.0
 11
5.7274018621
 21
4.2243676416
 31
0.0
 11
5.7214921572
 21
4.2203047514
 31
0.0
 11
5.7158869795
 21
4.2158300247
 31
0.0
 11
5.7106183709
 21
4.2109646024
 31
0.0
  0
SPLINE
  5
226
100
AcDbEntity
  8
0
100
AcDbSpline
 62
6
  6
CONTINUOUS
 70
0
 71
3
 72
37
 73
33
 74
31
 42
0.0000001
 43
0.0000001
 44
0.0000000001
 12
0.0
 22
-0.1278358329
 32
0.0
 13
0.1278358329
 23
0.0
 33
0.0
 40
0.0
 40
0.0
 40
0.0
 40
0.0
 40
0.0960660076
 40
0.1914379763
 40
0.2850367204
 40
0.375845873
 40
0.463039084
 40
0.5458275395
 40
0.6234480033
 40
0.6951946484
 40
0.7286491005
 40
0.7603768908
 40
0.7903071856
 40
0.8183819529
 40
0.8445447514
 40
0.8687407879
 40
0.8909176325
 40
0.9110281705
 40
0.9290475169
 40
0.9449675712
 40
0.9521417615
 40
0.9587941724
 40
0.9649286941
 40
0.9705515358
 40
0.9756721459
 40
0.9803045828
 40
0.9844698626
 40
0.9882005046
 40
0.9915429987
 40
0.9945618154
 40
0.9973440094
 40
1.0
 40
1.0
 40
1.0
 40
1.0
 10
4.5762790193
 20
4.1337932848
 30
0.0
 10
4.5762790193
 20
4.1296997254
 30
0.0
 10
4.5763231831
 20
4.1215421138
 30
0.0
 10
4.5765194861
 20
4.1093975053
 30
0.0
 10
4.5768440234
 20
4.0974796978
 30
0.0
 10
4.5772951998
 20
4.0859147612
 30
0.0
 10
4.5778670262
 20
4.0748163691
 30
0.0
 10
4.5785539098
 20
4.0642875656
 30
0.0
 10
4.5793500012
 20
4.0544266353
 30
0.0
 10
4.58011305
 20
4.0466731659
 30
0.0
 10
4.5807780015
 20
4.0408762623
 30
0.0
 10
4.581287258
 20
4.0368553471
 30
0.0
 10
4.5818174608
 20
4.0330684706
 30
0.0
 10
4.5823670749
 20
4.0295241281
 30
0.0
 10
4.5829346602
 20
4.0262302845
 30
0.0
 10
4.5835187571
 20
4.0231948565
 30
0.0
 10
4.5841178455
 20
4.0204256397
 30
0.0
 10
4.5847307096
 20
4.0179295754
 30
0.0
 10
4.5853556655
 20
4.0157123068
 30
0.0
 10
4.5859021527
 20
4.0140469469
 30
0.0
 10
4.5863487977
 20
4.0128604895
 30
0.0
 10
4.5866741701
 20
4.0120744116
 30
0.0
 10
4.587001445
 20
4.0113612242
 30
0.0
 10
4.587330459
 20
4.0107213709
 30
0.0
 10
4.5876610558
 20
4.0101552606
 30
0.0
 10
4.5879931343
 20
4.0096632418
 30
0.0
 10
4.5883267936
 20
4.0092455971
 30
0.0
 10
4.5886621598
 20
4.0089023692
 30
0.0
 10
4.5889995835
 20
4.0086335835
 30
0.0
 10
4.5893397559
 20
4.0084397045
 30
0.0
 10
4.5896828549
 20
4.0083220305
 30
0.0
 10
4.5899153351
 20
4.0082954511
 30
0.0
 10
4.590028512
 20
4.0082954511
 30
0.0
 11
4.5762790193
 21
4.1337932848
 31
0.0
 11
4.576345422
 21
4.1215127862
 31
0.0
 11
4.5765433916
 21
4.1093224386
 31
0.0
 11
4.5768710699
 21
4.0973616529
 31
0.0
 11
4.5773258288
 21
4.0857619
 31
0.0
 11
4.5779026918
 21
4.0746304205
 31
0.0
 11
4.5785962327
 21
4.0640698382
 31
0.0
 11
4.579400178
 21
4.0541797834
 31
0.0
 11
4.5803062642
 21
4.0450528574
 31
0.0
 11
4.5807949385
 21
4.0408041905
 31
0.0
 11
4.5813059341
 21
4.0367805601
 31
0.0
 11
4.5818380197
 21
4.0329915738
 31
0.0
 11
4.5823898275
 21
4.0294452869
 31
0.0
 11
4.5829599846
 21
4.0261497005
 31
0.0
 11
4.5835471182
 21
4.0231128158
 31
0.0
 11
4.5841498557
 21
4.0203426342
 31
0.0
 11
4.5847668119
 21
4.0178469136
 31
0.0
 11
4.5853964854
 21
4.0156311277
 31
0.0
 11
4.5860373111
 21
4.0136994984
 31
0.0
 11
4.5863614168
 21
4.0128415578
 31
0.0
 11
4.5866877234
 21
4.0120562348
 31
0.0
 11
4.5870160352
 21
4.0113440555
 31
0.0
 11
4.5873461565
 21
4.0107055461
 31
0.0
 11
4.5876778916
 21
4.0101412326
 31
0.0
 11
4.5880110448
 21
4.0096516413
 31
0.0
 11
4.5883454195
 21
4.0092372502
 31
0.0
 11
4.5886808142
 21
4.0088982026
 31
0.0
 11
4.5890170247
 21
4.0086344988
 31
0.0
 11
4.5893538472
 21
4.008446139
 31
0.0
 11
4.5896910776
 21
4.0083331231
 31
0.0
 11
4.590028512
 21
4.0082954511
 31
0.0
  0
SPLINE
  5
227
100
AcDbEntity
  8
0
100
AcDbSpline
 62
6
  6
CONTINUOUS
 70
0
 71
3
 72
38
 73
34
 74
32
 42
0.0000001
 43
0.0000001
 44
0.0000000001
 12
0.0
 22
0.1909910637
 32
0.0
 13
-0.1909910637
 23
0.0
 33
0.0
 40
0.0
 40
0.0
 40
0.0
 40
0.0
 40
0.0961287595
 40
0.191502941
 40
0.2850479724
 40
0.375824245
 40
0.4630144718
 40
0.5458169946
 40
0.6234628702
 40
0.6951992145
 40
0.7286417924
 40
0.760368739
 40
0.7903075635
 40
0.8183868446
 40
0.8445442459
 40
0.8687319957
 40
0.890905795
 40
0.9110246552
 40
0.9290528603
 40
0.9372767677
 40
0.9449738709
 40
0.9521457422
 40
0.9587952008
 40
0.9649267416
 40
0.9705471525
 40
0.9756664162
 40
0.9802990496
 40
0.9844661074
 40
0.9881984839
 40
0.9915421379
 40
0.994561594
 40
0.9973440155
 40
1.0
 40
1.0
 40
1.0
 40
1.0
 10
7.3573661872
 20
4.4437932848
 30
0.0
 10
7.3573661872
 20
4.4499131961
 30
0.0
 10
7.3573003704
 20
4.4621050795
 30
0.0
 10
7.3570074027
 20
4.4802502613
 30
0.0
 10
7.3565217598
 20
4.498050475
 30
0.0
 10
7.3558479966
 20
4.5153231815
 30
0.0
 10
7.3549939976
 20
4.5319031883
 30
0.0
 10
7.3539669059
 20
4.5476358437
 30
0.0
 10
7.3527787402
 20
4.5623703669
 30
0.0
 10
7.3516384343
 20
4.5739545039
 30
0.0
 10
7.3506443439
 20
4.5826137259
 30
0.0
 10
7.3498834908
 20
4.5886208368
 30
0.0
 10
7.3490917493
 20
4.5942793975
 30
0.0
 10
7.3482708735
 20
4.5995753012
 30
0.0
 10
7.3474227175
 20
4.6044957995
 30
0.0
 10
7.3465497941
 20
4.6090296899
 30
0.0
 10
7.3456544428
 20
4.6131667546
 30
0.0
 10
7.3447390223
 20
4.6168968513
 30
0.0
 10
7.3439387601
 20
4.6197393246
 30
0.0
 10
7.3432842453
 20
4.6217993591
 30
0.0
 10
7.3428047418
 20
4.6231893225
 30
0.0
 10
7.3423217834
 20
4.6244715303
 30
0.0
 10
7.3418356537
 20
4.6256453814
 30
0.0
 10
7.3413466512
 20
4.6267103035
 30
0.0
 10
7.3408550488
 20
4.6276657581
 30
0.0
 10
7.3403610816
 20
4.628511255
 30
0.0
 10
7.3398649
 20
4.6292463564
 30
0.0
 10
7.3393665045
 20
4.6298707072
 30
0.0
 10
7.3388654979
 20
4.6303839592
 30
0.0
 10
7.3383613841
 20
4.6307859084
 30
0.0
 10
7.3378531612
 20
4.6310758477
 30
0.0
 10
7.3373405553
 20
4.6312518306
 30
0.0
 10
7.3369932062
 20
4.6312915822
 30
0.0
 10
7.3368241164
 20
4.6312915822
 30
0.0
 11
7.3573661872
 21
4.4437932848
 31
0.0
 11
7.3572671008
 21
4.4621527514
 31
0.0
 11
7.3569714072
 21
4.4803659677
 31
0.0
 11
7.3564815739
 21
4.4982255166
 31
0.0
 11
7.3558023613
 21
4.515549664
 31
0.0
 11
7.3549406045
 21
4.5321799055
 31
0.0
 11
7.3539040777
 21
4.5479604425
 31
0.0
 11
7.3527033046
 21
4.5627414171
 31
0.0
 11
7.3513494902
 21
4.5763753676
 31
0.0
 11
7.3506192087
 21
4.5827207156
 31
0.0
 11
7.3498557639
 21
4.5887319933
 31
0.0
 11
7.349060979
 21
4.5943945359
 31
0.0
 11
7.3482366786
 21
4.5996936997
 31
0.0
 11
7.3473848053
 21
4.6046163644
 31
0.0
 11
7.3465074972
 21
4.6091519396
 31
0.0
 11
7.3456069111
 21
4.613290073
 31
0.0
 11
7.3446852035
 21
4.6170204127
 31
0.0
 11
7.3437445331
 21
4.6203326544
 31
0.0
 11
7.343267781
 21
4.621829245
 31
0.0
 11
7.3427871426
 21
4.6232185311
 31
0.0
 11
7.3423029133
 21
4.6244998482
 31
0.0
 11
7.3418153888
 21
4.625672532
 31
0.0
 11
7.3413248647
 21
4.6267359181
 31
0.0
 11
7.3408316366
 21
4.627689342
 31
0.0
 11
7.3403360002
 21
4.6285321394
 31
0.0
 11
7.3398382509
 21
4.629263646
 31
0.0
 11
7.3393386844
 21
4.6298831972
 31
0.0
 11
7.3388375975
 21
4.6303902157
 31
0.0
 11
7.3383352928
 21
4.6307845636
 31
0.0
 11
7.3378320748
 21
4.6310662406
 31
0.0
 11
7.3373282478
 21
4.6312352468
 31
0.0
 11
7.3368241164
 21
4.6312915822
 31
0.0
  0
SPLINE
  5
228
100
AcDbEntity
  8
0
100
AcDbSpline
 62
6
  6
CONTINUOUS
 70
0
 71
3
 72
14
 73
10
 74
8
 42
0.0000001
 43
0.0000001
 44
0.0000000001
 12
0.0120852406
 22
0.0591289142
 32
0.0
 13
0.0416248715
 23
0.0436995608
 33
0.0
 40
0.0
 40
0.0
 40
0.0
 40
0.0
 40
0.2497784344
 40
0.3747909734
 40
0.4997962208
 40
0.6248180317
 40
0.7498638807
 40
0.874925216
 40
1.0
 40
1.0
 40
1.0
 40
1.0
 10
5.6740579211
 20
4.1677185328
 30
0.0
 10
5.6750641319
 20
4.1726415754
 30
0.0
 10
5.6771138175
 20
4.1799328615
 30
0.0
 10
5.6808519976
 20
4.1892724805
 30
0.0
 10
5.6841445125
 20
4.196068397
 30
0.0
 10
5.6879039753
 20
4.2026173359
 30
0.0
 10
5.6921082061
 20
4.2088915956
 30
0.0
 10
5.6967338314
 20
4.2148627168
 30
0.0
 10
5.7000825339
 20
4.2186248128
 30
0.0
 10
5.7018179412
 20
4.2204467172
 30
0.0
 11
5.6740579211
 21
4.1677185328
 31
0.0
 11
5.6781308283
 21
4.1822323435
 31
0.0
 11
5.6809332941
 21
4.189237217
 31
0.0
 11
5.684222126
 21
4.1960268423
 31
0.0
 11
5.687977749
 21
4.2025709853
 31
0.0
 11
5.6921781533
 21
4.208840675
 31
0.0
 11
5.6967998509
 21
4.2148077869
 31
0.0
 11
5.7018179412
 21
4.2204467172
 31
0.0
  0
SPLINE
  5
229
100
AcDbEntity
  8
0
100
AcDbSpline
 62
6
  6
CONTINUOUS
 70
0
 71
3
 72
39
 73
35
 74
33
 42
0.0000001
 43
0.0000001
 44
0.0000000001
 12
0.0974429668
 22
-0.2073030499
 32
0.0
 13
0.1488012588
 23
0.1741489928
 33
0.0
 40
0.0
 40
0.0
 40
0.0
 40
0.0
 40
0.0624171374
 40
0.0936492706
 40
0.1248754471
 40
0.1560997348
 40
0.187327236
 40
0.2185580435
 40
0.2497909101
 40
0.2810260892
 40
0.3122634315
 40
0.3435037544
 40
0.3747487371
 40
0.4059972846
 40
0.4372488254
 40
0.4685047195
 40
0.4997639799
 40
0.5310244402
 40
0.5622859341
 40
0.5935494737
 40
0.6248135921
 40
0.656077618
 40
0.6873433453
 40
0.7186105601
 40
0.7498759952
 40
0.7811380359
 40
0.8123982258
 40
0.8436600133
 40
0.8749283956
 40
0.8905696412
 40
0.9062153327
 40
0.9375050404
 40
0.9687752711
 40
1.0
 40
1.0
 40
1.0
 40
1.0
 10
5.6564746301
 20
4.0896650218
 30
0.0
 10
5.6585020005
 20
4.0853519341
 30
0.0
 10
5.6619204461
 20
4.0790476378
 30
0.0
 10
5.6671768311
 20
4.0710882892
 30
0.0
 10
5.6714622295
 20
4.0653555138
 30
0.0
 10
5.6760745758
 20
4.0598833308
 30
0.0
 10
5.6810010607
 20
4.0546914485
 30
0.0
 10
5.6862254277
 20
4.0497984872
 30
0.0
 10
5.691730944
 20
4.0452231328
 30
0.0
 10
5.6975002563
 20
4.0409843502
 30
0.0
 10
5.7035131912
 20
4.0370977978
 30
0.0
 10
5.7097497309
 20
4.03357955
 30
0.0
 10
5.7161889208
 20
4.0304455224
 30
0.0
 10
5.7228072674
 20
4.0277077824
 30
0.0
 10
5.7295812079
 20
4.0253786965
 30
0.0
 10
5.7364866801
 20
4.0234713625
 30
0.0
 10
5.7434974235
 20
4.0219939429
 30
0.0
 10
5.7505866764
 20
4.020953431
 30
0.0
 10
5.7577274909
 20
4.0203576079
 30
0.0
 10
5.7648919694
 20
4.0202126922
 30
0.0
 10
5.7720515489
 20
4.020519352
 30
0.0
 10
5.7791775998
 20
4.0212788097
 30
0.0
 10
5.7862407278
 20
4.0224929637
 30
0.0
 10
5.79321134
 20
4.0241585446
 30
0.0
 10
5.8000601273
 20
4.0262690313
 30
0.0
 10
5.8067573767
 20
4.0288186685
 30
0.0
 10
5.8132730841
 20
4.0318014309
 30
0.0
 10
5.8195793258
 20
4.0352054945
 30
0.0
 10
5.8246371197
 20
4.0383837355
 30
0.0
 10
5.8285498626
 20
4.0411244462
 30
0.0
 10
5.832369761
 20
4.0439958342
 30
0.0
 10
5.8369605528
 20
4.0478220774
 30
0.0
 10
5.8421455875
 20
4.0527682607
 30
0.0
 10
5.8453710107
 20
4.0562907935
 30
0.0
 10
5.8469197703
 20
4.0581033786
 30
0.0
 11
5.6564746301
 21
4.0896650218
 31
0.0
 11
5.6632913463
 21
4.0770972463
 31
0.0
 11
5.6672340981
 21
4.0711276515
 31
0.0
 11
5.6715168445
 21
4.0653987846
 31
0.0
 11
5.6761267279
 21
4.0599302731
 31
0.0
 11
5.6810504514
 21
4.0547415239
 31
0.0
 11
5.686272095
 21
4.0498515906
 31
0.0
 11
5.6917747053
 21
4.0452793881
 31
0.0
 11
5.6975406458
 21
4.0410432027
 31
0.0
 11
5.7035501566
 21
4.0371593634
 31
0.0
 11
5.7097830645
 21
4.0336438181
 31
0.0
 11
5.716218402
 21
4.0305117411
 31
0.0
 11
5.7228328559
 21
4.0277760211
 31
0.0
 11
5.729602682
 21
4.025449127
 31
0.0
 11
5.7365038655
 21
4.0235431037
 31
0.0
 11
5.7435103482
 21
4.0220667904
 31
0.0
 11
5.7505951374
 21
4.0210275607
 31
0.0
 11
5.7577312324
 21
4.0204327698
 31
0.0
 11
5.7648910765
 21
4.0202879548
 31
0.0
 11
5.7720459401
 21
4.0205948163
 31
0.0
 11
5.779166945
 21
4.0213545684
 31
0.0
 11
5.7862251794
 21
4.0225681765
 31
0.0
 11
5.7931912117
 21
4.0242327457
 31
0.0
 11
5.8000352006
 21
4.0263423365
 31
0.0
 11
5.8067272937
 21
4.0288909267
 31
0.0
 11
5.8132379933
 21
4.0318715542
 31
0.0
 11
5.8195392417
 21
4.0352734446
 31
0.0
 11
5.8256033465
 21
4.0390848566
 31
0.0
 11
5.8285378161
 21
4.041140464
 31
0.0
 11
5.8314025809
 21
4.043293846
 31
0.0
 11
5.836908253
 21
4.0478827241
 31
0.0
 11
5.8420905919
 21
4.0528273834
 31
0.0
 11
5.8469197703
 21
4.0581033786
 31
0.0
  0
SPLINE
  5
22A
100
AcDbEntity
  8
0
100
AcDbSpline
 62
6
  6
CONTINUOUS
 70
0
 71
3
 72
34
 73
30
 74
28
 42
0.0000001
 43
0.0000001
 44
0.0000000001
 12
0.1146475784
 22
0.0
 32
0.0
 13
0.0
 23
-0.1146475784
 33
0.0
 40
0.0
 40
0.0
 40
0.0
 40
0.0
 40
0.0197536888
 40
0.0389525445
 40
0.0577671344
 40
0.0763951485
 40
0.0950582431
 40
0.1139959395
 40
0.1334454607
 40
0.1536306261
 40
0.1747545945
 40
0.1969838146
 40
0.2204498645
 40
0.245257222
 40
0.2714850482
 40
0.2991753453
 40
0.3283436987
 40
0.3589900865
 40
0.391099847
 40
0.4246334993
 40
0.459537222
 40
0.4957502277
 40
0.5332042116
 40
0.5718155831
 40
0.6521427101
 40
0.7359719519
 40
0.8224910567
 40
0.9108376414
 40
1.0
 40
1.0
 40
1.0
 40
1.0
 10
6.7926985348
 20
4.5452932848
 30
0.0
 10
6.793453439
 20
4.5452932848
 30
0.0
 10
6.7949431488
 20
4.5452275101
 30
0.0
 10
6.7971321332
 20
4.5449141675
 30
0.0
 10
6.7992348245
 20
4.5443823687
 30
0.0
 10
6.8012464141
 20
4.5436269414
 30
0.0
 10
6.80316197
 20
4.5426427151
 30
0.0
 10
6.8049785336
 20
4.5414287781
 30
0.0
 10
6.8066945249
 20
4.5399847997
 30
0.0
 10
6.8083088417
 20
4.5383104115
 30
0.0
 10
6.8098200694
 20
4.5364054926
 30
0.0
 10
6.8112298994
 20
4.534273027
 30
0.0
 10
6.8125403277
 20
4.531916192
 30
0.0
 10
6.8137529832
 20
4.5293380979
 30
0.0
 10
6.8148688663
 20
4.5265424507
 30
0.0
 10
6.8158917029
 20
4.523535187
 30
0.0
 10
6.8168252653
 20
4.520323043
 30
0.0
 10
6.8176729994
 20
4.5169130819
 30
0.0
 10
6.81843811
 20
4.513313069
 30
0.0
 10
6.8191252207
 20
4.5095320141
 30
0.0
 10
6.8197389217
 20
4.5055796905
 30
0.0
 10
6.8202836792
 20
4.5014661824
 30
0.0
 10
6.8207639574
 20
4.4972020912
 30
0.0
 10
6.8213316944
 20
4.4912522079
 30
0.0
 10
6.8218944611
 20
4.483522737
 30
0.0
 10
6.8223764454
 20
4.4739545224
 30
0.0
 10
6.822697635
 20
4.4640730656
 30
0.0
 10
6.8228829312
 20
4.4539844381
 30
0.0
 10
6.8229223112
 20
4.447200701
 30
0.0
 10
6.8229223112
 20
4.4437932848
 30
0.0
 11
6.7926985348
 21
4.5452932848
 31
0.0
 11
6.7949608521
 21
4.5451891512
 31
0.0
 11
6.797139224
 21
4.5448736403
 31
0.0
 11
6.7992297509
 21
4.5443420865
 31
0.0
 11
6.8012285334
 21
4.5435898244
 31
0.0
 11
6.8031319973
 21
4.5426125579
 31
0.0
 11
6.8049384642
 21
4.541408142
 31
0.0
 11
6.8066469398
 21
4.5399752081
 31
0.0
 11
6.8082564309
 21
4.5383123885
 31
0.0
 11
6.8097661422
 21
4.5364187295
 31
0.0
 11
6.8111766368
 21
4.5342961153
 31
0.0
 11
6.8124890472
 21
4.5319476196
 31
0.0
 11
6.8137045078
 21
4.5293763203
 31
0.0
 11
6.8148243573
 21
4.5265856706
 31
0.0
 11
6.8158513667
 21
4.5235817567
 31
0.0
 11
6.8167889205
 21
4.5203717923
 31
0.0
 11
6.8176404053
 21
4.5169629955
 31
0.0
 11
6.818409327
 21
4.5133628878
 31
0.0
 11
6.8190999293
 21
4.5095808713
 31
0.0
 11
6.8197167381
 21
4.5056270671
 31
0.0
 11
6.82026428
 21
4.5015115977
 31
0.0
 11
6.8207470679
 21
4.4972448161
 31
0.0
 11
6.8211695433
 21
4.4928383221
 31
0.0
 11
6.8218512251
 21
4.4836542755
 31
0.0
 11
6.8223431735
 21
4.4740560549
 31
0.0
 11
6.8226722598
 21
4.4641423095
 31
0.0
 11
6.8228612549
 21
4.4540153509
 31
0.0
 11
6.8229223112
 21
4.4437932848
 31
0.0
  0
SPLINE
  5
22B
100
AcDbEntity
  8
0
100
AcDbSpline
 62
6
  6
CONTINUOUS
 70
0
 71
3
 72
15
 73
11
 74
9
 42
0.0000001
 43
0.0000001
 44
0.0000000001
 12
-0.0478488709
 22
-0.031659104
 32
0.0
 13
-0.0235254016
 23
-0.0523294257
 33
0.0
 40
0.0
 40
0.0
 40
0.0
 40
0.0
 40
0.1249877517
 40
0.2500075035
 40
0.3750038572
 40
0.5000002476
 40
0.6249947439
 40
0.749988503
 40
0.8750098304
 40
1.0
 40
1.0
 40
1.0
 40
1.0
 10
5.7106183709
 20
4.2109646024
 30
0.0
 10
5.7086248633
 20
4.2096456023
 30
0.0
 10
5.7047315812
 20
4.2068616208
 30
0.0
 10
5.6992078473
 20
4.2022782031
 30
0.0
 10
5.6940251277
 20
4.1973117515
 30
0.0
 10
5.6892079591
 20
4.1919909066
 30
0.0
 10
5.6847770611
 20
4.1863445087
 30
0.0
 10
5.6807515955
 20
4.1804016585
 30
0.0
 10
5.6771491633
 20
4.1741938507
 30
0.0
 10
5.6750380691
 20
4.1698987541
 30
0.0
 10
5.6740579211
 20
4.1677185328
 30
0.0
 11
5.7106183709
 21
4.2109646024
 31
0.0
 11
5.7047847461
 21
4.2067940719
 31
0.0
 11
5.699264372
 21
4.2022140818
 31
0.0
 11
5.6940859955
 21
4.1972526304
 31
0.0
 11
5.6892723089
 21
4.1919366137
 31
0.0
 11
5.684844669
 21
4.1862951548
 31
0.0
 11
5.680822377
 21
4.1803579321
 31
0.0
 11
5.6772215331
 21
4.1741542187
 31
0.0
 11
5.6740579211
 21
4.1677185328
 31
0.0
  0
SPLINE
  5
22C
100
AcDbEntity
  8
0
100
AcDbSpline
 62
6
  6
CONTINUOUS
 70
0
 71
3
 72
35
 73
31
 74
29
 42
0.0000001
 43
0.0000001
 44
0.0000000001
 12
0.0
 22
-0.1146477745
 32
0.0
 13
-0.1146477745
 23
0.0
 33
0.0
 40
0.0
 40
0.0
 40
0.0
 40
0.0
 40
0.0891630197
 40
0.1775113923
 40
0.2640316591
 40
0.3478608406
 40
0.3885113434
 40
0.4281887636
 40
0.4667995529
 40
0.5042530212
 40
0.5404654953
 40
0.5753686387
 40
0.6089017713
 40
0.6410111753
 40
0.6716573424
 40
0.7008255552
 40
0.7285157828
 40
0.7547435947
 40
0.7795509017
 40
0.803016864
 40
0.8252460037
 40
0.8463699299
 40
0.8665550532
 40
0.886004519
 40
0.9049421493
 40
0.9236051538
 40
0.9422330636
 40
0.9610475638
 40
0.9802463529
 40
1.0
 40
1.0
 40
1.0
 40
1.0
 10
6.8229223112
 20
4.4437932848
 30
0.0
 10
6.8229223112
 20
4.4403858375
 30
0.0
 10
6.8228829429
 20
4.4336019981
 30
0.0
 10
6.8226976293
 20
4.423513202
 30
0.0
 10
6.8223763957
 20
4.4136316671
 30
0.0
 10
6.8219708354
 20
4.4055776955
 30
0.0
 10
6.8215487585
 20
4.3993183549
 30
0.0
 10
6.8211841374
 20
4.3947875019
 30
0.0
 10
6.8207639083
 20
4.3903841486
 30
0.0
 10
6.8202836518
 20
4.3861201132
 30
0.0
 10
6.8197388941
 20
4.3820066598
 30
0.0
 10
6.8191251966
 20
4.3780543921
 30
0.0
 10
6.8184380875
 20
4.3742733866
 30
0.0
 10
6.8176729826
 20
4.370673409
 30
0.0
 10
6.8168252505
 20
4.3672634695
 30
0.0
 10
6.8158916856
 20
4.3640513373
 30
0.0
 10
6.8148688459
 20
4.3610440781
 30
0.0
 10
6.813752968
 20
4.3582484289
 30
0.0
 10
6.8125403127
 20
4.3556703356
 30
0.0
 10
6.8112298798
 20
4.3533135072
 30
0.0
 10
6.8098200444
 20
4.3511810498
 30
0.0
 10
6.8083088193
 20
4.3492761318
 30
0.0
 10
6.806694502
 20
4.3476017458
 30
0.0
 10
6.8049785077
 20
4.3461577744
 30
0.0
 10
6.8031619445
 20
4.3449438452
 30
0.0
 10
6.8012463961
 20
4.3439596185
 30
0.0
 10
6.7992348141
 20
4.3432041911
 30
0.0
 10
6.7971321281
 20
4.3426723964
 30
0.0
 10
6.7949431469
 20
4.3423590579
 30
0.0
 10
6.7934534387
 20
4.3422932848
 30
0.0
 10
6.7926985348
 20
4.3422932848
 30
0.0
 11
6.8229223112
 21
4.4437932848
 31
0.0
 11
6.8228612612
 21
4.4335711253
 31
0.0
 11
6.8226722485
 21
4.4234439447
 31
0.0
 11
6.822343157
 21
4.4135300493
 31
0.0
 11
6.8218511988
 21
4.4039318196
 31
0.0
 11
6.821536085
 21
4.3992819951
 31
0.0
 11
6.8211695033
 21
4.394747862
 31
0.0
 11
6.8207470319
 21
4.3903414271
 31
0.0
 11
6.8202642489
 21
4.386074697
 31
0.0
 11
6.8197167108
 21
4.3819592814
 31
0.0
 11
6.8190999054
 21
4.378005537
 31
0.0
 11
6.8184093067
 21
4.3742235737
 31
0.0
 11
6.8176403895
 21
4.3706235004
 31
0.0
 11
6.816788906
 21
4.3672147231
 31
0.0
 11
6.8158513504
 21
4.3640047702
 31
0.0
 11
6.8148243392
 21
4.3610008595
 31
0.0
 11
6.8137044912
 21
4.3582102054
 31
0.0
 11
6.8124890304
 21
4.3556389072
 31
0.0
 11
6.811176617
 21
4.3532904195
 31
0.0
 11
6.8097661194
 21
4.3511678131
 31
0.0
 11
6.808256408
 21
4.3492741551
 31
0.0
 11
6.8066469159
 21
4.3476113377
 31
0.0
 11
6.8049384382
 21
4.3461784102
 31
0.0
 11
6.8031319718
 21
4.3449740004
 31
0.0
 11
6.8012285148
 21
4.3439967353
 31
0.0
 11
6.7992297408
 21
4.3432444742
 31
0.0
 11
6.7971392198
 21
4.3427129238
 31
0.0
 11
6.7949608512
 21
4.3423974166
 31
0.0
 11
6.7926985348
 21
4.3422932848
 31
0.0
  0
ENDSEC
  0
SECTION
  2
OBJECTS
  0
DICTIONARY
  5
C
100
AcDbDictionary
280
0
281
1
  3
ACAD_GROUP
350
D
  3
ACAD_MLINESTYLE
350
17
  3
ACAD_LAYOUT
350
1A
  3
ACAD_PLOTSETTINGS
350
19
  3
ACAD_PLOTSTYLENAME
350
E
  0
DICTIONARY
  5
D
102
{ACAD_REACTORS
330
C
102
}
100
AcDbDictionary
280
0
281
1
  0
ACDBDICTIONARYWDFLT
  5
E
102
{ACAD_REACTORS
330
C
102
}
100
AcDbDictionary
281
1
  3
Normal
350
F
100
AcDbDictionaryWithDefault
340
F
  0
DICTIONARY
  5
17
102
{ACAD_REACTORS
330
C
102
}
100
AcDbDictionary
280
0
281
1
  3
Standard
350
18
  0
DICTIONARY
  5
19
102
{ACAD_REACTORS
330
C
102
}
100
AcDbDictionary
281
1
  0
DICTIONARY
  5
1A
102
{ACAD_REACTORS
330
C
102
}
100
AcDbDictionary
281
1
  3
Model
350
22D
  3
Layout1
350
22E
  0
ACDBPLACEHOLDER
  5
F
102
{ACAD_REACTORS
330
E
102
}
  0
MLINESTYLE
  5
18
102
{ACAD_REACTORS
330
17
102
}
100
AcDbMlineStyle
  2
STANDARD
 70
0
  3

 62
256
 51
90.0
 52
90.0
 71
2
 49
0.5
 62
256
  6
BYLAYER
 49
-0.5
 62
256
  6
BYLAYER
  0
LAYOUT
  5
22D
102
{ACAD_REACTORS
330
1A
102
}
100
AcDbPlotSettings
  1

  2
none_device
  4
ISO_A4_(297.00_x_210.00_MM)
  6

 40
0.0
 41
0.0
 42
0.0
 43
0.0
 44
297.0
 45
210.0
 46
0.0
 47
0.0
 48
0.0
 49
0.0
140
0.0
141
0.0
142
1.0
143
1.0
 70
1024
 72
0
 73
0
 74
0
  7

 75
0
147
1.0
148
0.0
149
0.0
100
AcDbLayout
  1
Model
 70
0
 71
0
 10
0.0
 20
0.0
 11
11.6929133858
 21
8.2677165354
 12
0.0
 22
0.0
 32
0.0
 14
0.0
 24
0.0
 34
0.0
 15
0.0
 25
0.0
 35
0.0
146
0.0
 13
0.0
 23
0.0
 33
0.0
 16
1.0
 26
0.0
 36
0.0
 17
0.0
 27
1.0
 37
0.0
 76
0
330
204
345
0
346
0
  0
LAYOUT
  5
22E
102
{ACAD_REACTORS
330
1A
102
}
100
AcDbPlotSettings
  1

  2
none_device
  4
ISO_A4_(297.00_x_210.00_MM)
  6

 40
0.0
 41
0.0
 42
0.0
 43
0.0
 44
297.0
 45
210.0
 46
0.0
 47
0.0
 48
0.0
 49
0.0
140
0.0
141
0.0
142
1.0
143
1.0
 70
0
 72
0
 73
0
 74
0
  7

 75
0
147
1.0
148
0.0
149
0.0
100
AcDbLayout
  1
Layout1
 70
0
 71
1
 10
0.0
 20
0.0
 11
11.6929133858
 21
8.2677165354
 12
0.0
 22
0.0
 32
0.0
 14
0.0
 24
0.0
 34
0.0
 15
0.0
 25
0.0
 35
0.0
146
0.0
 13
0.0
 23
0.0
 33
0.0
 16
1.0
 26
0.0
 36
0.0
 17
0.0
 27
1.0
 37
0.0
 76
0
330
205
345
0
346
0
  0
ENDSEC
  0
EOF
