  0
SECTION
  2
HEADER
  9
$ACADVER
  1
AC1015
  9
$DWGCODEPAGE
  3
ANSI_1252
  9
$EXTMAX
 10
11.0
 20
8.5
 30
0.0
  9
$EXTMIN
 10
0.0
 20
0.0
 30
0.0
  9
$LIMMIN
 10
0.0
 20
0.0
  9
$LIMMAX
 10
11.0
 20
8.5
  9
$VIEWCTR
 10
5.5
 20
4.25
  9
$VIEWSIZE
 40
8.5
  9
$CLAYER
  8
0
  9
$LTSCALE
 40
0.605
  9
$CELTYPE
  6
BYLAYER
  9
$DIMSCALE
 40
1.0
  9
$DIMASZ
 40
0.1
  9
$DIMEXO
 40
0.06875
  9
$DIMDLI
 40
0.418
  9
$DIMEXE
 40
0.198
  9
$DIMCEN
 40
0.099
  9
$DIMLFAC
 40
1.0
  9
$DIMBLK
  1
_FILLED
  9
$DIMTXT
 40
0.08
  9
$DIMTOL
 70
1
  9
$DIMLIM
 70
0
  9
$DIMTFAC
 40
1.0
  9
$DIMTP
 40
0.01
  9
$DIMTM
 40
0.01
  9
$PDMODE
 70
3
  9
$PDSIZE
 40
0.06
  9
$HANDSEED
  5
4E7
  9
$TILEMODE
 70
1
  9
$MEASUREMENT
 70
0
  9
$INSUNITS
 70
1
  0
ENDSEC
  0
SECTION
  2
CLASSES
  0
CLASS
  1
ACDBDICTIONARYWDFLT
  2
AcDbDictionaryWithDefault
  3
AutoCAD 2000
 90
0
280
0
281
0
  0
CLASS
  1
ACDBPLACEHOLDER
  2
AcDbPlaceHolder
  3
AutoCAD 2000
 90
0
280
0
281
0
  0
CLASS
  1
LAYOUT
  2
AcDbLayout
  3
AutoCAD 2000
 90
0
280
0
281
0
  0
ENDSEC
  0
SECTION
  2
TABLES
  0
TABLE
  2
VPORT
  5
8
100
AcDbSymbolTable
 70
2
  0
VPORT
  5
1F4
100
AcDbSymbolTableRecord
100
AcDbViewportTableRecord
  2
*ACTIVE
 70
0
 10
0.0
 20
0.0
 11
1.0
 21
1.0
 12
5.5
 22
4.25
 13
0.0
 23
0.0
 14
1.0
 24
1.0
 15
0.0
 25
0.0
 16
0.0
 26
0.0
 36
1.0
 17
0.0
 27
0.0
 37
0.0
 40
8.5
 41
1.2941176471
 42
50.0
 43
0.0
 44
0.0
 50
0.0
 51
0.0
 71
0
 72
100
 73
1
 74
1
 75
0
 76
0
 77
0
 78
0
  0
ENDTAB
  0
TABLE
  2
LTYPE
  5
5
100
AcDbSymbolTable
 70
6
  0
LTYPE
  5
14
100
AcDbSymbolTableRecord
100
AcDbLinetypeTableRecord
  2
BYBLOCK
 70
0
  3

 72
65
 73
0
 40
0.0
  0
LTYPE
  5
15
100
AcDbSymbolTableRecord
100
AcDbLinetypeTableRecord
  2
BYLAYER
 70
0
  3

 72
65
 73
0
 40
0.0
  0
LTYPE
  5
16
100
AcDbSymbolTableRecord
100
AcDbLinetypeTableRecord
  2
CONTINUOUS
 70
64
  3
Solid line
 72
65
 73
0
 40
0.0
  0
LTYPE
  5
1F5
100
AcDbSymbolTableRecord
100
AcDbLinetypeTableRecord
  2
CENTER
 70
64
  3
____ _ ____ _ ____ _ ____ _ ____ _ ____ _ ____
 72
65
 73
4
 40
0.6
 49
0.375
 74
0
 49
-0.075
 74
0
 49
0.075
 74
0
 49
-0.075
 74
0
  0
LTYPE
  5
1F6
100
AcDbSymbolTableRecord
100
AcDbLinetypeTableRecord
  2
HIDDEN
 70
64
  3
- - - - - - - - - - - - - - - - - - - -
 72
65
 73
2
 40
0.2
 49
0.1
 74
0
 49
-0.1
 74
0
  0
LTYPE
  5
1F7
100
AcDbSymbolTableRecord
100
AcDbLinetypeTableRecord
  2
PHANTOM
 70
64
  3
_____ _ _ _____ _ _ _____ _ _ _____
 72
65
 73
6
 40
0.8
 49
0.45
 74
0
 49
-0.05
 74
0
 49
0.1
 74
0
 49
-0.05
 74
0
 49
0.1
 74
0
 49
-0.05
 74
0
  0
LTYPE
  5
1F8
100
AcDbSymbolTableRecord
100
AcDbLinetypeTableRecord
  2
DOT
 70
64
  3
. . . . . . . . . . . . . . . . . . . .
 72
65
 73
2
 40
0.2
 49
0.1
 74
0
 49
-0.1
 74
0
  0
LTYPE
  5
1F9
100
AcDbSymbolTableRecord
100
AcDbLinetypeTableRecord
  2
DASHED
 70
64
  3
- - - - - - - - - - - - - - - - - - - -
 72
65
 73
2
 40
0.2
 49
0.1
 74
0
 49
-0.1
 74
0
  0
ENDTAB
  0
TABLE
  2
LAYER
  5
2
100
AcDbSymbolTable
 70
36
  0
LAYER
  5
10
100
AcDbSymbolTableRecord
100
AcDbLayerTableRecord
  2
0
 70
0
 62
7
  6
CONTINUOUS
370
-3
390
F
  0
LAYER
  5
1FA
100
AcDbSymbolTableRecord
100
AcDbLayerTableRecord
  2
DEFAULT_1
 70
0
 62
7
  6
CENTER
370
-3
390
F
  0
LAYER
  5
1FB
100
AcDbSymbolTableRecord
100
AcDbLayerTableRecord
  2
DEFAULT_2
 70
0
 62
8
  6
HIDDEN
370
-3
390
F
  0
LAYER
  5
1FC
100
AcDbSymbolTableRecord
100
AcDbLayerTableRecord
  2
DEFAULT_3
 70
0
 62
7
  6
PHANTOM
370
-3
390
F
  0
LAYER
  5
1FD
100
AcDbSymbolTableRecord
100
AcDbLayerTableRecord
  2
DEFAULT_COORDINATE_SYSTEM
 70
0
 62
7
  6
CONTINUOUS
370
-3
390
F
  0
LAYER
  5
1FE
100
AcDbSymbolTableRecord
100
AcDbLayerTableRecord
  2
DEFAULT_DATUM_AXES
 70
0
 62
7
  6
CONTINUOUS
370
-3
390
F
  0
LAYER
  5
1FF
100
AcDbSymbolTableRecord
100
AcDbLayerTableRecord
  2
DEFAULT_DATUM_CURVES
 70
0
 62
7
  6
CONTINUOUS
370
-3
390
F
  0
LAYER
  5
200
100
AcDbSymbolTableRecord
100
AcDbLayerTableRecord
  2
DEFAULT_DATUM_PLANES
 70
0
 62
7
  6
CONTINUOUS
370
-3
390
F
  0
ENDTAB
  0
TABLE
  2
STYLE
  5
3
100
AcDbSymbolTable
 70
1
  0
STYLE
  5
11
100
AcDbSymbolTableRecord
100
AcDbTextStyleTableRecord
  2
STANDARD
 70
0
 40
0.0
 41
0.8
 50
0.0
 71
0
 42
0.2
  3
txt
  4

  0
STYLE
  5
201
100
AcDbSymbolTableRecord
100
AcDbTextStyleTableRecord
  2
TEXTSTYLE_1
 70
0
 40
0.0
 41
0.8
 50
0.0
 71
0
 42
0.2
  3
gdt
  4

  0
ENDTAB
  0
TABLE
  2
VIEW
  5
6
100
AcDbSymbolTable
 70
0
  0
ENDTAB
  0
TABLE
  2
UCS
  5
7
100
AcDbSymbolTable
 70
0
  0
ENDTAB
  0
TABLE
  2
APPID
  5
9
100
AcDbSymbolTable
 70
1
  0
APPID
  5
202
100
AcDbSymbolTableRecord
100
AcDbRegAppTableRecord
  2
ACAD
 70
0
  0
ENDTAB
  0
TABLE
  2
BLOCK_RECORD
  5
1
100
AcDbSymbolTable
 70
0
  0
BLOCK_RECORD
  5
203
100
AcDbSymbolTableRecord
100
AcDbBlockTableRecord
  2
*Model_Space
  0
BLOCK_RECORD
  5
204
100
AcDbSymbolTableRecord
100
AcDbBlockTableRecord
  2
*Paper_Space
  0
ENDTAB
  0
TABLE
  2
DIMSTYLE
  5
A
100
AcDbSymbolTable
 70
1
100
AcDbDimStyleTable
 71
0
  0
DIMSTYLE
105
205
100
AcDbSymbolTableRecord
100
AcDbDimStyleTableRecord
  2
STANDARD
 70
0
  3

  4

 40
1.0
 41
0.1
 42
0.0625
 43
0.38
 44
0.18
 45
0.0
 46
0.0
 47
0.01
 48
0.01
140
0.08
141
0.09
142
0.0
143
25.4
144
1.0
145
0.0
146
1.0
147
0.09
 71
1.0
 72
0.0
 73
1
 74
1
 75
0
 76
0
 77
0
 78
4
170
0
171
2
172
0
173
0
174
0
175
0
176
0
177
0
178
0
270
2
271
2
272
2
273
2
274
2
275
0
280
0
281
0
282
0
283
1
284
4
285
0
286
0
287
3
288
0
340
11
  0
ENDTAB
  0
ENDSEC
  0
SECTION
  2
BLOCKS
  0
BLOCK
  5
20
100
AcDbEntity
  8
0
100
AcDbBlockBegin
  2
*Model_Space
 70
0
 10
0.0
 20
0.0
 30
0.0
  3
*Model_Space
  1

  0
ENDBLK
  5
21
100
AcDbEntity
  8
0
100
AcDbBlockEnd
  0
BLOCK
  5
1C
100
AcDbEntity
  8
0
100
AcDbBlockBegin
  2
*Paper_Space
 70
0
 10
0.0
 20
0.0
 30
0.0
  3
*Paper_Space
  1

  0
ENDBLK
  5
1D
100
AcDbEntity
  8
0
100
AcDbBlockEnd
  0
ENDSEC
  0
SECTION
  2
ENTITIES
  0
LINE
  5
206
100
AcDbEntity
  8
0
100
AcDbLine
 62
6
  6
CONTINUOUS
 10
1.7652841916
 20
7.3925681139
 11
1.8925245964
 21
7.5198085187
  0
LINE
  5
207
100
AcDbEntity
  8
0
100
AcDbLine
 62
9
  6
CONTINUOUS
 10
1.9364614486
 20
7.2101919804
 11
2.0749007299
 21
7.3486312616
  0
LINE
  5
208
100
AcDbEntity
  8
0
100
AcDbLine
 62
6
  6
CONTINUOUS
 10
8.0920402483
 20
0.8471803087
 11
8.0330402483
 21
0.8471803087
  0
LINE
  5
209
100
AcDbEntity
  8
0
100
AcDbLine
 62
6
  6
CONTINUOUS
 10
8.5669124015
 20
0.8621803087
 11
8.6075141003
 21
0.8621803087
  0
LINE
  5
20A
100
AcDbEntity
  8
0
100
AcDbLine
 62
6
  6
CONTINUOUS
 10
8.2800402483
 20
0.8671803087
 11
8.1420402483
 21
0.8671803087
  0
LINE
  5
20B
100
AcDbEntity
  8
0
100
AcDbLine
 62
6
  6
CONTINUOUS
 10
2.411489671
 20
6.7180395474
 11
2.411489671
 21
6.7816791577
  0
LINE
  5
20C
100
AcDbEntity
  8
0
100
AcDbLine
 62
6
  6
CONTINUOUS
 10
2.4822003491
 20
6.958455853
 11
2.4822003491
 21
6.8948162427
  0
LINE
  5
20D
100
AcDbEntity
  8
0
100
AcDbLine
 62
7
  6
CONTINUOUS
 10
6.8219124015
 20
1.3487049839
 11
6.7380253854
 21
1.3373740036
  0
LINE
  5
20E
100
AcDbEntity
  8
0
100
AcDbLine
 62
7
  6
CONTINUOUS
 10
6.7295184627
 20
1.336224937
 11
6.638124543
 21
1.3238799669
  0
LINE
  5
20F
100
AcDbEntity
  8
0
100
AcDbLine
 62
7
  6
CONTINUOUS
 10
6.7208836374
 20
1.3373567273
 11
6.7210115399
 21
1.3373740036
  0
LINE
  5
210
100
AcDbEntity
  8
0
100
AcDbLine
 62
7
  6
CONTINUOUS
 10
6.8219124015
 20
1.3051359633
 11
6.7380253854
 21
1.2968646367
  0
LINE
  5
211
100
AcDbEntity
  8
0
100
AcDbLine
 62
7
  6
CONTINUOUS
 10
6.7295184627
 20
1.2960258474
 11
6.638124543
 21
1.2870143341
  0
LINE
  5
212
100
AcDbEntity
  8
0
100
AcDbLine
 62
6
  6
CONTINUOUS
 10
6.714781898
 20
1.296250389
 11
6.7210115399
 21
1.2968646367
  0
LINE
  5
213
100
AcDbEntity
  8
0
100
AcDbLine
 62
6
  6
CONTINUOUS
 10
6.7662141409
 20
1.2913050025
 11
6.7721179558
 21
1.2918255034
  0
LINE
  5
214
100
AcDbEntity
  8
0
100
AcDbLine
 62
7
  6
CONTINUOUS
 10
6.7640864417
 20
1.2926174171
 11
6.758019198
 21
1.2920825077
  0
LINE
  5
215
100
AcDbEntity
  8
0
100
AcDbLine
 62
7
  6
CONTINUOUS
 10
6.8219124015
 20
1.2750852799
 11
6.8218386024
 21
1.2750802503
  0
LINE
  5
216
100
AcDbEntity
  8
0
100
AcDbLine
 62
7
  6
CONTINUOUS
 10
6.8219124015
 20
1.274896355
 11
6.8039720517
 21
1.2739188206
  0
LINE
  5
217
100
AcDbEntity
  8
0
100
AcDbLine
 62
7
  6
CONTINUOUS
 10
6.7251483209
 20
1.2696238705
 11
6.7165414205
 21
1.2691548974
  0
LINE
  5
218
100
AcDbEntity
  8
0
100
AcDbLine
 62
7
  6
CONTINUOUS
 10
6.638909995
 20
1.2649249137
 11
6.638124543
 21
1.264882116
  0
LINE
  5
219
100
AcDbEntity
  8
0
100
AcDbLine
 62
7
  6
CONTINUOUS
 10
6.7082456282
 20
1.269629927
 11
6.7169579657
 21
1.2701046452
  0
LINE
  5
21A
100
AcDbEntity
  8
0
100
AcDbLine
 62
6
  6
CONTINUOUS
 10
7.9530402483
 20
0.9261803087
 11
7.8740402483
 21
0.9261803087
  0
LINE
  5
21B
100
AcDbEntity
  8
0
100
AcDbLine
 62
6
  6
CONTINUOUS
 10
7.5990402483
 20
0.9851803087
 11
7.8740402483
 21
0.9851803087
  0
LINE
  5
21C
100
AcDbEntity
  8
0
100
AcDbLine
 62
9
  6
CONTINUOUS
 10
7.5990402483
 20
1.0441803087
 11
7.8740402483
 21
1.0441803087
  0
LINE
  5
21D
100
AcDbEntity
  8
0
100
AcDbLine
 62
6
  6
CONTINUOUS
 10
6.8369124015
 20
1.1621803087
 11
7.4369124015
 21
1.1621803087
  0
LINE
  5
21E
100
AcDbEntity
  8
0
100
AcDbLine
 62
6
  6
CONTINUOUS
 10
8.3300402483
 20
1.1660788432
 11
8.5519124015
 21
1.1660788432
  0
LINE
  5
21F
100
AcDbEntity
  8
0
100
AcDbLine
 62
7
  6
CONTINUOUS
 10
8.2830402483
 20
1.1694439029
 11
8.2807197402
 21
1.1694439029
  0
LINE
  5
220
100
AcDbEntity
  8
0
100
AcDbLine
 62
6
  6
CONTINUOUS
 10
8.2807197402
 20
1.1694439029
 11
8.2800402483
 21
1.1694439029
  0
LINE
  5
221
100
AcDbEntity
  8
0
100
AcDbLine
 62
6
  6
CONTINUOUS
 10
8.1157197402
 20
1.1694439029
 11
8.1093607563
 21
1.1694439029
  0
LINE
  5
222
100
AcDbEntity
  8
0
100
AcDbLine
 62
6
  6
CONTINUOUS
 10
8.0057197402
 20
1.1694439029
 11
7.9993607564
 21
1.1694439029
  0
LINE
  5
223
100
AcDbEntity
  8
0
100
AcDbLine
 62
6
  6
CONTINUOUS
 10
7.5832788833
 20
1.1994439029
 11
7.5970402483
 21
1.1994439029
  0
LINE
  5
224
100
AcDbEntity
  8
0
100
AcDbLine
 62
6
  6
CONTINUOUS
 10
7.9682788896
 20
1.1994439029
 11
7.9820402483
 21
1.1994439029
  0
LINE
  5
225
100
AcDbEntity
  8
0
100
AcDbLine
 62
6
  6
CONTINUOUS
 10
8.0232788896
 20
1.1994439029
 11
8.0330402483
 21
1.1994439029
  0
LINE
  5
226
100
AcDbEntity
  8
0
100
AcDbLine
 62
6
  6
CONTINUOUS
 10
8.1332788896
 20
1.1994439029
 11
8.1420402483
 21
1.1994439029
  0
LINE
  5
227
100
AcDbEntity
  8
0
100
AcDbLine
 62
6
  6
CONTINUOUS
 10
8.2981767371
 20
1.1994439029
 11
8.3119037592
 21
1.1994439029
  0
LINE
  5
228
100
AcDbEntity
  8
0
100
AcDbLine
 62
6
  6
CONTINUOUS
 10
8.3300402483
 20
1.1996803087
 11
8.2830402483
 21
1.1996803087
  0
LINE
  5
229
100
AcDbEntity
  8
0
100
AcDbLine
 62
6
  6
CONTINUOUS
 10
7.5714571774
 20
1.2051819891
 11
7.4481908689
 21
1.2051819891
  0
LINE
  5
22A
100
AcDbEntity
  8
0
100
AcDbLine
 62
7
  6
CONTINUOUS
 10
6.7029124015
 20
1.4709889423
 11
6.7295184627
 21
1.4756803087
  0
LINE
  5
22B
100
AcDbEntity
  8
0
100
AcDbLine
 62
7
  6
CONTINUOUS
 10
6.7380253854
 20
1.4771803087
 11
6.8219124015
 21
1.491971853
  0
LINE
  5
22C
100
AcDbEntity
  8
0
100
AcDbLine
 62
7
  6
CONTINUOUS
 10
6.8219124015
 20
1.494971853
 11
6.7295184627
 21
1.4786803087
  0
LINE
  5
22D
100
AcDbEntity
  8
0
100
AcDbLine
 62
7
  6
CONTINUOUS
 10
6.7210115399
 20
1.4771803087
 11
6.7029124015
 21
1.4739889423
  0
LINE
  5
22E
100
AcDbEntity
  8
0
100
AcDbLine
 62
6
  6
CONTINUOUS
 10
6.7294501121
 20
1.5360899731
 11
6.7295184627
 21
1.5361015812
  0
LINE
  5
22F
100
AcDbEntity
  8
0
100
AcDbLine
 62
7
  6
CONTINUOUS
 10
6.6379054703
 20
1.5230452563
 11
6.7210115399
 21
1.5371314336
  0
LINE
  5
230
100
AcDbEntity
  8
0
100
AcDbLine
 62
7
  6
CONTINUOUS
 10
6.7295184627
 20
1.5385733262
 11
6.8219124015
 21
1.5542337637
  0
LINE
  5
231
100
AcDbEntity
  8
0
100
AcDbLine
 62
7
  6
CONTINUOUS
 10
6.7210115399
 20
1.5375448897
 11
6.7209431128
 21
1.5375332914
  0
LINE
  5
232
100
AcDbEntity
  8
0
100
AcDbLine
 62
6
  6
CONTINUOUS
 10
6.8219124015
 20
1.402227837
 11
6.7380253854
 21
1.3887150889
  0
LINE
  5
233
100
AcDbEntity
  8
0
100
AcDbLine
 62
6
  6
CONTINUOUS
 10
6.7295184627
 20
1.3873447707
 11
6.638124543
 21
1.3726227902
  0
LINE
  5
234
100
AcDbEntity
  8
0
100
AcDbLine
 62
6
  6
CONTINUOUS
 10
6.738141647
 20
1.5924551337
 11
6.7380253854
 21
1.5924377487
  0
LINE
  5
235
100
AcDbEntity
  8
0
100
AcDbLine
 62
6
  6
CONTINUOUS
 10
6.6379054703
 20
1.5800105856
 11
6.7210115399
 21
1.5924377487
  0
LINE
  5
236
100
AcDbEntity
  8
0
100
AcDbLine
 62
6
  6
CONTINUOUS
 10
6.7295184627
 20
1.5937098209
 11
6.8219124015
 21
1.607525834
  0
LINE
  5
237
100
AcDbEntity
  8
0
100
AcDbLine
 62
6
  6
CONTINUOUS
 10
6.821837258
 20
1.6055007993
 11
6.8219124015
 21
1.6055115607
  0
LINE
  5
238
100
AcDbEntity
  8
0
100
AcDbLine
 62
6
  6
CONTINUOUS
 10
6.7381551005
 20
1.6388296128
 11
6.7380253854
 21
1.6388143083
  0
LINE
  5
239
100
AcDbEntity
  8
0
100
AcDbLine
 62
6
  6
CONTINUOUS
 10
6.6379054703
 20
1.6290089739
 11
6.7210115399
 21
1.6388143083
  0
LINE
  5
23A
100
AcDbEntity
  8
0
100
AcDbLine
 62
6
  6
CONTINUOUS
 10
6.7295184627
 20
1.6398180042
 11
6.8219124015
 21
1.6507191751
  0
LINE
  5
23B
100
AcDbEntity
  8
0
100
AcDbLine
 62
7
  6
CONTINUOUS
 10
6.7581833817
 20
1.2670008751
 11
6.7672683562
 21
1.2673884161
  0
LINE
  5
23C
100
AcDbEntity
  8
0
100
AcDbLine
 62
7
  6
CONTINUOUS
 10
6.7595729318
 20
1.2677859153
 11
6.7503687468
 21
1.2673932891
  0
LINE
  5
23D
100
AcDbEntity
  8
0
100
AcDbLine
 62
7
  6
CONTINUOUS
 10
6.656975759
 20
1.2593140469
 11
6.6434110649
 21
1.2592305736
  0
LINE
  5
23E
100
AcDbEntity
  8
0
100
AcDbLine
 62
7
  6
CONTINUOUS
 10
6.6389123239
 20
1.259307588
 11
6.652459311
 21
1.2593909524
  0
LINE
  5
23F
100
AcDbEntity
  8
0
100
AcDbLine
 62
6
  6
CONTINUOUS
 10
8.3300402483
 20
1.2260788432
 11
8.5519124015
 21
1.2260788432
  0
LINE
  5
240
100
AcDbEntity
  8
0
100
AcDbLine
 62
6
  6
CONTINUOUS
 10
6.6389123853
 20
1.2581803087
 11
6.6776675805
 21
1.2581803087
  0
LINE
  5
241
100
AcDbEntity
  8
0
100
AcDbLine
 62
6
  6
CONTINUOUS
 10
6.6946840226
 20
1.2581803087
 11
6.7643525067
 21
1.2581803087
  0
LINE
  5
242
100
AcDbEntity
  8
0
100
AcDbLine
 62
6
  6
CONTINUOUS
 10
6.7813699112
 20
1.2581803087
 11
6.8219124015
 21
1.2581803087
  0
LINE
  5
243
100
AcDbEntity
  8
0
100
AcDbLine
 62
6
  6
CONTINUOUS
 10
6.7894493783
 20
1.2656803087
 11
6.8011139974
 21
1.2656803087
  0
LINE
  5
244
100
AcDbEntity
  8
0
100
AcDbLine
 62
6
  6
CONTINUOUS
 10
7.4481908689
 20
1.2906803087
 11
7.4369124015
 21
1.2906803087
  0
LINE
  5
245
100
AcDbEntity
  8
0
100
AcDbLine
 62
6
  6
CONTINUOUS
 10
9.0369124015
 20
1.2934311818
 11
9.2469124015
 21
1.2934311818
  0
LINE
  5
246
100
AcDbEntity
  8
0
100
AcDbLine
 62
6
  6
CONTINUOUS
 10
9.0369124015
 20
1.2991993875
 11
9.2469124015
 21
1.2991993875
  0
LINE
  5
247
100
AcDbEntity
  8
0
100
AcDbLine
 62
6
  6
CONTINUOUS
 10
9.0369124015
 20
1.315637115
 11
9.2469124015
 21
1.315637115
  0
LINE
  5
248
100
AcDbEntity
  8
0
100
AcDbLine
 62
7
  6
CONTINUOUS
 10
9.2575053479
 20
1.3227054756
 11
9.2684124015
 21
1.3227054756
  0
LINE
  5
249
100
AcDbEntity
  8
0
100
AcDbLine
 62
6
  6
CONTINUOUS
 10
9.0369124015
 20
1.3320635751
 11
9.2469124015
 21
1.3320635751
  0
LINE
  5
24A
100
AcDbEntity
  8
0
100
AcDbLine
 62
6
  6
CONTINUOUS
 10
9.0369124015
 20
1.3549646343
 11
9.2684124015
 21
1.3549646343
  0
LINE
  5
24B
100
AcDbEntity
  8
0
100
AcDbLine
 62
6
  6
CONTINUOUS
 10
9.0369124015
 20
1.362436535
 11
9.2469124015
 21
1.362436535
  0
LINE
  5
24C
100
AcDbEntity
  8
0
100
AcDbLine
 62
6
  6
CONTINUOUS
 10
9.0369124015
 20
1.3870204698
 11
9.2469124015
 21
1.3870204698
  0
LINE
  5
24D
100
AcDbEntity
  8
0
100
AcDbLine
 62
6
  6
CONTINUOUS
 10
9.0369124015
 20
1.4058300216
 11
9.2684124015
 21
1.4058300216
  0
LINE
  5
24E
100
AcDbEntity
  8
0
100
AcDbLine
 62
9
  6
CONTINUOUS
 10
7.5990402483
 20
1.4181803087
 11
7.8740402483
 21
1.4181803087
  0
LINE
  5
24F
100
AcDbEntity
  8
0
100
AcDbLine
 62
6
  6
CONTINUOUS
 10
9.0369124015
 20
1.4236100193
 11
9.2684124015
 21
1.4236100193
  0
LINE
  5
250
100
AcDbEntity
  8
0
100
AcDbLine
 62
6
  6
CONTINUOUS
 10
9.0369124015
 20
1.4267046545
 11
9.2469124015
 21
1.4267046545
  0
LINE
  5
251
100
AcDbEntity
  8
0
100
AcDbLine
 62
6
  6
CONTINUOUS
 10
6.6289124015
 20
1.4446803087
 11
6.7029124015
 21
1.4446803087
  0
LINE
  5
252
100
AcDbEntity
  8
0
100
AcDbLine
 62
6
  6
CONTINUOUS
 10
9.0369124015
 20
1.4557033828
 11
9.2469124015
 21
1.4557033828
  0
LINE
  5
253
100
AcDbEntity
  8
0
100
AcDbLine
 62
7
  6
CONTINUOUS
 10
9.0369124015
 20
1.4675578434
 11
9.2684124015
 21
1.4675578434
  0
LINE
  5
254
100
AcDbEntity
  8
0
100
AcDbLine
 62
7
  6
CONTINUOUS
 10
6.8259124015
 20
1.4771803087
 11
6.8369124015
 21
1.4771803087
  0
LINE
  5
255
100
AcDbEntity
  8
0
100
AcDbLine
 62
7
  6
CONTINUOUS
 10
9.0369124015
 20
1.4868027741
 11
9.2684124015
 21
1.4868027741
  0
LINE
  5
256
100
AcDbEntity
  8
0
100
AcDbLine
 62
6
  6
CONTINUOUS
 10
9.0369124015
 20
1.4986572347
 11
9.2469124015
 21
1.4986572347
  0
LINE
  5
257
100
AcDbEntity
  8
0
100
AcDbLine
 62
6
  6
CONTINUOUS
 10
6.6289124015
 20
1.5096803087
 11
6.7029124015
 21
1.5096803087
  0
LINE
  5
258
100
AcDbEntity
  8
0
100
AcDbLine
 62
6
  6
CONTINUOUS
 10
9.0369124015
 20
1.527655963
 11
9.2469124015
 21
1.527655963
  0
LINE
  5
259
100
AcDbEntity
  8
0
100
AcDbLine
 62
7
  6
CONTINUOUS
 10
9.0369124015
 20
1.5307505982
 11
9.2684124015
 21
1.5307505982
  0
LINE
  5
25A
100
AcDbEntity
  8
0
100
AcDbLine
 62
9
  6
CONTINUOUS
 10
7.5990402483
 20
1.5361803087
 11
7.8740402483
 21
1.5361803087
  0
LINE
  5
25B
100
AcDbEntity
  8
0
100
AcDbLine
 62
7
  6
CONTINUOUS
 10
9.0369124015
 20
1.5485305958
 11
9.2684124015
 21
1.5485305958
  0
LINE
  5
25C
100
AcDbEntity
  8
0
100
AcDbLine
 62
7
  6
CONTINUOUS
 10
6.8154256471
 20
1.2592318056
 11
6.8019669181
 21
1.2593146269
  0
LINE
  5
25D
100
AcDbEntity
  8
0
100
AcDbLine
 62
7
  6
CONTINUOUS
 10
6.638227504
 20
1.2603222339
 11
6.6381238988
 21
1.2603228714
  0
LINE
  5
25E
100
AcDbEntity
  8
0
100
AcDbLine
 62
7
  6
CONTINUOUS
 10
6.8064463124
 20
1.2593917604
 11
6.8203529919
 21
1.2593061826
  0
LINE
  5
25F
100
AcDbEntity
  8
0
100
AcDbLine
 62
7
  6
CONTINUOUS
 10
6.6917873591
 20
1.2673876146
 11
6.7008722594
 21
1.2670000768
  0
LINE
  5
260
100
AcDbEntity
  8
0
100
AcDbLine
 62
7
  6
CONTINUOUS
 10
6.708681792
 20
1.2673927084
 11
6.6994778388
 21
1.2677853247
  0
LINE
  5
261
100
AcDbEntity
  8
0
100
AcDbLine
 62
7
  6
CONTINUOUS
 10
6.7379750217
 20
1.2694012097
 11
6.733886261
 21
1.2696239982
  0
LINE
  5
262
100
AcDbEntity
  8
0
100
AcDbLine
 62
7
  6
CONTINUOUS
 10
6.6548285952
 20
1.273931695
 11
6.6379054703
 21
1.2748538028
  0
LINE
  5
263
100
AcDbEntity
  8
0
100
AcDbLine
 62
6
  6
CONTINUOUS
 10
6.7420722244
 20
1.2701050121
 11
6.7507843838
 21
1.2696303037
  0
LINE
  5
264
100
AcDbEntity
  8
0
100
AcDbLine
 62
6
  6
CONTINUOUS
 10
6.6389123853
 20
1.2749636427
 11
6.6389857118
 21
1.2749586632
  0
LINE
  5
265
100
AcDbEntity
  8
0
100
AcDbLine
 62
6
  6
CONTINUOUS
 10
6.6869189696
 20
1.2918255034
 11
6.6928333852
 21
1.2913040679
  0
LINE
  5
266
100
AcDbEntity
  8
0
100
AcDbLine
 62
6
  6
CONTINUOUS
 10
6.7010259608
 20
1.2920817818
 11
6.6949504837
 21
1.2926174171
  0
LINE
  5
267
100
AcDbEntity
  8
0
100
AcDbLine
 62
6
  6
CONTINUOUS
 10
6.8218374395
 20
1.2877709978
 11
6.8219124015
 21
1.287764348
  0
LINE
  5
268
100
AcDbEntity
  8
0
100
AcDbLine
 62
7
  6
CONTINUOUS
 10
6.8219124015
 20
1.2869157314
 11
6.7295184627
 21
1.2960258474
  0
LINE
  5
269
100
AcDbEntity
  8
0
100
AcDbLine
 62
7
  6
CONTINUOUS
 10
6.7210115399
 20
1.2968646367
 11
6.6379054703
 21
1.3050589613
  0
LINE
  5
26A
100
AcDbEntity
  8
0
100
AcDbLine
 62
6
  6
CONTINUOUS
 10
6.7380253854
 20
1.2968646367
 11
6.7442533806
 21
1.2962505514
  0
LINE
  5
26B
100
AcDbEntity
  8
0
100
AcDbLine
 62
7
  6
CONTINUOUS
 10
6.6867110424
 20
1.3304427545
 11
6.6899496503
 21
1.3300319727
  0
LINE
  5
26C
100
AcDbEntity
  8
0
100
AcDbLine
 62
7
  6
CONTINUOUS
 10
6.6982796324
 20
1.3311334253
 11
6.6949504837
 21
1.3315556913
  0
LINE
  5
26D
100
AcDbEntity
  8
0
100
AcDbLine
 62
6
  6
CONTINUOUS
 10
6.8219124015
 20
1.32374489
 11
6.7295184627
 21
1.336224937
  0
LINE
  5
26E
100
AcDbEntity
  8
0
100
AcDbLine
 62
6
  6
CONTINUOUS
 10
6.7210115399
 20
1.3373740036
 11
6.6379054703
 21
1.3485994981
  0
LINE
  5
26F
100
AcDbEntity
  8
0
100
AcDbLine
 62
7
  6
CONTINUOUS
 10
6.7380253854
 20
1.3373740036
 11
6.7415693357
 21
1.336895307
  0
LINE
  5
270
100
AcDbEntity
  8
0
100
AcDbLine
 62
6
  6
CONTINUOUS
 10
3.1185964522
 20
6.0109327662
 11
3.1185964522
 21
6.0745723766
  0
LINE
  5
271
100
AcDbEntity
  8
0
100
AcDbLine
 62
6
  6
CONTINUOUS
 10
3.1893071303
 20
6.2513490718
 11
3.1893071303
 21
6.1877094615
  0
LINE
  5
272
100
AcDbEntity
  8
0
100
AcDbLine
 62
6
  6
CONTINUOUS
 10
6.6379054703
 20
1.6662441921
 11
6.7210115399
 21
1.6726680138
  0
LINE
  5
273
100
AcDbEntity
  8
0
100
AcDbLine
 62
6
  6
CONTINUOUS
 10
6.7296978755
 20
1.6733394385
 11
6.738027927
 21
1.6739833237
  0
LINE
  5
274
100
AcDbEntity
  8
0
100
AcDbLine
 62
6
  6
CONTINUOUS
 10
6.7503756696
 20
1.674937763
 11
6.8219124015
 21
1.6804673135
  0
LINE
  5
275
100
AcDbEntity
  8
0
100
AcDbLine
 62
6
  6
CONTINUOUS
 10
6.8219124015
 20
1.6811648781
 11
6.8218377241
 21
1.6811600701
  0
LINE
  5
276
100
AcDbEntity
  8
0
100
AcDbLine
 62
7
  6
CONTINUOUS
 10
6.761044824
 20
1.692080824
 11
6.7519385853
 21
1.6918020013
  0
LINE
  5
277
100
AcDbEntity
  8
0
100
AcDbLine
 62
7
  6
CONTINUOUS
 10
6.6379054703
 20
1.688831382
 11
6.6386444435
 21
1.6888540085
  0
LINE
  5
278
100
AcDbEntity
  8
0
100
AcDbLine
 62
7
  6
CONTINUOUS
 10
6.7440048697
 20
1.6920800245
 11
6.7529269278
 21
1.6923532078
  0
LINE
  5
279
100
AcDbEntity
  8
0
100
AcDbLine
 62
7
  6
CONTINUOUS
 10
6.7140379182
 20
1.6930467035
 11
6.724519227
 21
1.6932398864
  0
LINE
  5
27A
100
AcDbEntity
  8
0
100
AcDbLine
 62
7
  6
CONTINUOUS
 10
6.7582961562
 20
1.6938624354
 11
6.8219124015
 21
1.6950349584
  0
LINE
  5
27B
100
AcDbEntity
  8
0
100
AcDbLine
 62
7
  6
CONTINUOUS
 10
6.7175020897
 20
1.6934241376
 11
6.7072471438
 21
1.6932351268
  0
LINE
  5
27C
100
AcDbEntity
  8
0
100
AcDbLine
 62
9
  6
CONTINUOUS
 10
8.2843596014
 20
1.7546802968
 11
8.284362128
 21
1.7546803087
  0
LINE
  5
27D
100
AcDbEntity
  8
0
100
AcDbLine
 62
6
  6
CONTINUOUS
 10
9.0369124015
 20
1.5673401476
 11
9.2469124015
 21
1.5673401476
  0
LINE
  5
27E
100
AcDbEntity
  8
0
100
AcDbLine
 62
6
  6
CONTINUOUS
 10
9.0369124015
 20
1.5919240825
 11
9.2469124015
 21
1.5919240825
  0
LINE
  5
27F
100
AcDbEntity
  8
0
100
AcDbLine
 62
6
  6
CONTINUOUS
 10
9.0369124015
 20
1.5993959831
 11
9.2684124015
 21
1.5993959831
  0
LINE
  5
280
100
AcDbEntity
  8
0
100
AcDbLine
 62
6
  6
CONTINUOUS
 10
9.0369124015
 20
1.6222970424
 11
9.2469124015
 21
1.6222970424
  0
LINE
  5
281
100
AcDbEntity
  8
0
100
AcDbLine
 62
7
  6
CONTINUOUS
 10
9.2575053502
 20
1.6316551419
 11
9.2684124015
 21
1.6316551419
  0
LINE
  5
282
100
AcDbEntity
  8
0
100
AcDbLine
 62
6
  6
CONTINUOUS
 10
9.0369124015
 20
1.6387235025
 11
9.2469124015
 21
1.6387235025
  0
LINE
  5
283
100
AcDbEntity
  8
0
100
AcDbLine
 62
6
  6
CONTINUOUS
 10
9.0369124015
 20
1.65516123
 11
9.2469124015
 21
1.65516123
  0
LINE
  5
284
100
AcDbEntity
  8
0
100
AcDbLine
 62
6
  6
CONTINUOUS
 10
9.0369124015
 20
1.6609294357
 11
9.2469124015
 21
1.6609294357
  0
LINE
  5
285
100
AcDbEntity
  8
0
100
AcDbLine
 62
6
  6
CONTINUOUS
 10
7.4481908689
 20
1.6636803087
 11
7.4369124015
 21
1.6636803087
  0
LINE
  5
286
100
AcDbEntity
  8
0
100
AcDbLine
 62
6
  6
CONTINUOUS
 10
6.6389123853
 20
1.6961803087
 11
6.8219124015
 21
1.6961803087
  0
LINE
  5
287
100
AcDbEntity
  8
0
100
AcDbLine
 62
6
  6
CONTINUOUS
 10
8.3300402483
 20
1.7282817743
 11
8.5519124015
 21
1.7282817743
  0
LINE
  5
288
100
AcDbEntity
  8
0
100
AcDbLine
 62
6
  6
CONTINUOUS
 10
7.5714571774
 20
1.7491786284
 11
7.4481908689
 21
1.7491786284
  0
LINE
  5
289
100
AcDbEntity
  8
0
100
AcDbLine
 62
6
  6
CONTINUOUS
 10
8.3300402483
 20
1.7546803087
 11
8.2843673877
 21
1.7546803087
  0
LINE
  5
28A
100
AcDbEntity
  8
0
100
AcDbLine
 62
6
  6
CONTINUOUS
 10
8.284362128
 20
1.7549167145
 11
8.2800402483
 21
1.7549167145
  0
LINE
  5
28B
100
AcDbEntity
  8
0
100
AcDbLine
 62
6
  6
CONTINUOUS
 10
8.1193016071
 20
1.7549167145
 11
8.1055402483
 21
1.7549167145
  0
LINE
  5
28C
100
AcDbEntity
  8
0
100
AcDbLine
 62
6
  6
CONTINUOUS
 10
8.0093016071
 20
1.7549167145
 11
7.9955402483
 21
1.7549167145
  0
LINE
  5
28D
100
AcDbEntity
  8
0
100
AcDbLine
 62
6
  6
CONTINUOUS
 10
7.9543016071
 20
1.7549167145
 11
7.9530402483
 21
1.7549167145
  0
LINE
  5
28E
100
AcDbEntity
  8
0
100
AcDbLine
 62
6
  6
CONTINUOUS
 10
8.1420402483
 20
1.7849167145
 11
8.1368607564
 21
1.7849167145
  0
LINE
  5
28F
100
AcDbEntity
  8
0
100
AcDbLine
 62
6
  6
CONTINUOUS
 10
8.0330402483
 20
1.7849167145
 11
8.0268607564
 21
1.7849167145
  0
LINE
  5
290
100
AcDbEntity
  8
0
100
AcDbLine
 62
6
  6
CONTINUOUS
 10
7.9782197402
 20
1.7849167145
 11
7.9718607564
 21
1.7849167145
  0
LINE
  5
291
100
AcDbEntity
  8
0
100
AcDbLine
 62
6
  6
CONTINUOUS
 10
8.3300402483
 20
1.7882817743
 11
8.5519124015
 21
1.7882817743
  0
LINE
  5
292
100
AcDbEntity
  8
0
100
AcDbLine
 62
6
  6
CONTINUOUS
 10
7.4369124015
 20
1.7921803087
 11
7.3578020894
 21
1.7921803087
  0
LINE
  5
293
100
AcDbEntity
  8
0
100
AcDbLine
 62
6
  6
CONTINUOUS
 10
6.9160227137
 20
1.7921803087
 11
6.8369124015
 21
1.7921803087
  0
LINE
  5
294
100
AcDbEntity
  8
0
100
AcDbLine
 62
7
  6
CONTINUOUS
 10
6.6387122132
 20
1.6950056954
 11
6.7009719938
 21
1.6938581736
  0
LINE
  5
295
100
AcDbEntity
  8
0
100
AcDbLine
 62
7
  6
CONTINUOUS
 10
6.7345247427
 20
1.6932397566
 11
6.7450084887
 21
1.6930465287
  0
LINE
  5
296
100
AcDbEntity
  8
0
100
AcDbLine
 62
7
  6
CONTINUOUS
 10
6.7518084961
 20
1.6932347819
 11
6.7415517679
 21
1.6934238256
  0
LINE
  5
297
100
AcDbEntity
  8
0
100
AcDbLine
 62
7
  6
CONTINUOUS
 10
6.7070768661
 20
1.6918026588
 11
6.6979695556
 21
1.6920815143
  0
LINE
  5
298
100
AcDbEntity
  8
0
100
AcDbLine
 62
7
  6
CONTINUOUS
 10
6.638124543
 20
1.6944348448
 11
6.63842711
 21
1.6944255806
  0
LINE
  5
299
100
AcDbEntity
  8
0
100
AcDbLine
 62
7
  6
CONTINUOUS
 10
6.7060954026
 20
1.6923536547
 11
6.7150181806
 21
1.6920804494
  0
LINE
  5
29A
100
AcDbEntity
  8
0
100
AcDbLine
 62
6
  6
CONTINUOUS
 10
6.6389123853
 20
1.6810495715
 11
6.6389875154
 21
1.6810447171
  0
LINE
  5
29B
100
AcDbEntity
  8
0
100
AcDbLine
 62
6
  6
CONTINUOUS
 10
6.638124543
 20
1.6803900153
 11
6.7083916214
 21
1.6749586048
  0
LINE
  5
29C
100
AcDbEntity
  8
0
100
AcDbLine
 62
6
  6
CONTINUOUS
 10
6.7210089983
 20
1.6739833237
 11
6.729338985
 21
1.6733394436
  0
LINE
  5
29D
100
AcDbEntity
  8
0
100
AcDbLine
 62
6
  6
CONTINUOUS
 10
6.7380253854
 20
1.6726680138
 11
6.8219124015
 21
1.6661838276
  0
LINE
  5
29E
100
AcDbEntity
  8
0
100
AcDbLine
 62
6
  6
CONTINUOUS
 10
6.7210115399
 20
1.6388143083
 11
6.7208818249
 21
1.6388296128
  0
LINE
  5
29F
100
AcDbEntity
  8
0
100
AcDbLine
 62
6
  6
CONTINUOUS
 10
6.638124543
 20
1.650601187
 11
6.7295184627
 21
1.6398180042
  0
LINE
  5
2A0
100
AcDbEntity
  8
0
100
AcDbLine
 62
6
  6
CONTINUOUS
 10
6.7380253854
 20
1.6388143083
 11
6.8219124015
 21
1.6289168333
  0
LINE
  5
2A1
100
AcDbEntity
  8
0
100
AcDbLine
 62
6
  6
CONTINUOUS
 10
6.7210115399
 20
1.5924377487
 11
6.7208952784
 21
1.5924551337
  0
LINE
  5
2A2
100
AcDbEntity
  8
0
100
AcDbLine
 62
6
  6
CONTINUOUS
 10
6.638124543
 20
1.6073762973
 11
6.7295184627
 21
1.5937098209
  0
LINE
  5
2A3
100
AcDbEntity
  8
0
100
AcDbLine
 62
6
  6
CONTINUOUS
 10
6.7380253854
 20
1.5924377487
 11
6.8219124015
 21
1.5798938077
  0
LINE
  5
2A4
100
AcDbEntity
  8
0
100
AcDbLine
 62
6
  6
CONTINUOUS
 10
6.8219124015
 20
1.3724617044
 11
6.7295184627
 21
1.3873447707
  0
LINE
  5
2A5
100
AcDbEntity
  8
0
100
AcDbLine
 62
6
  6
CONTINUOUS
 10
6.7210115399
 20
1.3887150889
 11
6.6379054703
 21
1.40210204
  0
LINE
  5
2A6
100
AcDbEntity
  8
0
100
AcDbLine
 62
7
  6
CONTINUOUS
 10
6.7380253854
 20
1.3887150889
 11
6.7381211772
 21
1.3886996585
  0
LINE
  5
2A7
100
AcDbEntity
  8
0
100
AcDbLine
 62
6
  6
CONTINUOUS
 10
6.7629807925
 20
1.5446156717
 11
6.7640864417
 21
1.5444324732
  0
LINE
  5
2A8
100
AcDbEntity
  8
0
100
AcDbLine
 62
7
  6
CONTINUOUS
 10
6.7724968411
 20
1.5458580054
 11
6.7714223792
 21
1.5460360364
  0
LINE
  5
2A9
100
AcDbEntity
  8
0
100
AcDbLine
 62
6
  6
CONTINUOUS
 10
6.7210115399
 20
1.5371314336
 11
6.7197947647
 21
1.5373376726
  0
LINE
  5
2AA
100
AcDbEntity
  8
0
100
AcDbLine
 62
6
  6
CONTINUOUS
 10
6.638124543
 20
1.554064264
 11
6.7295184627
 21
1.5385733262
  0
LINE
  5
2AB
100
AcDbEntity
  8
0
100
AcDbLine
 62
6
  6
CONTINUOUS
 10
6.7380253854
 20
1.5371314336
 11
6.8219124015
 21
1.5229128887
  0
LINE
  5
2AC
100
AcDbEntity
  8
0
100
AcDbLine
 62
6
  6
CONTINUOUS
 10
6.7295184627
 20
1.5361015812
 11
6.7295868199
 21
1.536089972
  0
LINE
  5
2AD
100
AcDbEntity
  8
0
100
AcDbLine
 62
7
  6
CONTINUOUS
 10
6.7029124015
 20
1.4803716752
 11
6.7210115399
 21
1.4771803087
  0
LINE
  5
2AE
100
AcDbEntity
  8
0
100
AcDbLine
 62
7
  6
CONTINUOUS
 10
6.7295184627
 20
1.4756803087
 11
6.8219124015
 21
1.4593887645
  0
LINE
  5
2AF
100
AcDbEntity
  8
0
100
AcDbLine
 62
7
  6
CONTINUOUS
 10
6.7029124015
 20
1.4833716752
 11
6.7295184627
 21
1.4786803087
  0
LINE
  5
2B0
100
AcDbEntity
  8
0
100
AcDbLine
 62
7
  6
CONTINUOUS
 10
6.7380253854
 20
1.4771803087
 11
6.8219124015
 21
1.4623887645
  0
LINE
  5
2B1
100
AcDbEntity
  8
0
100
AcDbLine
 62
9
  6
CONTINUOUS
 10
6.9287873493
 20
1.9928557187
 11
6.9284745325
 21
1.9928426302
  0
LINE
  5
2B2
100
AcDbEntity
  8
0
100
AcDbLine
 62
9
  6
CONTINUOUS
 10
7.5990402483
 20
1.9101803087
 11
7.8740402483
 21
1.9101803087
  0
LINE
  5
2B3
100
AcDbEntity
  8
0
100
AcDbLine
 62
9
  6
CONTINUOUS
 10
7.5990402483
 20
1.9691803087
 11
7.8740402483
 21
1.9691803087
  0
LINE
  5
2B4
100
AcDbEntity
  8
0
100
AcDbLine
 62
9
  6
CONTINUOUS
 10
7.2496178337
 20
1.9928502228
 11
7.0242069688
 21
1.9928502228
  0
LINE
  5
2B5
100
AcDbEntity
  8
0
100
AcDbLine
 62
6
  6
CONTINUOUS
 10
7.9530402483
 20
2.0281803087
 11
7.8740402483
 21
2.0281803087
  0
LINE
  5
2B6
100
AcDbEntity
  8
0
100
AcDbLine
 62
6
  6
CONTINUOUS
 10
8.2800402483
 20
2.0871803087
 11
8.1420402483
 21
2.0871803087
  0
LINE
  5
2B7
100
AcDbEntity
  8
0
100
AcDbLine
 62
6
  6
CONTINUOUS
 10
8.5669124015
 20
2.0921803087
 11
8.6075141003
 21
2.0921803087
  0
LINE
  5
2B8
100
AcDbEntity
  8
0
100
AcDbLine
 62
6
  6
CONTINUOUS
 10
8.0920402483
 20
2.1071803087
 11
8.0330402483
 21
2.1071803087
  0
LINE
  5
2B9
100
AcDbEntity
  8
0
100
AcDbLine
 62
9
  6
CONTINUOUS
 10
7.3450369682
 20
1.9928465466
 11
7.2636421101
 21
1.9928543396
  0
LINE
  5
2BA
100
AcDbEntity
  8
0
100
AcDbLine
 62
9
  6
CONTINUOUS
 10
7.3453501169
 20
1.9928440709
 11
7.3450373081
 21
1.9928571592
  0
LINE
  5
2BB
100
AcDbEntity
  8
0
100
AcDbLine
 62
6
  6
CONTINUOUS
 10
3.8257032334
 20
5.3038259851
 11
3.8257032334
 21
5.3674655954
  0
LINE
  5
2BC
100
AcDbEntity
  8
0
100
AcDbLine
 62
6
  6
CONTINUOUS
 10
3.8964139115
 20
5.5442422907
 11
3.8964139115
 21
5.4806026804
  0
LINE
  5
2BD
100
AcDbEntity
  8
0
100
AcDbLine
 62
6
  6
CONTINUOUS
 10
7.5983315242
 20
1.7760628449
 11
7.5986125327
 21
1.7759603975
  0
LINE
  5
2BE
100
AcDbEntity
  8
0
100
AcDbLine
 62
6
  6
CONTINUOUS
 10
6.6289124015
 20
1.2681802932
 11
6.6388589452
 21
1.2582337488
  0
LINE
  5
2BF
100
AcDbEntity
  8
0
100
AcDbLine
 62
9
  6
CONTINUOUS
 10
6.1178372633
 20
3.2774492196
 11
6.1257267685
 21
3.2774492196
  0
LINE
  5
2C0
100
AcDbEntity
  8
0
100
AcDbLine
 62
9
  6
CONTINUOUS
 10
6.1178372633
 20
3.3056947282
 11
6.1257268508
 21
3.3056947282
  0
LINE
  5
2C1
100
AcDbEntity
  8
0
100
AcDbLine
 62
6
  6
CONTINUOUS
 10
7.9820402483
 20
1.1994439029
 11
7.981562872
 21
1.199856809
  0
LINE
  5
2C2
100
AcDbEntity
  8
0
100
AcDbLine
 62
6
  6
CONTINUOUS
 10
7.9993607564
 20
1.1694439029
 11
7.9989298355
 21
1.1698167156
  0
LINE
  5
2C3
100
AcDbEntity
  8
0
100
AcDbLine
 62
6
  6
CONTINUOUS
 10
6.1857010857
 20
2.5890812615
 11
6.2722311746
 21
2.5025511726
  0
LINE
  5
2C4
100
AcDbEntity
  8
0
100
AcDbLine
 62
6
  6
CONTINUOUS
 10
7.5808972228
 20
1.195732074
 11
7.5714571774
 21
1.2051721194
  0
LINE
  5
2C5
100
AcDbEntity
  8
0
100
AcDbLine
 62
6
  6
CONTINUOUS
 10
6.5185475214
 20
3.2084869271
 11
6.6960114487
 21
3.0993916246
  0
LINE
  5
2C6
100
AcDbEntity
  8
0
100
AcDbLine
 62
6
  6
CONTINUOUS
 10
8.1093607563
 20
1.1694439029
 11
8.1089298355
 21
1.1698167156
  0
LWPOLYLINE
  5
2C7
100
AcDbEntity
  8
0
100
AcDbPolyline
 62
6
  6
CONTINUOUS
 90
12
 70
0
 10
6.8709915974
 20
2.1019434389
 10
6.8810432271
 20
2.0921836884
 10
6.8905564601
 20
2.0817699254
 10
6.8988475938
 20
2.071369627
 10
6.9059683447
 20
2.0610170737
 10
6.9119818594
 20
2.0507465122
 10
6.9169590446
 20
2.0405870366
 10
6.9209711236
 20
2.0305603355
 10
6.9240830516
 20
2.0206737397
 10
6.9263509962
 20
2.0109293678
 10
6.9278181647
 20
2.0013135529
 10
6.9284745325
 20
1.9928426302
  0
LINE
  5
2C8
100
AcDbEntity
  8
0
100
AcDbLine
 62
6
  6
CONTINUOUS
 10
6.3132786764
 20
2.7166588523
 11
6.3998087654
 21
2.6301287633
  0
LINE
  5
2C9
100
AcDbEntity
  8
0
100
AcDbLine
 62
6
  6
CONTINUOUS
 10
1.7652664678
 20
7.3642627506
 11
1.8795325611
 21
7.2499966573
  0
LINE
  5
2CA
100
AcDbEntity
  8
0
100
AcDbLine
 62
6
  6
CONTINUOUS
 10
2.151487186
 20
6.9780420325
 11
2.3266368572
 21
6.8028923612
  0
LINE
  5
2CB
100
AcDbEntity
  8
0
100
AcDbLine
 62
6
  6
CONTINUOUS
 10
2.411489671
 20
6.7180395474
 11
2.5866393423
 21
6.5428898762
  0
LINE
  5
2CC
100
AcDbEntity
  8
0
100
AcDbLine
 62
6
  6
CONTINUOUS
 10
2.8585939671
 20
6.2709352513
 11
3.0337436384
 21
6.09578558
  0
LINE
  5
2CD
100
AcDbEntity
  8
0
100
AcDbLine
 62
6
  6
CONTINUOUS
 10
3.1185964522
 20
6.0109327662
 11
3.2937461235
 21
5.835783095
  0
LINE
  5
2CE
100
AcDbEntity
  8
0
100
AcDbLine
 62
6
  6
CONTINUOUS
 10
3.5657007483
 20
5.5638284701
 11
3.7408504196
 21
5.3886787988
  0
LINE
  5
2CF
100
AcDbEntity
  8
0
100
AcDbLine
 62
6
  6
CONTINUOUS
 10
3.8257032334
 20
5.3038259851
 11
4.0008529046
 21
5.1286763138
  0
LINE
  5
2D0
100
AcDbEntity
  8
0
100
AcDbLine
 62
6
  6
CONTINUOUS
 10
4.2728075295
 20
4.8567216889
 11
5.3519484069
 21
3.7775808116
  0
LINE
  5
2D1
100
AcDbEntity
  8
0
100
AcDbLine
 62
9
  6
CONTINUOUS
 10
5.979397982
 20
3.167255447
 11
3.8257032334
 21
5.3209501957
  0
LINE
  5
2D2
100
AcDbEntity
  8
0
100
AcDbLine
 62
9
  6
CONTINUOUS
 10
3.7579746302
 20
5.3886787988
 11
3.1185964522
 21
6.0280569769
  0
LINE
  5
2D3
100
AcDbEntity
  8
0
100
AcDbLine
 62
9
  6
CONTINUOUS
 10
3.0508678491
 20
6.09578558
 11
2.411489671
 21
6.7351637581
  0
LINE
  5
2D4
100
AcDbEntity
  8
0
100
AcDbLine
 62
9
  6
CONTINUOUS
 10
2.3437610679
 20
6.8028923612
 11
1.9364614486
 21
7.2101919804
  0
LINE
  5
2D5
100
AcDbEntity
  8
0
100
AcDbLine
 62
6
  6
CONTINUOUS
 10
6.0650967391
 20
3.1089802065
 11
6.0558536348
 21
3.1182233108
  0
LINE
  5
2D6
100
AcDbEntity
  8
0
100
AcDbLine
 62
9
  6
CONTINUOUS
 10
6.0076434907
 20
3.167255447
 11
3.8257032334
 21
5.3491957043
  0
LINE
  5
2D7
100
AcDbEntity
  8
0
100
AcDbLine
 62
9
  6
CONTINUOUS
 10
3.7862201389
 20
5.3886787988
 11
3.1185964522
 21
6.0563024855
  0
LINE
  5
2D8
100
AcDbEntity
  8
0
100
AcDbLine
 62
9
  6
CONTINUOUS
 10
3.0791133577
 20
6.09578558
 11
2.411489671
 21
6.7634092667
  0
LINE
  5
2D9
100
AcDbEntity
  8
0
100
AcDbLine
 62
9
  6
CONTINUOUS
 10
2.3720065765
 20
6.8028923612
 11
1.950584203
 21
7.2243147347
  0
LINE
  5
2DA
100
AcDbEntity
  8
0
100
AcDbLine
 62
6
  6
CONTINUOUS
 10
2.3902764676
 20
6.8028923612
 11
2.411489671
 21
6.7816791577
  0
LINE
  5
2DB
100
AcDbEntity
  8
0
100
AcDbLine
 62
6
  6
CONTINUOUS
 10
3.0973832487
 20
6.09578558
 11
3.1185964522
 21
6.0745723766
  0
LINE
  5
2DC
100
AcDbEntity
  8
0
100
AcDbLine
 62
6
  6
CONTINUOUS
 10
3.8044900299
 20
5.3886787988
 11
3.8257032334
 21
5.3674655954
  0
LINE
  5
2DD
100
AcDbEntity
  8
0
100
AcDbLine
 62
6
  6
CONTINUOUS
 10
5.353333035
 20
3.776118605
 11
5.9458124428
 21
3.1181035599
  0
LINE
  5
2DE
100
AcDbEntity
  8
0
100
AcDbLine
 62
6
  6
CONTINUOUS
 10
7.9782197402
 20
1.7849167145
 11
7.9786506612
 21
1.7845439017
  0
LINE
  5
2DF
100
AcDbEntity
  8
0
100
AcDbLine
 62
6
  6
CONTINUOUS
 10
5.5089741053
 20
3.9317596753
 11
6.1669891504
 21
3.3392802675
  0
LINE
  5
2E0
100
AcDbEntity
  8
0
100
AcDbLine
 62
6
  6
CONTINUOUS
 10
3.9176271149
 20
5.4593894769
 11
3.8964139115
 21
5.4806026804
  0
LINE
  5
2E1
100
AcDbEntity
  8
0
100
AcDbLine
 62
6
  6
CONTINUOUS
 10
3.2105203337
 20
6.1664962581
 11
3.1893071303
 21
6.1877094615
  0
LINE
  5
2E2
100
AcDbEntity
  8
0
100
AcDbLine
 62
6
  6
CONTINUOUS
 10
2.5034135525
 20
6.8736030393
 11
2.4822003491
 21
6.8948162427
  0
LINE
  5
2E3
100
AcDbEntity
  8
0
100
AcDbLine
 62
9
  6
CONTINUOUS
 10
2.0607779756
 20
7.3345085073
 11
2.4822003491
 21
6.9130861338
  0
LINE
  5
2E4
100
AcDbEntity
  8
0
100
AcDbLine
 62
9
  6
CONTINUOUS
 10
2.5216834436
 20
6.8736030393
 11
3.1893071303
 21
6.2059793526
  0
LINE
  5
2E5
100
AcDbEntity
  8
0
100
AcDbLine
 62
9
  6
CONTINUOUS
 10
3.2287902248
 20
6.1664962581
 11
3.8964139115
 21
5.4988725714
  0
LINE
  5
2E6
100
AcDbEntity
  8
0
100
AcDbLine
 62
9
  6
CONTINUOUS
 10
3.935897006
 20
5.4593894769
 11
6.1178372633
 21
3.2774492196
  0
LINE
  5
2E7
100
AcDbEntity
  8
0
100
AcDbLine
 62
6
  6
CONTINUOUS
 10
6.1761125038
 20
3.2199959711
 11
6.1668693994
 21
3.2292390755
  0
LINE
  5
2E8
100
AcDbEntity
  8
0
100
AcDbLine
 62
9
  6
CONTINUOUS
 10
2.0749007299
 20
7.3486312616
 11
2.4822003491
 21
6.9413316424
  0
LINE
  5
2E9
100
AcDbEntity
  8
0
100
AcDbLine
 62
9
  6
CONTINUOUS
 10
2.5499289522
 20
6.8736030393
 11
3.1893071303
 21
6.2342248612
  0
LINE
  5
2EA
100
AcDbEntity
  8
0
100
AcDbLine
 62
9
  6
CONTINUOUS
 10
3.2570357334
 20
6.1664962581
 11
3.8964139115
 21
5.52711808
  0
LINE
  5
2EB
100
AcDbEntity
  8
0
100
AcDbLine
 62
9
  6
CONTINUOUS
 10
3.9641425146
 20
5.4593894769
 11
6.1178372633
 21
3.3056947282
  0
LINE
  5
2EC
100
AcDbEntity
  8
0
100
AcDbLine
 62
6
  6
CONTINUOUS
 10
5.5075118987
 20
3.9331443034
 11
4.4283710214
 21
5.0122851808
  0
LINE
  5
2ED
100
AcDbEntity
  8
0
100
AcDbLine
 62
6
  6
CONTINUOUS
 10
4.1564163965
 20
5.2842398056
 11
3.9812667252
 21
5.4593894769
  0
LINE
  5
2EE
100
AcDbEntity
  8
0
100
AcDbLine
 62
6
  6
CONTINUOUS
 10
3.8964139115
 20
5.5442422907
 11
3.7212642402
 21
5.7193919619
  0
LINE
  5
2EF
100
AcDbEntity
  8
0
100
AcDbLine
 62
6
  6
CONTINUOUS
 10
3.4493096153
 20
5.9913465868
 11
3.274159944
 21
6.1664962581
  0
LINE
  5
2F0
100
AcDbEntity
  8
0
100
AcDbLine
 62
6
  6
CONTINUOUS
 10
3.1893071303
 20
6.2513490718
 11
3.014157459
 21
6.4264987431
  0
LINE
  5
2F1
100
AcDbEntity
  8
0
100
AcDbLine
 62
6
  6
CONTINUOUS
 10
2.7422028341
 20
6.698453368
 11
2.5670531628
 21
6.8736030393
  0
LINE
  5
2F2
100
AcDbEntity
  8
0
100
AcDbLine
 62
6
  6
CONTINUOUS
 10
2.4822003491
 20
6.958455853
 11
2.3070506778
 21
7.1336055243
  0
LINE
  5
2F3
100
AcDbEntity
  8
0
100
AcDbLine
 62
6
  6
CONTINUOUS
 10
2.0350960529
 20
7.4055601492
 11
1.9208299597
 21
7.5198262424
  0
LINE
  5
2F4
100
AcDbEntity
  8
0
100
AcDbLine
 62
6
  6
CONTINUOUS
 10
6.568433858
 20
2.9718140338
 11
6.6549639469
 21
2.8852839449
  0
LINE
  5
2F5
100
AcDbEntity
  8
0
100
AcDbLine
 62
6
  6
CONTINUOUS
 10
6.0766057832
 20
2.7665451889
 11
6.1857010857
 21
2.5890812615
  0
LINE
  5
2F6
100
AcDbEntity
  8
0
100
AcDbLine
 62
6
  6
CONTINUOUS
 10
6.6960114487
 20
3.0993916246
 11
6.7825415377
 21
3.0128615357
  0
LINE
  5
2F7
100
AcDbEntity
  8
0
100
AcDbLine
 62
6
  6
CONTINUOUS
 10
7.5968016071
 20
1.1994439029
 11
7.5990402483
 21
1.1955720447
  0
LINE
  5
2F8
100
AcDbEntity
  8
0
100
AcDbLine
 62
9
  6
CONTINUOUS
 10
5.979397982
 20
3.1593658719
 11
5.979397982
 21
3.167255447
  0
LINE
  5
2F9
100
AcDbEntity
  8
0
100
AcDbLine
 62
9
  6
CONTINUOUS
 10
6.0076434907
 20
3.1593659419
 11
6.0076434907
 21
3.167255447
  0
LINE
  5
2FA
100
AcDbEntity
  8
0
100
AcDbLine
 62
6
  6
CONTINUOUS
 10
7.5990402483
 20
1.7752205273
 11
7.5986125327
 21
1.7759603975
  0
LINE
  5
2FB
100
AcDbEntity
  8
0
100
AcDbLine
 62
6
  6
CONTINUOUS
 10
7.9818016071
 20
1.1994439029
 11
7.9818613964
 21
1.1993404939
  0
LINE
  5
2FC
100
AcDbEntity
  8
0
100
AcDbLine
 62
6
  6
CONTINUOUS
 10
7.9818613964
 20
1.1993404939
 11
7.9989298355
 21
1.1698167156
  0
LINE
  5
2FD
100
AcDbEntity
  8
0
100
AcDbLine
 62
9
  6
CONTINUOUS
 10
5.979397982
 20
3.167255447
 11
6.1178372633
 21
3.3056947282
  0
LINE
  5
2FE
100
AcDbEntity
  8
0
100
AcDbLine
 62
6
  6
CONTINUOUS
 10
9.2684124015
 20
1.6406803087
 11
9.2769124015
 21
1.6321803087
  0
LINE
  5
2FF
100
AcDbEntity
  8
0
100
AcDbLine
 62
6
  6
CONTINUOUS
 10
8.0920402483
 20
1.1990311593
 11
8.1089298355
 21
1.1698167156
  0
LINE
  5
300
100
AcDbEntity
  8
0
100
AcDbLine
 62
6
  6
CONTINUOUS
 10
7.9957788896
 20
1.7549167145
 11
7.9957191003
 21
1.7550201236
  0
LINE
  5
301
100
AcDbEntity
  8
0
100
AcDbLine
 62
6
  6
CONTINUOUS
 10
7.9957191003
 20
1.7550201236
 11
7.9786506612
 21
1.7845439017
  0
LINE
  5
302
100
AcDbEntity
  8
0
100
AcDbLine
 62
6
  6
CONTINUOUS
 10
8.1057788896
 20
1.7549167145
 11
8.1057191003
 21
1.7550201236
  0
LINE
  5
303
100
AcDbEntity
  8
0
100
AcDbLine
 62
6
  6
CONTINUOUS
 10
8.1057191003
 20
1.7550201236
 11
8.0920402483
 21
1.7786803215
  0
LINE
  5
304
100
AcDbEntity
  8
0
100
AcDbLine
 62
6
  6
CONTINUOUS
 10
6.9284746321
 20
1.9928426343
 11
6.936005171
 21
1.8130178048
  0
LINE
  5
305
100
AcDbEntity
  8
0
100
AcDbLine
 62
6
  6
CONTINUOUS
 10
6.6289124015
 20
1.2681802932
 11
6.6289124015
 21
1.4446803087
  0
LINE
  5
306
100
AcDbEntity
  8
0
100
AcDbLine
 62
6
  6
CONTINUOUS
 10
6.6289124015
 20
1.5096803087
 11
6.6289124015
 21
1.6861803243
  0
LINE
  5
307
100
AcDbEntity
  8
0
100
AcDbLine
 62
6
  6
CONTINUOUS
 10
6.6389123853
 20
1.2581803087
 11
6.6389123853
 21
1.2747989379
  0
LINE
  5
308
100
AcDbEntity
  8
0
100
AcDbLine
 62
6
  6
CONTINUOUS
 10
6.6389123853
 20
1.2749636427
 11
6.6389123853
 21
1.287092016
  0
LINE
  5
309
100
AcDbEntity
  8
0
100
AcDbLine
 62
6
  6
CONTINUOUS
 10
6.6389123853
 20
1.2879231295
 11
6.6389123853
 21
1.3049596787
  0
LINE
  5
30A
100
AcDbEntity
  8
0
100
AcDbLine
 62
6
  6
CONTINUOUS
 10
6.6389123853
 20
1.3059727189
 11
6.6389123853
 21
1.3239863841
  0
LINE
  5
30B
100
AcDbEntity
  8
0
100
AcDbLine
 62
6
  6
CONTINUOUS
 10
6.6389123853
 20
1.3256282175
 11
6.6389123853
 21
1.3478071898
  0
LINE
  5
30C
100
AcDbEntity
  8
0
100
AcDbLine
 62
6
  6
CONTINUOUS
 10
6.6389123853
 20
1.3502463785
 11
6.6389123853
 21
1.3724236667
  0
LINE
  5
30D
100
AcDbEntity
  8
0
100
AcDbLine
 62
6
  6
CONTINUOUS
 10
6.6389123853
 20
1.3750750475
 11
6.6389123853
 21
1.4015245565
  0
LINE
  5
30E
100
AcDbEntity
  8
0
100
AcDbLine
 62
6
  6
CONTINUOUS
 10
6.6389123853
 20
1.4043544485
 11
6.6389123853
 21
1.4446803087
  0
LINE
  5
30F
100
AcDbEntity
  8
0
100
AcDbLine
 62
6
  6
CONTINUOUS
 10
6.6389123853
 20
1.5096803087
 11
6.6389123853
 21
1.5205530846
  0
LINE
  5
310
100
AcDbEntity
  8
0
100
AcDbLine
 62
6
  6
CONTINUOUS
 10
6.6389123853
 20
1.5232159247
 11
6.6389123853
 21
1.5513283742
  0
LINE
  5
311
100
AcDbEntity
  8
0
100
AcDbLine
 62
6
  6
CONTINUOUS
 10
6.6389123853
 20
1.5541516725
 11
6.6389123853
 21
1.5780417809
  0
LINE
  5
312
100
AcDbEntity
  8
0
100
AcDbLine
 62
6
  6
CONTINUOUS
 10
6.6389123853
 20
1.5807022124
 11
6.6389123853
 21
1.605255403
  0
LINE
  5
313
100
AcDbEntity
  8
0
100
AcDbLine
 62
6
  6
CONTINUOUS
 10
6.6389123853
 20
1.6076832601
 11
6.6389123853
 21
1.6277160724
  0
LINE
  5
314
100
AcDbEntity
  8
0
100
AcDbLine
 62
6
  6
CONTINUOUS
 10
6.6389123853
 20
1.6298865424
 11
6.6389123853
 21
1.6492596079
  0
LINE
  5
315
100
AcDbEntity
  8
0
100
AcDbLine
 62
6
  6
CONTINUOUS
 10
6.6389123853
 20
1.6511039216
 11
6.6389123853
 21
1.6657273636
  0
LINE
  5
316
100
AcDbEntity
  8
0
100
AcDbLine
 62
6
  6
CONTINUOUS
 10
6.6389123853
 20
1.6672397114
 11
6.6389123853
 21
1.6799316924
  0
LINE
  5
317
100
AcDbEntity
  8
0
100
AcDbLine
 62
6
  6
CONTINUOUS
 10
6.6389123853
 20
1.6810495715
 11
6.6389123853
 21
1.695002006
  0
LINE
  5
318
100
AcDbEntity
  8
0
100
AcDbLine
 62
6
  6
CONTINUOUS
 10
6.6389123853
 20
1.6952001225
 11
6.6389123853
 21
1.6961803087
  0
LINE
  5
319
100
AcDbEntity
  8
0
100
AcDbLine
 62
6
  6
CONTINUOUS
 10
6.7029124015
 20
1.5096803087
 11
6.7029124015
 21
1.4446803087
  0
LINE
  5
31A
100
AcDbEntity
  8
0
100
AcDbLine
 62
6
  6
CONTINUOUS
 10
6.7210115399
 20
1.3887150889
 11
6.7210115399
 21
1.3881049839
  0
LINE
  5
31B
100
AcDbEntity
  8
0
100
AcDbLine
 62
7
  6
CONTINUOUS
 10
6.7210115399
 20
1.3373740036
 11
6.7210115399
 21
1.3364098222
  0
LINE
  5
31C
100
AcDbEntity
  8
0
100
AcDbLine
 62
7
  6
CONTINUOUS
 10
6.7210115399
 20
1.2968646367
 11
6.7210115399
 21
1.2956210803
  0
LINE
  5
31D
100
AcDbEntity
  8
0
100
AcDbLine
 62
7
  6
CONTINUOUS
 10
6.7210115399
 20
1.5371314336
 11
6.7210115399
 21
1.5375448897
  0
LINE
  5
31E
100
AcDbEntity
  8
0
100
AcDbLine
 62
6
  6
CONTINUOUS
 10
6.7210115399
 20
1.5924377487
 11
6.7210115399
 21
1.5932326276
  0
LINE
  5
31F
100
AcDbEntity
  8
0
100
AcDbLine
 62
6
  6
CONTINUOUS
 10
6.7210115399
 20
1.6388143083
 11
6.7210115399
 21
1.6399290255
  0
LINE
  5
320
100
AcDbEntity
  8
0
100
AcDbLine
 62
7
  6
CONTINUOUS
 10
6.7210115399
 20
1.6726680138
 11
6.7210115399
 21
1.6740162049
  0
LINE
  5
321
100
AcDbEntity
  8
0
100
AcDbLine
 62
6
  6
CONTINUOUS
 10
6.7295184627
 20
1.3873447707
 11
6.7295184627
 21
1.3867367551
  0
LINE
  5
322
100
AcDbEntity
  8
0
100
AcDbLine
 62
7
  6
CONTINUOUS
 10
6.7295184627
 20
1.336224937
 11
6.7295184627
 21
1.3352640576
  0
LINE
  5
323
100
AcDbEntity
  8
0
100
AcDbLine
 62
7
  6
CONTINUOUS
 10
6.7295184627
 20
1.5385733262
 11
6.7295184627
 21
1.5389853662
  0
LINE
  5
324
100
AcDbEntity
  8
0
100
AcDbLine
 62
6
  6
CONTINUOUS
 10
6.7295184627
 20
1.5937098209
 11
6.7295184627
 21
1.5945019775
  0
LINE
  5
325
100
AcDbEntity
  8
0
100
AcDbLine
 62
6
  6
CONTINUOUS
 10
6.7295184627
 20
1.6398180042
 11
6.7295184627
 21
1.6409289039
  0
LINE
  5
326
100
AcDbEntity
  8
0
100
AcDbLine
 62
6
  6
CONTINUOUS
 10
6.7295184627
 20
1.6733255705
 11
6.7295184627
 21
1.6746691444
  0
LINE
  5
327
100
AcDbEntity
  8
0
100
AcDbLine
 62
7
  6
CONTINUOUS
 10
6.7380253854
 20
1.3887150889
 11
6.7380253854
 21
1.3881049839
  0
LINE
  5
328
100
AcDbEntity
  8
0
100
AcDbLine
 62
7
  6
CONTINUOUS
 10
6.7380253854
 20
1.2968646367
 11
6.7380253854
 21
1.2956210803
  0
LINE
  5
329
100
AcDbEntity
  8
0
100
AcDbLine
 62
7
  6
CONTINUOUS
 10
6.7380253854
 20
1.2698672166
 11
6.7380253854
 21
1.2688989317
  0
LINE
  5
32A
100
AcDbEntity
  8
0
100
AcDbLine
 62
6
  6
CONTINUOUS
 10
6.7380253854
 20
1.5371314336
 11
6.7380253854
 21
1.5375448897
  0
LINE
  5
32B
100
AcDbEntity
  8
0
100
AcDbLine
 62
6
  6
CONTINUOUS
 10
6.7380253854
 20
1.5924377487
 11
6.7380253854
 21
1.5932326276
  0
LINE
  5
32C
100
AcDbEntity
  8
0
100
AcDbLine
 62
6
  6
CONTINUOUS
 10
6.7380253854
 20
1.6388143083
 11
6.7380253854
 21
1.6399290255
  0
LINE
  5
32D
100
AcDbEntity
  8
0
100
AcDbLine
 62
7
  6
CONTINUOUS
 10
6.7380253854
 20
1.6726680138
 11
6.7380253854
 21
1.6740162049
  0
LINE
  5
32E
100
AcDbEntity
  8
0
100
AcDbLine
 62
7
  6
CONTINUOUS
 10
6.8219124015
 20
1.2593297215
 11
6.8219124015
 21
1.2581803089
  0
LINE
  5
32F
100
AcDbEntity
  8
0
100
AcDbLine
 62
7
  6
CONTINUOUS
 10
6.8219124015
 20
1.2593771124
 11
6.8219124015
 21
1.3480622548
  0
LINE
  5
330
100
AcDbEntity
  8
0
100
AcDbLine
 62
7
  6
CONTINUOUS
 10
6.8219124015
 20
1.3487049839
 11
6.8219124015
 21
1.6961803086
  0
LINE
  5
331
100
AcDbEntity
  8
0
100
AcDbLine
 62
6
  6
CONTINUOUS
 10
6.8369124015
 20
1.7921803087
 11
6.8369124015
 21
1.1621803087
  0
LINE
  5
332
100
AcDbEntity
  8
0
100
AcDbLine
 62
9
  6
CONTINUOUS
 10
6.1178372633
 20
3.2774492196
 11
6.0076434907
 21
3.167255447
  0
LINE
  5
333
100
AcDbEntity
  8
0
100
AcDbLine
 62
6
  6
CONTINUOUS
 10
6.1677672752
 20
3.3102550209
 11
6.1483771214
 21
3.2908648671
  0
LINE
  5
334
100
AcDbEntity
  8
0
100
AcDbLine
 62
6
  6
CONTINUOUS
 10
5.9942278431
 20
3.1367155888
 11
5.9748376894
 21
3.1173254351
  0
LINE
  5
335
100
AcDbEntity
  8
0
100
AcDbLine
 62
9
  6
CONTINUOUS
 10
6.0558536348
 20
3.1182233108
 11
6.1668693994
 21
3.2292390755
  0
LINE
  5
336
100
AcDbEntity
  8
0
100
AcDbLine
 62
6
  6
CONTINUOUS
 10
6.0650967391
 20
3.1089802065
 11
6.1761125038
 21
3.2199959711
  0
LINE
  5
337
100
AcDbEntity
  8
0
100
AcDbLine
 62
6
  6
CONTINUOUS
 10
6.3788920265
 20
3.2314659919
 11
6.0536267184
 21
2.9062006838
  0
LINE
  5
338
100
AcDbEntity
  8
0
100
AcDbLine
 62
6
  6
CONTINUOUS
 10
3.7408504196
 20
5.3886787988
 11
3.8044900299
 21
5.3886787988
  0
LINE
  5
339
100
AcDbEntity
  8
0
100
AcDbLine
 62
6
  6
CONTINUOUS
 10
3.9812667252
 20
5.4593894769
 11
3.9176271149
 21
5.4593894769
  0
LINE
  5
33A
100
AcDbEntity
  8
0
100
AcDbLine
 62
9
  6
CONTINUOUS
 10
6.0766057832
 20
2.7665451889
 11
6.5185475214
 21
3.2084869271
  0
LINE
  5
33B
100
AcDbEntity
  8
0
100
AcDbLine
 62
6
  6
CONTINUOUS
 10
7.4369124015
 20
1.7921803087
 11
7.4369124015
 21
1.1621803087
  0
LINE
  5
33C
100
AcDbEntity
  8
0
100
AcDbLine
 62
7
  6
CONTINUOUS
 10
7.4481908689
 20
1.2051819891
 11
7.4481908689
 21
1.7491786284
  0
LINE
  5
33D
100
AcDbEntity
  8
0
100
AcDbLine
 62
6
  6
CONTINUOUS
 10
7.5714571774
 20
1.2051819891
 11
7.5714571774
 21
1.7491786284
  0
LWPOLYLINE
  5
33E
100
AcDbEntity
  8
0
100
AcDbPolyline
 62
6
  6
CONTINUOUS
 90
16
 70
0
 10
7.3453501169
 20
1.9928440709
 10
7.3457791099
 20
2.0201933474
 10
7.344710509
 20
2.0489182289
 10
7.3420706563
 20
2.0778917785
 10
7.337831133
 20
2.1070311017
 10
7.3319712616
 20
2.1362588657
 10
7.3244747833
 20
2.1654883909
 10
7.3153281723
 20
2.1946331436
 10
7.3045259206
 20
2.223607795
 10
7.2920639276
 20
2.2523282261
 10
7.2779384565
 20
2.2807109465
 10
7.2621504407
 20
2.3086789868
 10
7.2447038527
 20
2.3361524093
 10
7.2256054229
 20
2.363048585
 10
7.2048672654
 20
2.3892915021
 10
7.1831533161
 20
2.4140964679
  0
LINE
  5
33F
100
AcDbEntity
  8
0
100
AcDbLine
 62
6
  6
CONTINUOUS
 10
7.3378196322
 20
1.8130178078
 11
7.3453502309
 21
1.9928440662
  0
LINE
  5
340
100
AcDbEntity
  8
0
100
AcDbLine
 62
6
  6
CONTINUOUS
 10
6.7825415377
 20
3.0128615357
 11
6.2722311746
 21
2.5025511726
  0
LINE
  5
341
100
AcDbEntity
  8
0
100
AcDbLine
 62
6
  6
CONTINUOUS
 10
3.0337436384
 20
6.09578558
 11
3.0973832487
 21
6.09578558
  0
LINE
  5
342
100
AcDbEntity
  8
0
100
AcDbLine
 62
6
  6
CONTINUOUS
 10
3.274159944
 20
6.1664962581
 11
3.2105203337
 21
6.1664962581
  0
LINE
  5
343
100
AcDbEntity
  8
0
100
AcDbLine
 62
6
  6
CONTINUOUS
 10
7.5990402483
 20
0.9851803087
 11
7.5990402483
 21
1.9691803087
  0
LINE
  5
344
100
AcDbEntity
  8
0
100
AcDbLine
 62
6
  6
CONTINUOUS
 10
7.8740402483
 20
0.9261803087
 11
7.8740402483
 21
2.0281803087
  0
LINE
  5
345
100
AcDbEntity
  8
0
100
AcDbLine
 62
6
  6
CONTINUOUS
 10
7.9530402483
 20
0.9261803087
 11
7.9530402483
 21
2.0281803087
  0
LINE
  5
346
100
AcDbEntity
  8
0
100
AcDbLine
 62
6
  6
CONTINUOUS
 10
8.0330402483
 20
0.8471803087
 11
8.0330402483
 21
2.1071803087
  0
LINE
  5
347
100
AcDbEntity
  8
0
100
AcDbLine
 62
6
  6
CONTINUOUS
 10
8.0920402483
 20
0.8471803087
 11
8.0920402483
 21
2.1071803087
  0
LINE
  5
348
100
AcDbEntity
  8
0
100
AcDbLine
 62
6
  6
CONTINUOUS
 10
8.1420402483
 20
0.8671803087
 11
8.1420402483
 21
2.0871803087
  0
LINE
  5
349
100
AcDbEntity
  8
0
100
AcDbLine
 62
7
  6
CONTINUOUS
 10
6.8711000639
 20
2.1020613348
 11
6.8709915974
 21
2.1019434389
  0
LINE
  5
34A
100
AcDbEntity
  8
0
100
AcDbLine
 62
9
  6
CONTINUOUS
 10
7.109605972
 20
2.3405437934
 11
6.9445487526
 21
2.1754865739
  0
LINE
  5
34B
100
AcDbEntity
  8
0
100
AcDbLine
 62
6
  6
CONTINUOUS
 10
6.6289124015
 20
1.6861803243
 11
6.6389123853
 21
1.6961803087
  0
LINE
  5
34C
100
AcDbEntity
  8
0
100
AcDbLine
 62
7
  6
CONTINUOUS
 10
7.1831533161
 20
2.4140964679
 11
7.1830354207
 21
2.4139880019
  0
LINE
  5
34D
100
AcDbEntity
  8
0
100
AcDbLine
 62
6
  6
CONTINUOUS
 10
2.3266368572
 20
6.8028923612
 11
2.3902764676
 21
6.8028923612
  0
LINE
  5
34E
100
AcDbEntity
  8
0
100
AcDbLine
 62
6
  6
CONTINUOUS
 10
2.5670531628
 20
6.8736030393
 11
2.5034135525
 21
6.8736030393
  0
LINE
  5
34F
100
AcDbEntity
  8
0
100
AcDbLine
 62
6
  6
CONTINUOUS
 10
8.2800402483
 20
0.8671803087
 11
8.2800402483
 21
2.0871803087
  0
LINE
  5
350
100
AcDbEntity
  8
0
100
AcDbLine
 62
6
  6
CONTINUOUS
 10
8.2830402483
 20
1.1694439029
 11
8.2830402483
 21
1.7506159982
  0
LINE
  5
351
100
AcDbEntity
  8
0
100
AcDbLine
 62
6
  6
CONTINUOUS
 10
8.3300402483
 20
1.1660788432
 11
8.3300402483
 21
1.7882817743
  0
LINE
  5
352
100
AcDbEntity
  8
0
100
AcDbLine
 62
6
  6
CONTINUOUS
 10
8.5519124015
 20
1.0416803087
 11
8.5519124015
 21
1.9126803087
  0
LINE
  5
353
100
AcDbEntity
  8
0
100
AcDbLine
 62
6
  6
CONTINUOUS
 10
8.5669124015
 20
0.8621818278
 11
8.5669124015
 21
2.0921787897
  0
LINE
  5
354
100
AcDbEntity
  8
0
100
AcDbLine
 62
9
  6
CONTINUOUS
 10
8.6075141003
 20
0.8621803087
 11
8.6075141003
 21
2.0921803087
  0
LINE
  5
355
100
AcDbEntity
  8
0
100
AcDbLine
 62
9
  6
CONTINUOUS
 10
8.6172164381
 20
0.8697586069
 11
8.6172164381
 21
2.0846020106
  0
LINE
  5
356
100
AcDbEntity
  8
0
100
AcDbLine
 62
9
  6
CONTINUOUS
 10
8.647116219
 20
0.8924830247
 11
8.647116219
 21
2.0618775928
  0
LINE
  5
357
100
AcDbEntity
  8
0
100
AcDbLine
 62
6
  6
CONTINUOUS
 10
7.5811955664
 20
1.1958407807
 11
7.5835176247
 21
1.1998568092
  0
LINE
  5
358
100
AcDbEntity
  8
0
100
AcDbLine
 62
6
  6
CONTINUOUS
 10
7.9714298355
 20
1.7845439019
 11
7.954062872
 21
1.7545038085
  0
LINE
  5
359
100
AcDbEntity
  8
0
100
AcDbLine
 62
6
  6
CONTINUOUS
 10
8.0264298355
 20
1.7845439019
 11
8.009062872
 21
1.7545038085
  0
LINE
  5
35A
100
AcDbEntity
  8
0
100
AcDbLine
 62
6
  6
CONTINUOUS
 10
7.5714571774
 20
1.7491884981
 11
7.5983315242
 21
1.7760628449
  0
LINE
  5
35B
100
AcDbEntity
  8
0
100
AcDbLine
 62
6
  6
CONTINUOUS
 10
9.0369124015
 20
1.05657861
 11
9.0369124015
 21
1.8977820074
  0
LINE
  5
35C
100
AcDbEntity
  8
0
100
AcDbLine
 62
6
  6
CONTINUOUS
 10
9.2469124015
 20
1.6609294357
 11
9.2469124015
 21
1.65516123
  0
LINE
  5
35D
100
AcDbEntity
  8
0
100
AcDbLine
 62
6
  6
CONTINUOUS
 10
9.2469124015
 20
1.6387235025
 11
9.2469124015
 21
1.6222970424
  0
LINE
  5
35E
100
AcDbEntity
  8
0
100
AcDbLine
 62
6
  6
CONTINUOUS
 10
9.2469124015
 20
1.5919240825
 11
9.2469124015
 21
1.5673401476
  0
LINE
  5
35F
100
AcDbEntity
  8
0
100
AcDbLine
 62
6
  6
CONTINUOUS
 10
9.2469124015
 20
1.527655963
 11
9.2469124015
 21
1.4986572347
  0
LINE
  5
360
100
AcDbEntity
  8
0
100
AcDbLine
 62
6
  6
CONTINUOUS
 10
9.2469124015
 20
1.4557033828
 11
9.2469124015
 21
1.4267046545
  0
LINE
  5
361
100
AcDbEntity
  8
0
100
AcDbLine
 62
6
  6
CONTINUOUS
 10
9.2469124015
 20
1.3870204698
 11
9.2469124015
 21
1.362436535
  0
LINE
  5
362
100
AcDbEntity
  8
0
100
AcDbLine
 62
6
  6
CONTINUOUS
 10
9.2469124015
 20
1.3320635751
 11
9.2469124015
 21
1.315637115
  0
LINE
  5
363
100
AcDbEntity
  8
0
100
AcDbLine
 62
6
  6
CONTINUOUS
 10
9.2469124015
 20
1.2991993875
 11
9.2469124015
 21
1.2934311818
  0
LINE
  5
364
100
AcDbEntity
  8
0
100
AcDbLine
 62
9
  6
CONTINUOUS
 10
8.2831470519
 20
1.7513201488
 11
8.2843596014
 21
1.7546802968
  0
LINE
  5
365
100
AcDbEntity
  8
0
100
AcDbLine
 62
6
  6
CONTINUOUS
 10
8.1364298355
 20
1.7845439019
 11
8.119062872
 21
1.7545038085
  0
LINE
  5
366
100
AcDbEntity
  8
0
100
AcDbLine
 62
6
  6
CONTINUOUS
 10
7.9530402483
 20
1.1730854754
 11
7.9685176247
 21
1.1998568092
  0
LINE
  5
367
100
AcDbEntity
  8
0
100
AcDbLine
 62
6
  6
CONTINUOUS
 10
8.0061506612
 20
1.1698167158
 11
8.0235176247
 21
1.1998568092
  0
LINE
  5
368
100
AcDbEntity
  8
0
100
AcDbLine
 62
6
  6
CONTINUOUS
 10
7.9718607564
 20
1.7849167145
 11
7.9714298355
 21
1.7845439019
  0
LINE
  5
369
100
AcDbEntity
  8
0
100
AcDbLine
 62
6
  6
CONTINUOUS
 10
8.0268607564
 20
1.7849167145
 11
8.0264298355
 21
1.7845439019
  0
LINE
  5
36A
100
AcDbEntity
  8
0
100
AcDbLine
 62
6
  6
CONTINUOUS
 10
8.0095402483
 20
1.7549167145
 11
8.009062872
 21
1.7545038085
  0
LINE
  5
36B
100
AcDbEntity
  8
0
100
AcDbLine
 62
6
  6
CONTINUOUS
 10
8.1368607564
 20
1.7849167145
 11
8.1364298355
 21
1.7845439019
  0
LINE
  5
36C
100
AcDbEntity
  8
0
100
AcDbLine
 62
6
  6
CONTINUOUS
 10
7.5808972228
 20
1.195732074
 11
7.5811955664
 21
1.1958407807
  0
LINE
  5
36D
100
AcDbEntity
  8
0
100
AcDbLine
 62
7
  6
CONTINUOUS
 10
9.2684124015
 20
1.3136803087
 11
9.2684124015
 21
1.3139637098
  0
LINE
  5
36E
100
AcDbEntity
  8
0
100
AcDbLine
 62
7
  6
CONTINUOUS
 10
9.2684124015
 20
1.3227054756
 11
9.2684124015
 21
1.3300701917
  0
LINE
  5
36F
100
AcDbEntity
  8
0
100
AcDbLine
 62
6
  6
CONTINUOUS
 10
9.2684124015
 20
1.3549646343
 11
9.2684124015
 21
1.3685728554
  0
LINE
  5
370
100
AcDbEntity
  8
0
100
AcDbLine
 62
6
  6
CONTINUOUS
 10
9.2684124015
 20
1.4058300216
 11
9.2684124015
 21
1.4236100193
  0
LINE
  5
371
100
AcDbEntity
  8
0
100
AcDbLine
 62
7
  6
CONTINUOUS
 10
9.2684124015
 20
1.4675578434
 11
9.2684124015
 21
1.4868027741
  0
LINE
  5
372
100
AcDbEntity
  8
0
100
AcDbLine
 62
7
  6
CONTINUOUS
 10
9.2684124015
 20
1.5307505982
 11
9.2684124015
 21
1.5485305958
  0
LINE
  5
373
100
AcDbEntity
  8
0
100
AcDbLine
 62
6
  6
CONTINUOUS
 10
9.2684124015
 20
1.5857877621
 11
9.2684124015
 21
1.5993959831
  0
LINE
  5
374
100
AcDbEntity
  8
0
100
AcDbLine
 62
7
  6
CONTINUOUS
 10
9.2684124015
 20
1.6242904258
 11
9.2684124015
 21
1.6316551419
  0
LINE
  5
375
100
AcDbEntity
  8
0
100
AcDbLine
 62
7
  6
CONTINUOUS
 10
9.2684124015
 20
1.6403969076
 11
9.2684124015
 21
1.6406803087
  0
LINE
  5
376
100
AcDbEntity
  8
0
100
AcDbLine
 62
6
  6
CONTINUOUS
 10
9.2769124015
 20
1.6321803087
 11
9.2769124015
 21
1.3221803087
  0
LINE
  5
377
100
AcDbEntity
  8
0
100
AcDbLine
 62
6
  6
CONTINUOUS
 10
8.1161506612
 20
1.1698167158
 11
8.1335176247
 21
1.1998568092
  0
LINE
  5
378
100
AcDbEntity
  8
0
100
AcDbLine
 62
6
  6
CONTINUOUS
 10
8.0057197402
 20
1.1694439029
 11
8.0061506612
 21
1.1698167158
  0
LINE
  5
379
100
AcDbEntity
  8
0
100
AcDbLine
 62
6
  6
CONTINUOUS
 10
8.1157197402
 20
1.1694439029
 11
8.1161506612
 21
1.1698167158
  0
LINE
  5
37A
100
AcDbEntity
  8
0
100
AcDbLine
 62
6
  6
CONTINUOUS
 10
9.2684124015
 20
1.3136803087
 11
9.2769124015
 21
1.3221803087
  0
ARC
  5
37B
100
AcDbEntity
  8
0
100
AcDbCircle
 62
9
  6
CONTINUOUS
 10
-161.2242247097
 20
-161.597600421
 40
234.9723267967
100
AcDbArc
 50
44.2420679122
 51
44.4143946003
  0
ARC
  5
37C
100
AcDbEntity
  8
0
100
AcDbCircle
 62
9
  6
CONTINUOUS
 10
-104.8398471501
 20
2.2256153559
 40
112.1037309014
100
AcDbArc
 50
359.7367525039
 51
359.8810366671
  0
ARC
  5
37D
100
AcDbEntity
  8
0
100
AcDbCircle
 62
6
  6
CONTINUOUS
 10
1.9066873783
 20
7.5056636537
 40
0.0200156624
100
AcDbArc
 50
45.0404991553
 51
135.0362644746
  0
ARC
  5
37E
100
AcDbEntity
  8
0
100
AcDbCircle
 62
6
  6
CONTINUOUS
 10
1.7794290568
 20
7.378405332
 40
0.0200156624
100
AcDbArc
 50
134.9637357736
 51
224.9595004165
  0
ARC
  5
37F
100
AcDbEntity
  8
0
100
AcDbCircle
 62
6
  6
CONTINUOUS
 10
8.4036525591
 20
-4.5080820966
 40
5.9943957946
100
AcDbArc
 50
81.7054899946
 51
81.9131097823
  0
ARC
  5
380
100
AcDbEntity
  8
0
100
AcDbCircle
 62
6
  6
CONTINUOUS
 10
8.385452956
 20
-1.4671291058
 40
3.1780369389
100
AcDbArc
 50
73.8691629235
 51
74.2722585431
  0
ARC
  5
381
100
AcDbEntity
  8
0
100
AcDbCircle
 62
6
  6
CONTINUOUS
 10
8.20596289
 20
-0.4146987931
 40
2.1781889667
100
AcDbArc
 50
60.8060571431
 51
61.4518721895
  0
ARC
  5
382
100
AcDbEntity
  8
0
100
AcDbCircle
 62
6
  6
CONTINUOUS
 10
7.8338562975
 20
-0.0695266515
 40
2.1624200497
100
AcDbArc
 50
48.4400702388
 51
49.1969796638
  0
ARC
  5
383
100
AcDbEntity
  8
0
100
AcDbCircle
 62
6
  6
CONTINUOUS
 10
8.0876935817
 20
-0.111318221
 40
2.0991508536
100
AcDbArc
 50
55.7729009942
 51
56.4797094842
  0
ARC
  5
384
100
AcDbEntity
  8
0
100
AcDbCircle
 62
6
  6
CONTINUOUS
 10
6.0478156627
 20
1.3303714499
 40
3.0167711651
100
AcDbArc
 50
3.8139681322
 51
4.1472460989
  0
ARC
  5
385
100
AcDbEntity
  8
0
100
AcDbCircle
 62
6
  6
CONTINUOUS
 10
6.0603156628
 20
1.3303714499
 40
3.016771165
100
AcDbArc
 50
3.8139681322
 51
4.1472460989
  0
ARC
  5
386
100
AcDbEntity
  8
0
100
AcDbCircle
 62
6
  6
CONTINUOUS
 10
6.1979173823
 20
1.3303737224
 40
3.0166695319
100
AcDbArc
 50
3.8133880694
 51
4.1484425451
  0
ARC
  5
387
100
AcDbEntity
  8
0
100
AcDbCircle
 62
6
  6
CONTINUOUS
 10
6.2115809442
 20
1.3304482685
 40
3.0155036025
100
AcDbArc
 50
3.8126650998
 51
4.1500909301
  0
ARC
  5
388
100
AcDbEntity
  8
0
100
AcDbCircle
 62
6
  6
CONTINUOUS
 10
6.1009857205
 20
1.3305578752
 40
3.0135958147
100
AcDbArc
 50
3.809269176
 51
4.1545063985
  0
ARC
  5
389
100
AcDbEntity
  8
0
100
AcDbCircle
 62
6
  6
CONTINUOUS
 10
6.1134857205
 20
1.3305578752
 40
3.0135958147
100
AcDbArc
 50
3.809269176
 51
4.1545063985
  0
ARC
  5
38A
100
AcDbEntity
  8
0
100
AcDbCircle
 62
6
  6
CONTINUOUS
 10
6.2684444134
 20
1.3317758023
 40
2.9960947255
100
AcDbArc
 50
3.8117499151
 51
4.1570872619
  0
ARC
  5
38B
100
AcDbEntity
  8
0
100
AcDbCircle
 62
6
  6
CONTINUOUS
 10
6.1744521337
 20
1.3321947411
 40
2.9900724257
100
AcDbArc
 50
3.8127257354
 51
4.1572295336
  0
ARC
  5
38C
100
AcDbEntity
  8
0
100
AcDbCircle
 62
6
  6
CONTINUOUS
 10
6.1870048998
 20
1.3321987931
 40
2.9900195061
100
AcDbArc
 50
3.8127561939
 51
4.1571712204
  0
ARC
  5
38D
100
AcDbEntity
  8
0
100
AcDbCircle
 62
7
  6
CONTINUOUS
 10
6.1970020874
 20
1.4771798086
 40
0.6399101638
100
AcDbArc
 50
347.5761932651
 51
0.0000447826
  0
ARC
  5
38E
100
AcDbEntity
  8
0
100
AcDbCircle
 62
7
  6
CONTINUOUS
 10
6.1970407764
 20
1.4771784364
 40
0.6288714718
100
AcDbArc
 50
353.6399036277
 51
0.0001705847
  0
ARC
  5
38F
100
AcDbEntity
  8
0
100
AcDbCircle
 62
9
  6
CONTINUOUS
 10
6.7629311304
 20
1.9935945082
 40
0.500713251
100
AcDbArc
 50
359.9153034197
 51
45.026979892
  0
ARC
  5
390
100
AcDbEntity
  8
0
100
AcDbCircle
 62
6
  6
CONTINUOUS
 10
6.841858467
 20
1.5369535546
 40
0.2044511878
100
AcDbArc
 50
175.1992477231
 51
175.9993644168
  0
ARC
  5
391
100
AcDbEntity
  8
0
100
AcDbCircle
 62
6
  6
CONTINUOUS
 10
6.841858467
 20
1.5373093127
 40
0.2044511878
100
AcDbArc
 50
184.0006355832
 51
184.8007522768
  0
ARC
  5
392
100
AcDbEntity
  8
0
100
AcDbCircle
 62
6
  6
CONTINUOUS
 10
6.8222399122
 20
1.3885366132
 40
0.1848329172
100
AcDbArc
 50
174.9497364306
 51
175.791111329
  0
ARC
  5
393
100
AcDbEntity
  8
0
100
AcDbCircle
 62
6
  6
CONTINUOUS
 10
6.8222399122
 20
1.3888935646
 40
0.1848329172
100
AcDbArc
 50
184.208888671
 51
185.0502635694
  0
ARC
  5
394
100
AcDbEntity
  8
0
100
AcDbCircle
 62
6
  6
CONTINUOUS
 10
6.7970263818
 20
1.592249755
 40
0.159620195
100
AcDbArc
 50
174.5621572136
 51
175.4670534839
  0
ARC
  5
395
100
AcDbEntity
  8
0
100
AcDbCircle
 62
6
  6
CONTINUOUS
 10
6.7968370372
 20
1.5926092255
 40
0.1594301373
100
AcDbArc
 50
184.5324071383
 51
185.4383821642
  0
ARC
  5
396
100
AcDbEntity
  8
0
100
AcDbCircle
 62
6
  6
CONTINUOUS
 10
6.7679920321
 20
1.3371819124
 40
0.1305866564
100
AcDbArc
 50
173.9840709896
 51
174.9840523018
  0
ARC
  5
397
100
AcDbEntity
  8
0
100
AcDbCircle
 62
6
  6
CONTINUOUS
 10
6.7678172643
 20
1.3375492176
 40
0.1304110822
100
AcDbArc
 50
185.0152745368
 51
186.0166021716
  0
ARC
  5
398
100
AcDbEntity
  8
0
100
AcDbCircle
 62
6
  6
CONTINUOUS
 10
6.7374821074
 20
1.6386136759
 40
0.1000780996
100
AcDbArc
 50
173.1205039148
 51
174.2618900927
  0
ARC
  5
399
100
AcDbEntity
  8
0
100
AcDbCircle
 62
6
  6
CONTINUOUS
 10
6.7373226571
 20
1.6389973124
 40
0.0999176858
100
AcDbArc
 50
185.7371936525
 51
186.8804123399
  0
ARC
  5
39A
100
AcDbEntity
  8
0
100
AcDbCircle
 62
6
  6
CONTINUOUS
 10
6.707860413
 20
1.2966469593
 40
0.0704588943
100
AcDbArc
 50
171.7847980065
 51
173.143170866
  0
ARC
  5
39B
100
AcDbEntity
  8
0
100
AcDbCircle
 62
6
  6
CONTINUOUS
 10
6.7077158345
 20
1.2970631875
 40
0.0703130664
100
AcDbArc
 50
186.8554204486
 51
188.216610679
  0
ARC
  5
39C
100
AcDbEntity
  8
0
100
AcDbCircle
 62
6
  6
CONTINUOUS
 10
6.6814219375
 20
1.6724158438
 40
0.044025581
100
AcDbArc
 50
169.5646547285
 51
171.2780834798
  0
ARC
  5
39D
100
AcDbEntity
  8
0
100
AcDbCircle
 62
6
  6
CONTINUOUS
 10
6.6812906325
 20
1.6728980256
 40
0.0438924344
100
AcDbArc
 50
188.719317505
 51
190.4379442868
  0
ARC
  5
39E
100
AcDbEntity
  8
0
100
AcDbCircle
 62
6
  6
CONTINUOUS
 10
6.6602150442
 20
1.2699968074
 40
0.0228321591
100
AcDbArc
 50
165.356373913
 51
167.7178454011
  0
ARC
  5
39F
100
AcDbEntity
  8
0
100
AcDbCircle
 62
6
  6
CONTINUOUS
 10
6.6600943862
 20
1.2706253407
 40
0.0227081184
100
AcDbArc
 50
192.2757040324
 51
194.6500766536
  0
ARC
  5
3A0
100
AcDbEntity
  8
0
100
AcDbCircle
 62
6
  6
CONTINUOUS
 10
6.9160234858
 20
1.8121801258
 40
0.0199996181
100
AcDbArc
 50
269.9977879375
 51
2.4008336776
  0
ARC
  5
3A1
100
AcDbEntity
  8
0
100
AcDbCircle
 62
6
  6
CONTINUOUS
 10
6.6458827713
 20
1.6908259389
 40
0.008556536
100
AcDbArc
 50
155.0534983017
 51
158.7970158341
  0
ARC
  5
3A2
100
AcDbEntity
  8
0
100
AcDbCircle
 62
6
  6
CONTINUOUS
 10
6.6457693089
 20
1.6918777144
 40
0.0084332733
100
AcDbArc
 50
201.1756161591
 51
204.9738697051
  0
ARC
  5
3A3
100
AcDbEntity
  8
0
100
AcDbCircle
 62
6
  6
CONTINUOUS
 10
6.2410081098
 20
3.0440846005
 40
0.1875
100
AcDbArc
 50
159.7504371674
 51
214.2354326021
  0
ARC
  5
3A4
100
AcDbEntity
  8
0
100
AcDbCircle
 62
6
  6
CONTINUOUS
 10
6.2410081098
 20
3.0440846005
 40
0.1875
100
AcDbArc
 50
55.7645673979
 51
110.2495628326
  0
ARC
  5
3A5
100
AcDbEntity
  8
0
100
AcDbCircle
 62
6
  6
CONTINUOUS
 10
6.4206150628
 20
3.0491814547
 40
0.187
100
AcDbArc
 50
58.4190300538
 51
102.891626142
  0
ARC
  5
3A6
100
AcDbEntity
  8
0
100
AcDbCircle
 62
6
  6
CONTINUOUS
 10
6.2359112556
 20
2.8644776474
 40
0.187
100
AcDbArc
 50
167.108373858
 51
211.5809699462
  0
ARC
  5
3A7
100
AcDbEntity
  8
0
100
AcDbCircle
 62
6
  6
CONTINUOUS
 10
5.9674652792
 20
3.0298349711
 40
0.125
100
AcDbArc
 50
45.0000002118
 51
73.4761866369
  0
ARC
  5
3A8
100
AcDbEntity
  8
0
100
AcDbCircle
 62
6
  6
CONTINUOUS
 10
6.2552577391
 20
3.3176274311
 40
0.125
100
AcDbArc
 50
196.5238134622
 51
224.9999998966
  0
ARC
  5
3A9
100
AcDbEntity
  8
0
100
AcDbCircle
 62
9
  6
CONTINUOUS
 10
5.4293914839
 20
3.8447481583
 40
0.1024446349
100
AcDbArc
 50
221.3240433808
 51
222.0607727049
  0
ARC
  5
3AA
100
AcDbEntity
  8
0
100
AcDbCircle
 62
6
  6
CONTINUOUS
 10
5.5346963728
 20
3.9603875075
 40
0.0384862029
100
AcDbArc
 50
225.0618248188
 51
228.0601281202
  0
ARC
  5
3AB
100
AcDbEntity
  8
0
100
AcDbCircle
 62
6
  6
CONTINUOUS
 10
5.3247143133
 20
3.7504051381
 40
0.0384735407
100
AcDbArc
 50
41.9391908561
 51
44.9384811645
  0
ARC
  5
3AC
100
AcDbEntity
  8
0
100
AcDbCircle
 62
9
  6
CONTINUOUS
 10
6.1036203976
 20
3.2915721179
 40
0.0200398204
100
AcDbArc
 50
315.1899773173
 51
44.8094385059
  0
ARC
  5
3AD
100
AcDbEntity
  8
0
100
AcDbCircle
 62
9
  6
CONTINUOUS
 10
5.9935208897
 20
3.1814722846
 40
0.0200397959
100
AcDbArc
 50
225.1899018021
 51
314.809476245
  0
ARC
  5
3AE
100
AcDbEntity
  8
0
100
AcDbCircle
 62
9
  6
CONTINUOUS
 10
5.9935207364
 20
3.1735805317
 40
0.0200377405
100
AcDbArc
 50
225.1856824259
 51
314.8143175773
  0
ARC
  5
3AF
100
AcDbEntity
  8
0
100
AcDbCircle
 62
9
  6
CONTINUOUS
 10
6.1115121786
 20
3.2915719739
 40
0.0200377405
100
AcDbArc
 50
315.1856824122
 51
44.8143175801
  0
ARC
  5
3B0
100
AcDbEntity
  8
0
100
AcDbCircle
 62
6
  6
CONTINUOUS
 10
5.9606960203
 20
3.1314894718
 40
0.020016117
100
AcDbArc
 50
221.9674089702
 51
314.9547239339
  0
ARC
  5
3B1
100
AcDbEntity
  8
0
100
AcDbCircle
 62
6
  6
CONTINUOUS
 10
6.1536055369
 20
3.3243961315
 40
0.0200140045
100
AcDbArc
 50
315.0417584745
 51
48.0385540513
  0
ARC
  5
3B2
100
AcDbEntity
  8
0
100
AcDbCircle
 62
6
  6
CONTINUOUS
 10
7.4871081543
 20
0.0239589516
 40
2.3995274246
100
AcDbArc
 50
42.0674770225
 51
42.8281314107
  0
ARC
  5
3B3
100
AcDbEntity
  8
0
100
AcDbCircle
 62
6
  6
CONTINUOUS
 10
7.5360969166
 20
-0.0053956657
 40
2.3614133852
100
AcDbArc
 50
42.8115703765
 51
43.5737340616
  0
ARC
  5
3B4
100
AcDbEntity
  8
0
100
AcDbCircle
 62
6
  6
CONTINUOUS
 10
7.7155869974
 20
0.0359267329
 40
2.2328437647
100
AcDbArc
 50
45.9371195858
 51
46.6999939665
  0
ARC
  5
3B5
100
AcDbEntity
  8
0
100
AcDbCircle
 62
9
  6
CONTINUOUS
 10
7.2588991931
 20
0.6715819903
 40
1.3213007488
100
AcDbArc
 50
89.7943336834
 51
90.4024776148
  0
ARC
  5
3B6
100
AcDbEntity
  8
0
100
AcDbCircle
 62
9
  6
CONTINUOUS
 10
7.9072706181
 20
1.5551947226
 40
1.119393552
100
AcDbArc
 50
134.9215820808
 51
135.4457382312
  0
ARC
  5
3B7
100
AcDbEntity
  8
0
100
AcDbCircle
 62
9
  6
CONTINUOUS
 10
7.7219211211
 20
1.3862031434
 40
1.1078250648
100
AcDbArc
 50
134.5643890659
 51
135.0940183916
  0
ARC
  5
3B8
100
AcDbEntity
  8
0
100
AcDbCircle
 62
6
  6
CONTINUOUS
 10
8.0841544377
 20
1.4329957133
 40
1.1052598311
100
AcDbArc
 50
5.0896893454
 51
6.0189563339
  0
ARC
  5
3B9
100
AcDbEntity
  8
0
100
AcDbCircle
 62
6
  6
CONTINUOUS
 10
8.0404082412
 20
1.4329957133
 40
1.1052598311
100
AcDbArc
 50
5.0896893454
 51
6.0189563339
  0
ARC
  5
3BA
100
AcDbEntity
  8
0
100
AcDbCircle
 62
6
  6
CONTINUOUS
 10
8.0940001871
 20
1.4333395663
 40
1.1016515231
100
AcDbArc
 50
5.0899175879
 51
6.0238587752
  0
ARC
  5
3BB
100
AcDbEntity
  8
0
100
AcDbCircle
 62
6
  6
CONTINUOUS
 10
7.9944121323
 20
1.4333803653
 40
1.1012375673
100
AcDbArc
 50
5.0904163636
 51
6.024061377
  0
ARC
  5
3BC
100
AcDbEntity
  8
0
100
AcDbCircle
 62
6
  6
CONTINUOUS
 10
8.0381583289
 20
1.4333803654
 40
1.1012375672
100
AcDbArc
 50
5.0904163636
 51
6.024061377
  0
ARC
  5
3BD
100
AcDbEntity
  8
0
100
AcDbCircle
 62
6
  6
CONTINUOUS
 10
7.98867579
 20
1.433430571
 40
1.1007176837
100
AcDbArc
 50
5.090552891
 51
6.0248595008
  0
ARC
  5
3BE
100
AcDbEntity
  8
0
100
AcDbCircle
 62
6
  6
CONTINUOUS
 10
7.9449295934
 20
1.433430571
 40
1.1007176837
100
AcDbArc
 50
5.090552891
 51
6.0248595008
  0
ARC
  5
3BF
100
AcDbEntity
  8
0
100
AcDbCircle
 62
6
  6
CONTINUOUS
 10
8.139613604
 20
1.4335163893
 40
1.0997759746
100
AcDbArc
 50
5.0898644242
 51
6.028187727
  0
ARC
  5
3C0
100
AcDbEntity
  8
0
100
AcDbCircle
 62
6
  6
CONTINUOUS
 10
8.145984854
 20
1.4335305585
 40
1.0996577143
100
AcDbArc
 50
5.0903392861
 51
6.0271382284
  0
ARC
  5
3C1
100
AcDbEntity
  8
0
100
AcDbCircle
 62
6
  6
CONTINUOUS
 10
8.6606722927
 20
1.405294546
 40
0.5129906661
100
AcDbArc
 50
268.4857497639
 51
317.1742861035
  0
ARC
  5
3C2
100
AcDbEntity
  8
0
100
AcDbCircle
 62
6
  6
CONTINUOUS
 10
8.6606722927
 20
1.5490660715
 40
0.5129906661
100
AcDbArc
 50
42.8257138965
 51
91.5142502361
  0
ARC
  5
3C3
100
AcDbEntity
  8
0
100
AcDbCircle
 62
9
  6
CONTINUOUS
 10
8.3253177908
 20
1.7445780146
 40
0.0427065317
100
AcDbArc
 50
171.3844703343
 51
171.8721094077
  0
ARC
  5
3C4
100
AcDbEntity
  8
0
100
AcDbCircle
 62
9
  6
CONTINUOUS
 10
8.3199864078
 20
1.7453823957
 40
0.0373148101
100
AcDbArc
 50
170.8438354849
 51
171.3793194942
  0
ARC
  5
3C5
100
AcDbEntity
  8
0
100
AcDbCircle
 62
6
  6
CONTINUOUS
 10
8.5869124015
 20
1.9126803087
 40
0.035
100
AcDbArc
 50
124.9042348874
 51
180.0
  0
ARC
  5
3C6
100
AcDbEntity
  8
0
100
AcDbCircle
 62
6
  6
CONTINUOUS
 10
8.5869124015
 20
1.0416803087
 40
0.035
100
AcDbArc
 50
180.0
 51
235.0957651126
  0
ARC
  5
3C7
100
AcDbEntity
  8
0
100
AcDbCircle
 62
6
  6
CONTINUOUS
 10
8.6463234517
 20
0.8624935012
 40
0.03
100
AcDbArc
 50
88.4857497639
 51
165.9853378991
  0
ARC
  5
3C8
100
AcDbEntity
  8
0
100
AcDbCircle
 62
6
  6
CONTINUOUS
 10
8.6463234517
 20
2.0918671163
 40
0.03
100
AcDbArc
 50
194.0146621009
 51
271.5142502361
  0
ARC
  5
3C9
100
AcDbEntity
  8
0
100
AcDbCircle
 62
6
  6
CONTINUOUS
 10
7.3578013622
 20
1.8121801341
 40
0.0199996404
100
AcDbArc
 50
177.5991954892
 51
270.0020832378
  0
ARC
  5
3CA
100
AcDbEntity
  8
0
100
AcDbCircle
 62
6
  6
CONTINUOUS
 10
8.6075141003
 20
0.8721803087
 40
0.01
100
AcDbArc
 50
270.0
 51
345.9853378991
  0
ARC
  5
3CB
100
AcDbEntity
  8
0
100
AcDbCircle
 62
6
  6
CONTINUOUS
 10
8.6075141003
 20
2.0821803087
 40
0.01
100
AcDbArc
 50
14.0146621009
 51
90.0
  0
ARC
  5
3CC
100
AcDbEntity
  8
0
100
AcDbCircle
 62
6
  6
CONTINUOUS
 10
8.3854529366
 20
4.4214897912
 40
3.1780370095
100
AcDbArc
 50
285.7277414614
 51
286.130837072
  0
ARC
  5
3CD
100
AcDbEntity
  8
0
100
AcDbCircle
 62
6
  6
CONTINUOUS
 10
7.4871081936
 20
2.9304016299
 40
2.3995273714
100
AcDbArc
 50
317.1718685809
 51
317.9325229859
  0
ARC
  5
3CE
100
AcDbEntity
  8
0
100
AcDbCircle
 62
6
  6
CONTINUOUS
 10
7.5360969548
 20
2.9597562473
 40
2.3614133328
100
AcDbArc
 50
316.42626593
 51
317.1884296319
  0
ARC
  5
3CF
100
AcDbEntity
  8
0
100
AcDbCircle
 62
6
  6
CONTINUOUS
 10
7.7155869632
 20
2.9184339204
 40
2.2328438142
100
AcDbArc
 50
313.300006042
 51
314.0628804058
  0
ARC
  5
3D0
100
AcDbEntity
  8
0
100
AcDbCircle
 62
6
  6
CONTINUOUS
 10
8.2059629134
 20
3.3690593682
 40
2.1781889183
100
AcDbArc
 50
298.5481278034
 51
299.1939428641
  0
ARC
  5
3D1
100
AcDbEntity
  8
0
100
AcDbCircle
 62
6
  6
CONTINUOUS
 10
7.8338563291
 20
3.0238872329
 40
2.1624200017
100
AcDbArc
 50
310.8030203278
 51
311.5599297696
  0
ARC
  5
3D2
100
AcDbEntity
  8
0
100
AcDbCircle
 62
6
  6
CONTINUOUS
 10
8.0876935557
 20
3.0656788772
 40
2.0991509002
100
AcDbArc
 50
303.5202905236
 51
304.2270989979
  0
ARC
  5
3D3
100
AcDbEntity
  8
0
100
AcDbCircle
 62
7
  6
CONTINUOUS
 10
7.1369121068
 20
2.9827743503
 40
1.3191239913
100
AcDbArc
 50
265.2379606828
 51
274.7620648332
  0
ARC
  5
3D4
100
AcDbEntity
  8
0
100
AcDbCircle
 62
7
  6
CONTINUOUS
 10
7.1369113494
 20
2.9804001972
 40
1.3049105301
100
AcDbArc
 50
265.2435714165
 51
274.7562029695
  0
ARC
  5
3D5
100
AcDbEntity
  8
0
100
AcDbCircle
 62
9
  6
CONTINUOUS
 10
118.631041967
 20
2.2243737212
 40
111.6210995213
100
AcDbArc
 50
180.1188310815
 51
180.2637491937
  0
ARC
  5
3D6
100
AcDbEntity
  8
0
100
AcDbCircle
 62
9
  6
CONTINUOUS
 10
170.8830476898
 20
170.509680234
 40
234.9728340892
100
AcDbArc
 50
225.5856055589
 51
225.7579318749
  0
ARC
  5
3D7
100
AcDbEntity
  8
0
100
AcDbCircle
 62
6
  6
CONTINUOUS
 10
8.4651980623
 20
7.0348548943
 40
5.5624021229
100
AcDbArc
 50
278.0788280044
 51
278.3025722186
  0
LINE
  5
3D8
100
AcDbEntity
  8
0
100
AcDbLine
 62
7
  6
CONTINUOUS
 10
7.1830326813
 20
2.413991121
 11
6.7041630515
 21
2.9344830494
  0
LINE
  5
3D9
100
AcDbEntity
  8
0
100
AcDbLine
 62
7
  6
CONTINUOUS
 10
6.871078748
 20
2.1020810249
 11
6.3506096609
 21
2.5809296588
  0
LINE
  5
3DA
100
AcDbEntity
  8
0
100
AcDbLine
 62
7
  6
CONTINUOUS
 10
7.2464233912
 20
1.6682032264
 11
7.2451119335
 21
1.6799814357
  0
LINE
  5
3DB
100
AcDbEntity
  8
0
100
AcDbLine
 62
7
  6
CONTINUOUS
 10
7.0274014098
 20
1.6682021527
 11
7.0287128437
 21
1.6799814425
  0
LINE
  5
3DC
100
AcDbEntity
  8
0
100
AcDbLine
 62
7
  6
CONTINUOUS
 10
6.638124543
 20
1.6944348448
 11
6.638518237
 21
1.6948172862
  0
LINE
  5
3DD
100
AcDbEntity
  8
0
100
AcDbLine
 62
7
  6
CONTINUOUS
 10
6.638518237
 20
1.6948172862
 11
6.6387600296
 21
1.6950521449
  0
LINE
  5
3DE
100
AcDbEntity
  8
0
100
AcDbLine
 62
7
  6
CONTINUOUS
 10
6.6387600296
 20
1.6950521449
 11
6.6389123853
 21
1.6952001225
  0
LINE
  5
3DF
100
AcDbEntity
  8
0
100
AcDbLine
 62
7
  6
CONTINUOUS
 10
6.6379054703
 20
1.693920608
 11
6.6384085681
 21
1.6944076334
  0
LINE
  5
3E0
100
AcDbEntity
  8
0
100
AcDbLine
 62
7
  6
CONTINUOUS
 10
6.6384085681
 20
1.6944076334
 11
6.6389123853
 21
1.6948952874
  0
LINE
  5
3E1
100
AcDbEntity
  8
0
100
AcDbLine
 62
7
  6
CONTINUOUS
 10
6.6389123853
 20
1.6898677225
 11
6.6384085704
 21
1.6893492184
  0
LINE
  5
3E2
100
AcDbEntity
  8
0
100
AcDbLine
 62
7
  6
CONTINUOUS
 10
6.6384085704
 20
1.6893492184
 11
6.6379054703
 21
1.688831382
  0
LINE
  5
3E3
100
AcDbEntity
  8
0
100
AcDbLine
 62
7
  6
CONTINUOUS
 10
6.6389123853
 20
1.6891306685
 11
6.638124543
 21
1.6883171452
  0
LINE
  5
3E4
100
AcDbEntity
  8
0
100
AcDbLine
 62
7
  6
CONTINUOUS
 10
6.6379054703
 20
1.6790918355
 11
6.6384085681
 21
1.6795114949
  0
LINE
  5
3E5
100
AcDbEntity
  8
0
100
AcDbLine
 62
7
  6
CONTINUOUS
 10
6.6384085681
 20
1.6795114949
 11
6.6389123853
 21
1.6799316924
  0
LINE
  5
3E6
100
AcDbEntity
  8
0
100
AcDbLine
 62
7
  6
CONTINUOUS
 10
6.6389123853
 20
1.6657273636
 11
6.638124543
 21
1.6649460123
  0
LINE
  5
3E7
100
AcDbEntity
  8
0
100
AcDbLine
 62
6
  6
CONTINUOUS
 10
6.6379054703
 20
1.6486196427
 11
6.6389123853
 21
1.6492596079
  0
LINE
  5
3E8
100
AcDbEntity
  8
0
100
AcDbLine
 62
6
  6
CONTINUOUS
 10
6.6389123853
 20
1.6277160724
 11
6.638124543
 21
1.6270274295
  0
LINE
  5
3E9
100
AcDbEntity
  8
0
100
AcDbLine
 62
6
  6
CONTINUOUS
 10
6.6379054703
 20
1.6048649118
 11
6.6389123853
 21
1.605255403
  0
LINE
  5
3EA
100
AcDbEntity
  8
0
100
AcDbLine
 62
6
  6
CONTINUOUS
 10
6.6389123853
 20
1.5780417809
 11
6.638124543
 21
1.5774992001
  0
LINE
  5
3EB
100
AcDbEntity
  8
0
100
AcDbLine
 62
6
  6
CONTINUOUS
 10
6.6379054703
 20
1.551217611
 11
6.6389123853
 21
1.5513283742
  0
LINE
  5
3EC
100
AcDbEntity
  8
0
100
AcDbLine
 62
7
  6
CONTINUOUS
 10
6.6389123853
 20
1.5234973564
 11
6.6379054703
 21
1.5230452563
  0
LINE
  5
3ED
100
AcDbEntity
  8
0
100
AcDbLine
 62
6
  6
CONTINUOUS
 10
6.6389123853
 20
1.5205530846
 11
6.638124543
 21
1.5201986032
  0
LINE
  5
3EE
100
AcDbEntity
  8
0
100
AcDbLine
 62
7
  6
CONTINUOUS
 10
6.638124543
 20
1.4048073875
 11
6.6389123853
 21
1.4043544485
  0
LINE
  5
3EF
100
AcDbEntity
  8
0
100
AcDbLine
 62
6
  6
CONTINUOUS
 10
6.6389123853
 20
1.3750750475
 11
6.6379054703
 21
1.3753281378
  0
LINE
  5
3F0
100
AcDbEntity
  8
0
100
AcDbLine
 62
7
  6
CONTINUOUS
 10
6.638124543
 20
1.3508680404
 11
6.6389123853
 21
1.3502463785
  0
LINE
  5
3F1
100
AcDbEntity
  8
0
100
AcDbLine
 62
7
  6
CONTINUOUS
 10
6.6389123853
 20
1.3256282175
 11
6.6379054703
 21
1.3261485091
  0
LINE
  5
3F2
100
AcDbEntity
  8
0
100
AcDbLine
 62
7
  6
CONTINUOUS
 10
6.6389123853
 20
1.3234711396
 11
6.638124543
 21
1.3238799669
  0
LINE
  5
3F3
100
AcDbEntity
  8
0
100
AcDbLine
 62
6
  6
CONTINUOUS
 10
6.638124543
 20
1.3067149393
 11
6.6389123853
 21
1.3059727189
  0
LINE
  5
3F4
100
AcDbEntity
  8
0
100
AcDbLine
 62
7
  6
CONTINUOUS
 10
6.6379054703
 20
1.3050589613
 11
6.6389123853
 21
1.3041132135
  0
LINE
  5
3F5
100
AcDbEntity
  8
0
100
AcDbLine
 62
6
  6
CONTINUOUS
 10
6.6389123853
 20
1.2879231295
 11
6.6379054703
 21
1.2886703121
  0
LINE
  5
3F6
100
AcDbEntity
  8
0
100
AcDbLine
 62
7
  6
CONTINUOUS
 10
6.6389123853
 20
1.2864274775
 11
6.638124543
 21
1.2870143341
  0
LINE
  5
3F7
100
AcDbEntity
  8
0
100
AcDbLine
 62
6
  6
CONTINUOUS
 10
6.638124543
 20
1.2757689169
 11
6.6389123853
 21
1.2749636427
  0
LINE
  5
3F8
100
AcDbEntity
  8
0
100
AcDbLine
 62
7
  6
CONTINUOUS
 10
6.6379054703
 20
1.2748538028
 11
6.6384085681
 21
1.2743411795
  0
LINE
  5
3F9
100
AcDbEntity
  8
0
100
AcDbLine
 62
7
  6
CONTINUOUS
 10
6.6384085681
 20
1.2743411795
 11
6.6389123853
 21
1.2738278888
  0
LINE
  5
3FA
100
AcDbEntity
  8
0
100
AcDbLine
 62
7
  6
CONTINUOUS
 10
6.6389123853
 20
1.2648810458
 11
6.6384085706
 21
1.2653394302
  0
LINE
  5
3FB
100
AcDbEntity
  8
0
100
AcDbLine
 62
7
  6
CONTINUOUS
 10
6.6384085706
 20
1.2653394302
 11
6.6379054703
 21
1.2657972301
  0
LINE
  5
3FC
100
AcDbEntity
  8
0
100
AcDbLine
 62
7
  6
CONTINUOUS
 10
6.6389123853
 20
1.2641626977
 11
6.6385182386
 21
1.2645225904
  0
LINE
  5
3FD
100
AcDbEntity
  8
0
100
AcDbLine
 62
7
  6
CONTINUOUS
 10
6.6385182386
 20
1.2645225904
 11
6.638124543
 21
1.264882116
  0
LINE
  5
3FE
100
AcDbEntity
  8
0
100
AcDbLine
 62
7
  6
CONTINUOUS
 10
6.638124543
 20
1.260427566
 11
6.6389123853
 21
1.2596216278
  0
LINE
  5
3FF
100
AcDbEntity
  8
0
100
AcDbLine
 62
7
  6
CONTINUOUS
 10
6.6379054703
 20
1.2603242156
 11
6.6384085681
 21
1.25981125
  0
LINE
  5
400
100
AcDbEntity
  8
0
100
AcDbLine
 62
7
  6
CONTINUOUS
 10
6.6384085681
 20
1.25981125
 11
6.6387504077
 21
1.2594627447
  0
LINE
  5
401
100
AcDbEntity
  8
0
100
AcDbLine
 62
7
  6
CONTINUOUS
 10
6.6387504077
 20
1.2594627447
 11
6.6389123853
 21
1.2592976198
  0
LINE
  5
402
100
AcDbEntity
  8
0
100
AcDbLine
 62
7
  6
CONTINUOUS
 10
6.813098481
 20
1.3042338308
 11
6.8128323216
 21
1.3032884374
  0
LINE
  5
403
100
AcDbEntity
  8
0
100
AcDbLine
 62
7
  6
CONTINUOUS
 10
6.8083610517
 20
1.2881684299
 11
6.8080998648
 21
1.2873256192
  0
LINE
  5
404
100
AcDbEntity
  8
0
100
AcDbLine
 62
7
  6
CONTINUOUS
 10
6.803945923
 20
1.2744375653
 11
6.8036138336
 21
1.2734460267
  0
LINE
  5
405
100
AcDbEntity
  8
0
100
AcDbLine
 62
7
  6
CONTINUOUS
 10
6.8036138336
 20
1.2734460267
 11
6.8032416228
 21
1.2723411857
  0
LINE
  5
406
100
AcDbEntity
  8
0
100
AcDbLine
 62
7
  6
CONTINUOUS
 10
6.7892827408
 20
1.265680583
 11
6.7894762817
 21
1.2662239562
  0
LINE
  5
407
100
AcDbEntity
  8
0
100
AcDbLine
 62
7
  6
CONTINUOUS
 10
6.7913815756
 20
1.2716532059
 11
6.7917357521
 21
1.2726801898
  0
LINE
  5
408
100
AcDbEntity
  8
0
100
AcDbLine
 62
7
  6
CONTINUOUS
 10
6.7917357521
 20
1.2726801898
 11
6.7917791051
 21
1.2728063037
  0
LINE
  5
409
100
AcDbEntity
  8
0
100
AcDbLine
 62
7
  6
CONTINUOUS
 10
6.7969305057
 20
1.288463235
 11
6.7971893536
 21
1.289288114
  0
LINE
  5
40A
100
AcDbEntity
  8
0
100
AcDbLine
 62
7
  6
CONTINUOUS
 10
6.8009991288
 20
1.3019210017
 11
6.8013192205
 21
1.3030279631
  0
LINE
  5
40B
100
AcDbEntity
  8
0
100
AcDbLine
 62
7
  6
CONTINUOUS
 10
6.8121995295
 20
1.3465652956
 11
6.8123455328
 21
1.3472549243
  0
LINE
  5
40C
100
AcDbEntity
  8
0
100
AcDbLine
 62
9
  6
CONTINUOUS
 10
7.2451095857
 20
1.6799813107
 11
7.2496178337
 21
1.9928502228
  0
SPLINE
  5
40D
100
AcDbEntity
  8
0
100
AcDbSpline
 62
9
  6
CONTINUOUS
 70
0
 71
3
 72
32
 73
28
 74
26
 42
0.0000001
 43
0.0000001
 44
0.0000000001
 12
0.1295623342
 22
-0.0134711304
 32
0.0
 13
0.0455160149
 23
-0.1220498349
 33
0.0
 40
0.0
 40
0.0
 40
0.0
 40
0.0
 40
0.0283285417
 40
0.0439179749
 40
0.0605780371
 40
0.0783804302
 40
0.0973792483
 40
0.1176091674
 40
0.1390887534
 40
0.1618279941
 40
0.185830362
 40
0.2110939742
 40
0.2376086893
 40
0.2653580576
 40
0.2943236166
 40
0.3244854483
 40
0.3558227237
 40
0.3883145358
 40
0.4219396976
 40
0.4566767757
 40
0.4925040874
 40
0.5673372982
 40
0.6462678375
 40
0.7291344016
 40
0.8157933716
 40
0.9061241494
 40
1.0
 40
1.0
 40
1.0
 40
1.0
 10
6.9364393365
 20
1.8128986272
 30
0.0
 10
6.9376627739
 20
1.8127714214
 30
0.0
 10
6.9395384226
 20
1.8123401741
 30
0.0
 10
6.9420038474
 20
1.8114210668
 30
0.0
 10
6.9439767039
 20
1.8105037158
 30
0.0
 10
6.9460109803
 20
1.8093826567
 30
0.0
 10
6.9481057495
 20
1.8080595551
 30
0.0
 10
6.9502585595
 20
1.8065366459
 30
0.0
 10
6.9524667706
 20
1.8048162729
 30
0.0
 10
6.9547273814
 20
1.8029009269
 30
0.0
 10
6.957037337
 20
1.8007930921
 30
0.0
 10
6.9593935004
 20
1.7984954985
 30
0.0
 10
6.9617919781
 20
1.7960106131
 30
0.0
 10
6.9642281918
 20
1.7933407874
 30
0.0
 10
6.9666975204
 20
1.7904885921
 30
0.0
 10
6.9691953187
 20
1.7874565822
 30
0.0
 10
6.9717169497
 20
1.7842472745
 30
0.0
 10
6.974257474
 20
1.780862896
 30
0.0
 10
6.9768119828
 20
1.7773056773
 30
0.0
 10
6.979375581
 20
1.7735778357
 30
0.0
 10
6.9828497911
 20
1.7683061476
 30
0.0
 10
6.987178075
 20
1.7613012471
 30
0.0
 10
6.9922538452
 20
1.7523654682
 30
0.0
 10
6.9972410294
 20
1.7427967762
 30
0.0
 10
7.0020959944
 20
1.7326090203
 30
0.0
 10
7.0067771047
 20
1.7218171515
 30
0.0
 10
7.0097006238
 20
1.714370217
 30
0.0
 10
7.0111249087
 20
1.7105510396
 30
0.0
 11
6.9364393365
 21
1.8128986272
 31
0.0
 11
6.940045762
 21
1.8121172711
 31
0.0
 11
6.9419506127
 21
1.8114135294
 31
0.0
 11
6.9439206853
 21
1.8105033776
 31
0.0
 11
6.9459540774
 21
1.8093885402
 31
0.0
 11
6.9480488567
 21
1.8080707623
 31
0.0
 11
6.9502024851
 21
1.8065522173
 31
0.0
 11
6.9524118565
 21
1.8048354795
 31
0.0
 11
6.9546738428
 21
1.802923139
 31
0.0
 11
6.956985316
 21
1.8008177855
 31
0.0
 11
6.9593431025
 21
1.7985220094
 31
0.0
 11
6.961743237
 21
1.7960384076
 31
0.0
 11
6.9641810842
 21
1.7933695828
 31
0.0
 11
6.9666519879
 21
1.7905181377
 31
0.0
 11
6.9691512913
 21
1.787486675
 31
0.0
 11
6.9716742892
 21
1.7842777264
 31
0.0
 11
6.9742161109
 21
1.7808935832
 31
0.0
 11
6.9767718511
 21
1.7773364861
 31
0.0
 11
6.9793366045
 21
1.773608676
 31
0.0
 11
6.9819054097
 21
1.7697123786
 31
0.0
 11
6.9870342988
 21
1.7614229439
 31
0.0
 11
6.9921163753
 21
1.752485224
 31
0.0
 11
6.9971086247
 21
1.7429147716
 31
0.0
 11
7.0019679382
 21
1.7327259546
 31
0.0
 11
7.0066533291
 21
1.7219324852
 31
0.0
 11
7.0111249087
 21
1.7105510396
 31
0.0
  0
LINE
  5
40E
100
AcDbEntity
  8
0
100
AcDbLine
 62
9
  6
CONTINUOUS
 10
6.9364393365
 20
1.8128986272
 11
6.9287875839
 21
1.9928524629
  0
LINE
  5
40F
100
AcDbEntity
  8
0
100
AcDbLine
 62
9
  6
CONTINUOUS
 10
7.0101826546
 20
1.9928724385
 11
6.9287875839
 21
1.9928524629
  0
SPLINE
  5
410
100
AcDbEntity
  8
0
100
AcDbSpline
 62
9
  6
CONTINUOUS
 70
0
 71
3
 72
46
 73
42
 74
40
 42
0.0000001
 43
0.0000001
 44
0.0000000001
 12
-0.1775821641
 22
0.1775782955
 32
0.0
 13
-0.1775189753
 23
-0.1776414633
 33
0.0
 40
0.0
 40
0.0
 40
0.0
 40
0.0
 40
0.0975514878
 40
0.194300882
 40
0.2891535802
 40
0.3811740965
 40
0.4695169408
 40
0.5533535733
 40
0.6318746055
 40
0.6688960557
 40
0.7043100101
 40
0.7380343611
 40
0.7699871149
 40
0.8000877146
 40
0.8282679222
 40
0.8544664128
 40
0.8786222738
 40
0.9006751046
 40
0.9205712627
 40
0.9296988437
 40
0.9382737451
 40
0.9462918987
 40
0.9537494138
 40
0.9606426387
 40
0.9669682505
 40
0.9727233926
 40
0.9779066555
 40
0.9825195749
 40
0.9865654958
 40
0.9883776728
 40
0.9900506009
 40
0.9915857121
 40
0.9929849275
 40
0.9942508598
 40
0.9953871227
 40
0.9963988118
 40
0.9972932579
 40
0.9980811894
 40
0.9987784034
 40
0.9994077154
 40
1.0
 40
1.0
 40
1.0
 40
1.0
 10
1.950584203
 20
7.2243147347
 30
0.0
 10
1.9448097349
 20
7.230089077
 30
0.0
 10
1.9332810514
 20
7.241563093
 30
0.0
 10
1.9160438721
 20
7.2585571486
 30
0.0
 10
1.8990546445
 20
7.275142818
 30
0.0
 10
1.8824862657
 20
7.2911517414
 30
0.0
 10
1.8664965716
 20
7.3064319732
 30
0.0
 10
1.8512365188
 20
7.3208394983
 30
0.0
 10
1.8390232661
 20
7.332215488
 30
0.0
 10
1.8297245197
 20
7.3407726468
 30
0.0
 10
1.8231594238
 20
7.3467623304
 30
0.0
 10
1.8168810586
 20
7.3524366068
 30
0.0
 10
1.8109047757
 20
7.3577816127
 30
0.0
 10
1.8052450473
 20
7.3627841849
 30
0.0
 10
1.7999153738
 20
7.3674326002
 30
0.0
 10
1.794928206
 20
7.3717163421
 30
0.0
 10
1.790295569
 20
7.3756252923
 30
0.0
 10
1.7860290867
 20
7.3791496431
 30
0.0
 10
1.782698282
 20
7.3818308736
 30
0.0
 10
1.7802226419
 20
7.3837745663
 30
0.0
 10
1.7785172383
 20
7.3850889883
 30
0.0
 10
1.7769101431
 20
7.3863017861
 30
0.0
 10
1.7754023232
 20
7.3874122356
 30
0.0
 10
1.7739947547
 20
7.3884196314
 30
0.0
 10
1.7726884117
 20
7.3893232839
 30
0.0
 10
1.7714842108
 20
7.3901225502
 30
0.0
 10
1.7703828743
 20
7.3908169758
 30
0.0
 10
1.7693850164
 20
7.3914063842
 30
0.0
 10
1.768614146
 20
7.391824287
 30
0.0
 10
1.7680488448
 20
7.3921035289
 30
0.0
 10
1.7676667852
 20
7.3922787441
 30
0.0
 10
1.7673108883
 20
7.3924275925
 30
0.0
 10
1.7669811764
 20
7.3925500754
 30
0.0
 10
1.7666776593
 20
7.3926462102
 30
0.0
 10
1.7664003129
 20
7.3927160132
 30
0.0
 10
1.7661490625
 20
7.3927594918
 30
0.0
 10
1.7659237498
 20
7.3927766002
 30
0.0
 10
1.765724137
 20
7.3927671634
 30
0.0
 10
1.7655499484
 20
7.3927306558
 30
0.0
 10
1.7654014154
 20
7.3926662178
 30
0.0
 10
1.7653192388
 20
7.3926031853
 30
0.0
 10
1.7652841916
 20
7.3925681139
 30
0.0
 11
1.950584203
 21
7.2243147347
 31
0.0
 11
1.9332198266
 21
7.2415966916
 31
0.0
 11
1.9159167216
 21
7.2586542687
 31
0.0
 11
1.8988705255
 21
7.2752935427
 31
0.0
 11
1.8822498497
 21
7.2913500459
 31
0.0
 11
1.8662080548
 21
7.3066759685
 31
0.0
 11
1.8508962162
 21
7.3211271455
 31
0.0
 11
1.8364628765
 21
7.3345635464
 31
0.0
 11
1.8296209058
 21
7.3408587581
 31
0.0
 11
1.8230501402
 21
7.3468523804
 31
0.0
 11
1.8167659856
 21
7.3525304368
 31
0.0
 11
1.8107838478
 21
7.3578789511
 31
0.0
 11
1.8051189135
 21
7.3628841855
 31
0.0
 11
1.7997842995
 21
7.367534657
 31
0.0
 11
1.7947919845
 21
7.3718201223
 31
0.0
 11
1.7901539349
 21
7.3757303513
 31
0.0
 11
1.7858821152
 21
7.3792551161
 31
0.0
 11
1.7819874234
 21
7.3823852719
 31
0.0
 11
1.7801840817
 21
7.3838003513
 31
0.0
 11
1.7784780339
 21
7.3851144411
 31
0.0
 11
1.7768702481
 21
7.3863267987
 31
0.0
 11
1.7753616925
 21
7.3874366814
 31
0.0
 11
1.7739533353
 21
7.3884433462
 31
0.0
 11
1.7726461448
 21
7.3893460504
 31
0.0
 11
1.7714410889
 21
7.3901440517
 31
0.0
 11
1.7703390022
 21
7.3908367587
 31
0.0
 11
1.7693403803
 21
7.3914239649
 31
0.0
 11
1.7684456654
 21
7.3919055243
 31
0.0
 11
1.7680374112
 21
7.3921066408
 31
0.0
 11
1.7676552997
 21
7.3922812907
 31
0.0
 11
1.7672993861
 21
7.3924294559
 31
0.0
 11
1.7669697257
 21
7.392551118
 31
0.0
 11
1.7666663738
 21
7.3926462589
 31
0.0
 11
1.7663893856
 21
7.3927148601
 31
0.0
 11
1.7661388165
 21
7.3927569036
 31
0.0
 11
1.7659147217
 21
7.3927723709
 31
0.0
 11
1.7657171565
 21
7.3927612438
 31
0.0
 11
1.7655461762
 21
7.3927235042
 31
0.0
 11
1.7654018362
 21
7.3926591336
 31
0.0
 11
1.7652841916
 21
7.3925681139
 31
0.0
  0
SPLINE
  5
411
100
AcDbEntity
  8
0
100
AcDbSpline
 62
9
  6
CONTINUOUS
 70
0
 71
3
 72
46
 73
42
 74
40
 42
0.0000001
 43
0.0000001
 44
0.0000000001
 12
-0.1635301947
 22
0.1635266972
 32
0.0
 13
-0.1486058913
 23
-0.1771987425
 33
0.0
 40
0.0
 40
0.0
 40
0.0
 40
0.0
 40
0.0977501168
 40
0.1946907878
 40
0.2897192085
 40
0.3818942003
 40
0.4703641773
 40
0.5542946529
 40
0.632870254
 40
0.6699027613
 40
0.7053165896
 40
0.7390294054
 40
0.7709590123
 40
0.8010247374
 40
0.8291584199
 40
0.8552987901
 40
0.8793850583
 40
0.9013570566
 40
0.9211617316
 40
0.9302399131
 40
0.9387631772
 40
0.9467276497
 40
0.9541296754
 40
0.9609658939
 40
0.9672333521
 40
0.9729296756
 40
0.978054105
 40
0.9826090439
 40
0.986599078
 40
0.9883846889
 40
0.9900323625
 40
0.9915439489
 40
0.9929219132
 40
0.9941695861
 40
0.9952915412
 40
0.9962941657
 40
0.9971865161
 40
0.9979815435
 40
0.9986976287
 40
0.9993598997
 40
1.0
 40
1.0
 40
1.0
 40
1.0
 10
1.9364614486
 20
7.2101919804
 30
0.0
 10
1.9311330834
 20
7.2155202317
 30
0.0
 10
1.9204930777
 20
7.2261052533
 30
0.0
 10
1.9045787515
 20
7.2417750058
 30
0.0
 10
1.8888884825
 20
7.2570593278
 30
0.0
 10
1.8735828733
 20
7.2718022443
 30
0.0
 10
1.8588085633
 20
7.2858630423
 30
0.0
 10
1.8447059603
 20
7.2991083624
 30
0.0
 10
1.8334162812
 20
7.3095561363
 30
0.0
 10
1.8248197453
 20
7.317407012
 30
0.0
 10
1.8187510549
 20
7.3228972655
 30
0.0
 10
1.812947276
 20
7.328093842
 30
0.0
 10
1.8074226652
 20
7.3329839901
 30
0.0
 10
1.8021906505
 20
7.3375556048
 30
0.0
 10
1.7972637779
 20
7.3417979426
 30
0.0
 10
1.7926536242
 20
7.3457013795
 30
0.0
 10
1.7883713761
 20
7.3492566578
 30
0.0
 10
1.7844278355
 20
7.3524548081
 30
0.0
 10
1.781348656
 20
7.3548815052
 30
0.0
 10
1.7790600553
 20
7.3566357792
 30
0.0
 10
1.7774840443
 20
7.3578192035
 30
0.0
 10
1.7759989842
 20
7.3589083804
 30
0.0
 10
1.7746057693
 20
7.359902661
 30
0.0
 10
1.7733053022
 20
7.3608014157
 30
0.0
 10
1.7720984823
 20
7.361604032
 30
0.0
 10
1.7709861531
 20
7.3623099407
 30
0.0
 10
1.7699689728
 20
7.3629187503
 30
0.0
 10
1.7690475055
 20
7.3634303309
 30
0.0
 10
1.7683355666
 20
7.3637879702
 30
0.0
 10
1.7678136244
 20
7.364022787
 30
0.0
 10
1.7674610233
 20
7.3641678343
 30
0.0
 10
1.7671326158
 20
7.3642884773
 30
0.0
 10
1.7668284136
 20
7.3643847173
 30
0.0
 10
1.7665484131
 20
7.3644565673
 30
0.0
 10
1.7662925745
 20
7.3645040309
 30
0.0
 10
1.7660608081
 20
7.3645270846
 30
0.0
 10
1.7658529581
 20
7.3645256239
 30
0.0
 10
1.7656688469
 20
7.3644993789
 30
0.0
 10
1.7655084027
 20
7.3644477596
 30
0.0
 10
1.7653721677
 20
7.3643700675
 30
0.0
 10
1.7652981754
 20
7.3643005589
 30
0.0
 10
1.7652664678
 20
7.3642627506
 30
0.0
 11
1.9364614486
 21
7.2101919804
 31
0.0
 11
1.9204351294
 21
7.226135403
 31
0.0
 11
1.9044595521
 21
7.2418639782
 31
0.0
 11
1.8887163789
 21
7.2571978091
 31
0.0
 11
1.8733620812
 21
7.2719846363
 31
0.0
 11
1.8585392053
 21
7.2860875167
 31
0.0
 11
1.8443882498
 21
7.2993729531
 31
0.0
 11
1.8310474725
 21
7.3117113097
 31
0.0
 11
1.8247229961
 21
7.3174860895
 31
0.0
 11
1.8186490033
 21
7.3229798926
 31
0.0
 11
1.8128398025
 21
7.3281798561
 31
0.0
 11
1.8073097018
 21
7.3330731169
 31
0.0
 11
1.8020727998
 21
7.3376470424
 31
0.0
 11
1.7971412708
 21
7.3418911109
 31
0.0
 11
1.7925262552
 21
7.345795935
 31
0.0
 11
1.7882388839
 21
7.3493521381
 31
0.0
 11
1.784290285
 21
7.3525503464
 31
0.0
 11
1.7806905727
 21
7.3553822169
 31
0.0
 11
1.7790239386
 21
7.3566589527
 31
0.0
 11
1.7774473151
 21
7.3578419969
 31
0.0
 11
1.7759615988
 21
7.3589306803
 31
0.0
 11
1.7745676867
 21
7.3599243339
 31
0.0
 11
1.7732664755
 21
7.3608222886
 31
0.0
 11
1.772058862
 21
7.3616238753
 31
0.0
 11
1.7709457428
 21
7.3623284254
 31
0.0
 11
1.769927891
 21
7.3629354115
 31
0.0
 11
1.7690057713
 21
7.3634446601
 31
0.0
 11
1.7681798006
 21
7.3638560522
 31
0.0
 11
1.7678030016
 21
7.3640250149
 31
0.0
 11
1.7674503963
 21
7.3641694687
 31
0.0
 11
1.7671220368
 21
7.3642893989
 31
0.0
 11
1.7668179753
 21
7.3643847906
 31
0.0
 11
1.766538264
 21
7.3644556289
 31
0.0
 11
1.7662829549
 21
7.3645018988
 31
0.0
 11
1.7660521002
 21
7.3645235855
 31
0.0
 11
1.7658457521
 21
7.3645206742
 31
0.0
 11
1.7656639626
 21
7.3644931499
 31
0.0
 11
1.765506784
 21
7.3644409978
 31
0.0
 11
1.7653742684
 21
7.364364203
 31
0.0
 11
1.7652664678
 21
7.3642627506
 31
0.0
  0
SPLINE
  5
412
100
AcDbEntity
  8
0
100
AcDbSpline
 62
9
  6
CONTINUOUS
 70
0
 71
3
 72
41
 73
37
 74
35
 42
0.0000001
 43
0.0000001
 44
0.0000000001
 12
-0.6239691839
 22
0.6189238121
 32
0.0
 13
-0.6493595173
 23
0.5922300608
 33
0.0
 40
0.0
 40
0.0
 40
0.0
 40
0.0
 40
0.1259760176
 40
0.1889500695
 40
0.2519128692
 40
0.3148624127
 40
0.3777961483
 40
0.4407107115
 40
0.5036015539
 40
0.5664623006
 40
0.6292836421
 40
0.6606753338
 40
0.6920511883
 40
0.7234078897
 40
0.7547409598
 40
0.7860441551
 40
0.8173083797
 40
0.8485196718
 40
0.8640988186
 40
0.8796549594
 40
0.8951821807
 40
0.9106719599
 40
0.9261113975
 40
0.9414796015
 40
0.9491264475
 40
0.9567394433
 40
0.9643078647
 40
0.9718150736
 40
0.9792332283
 40
0.9828943858
 40
0.9865107416
 40
0.9900664701
 40
0.9935361113
 40
0.9968755149
 40
0.9984726384
 40
1.0
 40
1.0
 40
1.0
 40
1.0
 10
5.979397982
 20
3.1593658719
 30
0.0
 10
5.9531962644
 20
3.1853557242
 30
0.0
 10
5.9138935654
 20
3.2243345735
 30
0.0
 10
5.8614863862
 20
3.2762942084
 30
0.0
 10
5.8221866449
 20
3.3152495467
 30
0.0
 10
5.7828902361
 20
3.3541914692
 30
0.0
 10
5.7435980326
 20
3.393117559
 30
0.0
 10
5.7043112174
 20
3.4320246521
 30
0.0
 10
5.6650314891
 20
3.4709085125
 30
0.0
 10
5.6257613571
 20
3.5097632457
 30
0.0
 10
5.5930407851
 20
3.5421174805
 30
0.0
 10
5.5668711676
 20
3.5679785603
 30
0.0
 10
5.5472535266
 20
3.587355957
 30
0.0
 10
5.5276429142
 20
3.6067160301
 30
0.0
 10
5.5080413333
 20
3.6260549517
 30
0.0
 10
5.4884517064
 20
3.6453674129
 30
0.0
 10
5.4688784855
 20
3.6646456957
 30
0.0
 10
5.4525776896
 20
3.6806819518
 30
0.0
 10
5.439549843
 20
3.6934833687
 30
0.0
 10
5.4297949046
 20
3.703059936
 30
0.0
 10
5.4200534049
 20
3.7126128182
 30
0.0
 10
5.4103299371
 20
3.7221352548
 30
0.0
 10
5.4006317736
 20
3.7316169436
 30
0.0
 10
5.3925679101
 20
3.7394836004
 30
0.0
 10
5.3861381235
 20
3.7457418886
 30
0.0
 10
5.3813414553
 20
3.7504020102
 30
0.0
 10
5.376568847
 20
3.7550281863
 30
0.0
 10
5.3718305139
 20
3.7596077029
 30
0.0
 10
5.3679078643
 20
3.7633840881
 30
0.0
 10
5.3648000238
 20
3.7663633228
 30
0.0
 10
5.3625051072
 20
3.7685554556
 30
0.0
 10
5.3602458652
 20
3.7707037
 30
0.0
 10
5.3580390038
 20
3.772789269
 30
0.0
 10
5.3562418475
 20
3.7744729706
 30
0.0
 10
5.3548531042
 20
3.7757603086
 30
0.0
 10
5.3541788956
 20
3.7763794127
 30
0.0
 10
5.3538482934
 20
3.7766809292
 30
0.0
 11
5.979397982
 21
3.1593658719
 31
0.0
 11
5.9007861755
 21
3.2373287204
 31
0.0
 11
5.8614833125
 21
3.27629579
 31
0.0
 11
5.8221830439
 21
3.3152514302
 31
0.0
 11
5.7828859743
 21
3.3541937476
 31
0.0
 11
5.7435929039
 21
3.3931203624
 31
0.0
 11
5.704304928
 21
3.4320281767
 31
0.0
 11
5.6650235867
 21
3.4709130615
 31
0.0
 11
5.6257511278
 21
3.5097693196
 31
0.0
 11
5.5864909764
 21
3.5485887732
 31
0.0
 11
5.5668671209
 21
3.5679810657
 31
0.0
 11
5.5472486689
 21
3.5873590233
 31
0.0
 11
5.527636967
 21
3.6067198596
 31
0.0
 11
5.5080338794
 21
3.6260598576
 31
0.0
 11
5.4884420733
 21
3.6453739028
 31
0.0
 11
5.4688655428
 21
3.6646546525
 31
0.0
 11
5.4493105964
 21
3.6838910138
 31
0.0
 11
5.4395442987
 21
3.6934873422
 31
0.0
 11
5.4297879824
 21
3.7030649778
 31
0.0
 11
5.4200445061
 21
3.7126194093
 31
0.0
 11
5.4103180636
 21
3.7221442074
 31
0.0
 11
5.4006151214
 21
3.7316297609
 31
0.0
 11
5.3909463645
 21
3.7410607142
 31
0.0
 11
5.3861302955
 21
3.745748063
 31
0.0
 11
5.3813312008
 21
3.7504101942
 31
0.0
 11
5.3765548374
 21
3.7550394965
 31
0.0
 11
5.3718102543
 21
3.7596242793
 31
0.0
 11
5.3671128118
 21
3.7641451952
 31
0.0
 11
5.3647898857
 21
3.7663717122
 31
0.0
 11
5.3624914249
 21
3.7685668439
 31
0.0
 11
5.3602264747
 21
3.7707199034
 31
0.0
 11
5.3580097341
 21
3.7728138424
 31
0.0
 11
5.3558669791
 21
3.7748193738
 31
0.0
 11
5.354837352
 21
3.7757733757
 31
0.0
 11
5.3538482934
 21
3.7766809292
 31
0.0
  0
SPLINE
  5
413
100
AcDbEntity
  8
0
100
AcDbSpline
 62
9
  6
CONTINUOUS
 70
0
 71
3
 72
47
 73
43
 74
41
 42
0.0000001
 43
0.0000001
 44
0.0000000001
 12
-0.0051155895
 22
0.0046655293
 32
0.0
 13
0.0045836296
 23
-0.0051891
 33
0.0
 40
0.0
 40
0.0
 40
0.0
 40
0.0
 40
0.1036512078
 40
0.202697083
 40
0.2961000292
 40
0.3402878967
 40
0.3825337855
 40
0.4226203932
 40
0.4602970147
 40
0.4952808935
 40
0.5272800352
 40
0.5559678315
 40
0.5810127613
 40
0.5920698502
 40
0.602099727
 40
0.6110664345
 40
0.6189362153
 40
0.6256811948
 40
0.6312937234
 40
0.6357847762
 40
0.6391962042
 40
0.6405342426
 40
0.6416657814
 40
0.6426480851
 40
0.6435691805
 40
0.6456190748
 40
0.6484516088
 40
0.6523061939
 40
0.6572635132
 40
0.6633500502
 40
0.6705708179
 40
0.6789110194
 40
0.68833797
 40
0.7103034338
 40
0.7361581308
 40
0.765582173
 40
0.7982606117
 40
0.8338771845
 40
0.8721186527
 40
0.9127163397
 40
0.9554252309
 40
1.0
 40
1.0
 40
1.0
 40
1.0
 10
5.3538482934
 20
3.7766809292
 30
0.0
 10
5.3536715477
 20
3.7768421251
 30
0.0
 10
5.3533253293
 20
3.7771567201
 30
0.0
 10
5.3528174199
 20
3.7776139002
 30
0.0
 10
5.3524093167
 20
3.7779768218
 30
0.0
 10
5.3520974755
 20
3.7782507091
 30
0.0
 10
5.3518771569
 20
3.7784423343
 30
0.0
 10
5.3516671351
 20
3.778622894
 30
0.0
 10
5.3514686429
 20
3.7787911475
 30
0.0
 10
5.3512830397
 20
3.7789457283
 30
0.0
 10
5.3511118333
 20
3.7790851627
 30
0.0
 10
5.350956628
 20
3.7792078903
 30
0.0
 10
5.3508375412
 20
3.7792983424
 30
0.0
 10
5.3507513437
 20
3.7793608405
 30
0.0
 10
5.3506944678
 20
3.779400547
 30
0.0
 10
5.3506428366
 20
3.7794348906
 30
0.0
 10
5.3505966496
 20
3.7794636986
 30
0.0
 10
5.3505560768
 20
3.7794868115
 30
0.0
 10
5.3505212355
 20
3.7795041665
 30
0.0
 10
5.3504922326
 20
3.7795157025
 30
0.0
 10
5.3504713964
 20
3.7795209638
 30
0.0
 10
5.3504577825
 20
3.7795215464
 30
0.0
 10
5.3504498355
 20
3.7795203822
 30
0.0
 10
5.3504433129
 20
3.7795175475
 30
0.0
 10
5.3504365206
 20
3.7795111344
 30
0.0
 10
5.3504328748
 20
3.7794974282
 30
0.0
 10
5.3504355688
 20
3.7794773098
 30
0.0
 10
5.3504437127
 20
3.7794516044
 30
0.0
 10
5.350457716
 20
3.7794201581
 30
0.0
 10
5.3504774707
 20
3.7793828966
 30
0.0
 10
5.3505030003
 20
3.779339936
 30
0.0
 10
5.3505341761
 20
3.7792914104
 30
0.0
 10
5.3505857561
 20
3.7792155854
 30
0.0
 10
5.3506634612
 20
3.7791086991
 30
0.0
 10
5.3507719323
 20
3.7789672149
 30
0.0
 10
5.3508983924
 20
3.7788084129
 30
0.0
 10
5.3510412637
 20
3.7786339119
 30
0.0
 10
5.3511990041
 20
3.7784453039
 30
0.0
 10
5.3513701327
 20
3.7782440802
 30
0.0
 10
5.351553293
 20
3.778031611
 30
0.0
 10
5.3517472316
 20
3.777809142
 30
0.0
 10
5.3518803021
 20
3.7776579125
 30
0.0
 10
5.3519484069
 20
3.7775808116
 30
0.0
 11
5.3538482934
 21
3.7766809292
 31
0.0
 11
5.3533170777
 21
3.7771634417
 31
0.0
 11
5.352807268
 21
3.7776220858
 31
0.0
 11
5.3523238428
 21
3.7780516236
 31
0.0
 11
5.3520939421
 21
3.778253477
 31
0.0
 11
5.3518732086
 21
3.7784453873
 31
0.0
 11
5.3516627014
 21
3.778626267
 31
0.0
 11
5.3514636505
 21
3.7787948666
 31
0.0
 11
5.3512774517
 21
3.7789497796
 31
0.0
 11
5.3511055562
 21
3.7790895516
 31
0.0
 11
5.350949609
 21
3.7792125623
 31
0.0
 11
5.3508113018
 21
3.7793171528
 31
0.0
 11
5.3507492853
 21
3.7793620374
 31
0.0
 11
5.3506923006
 21
3.7794017246
 31
0.0
 11
5.3506405527
 21
3.7794360222
 31
0.0
 11
5.3505942464
 21
3.779464738
 31
0.0
 11
5.3505535768
 21
3.779487691
 31
0.0
 11
5.350518673
 21
3.7795047714
 31
0.0
 11
5.3504896378
 21
3.7795158987
 31
0.0
 11
5.3504665741
 21
3.7795209919
 31
0.0
 11
5.3504573137
 21
3.7795212506
 31
0.0
 11
5.3504495846
 21
3.7795199704
 31
0.0
 11
5.3504433998
 21
3.7795171414
 31
0.0
 11
5.3504387712
 21
3.7795127544
 31
0.0
 11
5.3504341725
 21
3.7794993274
 31
0.0
 11
5.3504357228
 21
3.7794797774
 31
0.0
 11
5.350443347
 21
3.779454202
 31
0.0
 11
5.3504569698
 21
3.7794226987
 31
0.0
 11
5.3504765161
 21
3.7793853651
 31
0.0
 11
5.350501909
 21
3.7793423003
 31
0.0
 11
5.3505330181
 21
3.7792936523
 31
0.0
 11
5.3505696465
 21
3.7792396305
 31
0.0
 11
5.3506586553
 21
3.7791163184
 31
0.0
 11
5.3507673249
 21
3.7789740695
 31
0.0
 11
5.3508940524
 21
3.7788145632
 31
0.0
 11
5.3510372582
 21
3.7786393992
 31
0.0
 11
5.3511953672
 21
3.7784501616
 31
0.0
 11
5.3513668277
 21
3.7782484094
 31
0.0
 11
5.3515503027
 21
3.7780354671
 31
0.0
 11
5.3517445696
 21
3.7778125349
 31
0.0
 11
5.3519484069
 21
3.7775808116
 31
0.0
  0
SPLINE
  5
414
100
AcDbEntity
  8
0
100
AcDbSpline
 62
9
  6
CONTINUOUS
 70
0
 71
3
 72
23
 73
19
 74
17
 42
0.0000001
 43
0.0000001
 44
0.0000000001
 12
0.0120764576
 22
0.0000089582
 32
0.0
 13
0.0089667323
 23
0.0080894141
 33
0.0
 40
0.0
 40
0.0
 40
0.0
 40
0.0
 40
0.0063409092
 40
0.0141511008
 40
0.02353429
 40
0.0345456284
 40
0.04721538
 40
0.0615601118
 40
0.0953009217
 40
0.1357898378
 40
0.1830032656
 40
0.2368705086
 40
0.2972925197
 40
0.3641635887
 40
0.43737402
 40
0.6023074888
 40
0.7905132308
 40
1.0
 40
1.0
 40
1.0
 40
1.0
 10
6.1257267685
 20
3.2774492196
 30
0.0
 10
6.1257522937
 20
3.2774492385
 30
0.0
 10
6.1258092183
 20
3.2774561249
 30
0.0
 10
6.1259009451
 20
3.277480365
 30
0.0
 10
6.1260076472
 20
3.2775195525
 30
0.0
 10
6.1261292928
 20
3.2775737311
 30
0.0
 10
6.1262658912
 20
3.2776429223
 30
0.0
 10
6.1264796683
 20
3.2777618168
 30
0.0
 10
6.1267828809
 20
3.2779497501
 30
0.0
 10
6.1271879185
 20
3.278223624
 30
0.0
 10
6.1276505231
 20
3.2785565554
 30
0.0
 10
6.1281697286
 20
3.2789478868
 30
0.0
 10
6.1287444275
 20
3.2793968662
 30
0.0
 10
6.1293734586
 20
3.2799026371
 30
0.0
 10
6.130321327
 20
3.2806831346
 30
0.0
 10
6.1316295857
 20
3.2817941479
 30
0.0
 10
6.1333348913
 20
3.2832846761
 30
0.0
 10
6.1345283371
 20
3.2843517733
 30
0.0
 10
6.1351544743
 20
3.2849166484
 30
0.0
 11
6.1257267685
 21
3.2774492196
 31
0.0
 11
6.1258029526
 21
3.2774569538
 31
0.0
 11
6.1258944082
 21
3.2774800199
 31
0.0
 11
6.1260010385
 21
3.2775183661
 31
0.0
 11
6.1261227469
 21
3.2775719404
 31
0.0
 11
6.1262594369
 21
3.2776406907
 31
0.0
 11
6.1264110119
 21
3.2777245652
 31
0.0
 11
6.1267584301
 21
3.2779374783
 31
0.0
 11
6.1271642288
 21
3.278210264
 31
0.0
 11
6.1276276152
 21
3.278542481
 31
0.0
 11
6.1281475765
 21
3.2789334079
 31
0.0
 11
6.1287229633
 21
3.2793821494
 31
0.0
 11
6.1293526241
 21
3.2798878073
 31
0.0
 11
6.1300354073
 21
3.2804494837
 31
0.0
 11
6.131555283
 21
3.2817368435
 31
0.0
 11
6.1332677126
 21
3.2832313248
 31
0.0
 11
6.1351544743
 21
3.2849166484
 31
0.0
  0
SPLINE
  5
415
100
AcDbEntity
  8
0
100
AcDbSpline
 62
9
  6
CONTINUOUS
 70
0
 71
3
 72
35
 73
31
 74
29
 42
0.0000001
 43
0.0000001
 44
0.0000000001
 12
0.0309595071
 22
0.0279368703
 32
0.0
 13
0.0265222506
 23
-0.0321796524
 33
0.0
 40
0.0
 40
0.0
 40
0.0
 40
0.0
 40
0.1141679138
 40
0.2224505554
 40
0.3245339708
 40
0.4201049808
 40
0.5088748474
 40
0.5906482294
 40
0.6652543499
 40
0.7325253038
 40
0.7923075162
 40
0.8193561095
 40
0.8444940731
 40
0.8677110128
 40
0.8889978605
 40
0.9083474255
 40
0.9257552598
 40
0.9412226168
 40
0.9547630617
 40
0.966401976
 40
0.9715220602
 40
0.976185662
 40
0.9804039348
 40
0.9841922542
 40
0.9875721906
 40
0.9905744935
 40
0.9932434078
 40
0.9956421568
 40
0.9978577142
 40
1.0
 40
1.0
 40
1.0
 40
1.0
 10
6.1351544743
 20
3.2849166484
 30
0.0
 10
6.1363326685
 20
3.2859798131
 30
0.0
 10
6.1386335104
 20
3.2880455986
 30
0.0
 10
6.1420071799
 20
3.2910403813
 30
0.0
 10
6.1452052677
 20
3.2938434515
 30
0.0
 10
6.1482180722
 20
3.296446274
 30
0.0
 10
6.1510371286
 20
3.2988413407
 30
0.0
 10
6.1536551568
 20
3.3010227117
 30
0.0
 10
6.156066049
 20
3.3029855604
 30
0.0
 10
6.15826405
 20
3.3047253371
 30
0.0
 10
6.1599662191
 20
3.3060259922
 30
0.0
 10
6.161218901
 20
3.3069497175
 30
0.0
 10
6.1620704133
 20
3.3075609232
 30
0.0
 10
6.1628651797
 20
3.3081136692
 30
0.0
 10
6.163602687
 20
3.3086076079
 30
0.0
 10
6.1642824185
 20
3.3090424168
 30
0.0
 10
6.1649038798
 20
3.3094177977
 30
0.0
 10
6.1654666932
 20
3.3097335551
 30
0.0
 10
6.1659705288
 20
3.3099896262
 30
0.0
 10
6.1663560123
 20
3.3101601337
 30
0.0
 10
6.1666350011
 20
3.3102644753
 30
0.0
 10
6.1668202918
 20
3.3103243088
 30
0.0
 10
6.1669907146
 20
3.3103691631
 30
0.0
 10
6.1671462974
 20
3.310399034
 30
0.0
 10
6.1672870957
 20
3.3104139107
 30
0.0
 10
6.1674132092
 20
3.3104137298
 30
0.0
 10
6.167524755
 20
3.3103983236
 30
0.0
 10
6.1676217847
 20
3.3103673157
 30
0.0
 10
6.1677039533
 20
3.3103202519
 30
0.0
 10
6.1677483358
 20
3.3102780003
 30
0.0
 10
6.1677672752
 20
3.3102550209
 30
0.0
 11
6.1351544743
 21
3.2849166484
 31
0.0
 11
6.1386974452
 21
3.2880968218
 31
0.0
 11
6.1420748556
 21
3.2910939253
 31
0.0
 11
6.1452767853
 21
3.2938991682
 31
0.0
 11
6.148293314
 21
3.2965037597
 31
0.0
 11
6.1511152149
 21
3.2988995964
 31
0.0
 11
6.1537359921
 21
3.3010812822
 31
0.0
 11
6.1561498218
 21
3.3030440872
 31
0.0
 11
6.1583508804
 21
3.3047832816
 31
0.0
 11
6.1603336324
 21
3.3062944354
 31
0.0
 11
6.1612417482
 21
3.3069634604
 31
0.0
 11
6.1620936682
 21
3.3075742886
 31
0.0
 11
6.1628888754
 21
3.3081265481
 31
0.0
 11
6.163626853
 21
3.3086198671
 31
0.0
 11
6.1643070842
 21
3.309053874
 31
0.0
 11
6.164929052
 21
3.3094281969
 31
0.0
 11
6.1654922845
 21
3.3097425159
 31
0.0
 11
6.1659964801
 21
3.3099967088
 31
0.0
 11
6.166441378
 21
3.3101907007
 31
0.0
 11
6.1666415088
 21
3.3102650979
 31
0.0
 11
6.1668267174
 21
3.3103244167
 31
0.0
 11
6.1669969713
 21
3.3103686477
 31
0.0
 11
6.1671522377
 21
3.3103977816
 31
0.0
 11
6.1672924841
 21
3.3104118091
 31
0.0
 11
6.1674176779
 21
3.3104107206
 31
0.0
 11
6.1675277865
 21
3.310394507
 31
0.0
 11
6.1676227773
 21
3.3103631587
 31
0.0
 11
6.1677026178
 21
3.3103166665
 31
0.0
 11
6.1677672752
 21
3.3102550209
 31
0.0
  0
SPLINE
  5
416
100
AcDbEntity
  8
0
100
AcDbSpline
 62
9
  6
CONTINUOUS
 70
0
 71
3
 72
35
 73
31
 74
29
 42
0.0000001
 43
0.0000001
 44
0.0000000001
 12
-0.0321843976
 22
0.0265276127
 32
0.0
 13
0.0279419831
 23
0.0309644193
 33
0.0
 40
0.0
 40
0.0
 40
0.0
 40
0.0
 40
0.0021418921
 40
0.0043571833
 40
0.00675584
 40
0.0094248413
 40
0.0124273923
 40
0.0158077095
 40
0.0195965123
 40
0.0238153421
 40
0.0284795473
 40
0.033600256
 40
0.0452403893
 40
0.0587818637
 40
0.0742498939
 40
0.0916589829
 40
0.1110121494
 40
0.1323041001
 40
0.1555266591
 40
0.1806697609
 40
0.2077220063
 40
0.2675030255
 40
0.3347620106
 40
0.4093548013
 40
0.4911123797
 40
0.5798624128
 40
0.6754232928
 40
0.7775224606
 40
0.8858264805
 40
1.0
 40
1.0
 40
1.0
 40
1.0
 10
5.9748376894
 20
3.1173254351
 30
0.0
 10
5.9748147109
 20
3.1173443748
 30
0.0
 10
5.9747724621
 20
3.1173887624
 30
0.0
 10
5.9747254106
 20
3.117470945
 30
0.0
 10
5.9746944203
 20
3.1175679946
 30
0.0
 10
5.9746790355
 20
3.1176795659
 30
0.0
 10
5.9746788794
 20
3.1178057107
 30
0.0
 10
5.9746937836
 20
3.1179465457
 30
0.0
 10
5.9747236845
 20
3.1181021701
 30
0.0
 10
5.9747685708
 20
3.1182726389
 30
0.0
 10
5.974828438
 20
3.1184579795
 30
0.0
 10
5.9749328273
 20
3.1187370405
 30
0.0
 10
5.9751033944
 20
3.1191226193
 30
0.0
 10
5.9753595342
 20
3.1196265729
 30
0.0
 10
5.9756753596
 20
3.1201895206
 30
0.0
 10
5.9760508408
 20
3.1208111552
 30
0.0
 10
5.9764858259
 20
3.1214911011
 30
0.0
 10
5.9769799948
 20
3.1222288751
 30
0.0
 10
5.9775329993
 20
3.1230239302
 30
0.0
 10
5.9781444602
 20
3.1238757247
 30
0.0
 10
5.9790684415
 20
3.1251286769
 30
0.0
 10
5.9803692414
 20
3.1268310255
 30
0.0
 10
5.9821090441
 20
3.1290291425
 30
0.0
 10
5.9840718614
 20
3.1314400036
 30
0.0
 10
5.98625319
 20
3.1340579333
 30
0.0
 10
5.988648308
 20
3.1368769348
 30
0.0
 10
5.9912515916
 20
3.1398899727
 30
0.0
 10
5.994055637
 20
3.143088664
 30
0.0
 10
5.9970515472
 20
3.1464631497
 30
0.0
 10
5.9991180154
 20
3.1487645873
 30
0.0
 10
6.0001814269
 20
3.1499430262
 30
0.0
 11
5.9748376894
 21
3.1173254351
 31
0.0
 11
5.9747760501
 21
3.1173900968
 31
0.0
 11
5.9747295694
 21
3.1174699492
 31
0.0
 11
5.9746982374
 21
3.1175649592
 31
0.0
 11
5.9746820441
 21
3.1176750935
 31
0.0
 11
5.9746809798
 21
3.1178003191
 31
0.0
 11
5.9746950346
 21
3.1179406028
 31
0.0
 11
5.9747241985
 21
3.1180959114
 31
0.0
 11
5.9747684616
 21
3.1182662117
 31
0.0
 11
5.9748278142
 21
3.1184514705
 31
0.0
 11
5.9749022463
 21
3.1186516548
 31
0.0
 11
5.9750963095
 21
3.1190966669
 31
0.0
 11
5.9753505722
 21
3.1196009826
 31
0.0
 11
5.9756649554
 21
3.1201643367
 31
0.0
 11
5.9760393694
 21
3.1207864545
 31
0.0
 11
5.9764735535
 21
3.1214669131
 31
0.0
 11
5.9769671092
 21
3.1222051696
 31
0.0
 11
5.9775196338
 21
3.1230006779
 31
0.0
 11
5.9781307249
 21
3.1238528918
 31
0.0
 11
5.97879998
 21
3.124761265
 31
0.0
 11
5.9803113716
 21
3.1267443046
 31
0.0
 11
5.9820505256
 21
3.1289453652
 31
0.0
 11
5.984013306
 21
3.1313591785
 31
0.0
 11
5.9861949636
 21
3.133979874
 31
0.0
 11
5.9885907357
 21
3.1368015682
 31
0.0
 11
5.99119564
 21
3.1398181616
 31
0.0
 11
5.9940020212
 21
3.1430209273
 31
0.0
 11
5.9970004405
 21
3.1463993859
 31
0.0
 11
6.0001814269
 21
3.1499430262
 31
0.0
  0
SPLINE
  5
417
100
AcDbEntity
  8
0
100
AcDbSpline
 62
9
  6
CONTINUOUS
 70
0
 71
3
 72
23
 73
19
 74
17
 42
0.0000001
 43
0.0000001
 44
0.0000000001
 12
0.00808468
 22
0.0089614089
 32
0.0
 13
0.0000072713
 23
0.012069335
 33
0.0
 40
0.0
 40
0.0
 40
0.0
 40
0.0
 40
0.2094578938
 40
0.3974610173
 40
0.562268754
 40
0.6354924898
 40
0.7024127005
 40
0.7629035922
 40
0.8168434157
 40
0.8641173474
 40
0.9046469514
 40
0.9384125105
 40
0.952765156
 40
0.9654406587
 40
0.9764562035
 40
0.9858426772
 40
0.9936558487
 40
1.0
 40
1.0
 40
1.0
 40
1.0
 10
6.0001814269
 20
3.1499430262
 30
0.0
 10
6.0007458936
 20
3.1505687055
 30
0.0
 10
6.0018116481
 20
3.1517608371
 30
0.0
 10
6.003299997
 20
3.1534643654
 30
0.0
 10
6.0044092562
 20
3.1547711208
 30
0.0
 10
6.0051890693
 20
3.1557182841
 30
0.0
 10
6.00569488
 20
3.15634735
 30
0.0
 10
6.0061441139
 20
3.1569222769
 30
0.0
 10
6.006535774
 20
3.1574417717
 30
0.0
 10
6.0068689846
 20
3.1579046227
 30
0.0
 10
6.0071430188
 20
3.1583098158
 30
0.0
 10
6.0073310078
 20
3.1586130942
 30
0.0
 10
6.0074499013
 20
3.1588268838
 30
0.0
 10
6.0075190742
 20
3.1589634709
 30
0.0
 10
6.0075732275
 20
3.1590851002
 30
0.0
 10
6.0076123877
 20
3.159191786
 30
0.0
 10
6.0076366031
 20
3.1592835014
 30
0.0
 10
6.0076434753
 20
3.1593404186
 30
0.0
 10
6.0076434907
 20
3.1593659419
 30
0.0
 11
6.0001814269
 21
3.1499430262
 31
0.0
 11
6.0018653838
 21
3.1518285404
 31
0.0
 11
6.0033570524
 21
3.1535383993
 31
0.0
 11
6.0046424042
 21
3.1550564473
 31
0.0
 11
6.0052038067
 21
3.1557389885
 31
0.0
 11
6.0057095457
 21
3.1563687339
 31
0.0
 11
6.0061585805
 21
3.1569444002
 31
0.0
 11
6.0065498706
 21
3.1574647044
 31
0.0
 11
6.0068823789
 21
3.1579283666
 31
0.0
 11
6.0071553139
 21
3.1583343091
 31
0.0
 11
6.0073682673
 21
3.1586817712
 31
0.0
 11
6.0074521337
 21
3.1588333429
 31
0.0
 11
6.0075208643
 21
3.1589700195
 31
0.0
 11
6.0075744121
 21
3.1590917093
 31
0.0
 11
6.0076127304
 21
3.1591983208
 31
0.0
 11
6.0076357722
 21
3.1592897622
 31
0.0
 11
6.0076434907
 21
3.1593659419
 31
0.0
  0
SPLINE
  5
418
100
AcDbEntity
  8
0
100
AcDbSpline
 62
9
  6
CONTINUOUS
 70
0
 71
3
 72
46
 73
42
 74
40
 42
0.0000001
 43
0.0000001
 44
0.0000000001
 12
-0.177198465
 22
-0.1486062215
 32
0.0
 13
0.163526688
 23
-0.1635302032
 33
0.0
 40
0.0
 40
0.0
 40
0.0
 40
0.0
 40
0.0006401004
 40
0.0013023716
 40
0.0020184572
 40
0.0028134849
 40
0.0037058357
 40
0.0047084604
 40
0.0058304157
 40
0.0070780888
 40
0.0084560533
 40
0.0099676397
 40
0.0116153131
 40
0.013400924
 40
0.0173909579
 40
0.0219458967
 40
0.0270703261
 40
0.0327666501
 40
0.0390341096
 40
0.0458703303
 40
0.0532723585
 40
0.061236834
 40
0.0697601011
 40
0.0788382855
 40
0.0986429651
 40
0.1206149675
 40
0.1447012419
 40
0.1708416189
 40
0.1989753071
 40
0.2290410355
 40
0.2609706477
 40
0.2946834736
 40
0.3300973177
 40
0.3671298475
 40
0.4457055171
 40
0.5296359895
 40
0.6181057267
 40
0.7102803945
 40
0.8053088077
 40
0.9022497292
 40
1.0
 40
1.0
 40
1.0
 40
1.0
 10
1.9208299597
 20
7.5198262424
 30
0.0
 10
1.9207921514
 20
7.5197945348
 30
0.0
 10
1.9207226429
 20
7.5197205424
 30
0.0
 10
1.920644951
 20
7.5195843072
 30
0.0
 10
1.9205933318
 20
7.5194238629
 30
0.0
 10
1.9205670869
 20
7.5192397516
 30
0.0
 10
1.9205656263
 20
7.5190319016
 30
0.0
 10
1.9205886801
 20
7.518800135
 30
0.0
 10
1.9206361436
 20
7.5185442964
 30
0.0
 10
1.9207079937
 20
7.5182642959
 30
0.0
 10
1.9208042337
 20
7.5179600937
 30
0.0
 10
1.9209248767
 20
7.5176316861
 30
0.0
 10
1.9210699239
 20
7.517279085
 30
0.0
 10
1.9213047406
 20
7.5167571429
 30
0.0
 10
1.9216623799
 20
7.516045204
 30
0.0
 10
1.9221739605
 20
7.5151237367
 30
0.0
 10
1.92278277
 20
7.5141065563
 30
0.0
 10
1.9234886788
 20
7.5129942269
 30
0.0
 10
1.9242912952
 20
7.5117874068
 30
0.0
 10
1.9251900502
 20
7.5104869394
 30
0.0
 10
1.9261843311
 20
7.509093724
 30
0.0
 10
1.9272735085
 20
7.5076086634
 30
0.0
 10
1.9284569332
 20
7.5060326519
 30
0.0
 10
1.9302112078
 20
7.5037440506
 30
0.0
 10
1.9326379055
 20
7.5006648704
 30
0.0
 10
1.9358360566
 20
7.496721329
 30
0.0
 10
1.9393913359
 20
7.4924390801
 30
0.0
 10
1.9432947737
 20
7.4878289253
 30
0.0
 10
1.9475371124
 20
7.4829020519
 30
0.0
 10
1.9521087278
 20
7.4776700362
 30
0.0
 10
1.9569988767
 20
7.4721454244
 30
0.0
 10
1.9621954549
 20
7.4663416437
 30
0.0
 10
1.9676857109
 20
7.4602729506
 30
0.0
 10
1.9755365923
 20
7.4516764087
 30
0.0
 10
1.9859843714
 20
7.4403867253
 30
0.0
 10
1.9992296829
 20
7.4262841327
 30
0.0
 10
2.0132904495
 20
7.4115098533
 30
0.0
 10
2.0280333343
 20
7.3962042748
 30
0.0
 10
2.0433176533
 20
7.3805140116
 30
0.0
 10
2.0589874275
 20
7.3645996639
 30
0.0
 10
2.0695724705
 20
7.3539596355
 30
0.0
 10
2.0749007299
 20
7.3486312616
 30
0.0
 11
1.9208299597
 21
7.5198262424
 31
0.0
 11
1.9207285075
 21
7.5197184417
 31
0.0
 11
1.9206517128
 21
7.5195859259
 31
0.0
 11
1.9205995608
 21
7.5194287472
 31
0.0
 11
1.9205720366
 21
7.5192469576
 31
0.0
 11
1.9205691254
 21
7.5190406094
 31
0.0
 11
1.9205908121
 21
7.5188097547
 31
0.0
 11
1.9206370821
 21
7.5185544455
 31
0.0
 11
1.9207079204
 21
7.5182747342
 31
0.0
 11
1.920803312
 21
7.5179706727
 31
0.0
 11
1.9209232422
 21
7.5176423132
 31
0.0
 11
1.9210676961
 21
7.5172897079
 31
0.0
 11
1.9212366587
 21
7.5169129088
 31
0.0
 11
1.9216480507
 21
7.5160869382
 31
0.0
 11
1.9221572992
 21
7.5151648185
 31
0.0
 11
1.9227642853
 21
7.5141469666
 31
0.0
 11
1.9234688354
 21
7.5130338473
 31
0.0
 11
1.9242704223
 21
7.5118262336
 31
0.0
 11
1.9251683773
 21
7.510525022
 31
0.0
 11
1.9261620312
 21
7.5091311094
 31
0.0
 11
1.9272507151
 21
7.5076453926
 31
0.0
 11
1.9284337597
 21
7.5060687685
 31
0.0
 11
1.929710496
 21
7.504402134
 31
0.0
 11
1.9325423672
 21
7.500802421
 31
0.0
 11
1.9357405761
 21
7.4968538213
 31
0.0
 11
1.9392967803
 21
7.492566449
 31
0.0
 11
1.9432016055
 21
7.4879514324
 31
0.0
 11
1.9474456749
 21
7.4830199024
 31
0.0
 11
1.9520196009
 21
7.4777829998
 31
0.0
 11
1.9569128625
 21
7.4722528982
 31
0.0
 11
1.9621128275
 21
7.4664436956
 31
0.0
 11
1.9676066331
 21
7.4603697002
 31
0.0
 11
1.9733814165
 21
7.4540452201
 31
0.0
 11
1.9857197844
 21
7.4407044317
 31
0.0
 11
1.9990052207
 21
7.4265534772
 31
0.0
 11
2.013108062
 21
7.4117306407
 31
0.0
 11
2.0278948364
 21
7.3963763962
 31
0.0
 11
2.0432286668
 21
7.380633225
 31
0.0
 11
2.0589572829
 21
7.3646576068
 31
0.0
 11
2.0749007299
 21
7.3486312616
 31
0.0
  0
SPLINE
  5
419
100
AcDbEntity
  8
0
100
AcDbSpline
 62
9
  6
CONTINUOUS
 70
0
 71
3
 72
47
 73
43
 74
41
 42
0.0000001
 43
0.0000001
 44
0.0000000001
 12
-0.0051846859
 22
0.0045799089
 32
0.0
 13
0.0046614955
 23
-0.0051114569
 33
0.0
 40
0.0
 40
0.0
 40
0.0
 40
0.0
 40
0.0445909524
 40
0.08730147
 40
0.1279021053
 40
0.1661501651
 40
0.2017623804
 40
0.2344486169
 40
0.2639005303
 40
0.2897828014
 40
0.3117673317
 40
0.3212062032
 40
0.329564918
 40
0.3368135917
 40
0.3429306755
 40
0.3479167515
 40
0.3517964015
 40
0.354647736
 40
0.3567064089
 40
0.3576272981
 40
0.3586049451
 40
0.3597272213
 40
0.3610524965
 40
0.3644330583
 40
0.3688940855
 40
0.3744852632
 40
0.3812148831
 40
0.3890639628
 40
0.39800555
 40
0.4080089546
 40
0.4190413318
 40
0.4440484673
 40
0.4727083615
 40
0.5046853146
 40
0.5396486586
 40
0.5773120716
 40
0.6174030048
 40
0.6596505622
 40
0.7038306718
 40
0.7972601095
 40
0.8963174601
 40
1.0
 40
1.0
 40
1.0
 40
1.0
 10
5.5075118987
 20
3.9331443034
 30
0.0
 10
5.5074348354
 20
3.9332123776
 30
0.0
 10
5.5072837019
 20
3.9333453653
 30
0.0
 10
5.5070613806
 20
3.9335391716
 30
0.0
 10
5.5068490684
 20
3.9337221953
 30
0.0
 10
5.5066480081
 20
3.9338931947
 30
0.0
 10
5.5064595412
 20
3.9340508204
 30
0.0
 10
5.5062851324
 20
3.9341936215
 30
0.0
 10
5.5061263587
 20
3.9343200792
 30
0.0
 10
5.5059848842
 20
3.9344286011
 30
0.0
 10
5.5058779912
 20
3.9345063393
 30
0.0
 10
5.5058021484
 20
3.93455796
 30
0.0
 10
5.5057535648
 20
3.9345892053
 30
0.0
 10
5.5057105162
 20
3.9346148515
 30
0.0
 10
5.5056731417
 20
3.9346347468
 30
0.0
 10
5.5056415779
 20
3.9346488918
 30
0.0
 10
5.5056157633
 20
3.9346571684
 30
0.0
 10
5.5055955607
 20
3.9346599871
 30
0.0
 10
5.5055817782
 20
3.934656452
 30
0.0
 10
5.5055752857
 20
3.9346497379
 30
0.0
 10
5.5055723744
 20
3.9346432921
 30
0.0
 10
5.5055711256
 20
3.9346354255
 30
0.0
 10
5.5055715784
 20
3.9346219388
 30
0.0
 10
5.5055766821
 20
3.9346012517
 30
0.0
 10
5.5055880572
 20
3.9345724161
 30
0.0
 10
5.5056052902
 20
3.9345377207
 30
0.0
 10
5.5056282942
 20
3.9344972834
 30
0.0
 10
5.505656965
 20
3.9344512307
 30
0.0
 10
5.5056911487
 20
3.9343997553
 30
0.0
 10
5.5057306838
 20
3.9343430449
 30
0.0
 10
5.5057929657
 20
3.9342570536
 30
0.0
 10
5.5058831825
 20
3.9341382062
 30
0.0
 10
5.5060056421
 20
3.9339832577
 30
0.0
 10
5.5061448227
 20
3.933812292
 30
0.0
 10
5.5062991613
 20
3.9336269169
 30
0.0
 10
5.506467206
 20
3.9334286209
 30
0.0
 10
5.5066475883
 20
3.9332187731
 30
0.0
 10
5.506839033
 20
3.9329986254
 30
0.0
 10
5.5071126953
 20
3.9326869844
 30
0.0
 10
5.5074753503
 20
3.9322791601
 30
0.0
 10
5.5079322262
 20
3.9317715284
 30
0.0
 10
5.5082466181
 20
3.9314255189
 30
0.0
 10
5.5084077233
 20
3.9312488626
 30
0.0
 11
5.5075118987
 21
3.9331443034
 31
0.0
 11
5.5072802861
 21
3.9333480465
 31
0.0
 11
5.5070575301
 21
3.9335421576
 31
0.0
 11
5.5068447502
 21
3.9337254933
 31
0.0
 11
5.5066431347
 21
3.9338968444
 31
0.0
 11
5.5064540804
 21
3.934054805
 31
0.0
 11
5.5062790246
 21
3.9341979305
 31
0.0
 11
5.5061195132
 21
3.9343246885
 31
0.0
 11
5.5059772547
 21
3.9344334139
 31
0.0
 11
5.5058539568
 21
3.9345224512
 31
0.0
 11
5.5057999224
 21
3.9345591109
 31
0.0
 11
5.5057512244
 21
3.9345902902
 31
0.0
 11
5.5057080577
 21
3.9346158084
 31
0.0
 11
5.5056706021
 21
3.9346355011
 31
0.0
 11
5.5056389764
 21
3.9346492698
 31
0.0
 11
5.5056132847
 21
3.9346570323
 31
0.0
 11
5.5055936308
 21
3.9346587064
 31
0.0
 11
5.5055801172
 21
3.9346542112
 31
0.0
 11
5.5055756812
 21
3.934649639
 31
0.0
 11
5.5055727865
 21
3.9346435265
 31
0.0
 11
5.5055714272
 21
3.9346358827
 31
0.0
 11
5.5055715975
 21
3.9346267163
 31
0.0
 11
5.5055765033
 21
3.9346038504
 31
0.0
 11
5.5055874567
 21
3.934574999
 31
0.0
 11
5.5056044094
 21
3.9345402332
 31
0.0
 11
5.5056272612
 21
3.9344996732
 31
0.0
 11
5.5056558417
 21
3.934453505
 31
0.0
 11
5.5056899756
 21
3.9344019192
 31
0.0
 11
5.5057294878
 21
3.9343451063
 31
0.0
 11
5.505774203
 21
3.9342832571
 31
0.0
 11
5.5058785024
 21
3.9341452388
 31
0.0
 11
5.5060012513
 21
3.9339895417
 31
0.0
 11
5.5061407743
 21
3.9338178797
 31
0.0
 11
5.5062954364
 21
3.9336319197
 31
0.0
 11
5.5064638117
 21
3.9334330834
 31
0.0
 11
5.506644542
 21
3.9332227135
 31
0.0
 11
5.5068362817
 21
3.9330021394
 31
0.0
 11
5.5070379128
 21
3.9327724544
 31
0.0
 11
5.5074671923
 21
3.9322892757
 31
0.0
 11
5.5079254832
 21
3.9317798104
 31
0.0
 11
5.5084077233
 21
3.9312488626
 31
0.0
  0
SPLINE
  5
41A
100
AcDbEntity
  8
0
100
AcDbSpline
 62
9
  6
CONTINUOUS
 70
0
 71
3
 72
8
 73
4
 74
2
 42
0.0000001
 43
0.0000001
 44
0.0000000001
 12
0.0000188374
 22
-0.0000206528
 32
0.0
 13
0.0000188374
 23
-0.0000206528
 33
0.0
 40
0.0
 40
0.0
 40
0.0
 40
0.0
 40
1.0
 40
1.0
 40
1.0
 40
1.0
 10
5.5084077233
 20
3.9312488626
 30
0.0
 10
5.5084140024
 20
3.9312419784
 30
0.0
 10
5.5084202816
 20
3.9312350941
 30
0.0
 10
5.5084265607
 20
3.9312282099
 30
0.0
 11
5.5084077233
 21
3.9312488626
 31
0.0
 11
5.5084265607
 21
3.9312282099
 31
0.0
  0
SPLINE
  5
41B
100
AcDbEntity
  8
0
100
AcDbSpline
 62
9
  6
CONTINUOUS
 70
0
 71
3
 72
41
 73
37
 74
35
 42
0.0000001
 43
0.0000001
 44
0.0000000001
 12
0.5922898992
 22
-0.6492752611
 32
0.0
 13
0.61890837
 23
-0.6239536192
 33
0.0
 40
0.0
 40
0.0
 40
0.0
 40
0.0
 40
0.0015288492
 40
0.0031270631
 40
0.0064679881
 40
0.0099385429
 40
0.0134948778
 40
0.0171116639
 40
0.020773137
 40
0.028191704
 40
0.035699162
 40
0.0432677461
 40
0.050880844
 40
0.0585277556
 40
0.0738960203
 40
0.0893354546
 40
0.104825187
 40
0.1203523363
 40
0.1359083924
 40
0.1514874418
 40
0.1826985175
 40
0.2139625118
 40
0.2452654651
 40
0.2765982874
 40
0.307954729
 40
0.3393303193
 40
0.3707217432
 40
0.4335425458
 40
0.4964027525
 40
0.5592930536
 40
0.6222070778
 40
0.6851402737
 40
0.748089277
 40
0.8110515364
 40
0.8740250486
 40
1.0
 40
1.0
 40
1.0
 40
1.0
 10
5.5084265607
 20
3.9312282099
 30
0.0
 10
5.5087284013
 20
3.9308973285
 30
0.0
 10
5.5093480619
 20
3.9302226368
 30
0.0
 10
5.5106362775
 20
3.9288331339
 30
0.0
 10
5.5123207267
 20
3.9270353471
 30
0.0
 10
5.5144069214
 20
3.9248279555
 30
0.0
 10
5.5165555557
 20
3.9225684032
 30
0.0
 10
5.5187479462
 20
3.9202732943
 30
0.0
 10
5.521727383
 20
3.9171653263
 30
0.0
 10
5.5255039097
 20
3.9132426043
 30
0.0
 10
5.5300835123
 20
3.9085042471
 30
0.0
 10
5.5347097033
 20
3.9037316746
 30
0.0
 10
5.5393697959
 20
3.8989350758
 30
0.0
 10
5.5456279963
 20
3.8925054228
 30
0.0
 10
5.5534945021
 20
3.8844417544
 30
0.0
 10
5.562975975
 20
3.8747438486
 30
0.0
 10
5.5724981629
 20
3.8650206625
 30
0.0
 10
5.5820507758
 20
3.855279459
 30
0.0
 10
5.5916270616
 20
3.8455248264
 30
0.0
 10
5.6044280873
 20
3.832497398
 30
0.0
 10
5.620463841
 20
3.8161971315
 30
0.0
 10
5.6397415108
 20
3.796624552
 30
0.0
 10
5.6590533478
 20
3.7770355697
 30
0.0
 10
5.6783916389
 20
3.7574346402
 30
0.0
 10
5.6977510741
 20
3.7378246818
 30
0.0
 10
5.7171278282
 20
3.718207699
 30
0.0
 10
5.742988046
 20
3.6920389613
 30
0.0
 10
5.7753412
 20
3.6593194897
 30
0.0
 10
5.8141946333
 20
3.620050678
 30
0.0
 10
5.8530771914
 20
3.5807722686
 30
0.0
 10
5.8919829821
 20
3.5414867729
 30
0.0
 10
5.9309077681
 20
3.5021958876
 30
0.0
 10
5.9698483858
 20
3.462900797
 30
0.0
 10
6.0088024187
 20
3.4236023738
 30
0.0
 10
6.0607603139
 20
3.3711969477
 30
0.0
 10
6.0997378669
 20
3.3318955705
 30
0.0
 10
6.1257268508
 20
3.3056947282
 30
0.0
 11
5.5084265607
 21
3.9312282099
 31
0.0
 11
5.5093350695
 21
3.9302382989
 31
0.0
 11
5.5102897701
 21
3.9292080606
 31
0.0
 11
5.5122962693
 21
3.9270644803
 31
0.0
 11
5.5143907771
 21
3.9248472772
 31
0.0
 11
5.5165442013
 21
3.9225820458
 31
0.0
 11
5.5187395788
 21
3.9202834065
 31
0.0
 11
5.5209662637
 21
3.9179603683
 31
0.0
 11
5.5254873648
 21
3.9132628268
 31
0.0
 11
5.5300722187
 21
3.9085182371
 31
0.0
 11
5.5347015309
 21
3.9037419151
 31
0.0
 11
5.5393636284
 21
3.8989428954
 31
0.0
 11
5.5440509169
 21
3.8941269211
 31
0.0
 11
5.5534816973
 21
3.8844583917
 31
0.0
 11
5.5629670307
 21
3.8747557119
 31
0.0
 11
5.5724915767
 21
3.8650295553
 31
0.0
 11
5.5820457365
 21
3.8552863782
 31
0.0
 11
5.5916230905
 21
3.8455303676
 31
0.0
 11
5.6012191271
 21
3.8357643821
 31
0.0
 11
5.6204548869
 21
3.8162100706
 31
0.0
 11
5.6397350228
 21
3.7966341817
 31
0.0
 11
5.6590484433
 21
3.7770430223
 31
0.0
 11
5.6783878115
 21
3.7574405844
 31
0.0
 11
5.6977480087
 21
3.7378295384
 31
0.0
 11
5.7171253233
 21
3.7182117447
 31
0.0
 11
5.7365169696
 21
3.698588549
 31
0.0
 11
5.7753351262
 21
3.6593297183
 31
0.0
 11
5.8141900844
 21
3.6200585797
 31
0.0
 11
5.8530736665
 21
3.5807785584
 31
0.0
 11
5.8919801787
 21
3.5414919012
 31
0.0
 11
5.9309054898
 21
3.5022001492
 31
0.0
 11
5.9698465024
 21
3.4629043978
 31
0.0
 11
6.0088008368
 21
3.4236054474
 31
0.0
 11
6.0477666008
 21
3.3843039021
 31
0.0
 11
6.1257268508
 21
3.3056947282
 31
0.0
  0
LINE
  5
41C
100
AcDbEntity
  8
0
100
AcDbLine
 62
9
  6
CONTINUOUS
 10
6.9160227137
 20
1.7921803087
 11
6.9168853258
 21
1.7920850387
  0
LINE
  5
41D
100
AcDbEntity
  8
0
100
AcDbLine
 62
9
  6
CONTINUOUS
 10
5.9754125042
 20
3.1548997317
 11
5.9514994389
 21
3.1788418631
  0
SPLINE
  5
41E
100
AcDbEntity
  8
0
100
AcDbSpline
 62
9
  6
CONTINUOUS
 70
0
 71
3
 72
92
 73
88
 74
86
 42
0.0000001
 43
0.0000001
 44
0.0000000001
 12
-0.6012555063
 22
0.6020283112
 32
0.0
 13
0.561560674
 23
-0.6392150504
 33
0.0
 40
0.0
 40
0.0
 40
0.0
 40
0.0
 40
0.0633573005
 40
0.1267078757
 40
0.1900508548
 40
0.253384983
 40
0.3167086988
 40
0.3800199833
 40
0.4433161646
 40
0.5065936049
 40
0.5698471669
 40
0.6330692589
 40
0.6962479666
 40
0.7278152414
 40
0.7593630015
 40
0.790885767
 40
0.8066353725
 40
0.8223753617
 40
0.8381039538
 40
0.8538188226
 40
0.8695168531
 40
0.8851937357
 40
0.8930224119
 40
0.90084327
 40
0.9086550299
 40
0.9164560709
 40
0.9242442992
 40
0.9320169453
 40
0.9397702421
 40
0.9474988825
 40
0.9551950424
 40
0.959027394
 40
0.9628465514
 40
0.9666496766
 40
0.9704329248
 40
0.9741909124
 40
0.9760581215
 40
0.9779157936
 40
0.979762288
 40
0.9815955103
 40
0.9834127132
 40
0.9852102574
 40
0.9869831765
 40
0.9887244562
 40
0.9904238133
 40
0.9912531778
 40
0.9920655011
 40
0.9928573476
 40
0.9936240928
 40
0.9943596568
 40
0.9950559764
 40
0.9953860569
 40
0.9957019623
 40
0.9960015745
 40
0.9962826718
 40
0.9965426191
 40
0.9967783757
 40
0.9969868115
 40
0.9970797069
 40
0.9971644674
 40
0.9972406625
 40
0.9973078919
 40
0.9973658598
 40
0.9974143315
 40
0.9974531478
 40
0.9974823316
 40
0.9974934712
 40
0.9975025473
 40
0.9975099953
 40
0.9975165705
 40
0.9975309804
 40
0.9975405969
 40
0.9975522963
 40
0.9975825602
 40
0.9976224842
 40
0.997672221
 40
0.9977315491
 40
0.9978001243
 40
0.9978775664
 40
0.9979634761
 40
0.9980574431
 40
0.9982678989
 40
0.9985056809
 40
0.998767518
 40
0.9990501937
 40
0.999351219
 40
1.0
 40
1.0
 40
1.0
 40
1.0
 10
5.9514994389
 20
3.1788418631
 30
0.0
 10
5.9388014636
 20
3.1915561593
 30
0.0
 10
5.9134078593
 20
3.2169843992
 30
0.0
 10
5.8753212643
 20
3.2551261727
 30
0.0
 10
5.8372428829
 20
3.29326686
 30
0.0
 10
5.7991725454
 20
3.3314048136
 30
0.0
 10
5.7611112698
 20
3.3695391115
 30
0.0
 10
5.7230599432
 20
3.4076681334
 30
0.0
 10
5.6850197996
 20
3.4457897735
 30
0.0
 10
5.6469924447
 20
3.4839010474
 30
0.0
 10
5.6089801342
 20
3.5219976485
 30
0.0
 10
5.5709862269
 20
3.5600730547
 30
0.0
 10
5.5393369259
 20
3.5917838797
 30
0.0
 10
5.5140296498
 20
3.6171323365
 30
0.0
 10
5.4950628984
 20
3.6361242959
 30
0.0
 10
5.4792629863
 20
3.6519387167
 30
0.0
 10
5.4666290951
 20
3.6645787479
 30
0.0
 10
5.4571602831
 20
3.6740488999
 30
0.0
 10
5.4476964886
 20
3.6835101366
 30
0.0
 10
5.438238759
 20
3.6929606077
 30
0.0
 10
5.4287885364
 20
3.7023978423
 30
0.0
 10
5.4209180024
 20
3.7102516514
 30
0.0
 10
5.4146266524
 20
3.7165251483
 30
0.0
 10
5.4099135976
 20
3.7212222806
 30
0.0
 10
5.4052046418
 20
3.7259124223
 30
0.0
 10
5.4005005707
 20
3.7305943538
 30
0.0
 10
5.3958024181
 20
3.7352665057
 30
0.0
 10
5.391111579
 20
3.7399268074
 30
0.0
 10
5.3864299972
 20
3.7445724469
 30
0.0
 10
5.38176049
 20
3.7491994551
 30
0.0
 10
5.3778774568
 20
3.7530402493
 30
0.0
 10
5.3747800613
 20
3.7560985988
 30
0.0
 10
5.3724667959
 20
3.7583796135
 30
0.0
 10
5.3701616492
 20
3.7606490257
 30
0.0
 10
5.3678667373
 20
3.7629041031
 30
0.0
 10
5.3659613126
 20
3.7647721719
 30
0.0
 10
5.3644442654
 20
3.7662562832
 30
0.0
 10
5.3633138487
 20
3.7673603607
 30
0.0
 10
5.3621893117
 20
3.7684566618
 30
0.0
 10
5.3610718303
 20
3.7695437567
 30
0.0
 10
5.3599629515
 20
3.7706197832
 30
0.0
 10
5.3588647629
 20
3.7716822649
 30
0.0
 10
5.3577801601
 20
3.7727278175
 30
0.0
 10
5.3567133028
 20
3.7737516491
 30
0.0
 10
5.3558371166
 20
3.7745876704
 30
0.0
 10
5.3551496374
 20
3.7752398012
 30
0.0
 10
5.3546477929
 20
3.7757136334
 30
0.0
 10
5.3541575827
 20
3.776173915
 30
0.0
 10
5.3536817221
 20
3.7766176701
 30
0.0
 10
5.3532238409
 20
3.7770409721
 30
0.0
 10
5.3528550076
 20
3.7773781499
 30
0.0
 10
5.352572513
 20
3.7776333565
 30
0.0
 10
5.3523726786
 20
3.7778122177
 30
0.0
 10
5.3521822411
 20
3.7779807418
 30
0.0
 10
5.352002592
 20
3.7781375011
 30
0.0
 10
5.3518353185
 20
3.778280887
 30
0.0
 10
5.3516821931
 20
3.7784090938
 30
0.0
 10
5.3515638792
 20
3.7785050558
 30
0.0
 10
5.3514776247
 20
3.7785725205
 30
0.0
 10
5.3514202828
 20
3.7786160617
 30
0.0
 10
5.3513680393
 20
3.7786542645
 30
0.0
 10
5.3513211428
 20
3.7786868858
 30
0.0
 10
5.3512798332
 20
3.7787137246
 30
0.0
 10
5.351244312
 20
3.7787346488
 30
0.0
 10
5.3512147848
 20
3.778749481
 30
0.0
 10
5.3511936747
 20
3.7787574549
 30
0.0
 10
5.351179866
 20
3.7787600643
 30
0.0
 10
5.3511719675
 20
3.7787601975
 30
0.0
 10
5.3511654994
 20
3.7787586252
 30
0.0
 10
5.3511587293
 20
3.7787537612
 30
0.0
 10
5.3511562562
 20
3.7787445983
 30
0.0
 10
5.3511568664
 20
3.7787345484
 30
0.0
 10
5.3511597793
 20
3.7787201357
 30
0.0
 10
5.3511679899
 20
3.7786983235
 30
0.0
 10
5.3511830439
 20
3.7786677983
 30
0.0
 10
5.351204176
 20
3.7786311794
 30
0.0
 10
5.3512311687
 20
3.7785886291
 30
0.0
 10
5.3512638404
 20
3.7785404087
 30
0.0
 10
5.3513019493
 20
3.7784867895
 30
0.0
 10
5.3513452569
 20
3.7784280446
 30
0.0
 10
5.3514121846
 20
3.7783398581
 30
0.0
 10
5.3515072732
 20
3.7782189895
 30
0.0
 10
5.351634206
 20
3.7780626323
 30
0.0
 10
5.3517759966
 20
3.777891974
 30
0.0
 10
5.3519308328
 20
3.7777088481
 30
0.0
 10
5.3521583617
 20
3.7774434823
 30
0.0
 10
5.3523354406
 20
3.7772404747
 30
0.0
 10
5.3524568839
 20
3.7771022378
 30
0.0
 11
5.9514994389
 21
3.1788418631
 31
0.0
 11
5.9134067807
 21
3.2169860177
 31
0.0
 11
5.8753203371
 21
3.2551282913
 31
0.0
 11
5.837241553
 21
3.2932690794
 31
0.0
 11
5.7991709111
 21
3.3314073548
 31
0.0
 11
5.7611091703
 21
3.3695419973
 31
0.0
 11
5.7230572361
 21
3.4076714835
 31
0.0
 11
5.6850162494
 21
3.4457937398
 31
0.0
 11
5.646987695
 21
3.4839058751
 31
0.0
 11
5.6089736005
 21
3.5220037378
 31
0.0
 11
5.5709768985
 21
3.5600811289
 31
0.0
 11
5.5330021591
 21
3.5981282873
 31
0.0
 11
5.5140252677
 21
3.6171357823
 31
0.0
 11
5.4950572395
 21
3.636128663
 31
0.0
 11
5.4761002621
 21
3.6551025233
 31
0.0
 11
5.466626895
 21
3.6645804049
 31
0.0
 11
5.4571576725
 21
3.6740508606
 31
0.0
 11
5.4476933437
 21
3.6835124958
 31
0.0
 11
5.4382349022
 21
3.6929635041
 31
0.0
 11
5.4287837006
 21
3.7024014878
 31
0.0
 11
5.4193416441
 21
3.7118231634
 31
0.0
 11
5.4146248696
 21
3.7165265007
 31
0.0
 11
5.4099115274
 21
3.7212238587
 31
0.0
 11
5.4052022086
 21
3.7259142872
 31
0.0
 11
5.4004976702
 21
3.7305965908
 31
0.0
 11
5.3957989019
 21
3.7352692371
 31
0.0
 11
5.3911072288
 21
3.7399302148
 31
0.0
 11
5.3864244766
 21
3.7445768112
 31
0.0
 11
5.3817532531
 21
3.749205239
 31
0.0
 11
5.3770974589
 21
3.7538099706
 31
0.0
 11
5.3747771398
 21
3.7561009658
 31
0.0
 11
5.3724632566
 21
3.7583825
 31
0.0
 11
5.3701572743
 21
3.7606526171
 31
0.0
 11
5.3678611956
 21
3.7629086848
 31
0.0
 11
5.3655778515
 21
3.7651470436
 31
0.0
 11
5.364442181
 21
3.7662580204
 31
0.0
 11
5.3633114098
 21
3.7673624006
 31
0.0
 11
5.3621864204
 21
3.7684590882
 31
0.0
 11
5.3610683458
 21
3.7695466903
 31
0.0
 11
5.3599586816
 21
3.7706233889
 31
0.0
 11
5.3588594215
 21
3.7716867877
 31
0.0
 11
5.3577733045
 21
3.7727336346
 31
0.0
 11
5.3567042267
 21
3.7737593625
 31
0.0
 11
5.3556579446
 21
3.7747573186
 31
0.0
 11
5.3551459412
 21
3.7752429271
 31
0.0
 11
5.3546433483
 21
3.7757173848
 31
0.0
 11
5.354152126
 21
3.7761785032
 31
0.0
 11
5.3536749278
 21
3.7766233498
 31
0.0
 11
5.3532152625
 21
3.7770480875
 31
0.0
 11
5.3527778115
 21
3.7774476498
 31
0.0
 11
5.352569382
 21
3.7776358872
 31
0.0
 11
5.3523690626
 21
3.7778151058
 31
0.0
 11
5.3521781069
 21
3.7779839924
 31
0.0
 11
5.3519978334
 21
3.7781411693
 31
0.0
 11
5.3518298193
 21
3.7782850102
 31
0.0
 11
5.3516758985
 21
3.7784136423
 31
0.0
 11
5.3515379778
 21
3.7785251324
 31
0.0
 11
5.3514756867
 21
3.7785737858
 31
0.0
 11
5.3514182112
 21
3.7786173478
 31
0.0
 11
5.3513658284
 21
3.7786555452
 31
0.0
 11
5.3513188055
 21
3.7786881174
 31
0.0
 11
5.3512773636
 21
3.778714861
 31
0.0
 11
5.3512417093
 21
3.77873559
 31
0.0
 11
5.3512120497
 21
3.7787501185
 31
0.0
 11
5.3511885915
 21
3.7787582605
 31
0.0
 11
5.3511792524
 21
3.7787598786
 31
0.0
 11
5.3511715301
 21
3.778759842
 31
0.0
 11
5.3511654207
 21
3.7787581583
 31
0.0
 11
5.3511609188
 21
3.778754837
 31
0.0
 11
5.3511567149
 21
3.7787433196
 31
0.0
 11
5.3511570017
 21
3.7787351425
 31
0.0
 11
5.3511588738
 21
3.7787253657
 31
0.0
 11
5.351167351
 21
3.778701051
 31
0.0
 11
5.351182102
 21
3.7786704516
 31
0.0
 11
5.351203045
 21
3.7786336786
 31
0.0
 11
5.3512299605
 21
3.7785909736
 31
0.0
 11
5.3512625974
 21
3.778542608
 31
0.0
 11
5.3513007044
 21
3.7784888534
 31
0.0
 11
5.3513440305
 21
3.7784299813
 31
0.0
 11
5.3513923245
 21
3.7783662632
 31
0.0
 11
5.3515028155
 21
3.77822535
 31
0.0
 11
5.3516301877
 21
3.7780681608
 31
0.0
 11
5.3517724553
 21
3.7778967179
 31
0.0
 11
5.3519276764
 21
3.777712996
 31
0.0
 11
5.3520943367
 21
3.7775185078
 31
0.0
 11
5.3524568839
 21
3.7771022378
 31
0.0
  0
SPLINE
  5
41F
100
AcDbEntity
  8
0
100
AcDbSpline
 62
9
  6
CONTINUOUS
 70
0
 71
3
 72
34
 73
30
 74
28
 42
0.0000001
 43
0.0000001
 44
0.0000000001
 12
-0.0318652884
 22
0.0352972368
 32
0.0
 13
0.0320879054
 23
0.0350949833
 33
0.0
 40
0.0
 40
0.0
 40
0.0
 40
0.0
 40
0.0018926633
 40
0.0039405524
 40
0.0062462349
 40
0.0088819594
 40
0.0118959881
 40
0.0153203214
 40
0.0191764881
 40
0.0234792985
 40
0.0282391771
 40
0.0334636142
 40
0.0453255855
 40
0.0590956769
 40
0.0747900134
 40
0.0924172684
 40
0.1119765576
 40
0.133459784
 40
0.156856778
 40
0.2093443209
 40
0.2693382989
 40
0.3367255814
 40
0.4113539525
 40
0.4930430217
 40
0.5816097287
 40
0.6768642365
 40
0.7785494164
 40
0.8863626774
 40
1.0
 40
1.0
 40
1.0
 40
1.0
 10
5.9458124428
 20
3.1181035599
 30
0.0
 10
5.9457923394
 20
3.1181258285
 30
0.0
 10
5.945756922
 20
3.118178334
 30
0.0
 10
5.9457234507
 20
3.1182723548
 30
0.0
 10
5.945707686
 20
3.118382592
 30
0.0
 10
5.9457090839
 20
3.1185090486
 30
0.0
 10
5.9457273663
 20
3.1186519619
 30
0.0
 10
5.9457624671
 20
3.1188114908
 30
0.0
 10
5.9458143798
 20
3.1189877285
 30
0.0
 10
5.9458831212
 20
3.1191807125
 30
0.0
 10
5.9459686988
 20
3.1193904547
 30
0.0
 10
5.946111458
 20
3.1197060151
 30
0.0
 10
5.9463344192
 20
3.1201416477
 30
0.0
 10
5.9466585713
 20
3.1207110497
 30
0.0
 10
5.9470498447
 20
3.121346873
 30
0.0
 10
5.9475081794
 20
3.1220487734
 30
0.0
 10
5.9480333791
 20
3.1228163209
 30
0.0
 10
5.9486250548
 20
3.123648987
 30
0.0
 10
5.9495376662
 20
3.1248936943
 30
0.0
 10
5.9508447256
 20
3.1266058115
 30
0.0
 10
5.9526165062
 20
3.1288396902
 30
0.0
 10
5.9546428269
 20
3.1313191669
 30
0.0
 10
5.9569189027
 20
3.1340382986
 30
0.0
 10
5.9594393226
 20
3.1369904476
 30
0.0
 10
5.9621983039
 20
3.1401686132
 30
0.0
 10
5.9651893148
 20
3.1435649195
 30
0.0
 10
5.9684043132
 20
3.1471703541
 30
0.0
 10
5.97183398
 20
3.1509746661
 30
0.0
 10
5.974197043
 20
3.153570365
 30
0.0
 10
5.9754125042
 20
3.1548997317
 30
0.0
 11
5.9458124428
 21
3.1181035599
 31
0.0
 11
5.9457616164
 21
3.1181778366
 31
0.0
 11
5.9457278214
 21
3.1182691679
 31
0.0
 11
5.9457110461
 21
3.1183775192
 31
0.0
 11
5.9457112788
 21
3.1185028557
 31
0.0
 11
5.9457285078
 21
3.1186451426
 31
0.0
 11
5.9457627213
 21
3.1188043452
 31
0.0
 11
5.9458139078
 21
3.1189804287
 31
0.0
 11
5.9458820555
 21
3.1191733584
 31
0.0
 11
5.9459671526
 21
3.1193830994
 31
0.0
 11
5.9460691875
 21
3.1196096171
 31
0.0
 11
5.9463240238
 21
3.1201128432
 31
0.0
 11
5.9466464709
 21
3.1206827587
 31
0.0
 11
5.9470364349
 21
3.1213190854
 31
0.0
 11
5.947493811
 21
3.1220215354
 31
0.0
 11
5.9480183011
 21
3.1227896518
 31
0.0
 11
5.9486094465
 21
3.1236228377
 31
0.0
 11
5.9492667837
 21
3.1245204917
 31
0.0
 11
5.9507781785
 21
3.126506798
 31
0.0
 11
5.9525487767
 21
3.1287437597
 31
0.0
 11
5.9545747863
 21
3.1312264827
 31
0.0
 11
5.956851262
 21
3.133948923
 31
0.0
 11
5.959372414
 21
3.1369041939
 31
0.0
 11
5.9621324331
 21
3.1400853895
 31
0.0
 11
5.965125326
 21
3.1434854251
 31
0.0
 11
5.9683428324
 21
3.1470950132
 31
0.0
 11
5.9717751641
 21
3.1509033819
 31
0.0
 11
5.9754125042
 21
3.1548997317
 31
0.0
  0
SPLINE
  5
420
100
AcDbEntity
  8
0
100
AcDbSpline
 62
9
  6
CONTINUOUS
 70
0
 71
3
 72
34
 73
30
 74
28
 42
0.0000001
 43
0.0000001
 44
0.0000000001
 12
0.0350948853
 22
0.0320879087
 32
0.0
 13
0.0353002749
 23
-0.0318618181
 33
0.0
 40
0.0
 40
0.0
 40
0.0
 40
0.0
 40
0.1136435121
 40
0.2214758603
 40
0.3231907756
 40
0.4184825203
 40
0.5070682059
 40
0.5887537221
 40
0.6633681616
 40
0.7307427308
 40
0.790721245
 40
0.8431896977
 40
0.8665776127
 40
0.8880530339
 40
0.9076065028
 40
0.9252304855
 40
0.9409219456
 40
0.9546886086
 40
0.9665469223
 40
0.9717695479
 40
0.9765276815
 40
0.9808288562
 40
0.9846835393
 40
0.9881065837
 40
0.9911195599
 40
0.9937545036
 40
0.9960596967
 40
0.9981073693
 40
1.0
 40
1.0
 40
1.0
 40
1.0
 10
6.1301921473
 20
3.3096813149
 30
0.0
 10
6.1315215826
 20
3.3108968424
 30
0.0
 10
6.1341176654
 20
3.3132600719
 30
0.0
 10
6.1379229276
 20
3.3166899762
 30
0.0
 10
6.1415297263
 20
3.3199054836
 30
0.0
 10
6.1449272911
 20
3.3228971161
 30
0.0
 10
6.1481061791
 20
3.3256565286
 30
0.0
 10
6.1510583682
 20
3.3281769288
 30
0.0
 10
6.1537771176
 20
3.3304527071
 30
0.0
 10
6.1562560314
 20
3.3324786542
 30
0.0
 10
6.1584893259
 20
3.3342499598
 30
0.0
 10
6.1602009369
 20
3.3355565378
 30
0.0
 10
6.1614452232
 20
3.3364687551
 30
0.0
 10
6.1622776195
 20
3.3370601865
 30
0.0
 10
6.1630449619
 20
3.3375852088
 30
0.0
 10
6.1637466973
 20
3.3380434465
 30
0.0
 10
6.1643823853
 20
3.3384346484
 30
0.0
 10
6.1649516531
 20
3.3387587154
 30
0.0
 10
6.1653871681
 20
3.3389815957
 30
0.0
 10
6.1657026335
 20
3.3391242864
 30
0.0
 10
6.1659123068
 20
3.3392098142
 30
0.0
 10
6.1661052257
 20
3.3392785078
 30
0.0
 10
6.1662814035
 20
3.3393303758
 30
0.0
 10
6.166440879
 20
3.3393654362
 30
0.0
 10
6.1665837468
 20
3.3393836836
 30
0.0
 10
6.1667101666
 20
3.3393850527
 30
0.0
 10
6.1668203766
 20
3.3393692667
 30
0.0
 10
6.1669143798
 20
3.3393357837
 30
0.0
 10
6.1669668802
 20
3.3393003684
 30
0.0
 10
6.1669891504
 20
3.3392802675
 30
0.0
 11
6.1301921473
 21
3.3096813149
 31
0.0
 11
6.1341888322
 21
3.3133187122
 31
0.0
 11
6.1379981602
 21
3.3167513238
 31
0.0
 11
6.1416091239
 21
3.3199694013
 31
0.0
 11
6.1450107156
 21
3.3229631963
 31
0.0
 11
6.1481926944
 21
3.3257236803
 31
0.0
 11
6.1511478629
 21
3.3282446831
 31
0.0
 11
6.1538697793
 21
3.3305207444
 31
0.0
 11
6.1563520019
 21
3.3325464036
 31
0.0
 11
6.1585883931
 21
3.3343165309
 31
0.0
 11
6.1605740232
 21
3.3358273093
 31
0.0
 11
6.1614713559
 21
3.3364843516
 31
0.0
 11
6.1623042619
 21
3.3370752475
 31
0.0
 11
6.1630721625
 21
3.3375995605
 31
0.0
 11
6.1637744789
 21
3.3380568542
 31
0.0
 11
6.1644106849
 21
3.3384467515
 31
0.0
 11
6.1649804617
 21
3.3387691104
 31
0.0
 11
6.1654835423
 21
3.3390238473
 31
0.0
 11
6.165709988
 21
3.3391258313
 31
0.0
 11
6.1659196595
 21
3.3392108783
 31
0.0
 11
6.1661125233
 21
3.3392789779
 31
0.0
 11
6.1662885461
 21
3.3393301196
 31
0.0
 11
6.1664476944
 21
3.339364293
 31
0.0
 11
6.1665899349
 21
3.3393814874
 31
0.0
 11
6.1667152341
 21
3.3393816926
 31
0.0
 11
6.1668235587
 21
3.339364898
 31
0.0
 11
6.1669148752
 21
3.3393310931
 31
0.0
 11
6.1669891504
 21
3.3392802675
 31
0.0
  0
SPLINE
  5
421
100
AcDbEntity
  8
0
100
AcDbSpline
 62
9
  6
CONTINUOUS
 70
0
 71
3
 72
39
 73
35
 74
33
 42
0.0000001
 43
0.0000001
 44
0.0000000001
 12
-0.0035629835
 22
0.0032081155
 32
0.0
 13
0.0031717276
 23
-0.0035954139
 33
0.0
 40
0.0
 40
0.0
 40
0.0
 40
0.0
 40
0.1058869423
 40
0.2077103075
 40
0.3046152958
 40
0.3954657539
 40
0.4789050805
 40
0.5531294897
 40
0.6160273092
 40
0.6424676834
 40
0.6651653547
 40
0.6838308976
 40
0.691568354
 40
0.6982099728
 40
0.7037514265
 40
0.708202244
 40
0.7116020537
 40
0.7140715364
 40
0.7159627248
 40
0.7179856659
 40
0.7207384445
 40
0.724470286
 40
0.729269618
 40
0.735168319
 40
0.7421750788
 40
0.7502753832
 40
0.7696327573
 40
0.7929707414
 40
0.8199960724
 40
0.8504098937
 40
0.8839129242
 40
0.9202034137
 40
0.9589813308
 40
1.0
 40
1.0
 40
1.0
 40
1.0
 10
5.5089741053
 20
3.9317596753
 30
0.0
 10
5.5088483474
 20
3.9318729078
 30
0.0
 10
5.5086012982
 20
3.9320946284
 30
0.0
 10
5.5082376603
 20
3.9324183022
 30
0.0
 10
5.5078904113
 20
3.9327242379
 30
0.0
 10
5.5075632996
 20
3.9330085722
 30
0.0
 10
5.5072612459
 20
3.9332664669
 30
0.0
 10
5.5069902638
 20
3.9334919109
 30
0.0
 10
5.5067862003
 20
3.9336553271
 30
0.0
 10
5.5066435473
 20
3.9337635593
 30
0.0
 10
5.5065556636
 20
3.9338269662
 30
0.0
 10
5.5064904673
 20
3.933870698
 30
0.0
 10
5.5064452933
 20
3.9338980688
 30
0.0
 10
5.5064174076
 20
3.9339134597
 30
0.0
 10
5.5063934384
 20
3.9339249788
 30
0.0
 10
5.5063734
 20
3.9339326666
 30
0.0
 10
5.5063573105
 20
3.9339364051
 30
0.0
 10
5.5063446221
 20
3.9339365113
 30
0.0
 10
5.5063351898
 20
3.9339308974
 30
0.0
 10
5.5063319917
 20
3.9339200175
 30
0.0
 10
5.5063335305
 20
3.9339064255
 30
0.0
 10
5.5063388151
 20
3.9338891058
 30
0.0
 10
5.5063480759
 20
3.9338679578
 30
0.0
 10
5.506361264
 20
3.9338429047
 30
0.0
 10
5.5063783931
 20
3.9338140217
 30
0.0
 10
5.5064082014
 20
3.9337676949
 30
0.0
 10
5.5064549663
 20
3.933701303
 30
0.0
 10
5.5065220142
 20
3.9336122976
 30
0.0
 10
5.5066019984
 20
3.9335109557
 30
0.0
 10
5.5066938923
 20
3.9333983486
 30
0.0
 10
5.5067966675
 20
3.9332755266
 30
0.0
 10
5.5069092913
 20
3.9331435279
 30
0.0
 10
5.5070307867
 20
3.9330033177
 30
0.0
 10
5.5071149054
 20
3.9329074665
 30
0.0
 10
5.507158272
 20
3.9328583068
 30
0.0
 11
5.5089741053
 21
3.9317596753
 31
0.0
 11
5.5085962292
 21
3.9320987024
 31
0.0
 11
5.5082315077
 21
3.9324232111
 31
0.0
 11
5.5078827991
 21
3.9327302326
 31
0.0
 11
5.5075539223
 21
3.9330158355
 31
0.0
 11
5.5072494645
 21
3.9332753403
 31
0.0
 11
5.5069755839
 21
3.9335025629
 31
0.0
 11
5.506739579
 21
3.9336902881
 31
0.0
 11
5.5066384564
 21
3.9337667354
 31
0.0
 11
5.506550043
 21
3.9338301826
 31
0.0
 11
5.5064754389
 21
3.9338796083
 31
0.0
 11
5.5064436587
 21
3.9338987447
 31
0.0
 11
5.5064157186
 21
3.9339140197
 31
0.0
 11
5.5063916969
 21
3.9339253701
 31
0.0
 11
5.506371669
 21
3.9339327355
 31
0.0
 11
5.5063557105
 21
3.9339360556
 31
0.0
 11
5.5063438967
 21
3.9339352702
 31
0.0
 11
5.5063362963
 21
3.9339303257
 31
0.0
 11
5.5063329078
 21
3.9339212379
 31
0.0
 11
5.5063336893
 21
3.933908063
 31
0.0
 11
5.5063385983
 21
3.9338908574
 31
0.0
 11
5.5063475923
 21
3.9338696778
 31
0.0
 11
5.5063606289
 21
3.9338445806
 31
0.0
 11
5.5063776621
 21
3.9338156254
 31
0.0
 11
5.5063985984
 21
3.9337829153
 31
0.0
 11
5.5064516616
 21
3.9337067729
 31
0.0
 11
5.5065187766
 21
3.9336172429
 31
0.0
 11
5.506598901
 21
3.9335154149
 31
0.0
 11
5.5066909901
 21
3.9334023554
 31
0.0
 11
5.5067939968
 21
3.9332791024
 31
0.0
 11
5.5069068736
 21
3.933146692
 31
0.0
 11
5.5070285843
 21
3.9330061486
 31
0.0
 11
5.507158272
 21
3.9328583068
 31
0.0
  0
SPLINE
  5
422
100
AcDbEntity
  8
0
100
AcDbSpline
 62
9
  6
CONTINUOUS
 70
0
 71
3
 72
49
 73
45
 74
43
 42
0.0000001
 43
0.0000001
 44
0.0000000001
 12
0.5605713075
 22
-0.6354536473
 32
0.0
 13
0.5995709645
 23
-0.598795614
 33
0.0
 40
0.0
 40
0.0
 40
0.0
 40
0.0
 40
0.0006211645
 40
0.0012963614
 40
0.0027648349
 40
0.0043420288
 40
0.00599213
 40
0.0076937271
 40
0.0094333016
 40
0.0129933708
 40
0.0166279568
 40
0.0203133042
 40
0.0240352968
 40
0.0277849165
 40
0.0353444763
 40
0.0429612272
 40
0.0506180696
 40
0.0583045318
 40
0.0660137598
 40
0.0737410188
 40
0.089236894
 40
0.1047738926
 40
0.1203410466
 40
0.1359312571
 40
0.1515396591
 40
0.167162782
 40
0.1827980591
 40
0.214097709
 40
0.2454275383
 40
0.2767804005
 40
0.3081514204
 40
0.3395371247
 40
0.3709349515
 40
0.4023429555
 40
0.433759625
 40
0.496614399
 40
0.5594921557
 40
0.622388038
 40
0.6852985826
 40
0.748221235
 40
0.8111540534
 40
0.8740955347
 40
0.9370444577
 40
1.0
 40
1.0
 40
1.0
 40
1.0
 10
5.507158272
 20
3.9328583068
 30
0.0
 10
5.507274341
 20
3.932726733
 30
0.0
 10
5.5075184165
 20
3.9324537642
 30
0.0
 10
5.5080438839
 20
3.9318760329
 30
0.0
 10
5.5087583033
 20
3.9311051762
 30
0.0
 10
5.5096667356
 20
3.9301387475
 30
0.0
 10
5.5106251886
 20
3.9291289891
 30
0.0
 10
5.5116188425
 20
3.9280894212
 30
0.0
 10
5.5129890591
 20
3.9266635051
 30
0.0
 10
5.5147432688
 20
3.9248493816
 30
0.0
 10
5.5168856201
 20
3.9226460789
 30
0.0
 10
5.5190643952
 20
3.9204144095
 30
0.0
 10
5.5212693686
 20
3.9181629141
 30
0.0
 10
5.5242437649
 20
3.9151332773
 30
0.0
 10
5.5279946076
 20
3.9113242706
 30
0.0
 10
5.5325262935
 20
3.9067353034
 30
0.0
 10
5.5370880954
 20
3.9021257054
 30
0.0
 10
5.541672139
 20
3.8975013729
 30
0.0
 10
5.5462733133
 20
3.8928660181
 30
0.0
 10
5.552431916
 20
3.8866685757
 30
0.0
 10
5.560154435
 20
3.8789081867
 30
0.0
 10
5.5694452981
 20
3.8695844353
 30
0.0
 10
5.5787598328
 20
3.8602466586
 30
0.0
 10
5.5880924385
 20
3.8508984226
 30
0.0
 10
5.5974392899
 20
3.8415420712
 30
0.0
 10
5.6067976492
 20
3.8321792239
 30
0.0
 10
5.6192920076
 20
3.8196844183
 30
0.0
 10
5.634927685
 20
3.8040568001
 30
0.0
 10
5.6537082798
 20
3.7852956262
 30
0.0
 10
5.6725066601
 20
3.7665237331
 30
0.0
 10
5.6913187592
 20
3.7477432432
 30
0.0
 10
5.710141684
 20
3.7289556209
 30
0.0
 10
5.728973302
 20
3.7101619208
 30
0.0
 10
5.7478119951
 20
3.6913629285
 30
0.0
 10
5.7729408893
 20
3.666288492
 30
0.0
 10
5.8043627252
 20
3.6349362369
 30
0.0
 10
5.8420784984
 20
3.5973033779
 30
0.0
 10
5.8798041697
 20
3.5596581366
 30
0.0
 10
5.917536912
 20
3.5220020283
 30
0.0
 10
5.9552747376
 20
3.4843362445
 30
0.0
 10
5.9930160605
 20
3.4466615952
 30
0.0
 10
6.0307600904
 20
3.4089791546
 30
0.0
 10
6.0685050488
 20
3.3712885598
 30
0.0
 10
6.0936688503
 20
3.346159128
 30
0.0
 10
6.1062509554
 20
3.3335932938
 30
0.0
 11
5.507158272
 21
3.9328583068
 31
0.0
 11
5.5075087721
 21
3.9324656203
 31
0.0
 11
5.5078935333
 21
3.9320421732
 31
0.0
 11
5.5087384581
 21
3.931128665
 31
0.0
 11
5.5096534007
 21
3.9301544795
 31
0.0
 11
5.5106157533
 21
3.9291400904
 31
0.0
 11
5.511611887
 21
3.9280976133
 31
0.0
 11
5.5126331326
 21
3.9270346284
 31
0.0
 11
5.5147296245
 21
3.9248654704
 31
0.0
 11
5.5168763669
 21
3.9226570817
 31
0.0
 11
5.5190577397
 21
3.9204223784
 31
0.0
 11
5.5212643716
 21
3.9181689435
 31
0.0
 11
5.5234902242
 21
3.915901568
 31
0.0
 11
5.5279843433
 21
3.9113368366
 31
0.0
 11
5.5325191522
 21
3.9067441672
 31
0.0
 11
5.5370828515
 21
3.9021322872
 31
0.0
 11
5.5416681312
 21
3.8975064547
 31
0.0
 11
5.5462701553
 21
3.8928700597
 31
0.0
 11
5.5508855514
 21
3.8882254112
 31
0.0
 11
5.5601472933
 21
3.8789174677
 31
0.0
 11
5.5694400942
 21
3.8695912748
 31
0.0
 11
5.5787558701
 21
3.8602519046
 31
0.0
 11
5.5880893201
 21
3.8509025702
 31
0.0
 11
5.5974367692
 21
3.8415454306
 31
0.0
 11
5.6067955682
 21
3.832181998
 31
0.0
 11
5.6161637396
 21
3.8228133719
 31
0.0
 11
5.6349224662
 21
3.8040636374
 31
0.0
 11
5.6537042637
 21
3.7853008116
 31
0.0
 11
5.6725034558
 21
3.7665277826
 31
0.0
 11
5.6913161299
 21
3.7477464802
 31
0.0
 11
5.710139477
 21
3.7289582567
 31
0.0
 11
5.7289714146
 21
3.7101640991
 31
0.0
 11
5.7478103563
 21
3.6913647514
 31
0.0
 11
5.7666550677
 21
3.6725607904
 31
0.0
 11
5.8043580796
 21
3.6349407717
 31
0.0
 11
5.8420746655
 21
3.5973067849
 31
0.0
 11
5.8798009206
 21
3.5596607438
 31
0.0
 11
5.9175341078
 21
3.5220040599
 31
0.0
 11
5.9552722574
 21
3.4843378243
 31
0.0
 11
5.9930139047
 21
3.4466628991
 31
0.0
 11
6.0307580007
 21
3.4089800366
 31
0.0
 11
6.0685034917
 21
3.3712896464
 31
0.0
 11
6.1062509554
 21
3.3335932938
 31
0.0
  0
LINE
  5
423
100
AcDbEntity
  8
0
100
AcDbLine
 62
9
  6
CONTINUOUS
 10
6.1062509554
 20
3.3335932938
 11
6.1301921473
 21
3.3096813149
  0
SPLINE
  5
424
100
AcDbEntity
  8
0
100
AcDbSpline
 62
9
  6
CONTINUOUS
 70
0
 71
3
 72
23
 73
19
 74
17
 42
0.0000001
 43
0.0000001
 44
0.0000000001
 12
0.019740913
 22
-0.0193230485
 32
0.0
 13
-0.018463591
 23
-0.0205470109
 33
0.0
 40
0.0
 40
0.0
 40
0.0
 40
0.0
 40
0.0714140428
 40
0.1430665952
 40
0.2144665453
 40
0.2851304201
 40
0.354633004
 40
0.4226981252
 40
0.4890928336
 40
0.5536109838
 40
0.6161025918
 40
0.6765054362
 40
0.7348149273
 40
0.7910972952
 40
0.845512766
 40
0.898283895
 40
0.9496723381
 40
1.0
 40
1.0
 40
1.0
 40
1.0
 10
6.1301916347
 20
3.3096795863
 30
0.0
 10
6.1306615609
 20
3.3092196073
 30
0.0
 10
6.1315705631
 20
3.308264372
 30
0.0
 10
6.1328313243
 20
3.3067424913
 30
0.0
 10
6.1339807823
 20
3.3051432347
 30
0.0
 10
6.1350047957
 20
3.303483998
 30
0.0
 10
6.1358895874
 20
3.3017809412
 30
0.0
 10
6.136628219
 20
3.30005221
 30
0.0
 10
6.1372149121
 20
3.29831443
 30
0.0
 10
6.1376439815
 20
3.296583779
 30
0.0
 10
6.1379095441
 20
3.2948762144
 30
0.0
 10
6.1380104924
 20
3.293208131
 30
0.0
 10
6.1379459108
 20
3.2915951622
 30
0.0
 10
6.1377146682
 20
3.2900527958
 30
0.0
 10
6.1373155821
 20
3.2885975902
 30
0.0
 10
6.1367562744
 20
3.2872444788
 30
0.0
 10
6.1360445962
 20
3.2860081604
 30
0.0
 10
6.1354684059
 20
3.2852651195
 30
0.0
 10
6.1351586628
 20
3.2849204252
 30
0.0
 11
6.1301916347
 21
3.3096795863
 31
0.0
 11
6.1315521112
 21
3.3082510188
 31
0.0
 11
6.1328148585
 21
3.3067268111
 31
0.0
 11
6.1339654252
 21
3.3051248242
 31
0.0
 11
6.1349893596
 21
3.3034629192
 31
0.0
 11
6.1358736552
 21
3.3017587533
 31
0.0
 11
6.136611084
 21
3.3000291696
 31
0.0
 11
6.1371958629
 21
3.2982908073
 31
0.0
 11
6.1376222087
 21
3.2965603057
 31
0.0
 11
6.137885179
 21
3.2948541865
 31
0.0
 11
6.1379831944
 21
3.2931885013
 31
0.0
 11
6.1379155162
 21
3.291579184
 31
0.0
 11
6.1376814057
 21
3.2900421685
 31
0.0
 11
6.1372815743
 21
3.2885931484
 31
0.0
 11
6.1367225328
 21
3.2872468562
 31
0.0
 11
6.1360122421
 21
3.2860177844
 31
0.0
 11
6.1351586628
 21
3.2849204252
 31
0.0
  0
LINE
  5
425
100
AcDbEntity
  8
0
100
AcDbLine
 62
9
  6
CONTINUOUS
 10
5.9754131325
 20
3.1549010844
 11
5.9793978733
 21
3.1593658333
  0
SPLINE
  5
426
100
AcDbEntity
  8
0
100
AcDbSpline
 62
9
  6
CONTINUOUS
 70
0
 71
3
 72
23
 73
19
 74
17
 42
0.0000001
 43
0.0000001
 44
0.0000000001
 12
-0.0205484538
 22
-0.0184657757
 32
0.0
 13
-0.0193283866
 23
0.0197392325
 33
0.0
 40
0.0
 40
0.0
 40
0.0
 40
0.0
 40
0.0503351555
 40
0.101730548
 40
0.1545074157
 40
0.2089268843
 40
0.2652113269
 40
0.3235215989
 40
0.3839245955
 40
0.4464161941
 40
0.5109342953
 40
0.5773284475
 40
0.6453920655
 40
0.7148919284
 40
0.7855517902
 40
0.8569465865
 40
0.9285929944
 40
1.0
 40
1.0
 40
1.0
 40
1.0
 10
6.0001759032
 20
3.1499381536
 30
0.0
 10
5.9998311333
 20
3.1496283277
 30
0.0
 10
5.999087945
 20
3.1490519719
 30
0.0
 10
5.9978514072
 20
3.1483400424
 30
0.0
 10
5.9964980861
 20
3.1477804903
 30
0.0
 10
5.9950426863
 20
3.1473811773
 30
0.0
 10
5.9935001409
 20
3.1471497362
 30
0.0
 10
5.9918870041
 20
3.1470849691
 30
0.0
 10
5.9902187478
 20
3.1471857241
 30
0.0
 10
5.9885109891
 20
3.1474510651
 30
0.0
 10
5.9867801098
 20
3.1478798628
 30
0.0
 10
5.9850420711
 20
3.1484662524
 30
0.0
 10
5.9833130646
 20
3.1492045653
 30
0.0
 10
5.98160973
 20
3.1500890403
 30
0.0
 10
5.9799502276
 20
3.151112756
 30
0.0
 10
5.9783507176
 20
3.1522619297
 30
0.0
 10
5.9768285933
 20
3.1535224163
 30
0.0
 10
5.9758731932
 20
3.1544312446
 30
0.0
 10
5.9754131325
 20
3.1549010844
 30
0.0
 11
6.0001759032
 21
3.1499381536
 31
0.0
 11
5.9990783157
 21
3.1490843229
 31
0.0
 11
5.9978490174
 21
3.1483737802
 31
0.0
 11
5.9965025094
 21
3.1478144964
 31
0.0
 11
5.9950532931
 21
3.1474144424
 31
0.0
 11
5.9935161055
 21
3.1471801345
 31
0.0
 11
5.9919066266
 21
3.1471122691
 31
0.0
 11
5.9902407723
 21
3.1472100882
 31
0.0
 11
5.9885344587
 21
3.1474728337
 31
0.0
 11
5.9868037244
 21
3.1478989128
 31
0.0
 11
5.9850651004
 21
3.1484833932
 31
0.0
 11
5.9833352405
 21
3.149220508
 31
0.0
 11
5.9816307985
 21
3.1501044903
 31
0.0
 11
5.9799686289
 21
3.1511281252
 31
0.0
 11
5.9783663892
 21
3.1522784058
 31
0.0
 11
5.9768419377
 21
3.1535408771
 31
0.0
 11
5.9754131325
 21
3.1549010844
 31
0.0
  0
LINE
  5
427
100
AcDbEntity
  8
0
100
AcDbLine
 62
9
  6
CONTINUOUS
 10
6.1257268439
 20
3.3056948037
 11
6.1301916493
 21
3.3096796052
  0
LINE
  5
428
100
AcDbEntity
  8
0
100
AcDbLine
 62
6
  6
CONTINUOUS
 10
9.1901580545
 20
1.4674964394
 11
9.1886675455
 21
1.4868538147
  0
LINE
  5
429
100
AcDbEntity
  8
0
100
AcDbLine
 62
6
  6
CONTINUOUS
 10
9.144921349
 20
1.4868538147
 11
9.1464118579
 21
1.4674964394
  0
SPLINE
  5
42A
100
AcDbEntity
  8
0
100
AcDbSpline
 62
6
  6
CONTINUOUS
 70
0
 71
3
 72
43
 73
39
 74
37
 42
0.0000001
 43
0.0000001
 44
0.0000000001
 12
-0.1620300101
 22
-0.1620300101
 32
0.0
 13
0.1200039407
 23
-0.195208869
 33
0.0
 40
0.0
 40
0.0
 40
0.0
 40
0.0
 40
0.0096610873
 40
0.0194317359
 40
0.0293958543
 40
0.0396250775
 40
0.0501785076
 40
0.0610955128
 40
0.0723964004
 40
0.0840891492
 40
0.0961731935
 40
0.108636588
 40
0.1214581786
 40
0.1346177909
 40
0.1480992512
 40
0.1618823088
 40
0.175942899
 40
0.1902568801
 40
0.2195816593
 40
0.2497310447
 40
0.2805748395
 40
0.3120257933
 40
0.3440006172
 40
0.376424766
 40
0.4092487836
 40
0.44242336
 40
0.5096579085
 40
0.54366088
 40
0.5778824667
 40
0.6123017827
 40
0.646902286
 40
0.6816669638
 40
0.7165793221
 40
0.7516279272
 40
0.7868029292
 40
0.8220942417
 40
0.857491776
 40
1.0
 40
1.0
 40
1.0
 40
1.0
 10
6.4889441101
 20
3.1788840163
 30
0.0
 10
6.4884223147
 20
3.1783622209
 30
0.0
 10
6.4874353576
 20
3.1772481379
 30
0.0
 10
6.4861497741
 20
3.1754017081
 30
0.0
 10
6.4850557773
 20
3.1733862489
 30
0.0
 10
6.4841558204
 20
3.1712128188
 30
0.0
 10
6.4834437699
 20
3.1688952721
 30
0.0
 10
6.4829111273
 20
3.166446811
 30
0.0
 10
6.4825502511
 20
3.1638797801
 30
0.0
 10
6.4823527003
 20
3.1612060823
 30
0.0
 10
6.4823081748
 20
3.158437014
 30
0.0
 10
6.4824067583
 20
3.1555833416
 30
0.0
 10
6.4826384723
 20
3.1526551828
 30
0.0
 10
6.482994265
 20
3.1496613369
 30
0.0
 10
6.4834657903
 20
3.1466093242
 30
0.0
 10
6.4840446193
 20
3.1435059118
 30
0.0
 10
6.4847223951
 20
3.1403576017
 30
0.0
 10
6.4857557646
 20
3.1360729152
 30
0.0
 10
6.4872619366
 20
3.1306400079
 30
0.0
 10
6.4893482436
 20
3.1240631704
 30
0.0
 10
6.491685665
 20
3.1173992501
 30
0.0
 10
6.4942449351
 20
3.1106682209
 30
0.0
 10
6.4969976356
 20
3.1038837046
 30
0.0
 10
6.4999192995
 20
3.097056119
 30
0.0
 10
6.5029927839
 20
3.0901950526
 30
0.0
 10
6.5072895361
 20
3.0809697533
 30
0.0
 10
6.5118045384
 20
3.07174796
 30
0.0
 10
6.5164999158
 20
3.0625280191
 30
0.0
 10
6.5201233617
 20
3.0555753306
 30
0.0
 10
6.5238277819
 20
3.0486137437
 30
0.0
 10
6.5276069115
 20
3.0416452116
 30
0.0
 10
6.5314545086
 20
3.0346712228
 30
0.0
 10
6.5353645401
 20
3.0276927967
 30
0.0
 10
6.539332684
 20
3.020711185
 30
0.0
 10
6.5433550091
 20
3.0137272338
 30
0.0
 10
6.5474276573
 20
3.006741641
 30
0.0
 10
6.5556979666
 20
2.9927137044
 30
0.0
 10
6.5627333418
 20
2.9810869903
 30
0.0
 10
6.568433858
 20
2.9718140338
 30
0.0
 11
6.4889441101
 21
3.1788840163
 31
0.0
 11
6.4874748217
 21
3.1772281
 31
0.0
 11
6.4861931765
 21
3.1753923333
 31
0.0
 11
6.485101055
 21
3.1733872393
 31
0.0
 11
6.4841995848
 21
3.1712235448
 31
0.0
 11
6.4834841455
 21
3.1689135323
 31
0.0
 11
6.482947467
 21
3.1664702013
 31
0.0
 11
6.4825822485
 21
3.1639065428
 31
0.0
 11
6.482380223
 21
3.1612348348
 31
0.0
 11
6.4823316427
 21
3.1584662622
 31
0.0
 11
6.4824266341
 21
3.1556119174
 31
0.0
 11
6.4826553458
 21
3.1526828292
 31
0.0
 11
6.4830085795
 21
3.1496881299
 31
0.0
 11
6.4834778863
 21
3.1466347763
 31
0.0
 11
6.4840548585
 21
3.1435296059
 31
0.0
 11
6.4847310884
 21
3.1403794557
 31
0.0
 11
6.4854986778
 21
3.1371905593
 31
0.0
 11
6.487283963
 21
3.1307124305
 31
0.0
 11
6.4893647679
 21
3.1241246572
 31
0.0
 11
6.4916987753
 21
3.1174534633
 31
0.0
 11
6.4942552047
 21
3.1107152835
 31
0.0
 11
6.497005883
 21
3.1039243465
 31
0.0
 11
6.4999262351
 21
3.0970925122
 31
0.0
 11
6.502998529
 21
3.0902271366
 31
0.0
 11
6.5062058031
 21
3.0833350689
 31
0.0
 11
6.5129686767
 21
3.0694922857
 31
0.0
 11
6.5165031578
 21
3.0625484637
 31
0.0
 11
6.5201262774
 21
3.0555939422
 31
0.0
 11
6.5238304138
 21
3.0486308691
 31
0.0
 11
6.5276092942
 21
3.0416608111
 31
0.0
 11
6.5314566619
 21
3.0346853282
 31
0.0
 11
6.5353665444
 21
3.0277058786
 31
0.0
 11
6.5393345246
 21
3.0207233625
 31
0.0
 11
6.5433567156
 21
3.0137384906
 31
0.0
 11
6.5474292307
 21
3.0067519731
 31
0.0
 11
6.5515482526
 21
2.9997645039
 31
0.0
 11
6.568433858
 21
2.9718140338
 31
0.0
  0
LINE
  5
42B
100
AcDbEntity
  8
0
100
AcDbLine
 62
6
  6
CONTINUOUS
 10
9.1401578439
 20
1.4674991872
 11
9.1386668961
 21
1.486862248
  0
SPLINE
  5
42C
100
AcDbEntity
  8
0
100
AcDbSpline
 62
6
  6
CONTINUOUS
 70
0
 71
3
 72
46
 73
42
 74
40
 42
0.0000001
 43
0.0000001
 44
0.0000000001
 12
-0.2000681754
 22
-0.2000681754
 32
0.0
 13
0.0944049352
 23
-0.2667250604
 33
0.0
 40
0.0
 40
0.0
 40
0.0
 40
0.0
 40
0.0156274754
 40
0.0312705839
 40
0.0469187132
 40
0.0625608084
 40
0.0781991665
 40
0.0938377518
 40
0.1094742998
 40
0.1251078455
 40
0.156374735
 40
0.1720099553
 40
0.1876405842
 40
0.2032710617
 40
0.2189029305
 40
0.2345344104
 40
0.2501624272
 40
0.2657888895
 40
0.2814158264
 40
0.3126691898
 40
0.343916988
 40
0.3751645306
 40
0.3907891616
 40
0.4064129423
 40
0.4376572229
 40
0.4689017342
 40
0.5001463676
 40
0.5313889111
 40
0.5626312546
 40
0.5938740319
 40
0.6251158765
 40
0.6563569501
 40
0.6875982209
 40
0.7188395454
 40
0.7500800876
 40
0.8125599737
 40
0.8438006267
 40
0.8750411143
 40
0.906281354
 40
0.9375214555
 40
1.0
 40
1.0
 40
1.0
 40
1.0
 10
6.2975766523
 20
2.987516058
 30
0.0
 10
6.2965344654
 20
2.9864738712
 30
0.0
 10
6.2945113521
 20
2.9843251232
 30
0.0
 10
6.2916709377
 20
2.9809289592
 30
0.0
 10
6.2890297903
 20
2.9773737607
 30
0.0
 10
6.2865958755
 20
2.9736743264
 30
0.0
 10
6.2843684414
 20
2.9698483064
 30
0.0
 10
6.2823428205
 20
2.9659125607
 30
0.0
 10
6.2805143145
 20
2.9618820535
 30
0.0
 10
6.2783312995
 20
2.9564010489
 30
0.0
 10
6.2765117097
 20
2.9507824511
 30
0.0
 10
6.2750190277
 20
2.94507596
 30
0.0
 10
6.2740529503
 20
2.9407588168
 30
0.0
 10
6.2732318402
 20
2.9364123366
 30
0.0
 10
6.2725463854
 20
2.9320423999
 30
0.0
 10
6.2719873863
 20
2.9276548355
 30
0.0
 10
6.2715455195
 20
2.9232545208
 30
0.0
 10
6.2712141853
 20
2.9188449752
 30
0.0
 10
6.2709108781
 20
2.9129571291
 30
0.0
 10
6.2707745223
 20
2.9055876051
 30
0.0
 10
6.2709458852
 20
2.8967457778
 30
0.0
 10
6.2713387385
 20
2.8893871599
 30
0.0
 10
6.2717855438
 20
2.8835097783
 30
0.0
 10
6.272314699
 20
2.8776395339
 30
0.0
 10
6.2731216057
 20
2.8703159554
 30
0.0
 10
6.2743010567
 20
2.861553955
 30
0.0
 10
6.2756694286
 20
2.8528197601
 30
0.0
 10
6.2772058213
 20
2.8441138747
 30
0.0
 10
6.2788969043
 20
2.8354369589
 30
0.0
 10
6.2807290112
 20
2.8267888694
 30
0.0
 10
6.2826881293
 20
2.8181688486
 30
0.0
 10
6.2847641913
 20
2.8095764283
 30
0.0
 10
6.286948882
 20
2.8010110722
 30
0.0
 10
6.2892335949
 20
2.7924719306
 30
0.0
 10
6.2924016502
 20
2.7811200107
 30
0.0
 10
6.2957408938
 20
2.7698166303
 30
0.0
 10
6.2992293849
 20
2.7585592118
 30
0.0
 10
6.301914848
 20
2.7501377728
 30
0.0
 10
6.3046651851
 20
2.7417373693
 30
0.0
 10
6.3084141243
 20
2.7305642127
 30
0.0
 10
6.3113125821
 20
2.7222137168
 30
0.0
 10
6.3132786764
 20
2.7166588523
 30
0.0
 11
6.2975766523
 21
2.987516058
 31
0.0
 11
6.2945448365
 21
2.9842975406
 31
0.0
 11
6.2917045921
 21
2.9809029997
 31
0.0
 11
6.2890639632
 21
2.9773491916
 31
0.0
 11
6.286630022
 21
2.973652803
 31
0.0
 11
6.2844020447
 21
2.9698299615
 31
0.0
 11
6.2823755575
 21
2.9658965255
 31
0.0
 11
6.2805460408
 21
2.9618683328
 31
0.0
 11
6.2789073027
 21
2.9577597454
 31
0.0
 11
6.2761658162
 21
2.9493486188
 31
0.0
 11
6.2750444865
 21
2.9450692773
 31
0.0
 11
6.2740770965
 21
2.940753862
 31
0.0
 11
6.2732544741
 21
2.9364085697
 31
0.0
 11
6.2725674518
 21
2.9320393872
 31
0.0
 11
6.272006862
 21
2.9276523015
 31
0.0
 11
6.2715639218
 21
2.9232527652
 31
0.0
 11
6.2712314955
 21
2.9188439423
 31
0.0
 11
6.2710028886
 21
2.9144283843
 31
0.0
 11
6.2708303546
 21
2.9055872683
 31
0.0
 11
6.2709958972
 21
2.8967475935
 31
0.0
 11
6.2714614765
 21
2.8879187084
 31
0.0
 11
6.2717958477
 21
2.8835105522
 31
0.0
 11
6.2721921336
 21
2.8791077719
 31
0.0
 11
6.2731567996
 21
2.8703203333
 31
0.0
 11
6.2743325462
 21
2.8615585737
 31
0.0
 11
6.2756974701
 21
2.8528242503
 31
0.0
 11
6.2772316115
 21
2.8441186557
 31
0.0
 11
6.2789204024
 21
2.8354417926
 31
0.0
 11
6.280750203
 21
2.8267934421
 31
0.0
 11
6.2827076418
 21
2.8181733548
 31
0.0
 11
6.2847822935
 21
2.8095809491
 31
0.0
 11
6.2869655533
 21
2.8010154382
 31
0.0
 11
6.2892488434
 21
2.7924760321
 31
0.0
 11
6.2916239316
 21
2.7839619312
 31
0.0
 11
6.2966254258
 21
2.7670061978
 31
0.0
 11
6.2992409026
 21
2.7585628103
 31
0.0
 11
6.3019256702
 21
2.7501412483
 31
0.0
 11
6.3046754253
 21
2.7417407548
 31
0.0
 11
6.3074865692
 21
2.733360646
 31
0.0
 11
6.3132786764
 21
2.7166588523
 31
0.0
  0
SPLINE
  5
42D
100
AcDbEntity
  8
0
100
AcDbSpline
 62
6
  6
CONTINUOUS
 70
0
 71
3
 72
46
 73
42
 74
40
 42
0.0000001
 43
0.0000001
 44
0.0000000001
 12
-0.2667250611
 22
0.0944049354
 32
0.0
 13
-0.200068176
 23
-0.200068176
 33
0.0
 40
0.0
 40
0.0
 40
0.0
 40
0.0
 40
0.0624785146
 40
0.0937185989
 40
0.1249588211
 40
0.1561992911
 40
0.1874399223
 40
0.2499197672
 40
0.2811602995
 40
0.3124016056
 40
0.3436428499
 40
0.3748839046
 40
0.4061257466
 40
0.4373684977
 40
0.4686108096
 40
0.4998533509
 40
0.5310979788
 40
0.562342449
 40
0.5935867313
 40
0.6092105376
 40
0.6248351648
 40
0.6560826694
 40
0.6873305093
 40
0.718583897
 40
0.734210819
 40
0.7498372864
 40
0.7654653538
 40
0.7810968802
 40
0.7967287585
 40
0.8123592436
 40
0.8279899121
 40
0.8436252162
 40
0.8748922181
 40
0.8905257901
 40
0.9061623535
 40
0.9218009534
 40
0.9374393108
 40
0.9530813728
 40
0.9687294603
 40
0.984372539
 40
1.0
 40
1.0
 40
1.0
 40
1.0
 10
6.568433858
 20
2.9718140338
 30
0.0
 10
6.5628789961
 20
2.9737801272
 30
0.0
 10
6.5545285038
 20
2.9766785819
 30
0.0
 10
6.5433553527
 20
2.9804275183
 30
0.0
 10
6.534954954
 20
2.9831778544
 30
0.0
 10
6.5265335217
 20
2.985863321
 30
0.0
 10
6.5152761096
 20
2.9893518073
 30
0.0
 10
6.503972733
 20
2.992691039
 30
0.0
 10
6.4926208236
 20
2.9958591077
 30
0.0
 10
6.4840816871
 20
2.9981438202
 30
0.0
 10
6.4755163346
 20
3.0003285006
 30
0.0
 10
6.4669239174
 20
3.0024045558
 30
0.0
 10
6.4583039064
 20
3.0043636964
 30
0.0
 10
6.4496558209
 20
3.0061957961
 30
0.0
 10
6.4409789074
 20
3.0078868611
 30
0.0
 10
6.4322730281
 20
3.0094232658
 30
0.0
 10
6.4235388409
 20
3.0107916588
 30
0.0
 10
6.4147768409
 20
3.0119710824
 30
0.0
 10
6.4074532638
 20
3.0127779861
 30
0.0
 10
6.4015830201
 20
3.0133071743
 30
0.0
 10
6.39570564
 20
3.0137539814
 30
0.0
 10
6.3883470207
 20
3.0141468074
 30
0.0
 10
6.3795051917
 20
3.014318188
 30
0.0
 10
6.372135662
 20
3.0141818509
 30
0.0
 10
6.3662478152
 20
3.0138785291
 30
0.0
 10
6.3618382664
 20
3.0135471877
 30
0.0
 10
6.3574379411
 20
3.0131053306
 30
0.0
 10
6.3530503649
 20
3.0125463445
 30
0.0
 10
6.3486804221
 20
3.0118608886
 30
0.0
 10
6.3443339375
 20
3.0110397731
 30
0.0
 10
6.3400167834
 20
3.0100736878
 30
0.0
 10
6.3343102704
 20
3.0085810022
 30
0.0
 10
6.3286916519
 20
3.0067614076
 30
0.0
 10
6.3232106338
 20
3.0045783871
 30
0.0
 10
6.3191801227
 20
3.0027498765
 30
0.0
 10
6.3152443768
 20
3.0007242499
 30
0.0
 10
6.3114183599
 20
2.9984968144
 30
0.0
 10
6.3077189277
 20
2.9960629095
 30
0.0
 10
6.3041637366
 20
2.9934217684
 30
0.0
 10
6.3007675816
 20
2.9905813558
 30
0.0
 10
6.2986188381
 20
2.9885582439
 30
0.0
 10
6.2975766523
 20
2.987516058
 30
0.0
 11
6.568433858
 21
2.9718140338
 31
0.0
 11
6.5517320716
 21
2.9776061365
 31
0.0
 11
6.5433519672
 21
2.9804172782
 31
0.0
 11
6.5349514788
 21
2.983167033
 31
0.0
 11
6.5265299225
 21
2.9858518023
 31
0.0
 11
6.5180865404
 21
2.9884672759
 31
0.0
 11
6.5011308169
 21
2.9934687627
 31
0.0
 11
6.4926167209
 21
2.9958438576
 31
0.0
 11
6.4840773201
 21
2.9981271475
 31
0.0
 11
6.4755118146
 21
3.0003103987
 31
0.0
 11
6.4669194138
 21
3.0023850478
 31
0.0
 11
6.4582993303
 21
3.0043425002
 31
0.0
 11
6.4496509864
 21
3.0061722963
 31
0.0
 11
6.4409741301
 21
3.0078610754
 31
0.0
 11
6.4322685377
 21
3.0093952259
 31
0.0
 11
6.4235342177
 21
3.0107601617
 31
0.0
 11
6.4147724676
 21
3.0119358919
 31
0.0
 11
6.405985029
 21
3.0129005623
 31
0.0
 11
6.401582243
 21
3.0132968667
 31
0.0
 11
6.3971740882
 21
3.0136312412
 31
0.0
 11
6.388345213
 21
3.0140968035
 31
0.0
 11
6.3795055265
 21
3.0142623565
 31
0.0
 11
6.3706644034
 21
3.0140898341
 31
0.0
 11
6.36624885
 21
3.0138612197
 31
0.0
 11
6.361840026
 21
3.0135287887
 31
0.0
 11
6.3574404746
 21
3.0130858554
 31
0.0
 11
6.3530533744
 21
3.0125252752
 31
0.0
 11
6.348684189
 21
3.011838254
 31
0.0
 11
6.3443388953
 21
3.0110156274
 31
0.0
 11
6.3400234699
 21
3.0100482311
 31
0.0
 11
6.3357441054
 21
3.0089268956
 31
0.0
 11
6.3273329479
 21
3.0061854012
 31
0.0
 11
6.3232243537
 21
3.00454666
 31
0.0
 11
6.3191961581
 21
3.0027171391
 31
0.0
 11
6.3152627204
 21
3.0006906462
 31
0.0
 11
6.3114398798
 21
2.9984626677
 31
0.0
 11
6.3077434967
 21
2.9960287353
 31
0.0
 11
6.3041896975
 21
2.9933881141
 31
0.0
 11
6.3007951651
 21
2.9905478727
 31
0.0
 11
6.2975766523
 21
2.987516058
 31
0.0
  0
SPLINE
  5
42E
100
AcDbEntity
  8
0
100
AcDbSpline
 62
6
  6
CONTINUOUS
 70
0
 71
3
 72
43
 73
39
 74
37
 42
0.0000001
 43
0.0000001
 44
0.0000000001
 12
-0.1620286567
 22
-0.1620286567
 32
0.0
 13
0.1200029384
 23
-0.1952072385
 33
0.0
 40
0.0
 40
0.0
 40
0.0
 40
0.0
 40
0.0096610457
 40
0.0194317058
 40
0.0293959128
 40
0.0396252974
 40
0.0501789485
 40
0.0610962107
 40
0.07239736
 40
0.0840903543
 40
0.0961746213
 40
0.108638214
 40
0.1214599804
 40
0.1346197555
 40
0.1481013637
 40
0.1618845506
 40
0.1759452481
 40
0.1902593178
 40
0.2195842308
 40
0.2497336917
 40
0.2805775185
 40
0.312028472
 40
0.3440032636
 40
0.3764273569
 40
0.4092513001
 40
0.4424257843
 40
0.5096601116
 40
0.5436629575
 40
0.5778844099
 40
0.6123035853
 40
0.6469039423
 40
0.6816684685
 40
0.7165806707
 40
0.7516291163
 40
0.7868039555
 40
0.8220951024
 40
0.8574924684
 40
1.0
 40
1.0
 40
1.0
 40
1.0
 10
6.1062102661
 20
2.7961496718
 30
0.0
 10
6.1056884774
 20
2.7956278831
 30
0.0
 10
6.1047015501
 20
2.7945137901
 30
0.0
 10
6.1034160627
 20
2.7926673087
 30
0.0
 10
6.1023221982
 20
2.7906517755
 30
0.0
 10
6.1014223932
 20
2.7884782646
 30
0.0
 10
6.1007104981
 20
2.7861606406
 30
0.0
 10
6.1001780081
 20
2.7837121102
 30
0.0
 10
6.0998172727
 20
2.781145023
 30
0.0
 10
6.0996198448
 20
2.7784712831
 30
0.0
 10
6.0995754277
 20
2.7757021856
 30
0.0
 10
6.0996741072
 20
2.772848495
 30
0.0
 10
6.0999059073
 20
2.7699203267
 30
0.0
 10
6.1002617783
 20
2.7669264781
 30
0.0
 10
6.1007333737
 20
2.7638744684
 30
0.0
 10
6.1013122648
 20
2.7607710647
 30
0.0
 10
6.1019900944
 20
2.7576227683
 30
0.0
 10
6.103023526
 20
2.7533381089
 30
0.0
 10
6.10452976
 20
2.7479052442
 30
0.0
 10
6.1066161195
 20
2.7413284646
 30
0.0
 10
6.1089535769
 20
2.7346646109
 30
0.0
 10
6.1115128696
 20
2.7279336548
 30
0.0
 10
6.11426558
 20
2.7211492159
 30
0.0
 10
6.1171872446
 20
2.7143217115
 30
0.0
 10
6.1202607214
 20
2.7074607291
 30
0.0
 10
6.1245574528
 20
2.6982355467
 30
0.0
 10
6.1290724237
 20
2.6890138709
 30
0.0
 10
6.1337677617
 20
2.6797940482
 30
0.0
 10
6.1373911735
 20
2.6728414502
 30
0.0
 10
6.1410955563
 20
2.6658799545
 30
0.0
 10
6.1448746458
 20
2.658911514
 30
0.0
 10
6.1487222
 20
2.6519376171
 30
0.0
 10
6.1526321863
 20
2.6449592833
 30
0.0
 10
6.1566002831
 20
2.637977764
 30
0.0
 10
6.1606225593
 20
2.6309939053
 30
0.0
 10
6.164695157
 20
2.6240084052
 30
0.0
 10
6.1729653613
 20
2.6099806556
 30
0.0
 10
6.1800006448
 20
2.5983540954
 30
0.0
 10
6.1857010857
 20
2.5890812615
 30
0.0
 11
6.1062102661
 21
2.7961496718
 31
0.0
 11
6.1047410256
 21
2.7944937506
 31
0.0
 11
6.1034594744
 21
2.7926579379
 31
0.0
 11
6.1023674807
 21
2.7906527728
 31
0.0
 11
6.1014661579
 21
2.7884889981
 31
0.0
 11
6.1007508714
 21
2.7861789064
 31
0.0
 11
6.1002143432
 21
2.7837355035
 31
0.0
 11
6.0998492646
 21
2.7811717863
 31
0.0
 11
6.099647363
 21
2.778500035
 31
0.0
 11
6.099598892
 21
2.7757314326
 31
0.0
 11
6.0996939802
 21
2.7728770694
 31
0.0
 11
6.0999227786
 21
2.7699479722
 31
0.0
 11
6.1002760908
 21
2.7669532699
 31
0.0
 11
6.100745468
 21
2.763899919
 31
0.0
 11
6.1013225025
 21
2.7607947568
 31
0.0
 11
6.1019987865
 21
2.7576446207
 31
0.0
 11
6.1027664229
 21
2.7544557428
 31
0.0
 11
6.1045517837
 21
2.7479776613
 31
0.0
 11
6.1066326422
 21
2.7413899473
 31
0.0
 11
6.108966686
 21
2.7347188209
 31
0.0
 11
6.1115231383
 21
2.7279807142
 31
0.0
 11
6.1142738268
 21
2.7211898554
 31
0.0
 11
6.1171941796
 21
2.7143581027
 31
0.0
 11
6.120266466
 21
2.7074928113
 31
0.0
 11
6.1234737254
 21
2.70060083
 31
0.0
 11
6.1302365526
 21
2.6867582238
 31
0.0
 11
6.1337710035
 21
2.6798144918
 31
0.0
 11
6.137394089
 21
2.6728600611
 31
0.0
 11
6.1410981881
 21
2.6658970792
 31
0.0
 11
6.1448770283
 21
2.6589271129
 31
0.0
 11
6.1487243532
 21
2.6519517221
 31
0.0
 11
6.1526341906
 21
2.6449723647
 31
0.0
 11
6.1566021237
 21
2.6379899411
 31
0.0
 11
6.1606242658
 21
2.6310051617
 31
0.0
 11
6.1646967303
 21
2.6240187369
 31
0.0
 11
6.1688157002
 21
2.6170313604
 31
0.0
 11
6.1857010857
 21
2.5890812615
 31
0.0
  0
SPLINE
  5
42F
100
AcDbEntity
  8
0
100
AcDbSpline
 62
6
  6
CONTINUOUS
 70
0
 71
3
 72
43
 73
39
 74
37
 42
0.0000001
 43
0.0000001
 44
0.0000000001
 12
-0.1952072332
 22
0.1200029351
 32
0.0
 13
-0.1620286523
 23
-0.1620286523
 33
0.0
 40
0.0
 40
0.0
 40
0.0
 40
0.0
 40
0.1425072817
 40
0.1779045923
 40
0.2131956628
 40
0.248370417
 40
0.2834187943
 40
0.3183309687
 40
0.3530954288
 40
0.3876956772
 40
0.4221147776
 40
0.4563362421
 40
0.4903389819
 40
0.5575731675
 40
0.5907476606
 40
0.6235713951
 40
0.6559954751
 40
0.6879703733
 40
0.719421056
 40
0.7502650137
 40
0.7804145058
 40
0.8097391715
 40
0.8240534467
 40
0.8381143197
 40
0.8518973905
 40
0.865378844
 40
0.87853867
 40
0.8913607644
 40
0.903824455
 40
0.9159086902
 40
0.9276017119
 40
0.9389030561
 40
0.9498205029
 40
0.9603743071
 40
0.9706038489
 40
0.9805682024
 40
0.9903389432
 40
1.0
 40
1.0
 40
1.0
 40
1.0
 10
6.3132786764
 20
2.7166588523
 30
0.0
 10
6.304005859
 20
2.722359283
 30
0.0
 10
6.2923793156
 20
2.7293945482
 30
0.0
 10
6.2783515968
 20
2.7376647465
 30
0.0
 10
6.2713661102
 20
2.741737334
 30
0.0
 10
6.2643822649
 20
2.7457595978
 30
0.0
 10
6.2574007565
 20
2.7497276854
 30
0.0
 10
6.2504224398
 20
2.7536376766
 30
0.0
 10
6.2434485572
 20
2.7574852242
 30
0.0
 10
6.2364801291
 20
2.7612642961
 30
0.0
 10
6.2295186422
 20
2.764968667
 30
0.0
 10
6.2225660697
 20
2.7685920992
 30
0.0
 10
6.2133462569
 20
2.773287417
 30
0.0
 10
6.2041245926
 20
2.7778023677
 30
0.0
 10
6.1948994543
 20
2.7820991319
 30
0.0
 10
6.1880384699
 20
2.7851725645
 30
0.0
 10
6.1812109765
 20
2.7880942299
 30
0.0
 10
6.1744265753
 20
2.7908469983
 30
0.0
 10
6.167695597
 20
2.7934062254
 30
0.0
 10
6.1610317662
 20
2.795743719
 30
0.0
 10
6.1544550061
 20
2.7978301227
 30
0.0
 10
6.1490221246
 20
2.7993362905
 30
0.0
 10
6.144737467
 20
2.8003697704
 30
0.0
 10
6.1415891604
 20
2.8010476495
 30
0.0
 10
6.1384857625
 20
2.8016265335
 30
0.0
 10
6.1354337668
 20
2.8020981096
 30
0.0
 10
6.1324399005
 20
2.8024539718
 30
0.0
 10
6.1295116994
 20
2.802685814
 30
0.0
 10
6.1266579796
 20
2.8027845255
 30
0.0
 10
6.1238888745
 20
2.8027401244
 30
0.0
 10
6.1212151201
 20
2.8025426882
 30
0.0
 10
6.1186480049
 20
2.8021819333
 30
0.0
 10
6.1161994288
 20
2.8016494683
 30
0.0
 10
6.1138817571
 20
2.8009375942
 30
0.0
 10
6.1117082245
 20
2.8000377482
 30
0.0
 10
6.1096926697
 20
2.7989438651
 30
0.0
 10
6.1078461611
 20
2.7976583858
 30
0.0
 10
6.1067320555
 20
2.7966714612
 30
0.0
 10
6.1062102661
 20
2.7961496718
 30
0.0
 11
6.3132786764
 21
2.7166588523
 31
0.0
 11
6.2853286268
 21
2.7335442067
 31
0.0
 11
6.2783412631
 21
2.737663173
 31
0.0
 11
6.271354853
 21
2.7417356276
 31
0.0
 11
6.264370089
 21
2.7457577568
 31
0.0
 11
6.257387679
 21
2.7497256819
 31
0.0
 11
6.2504083314
 21
2.7536355231
 31
0.0
 11
6.2434329546
 21
2.7574828417
 31
0.0
 11
6.2364630069
 21
2.7612616636
 31
0.0
 11
6.2295000401
 21
2.7649657537
 31
0.0
 11
6.222545615
 21
2.7685888556
 31
0.0
 11
6.2156019032
 21
2.7721232923
 31
0.0
 11
6.201759327
 21
2.778886106
 31
0.0
 11
6.1948673517
 21
2.7820933824
 31
0.0
 11
6.1880020956
 21
2.7851656304
 31
0.0
 11
6.1811703493
 21
2.7880859896
 31
0.0
 11
6.1743794808
 21
2.7908367189
 31
0.0
 11
6.1676414224
 21
2.793393123
 31
0.0
 11
6.1609702762
 21
2.7957272003
 31
0.0
 11
6.1543825628
 21
2.7978080841
 31
0.0
 11
6.1479045293
 21
2.7995934051
 31
0.0
 11
6.1447156126
 21
2.8003610808
 31
0.0
 11
6.1415654447
 21
2.8010374079
 31
0.0
 11
6.1384603088
 21
2.8016144379
 31
0.0
 11
6.1354069909
 21
2.8020837959
 31
0.0
 11
6.1324122768
 21
2.8024371067
 31
0.0
 11
6.129483107
 21
2.8026659407
 31
0.0
 11
6.1266287225
 21
2.8027610591
 31
0.0
 11
6.1238601272
 21
2.8027126026
 31
0.0
 11
6.12118837
 21
2.8025106959
 31
0.0
 11
6.1186246095
 21
2.8021456058
 31
0.0
 11
6.1161811597
 21
2.8016090941
 31
0.0
 11
6.1138710278
 21
2.8008938192
 31
0.0
 11
6.1117072257
 21
2.7999924684
 31
0.0
 11
6.1097020337
 21
2.7989004542
 31
0.0
 11
6.1078661967
 21
2.7976189057
 31
0.0
 11
6.1062102661
 21
2.7961496718
 31
0.0
  0
LINE
  5
430
100
AcDbEntity
  8
0
100
AcDbLine
 62
6
  6
CONTINUOUS
 10
9.0901576375
 20
1.4675018635
 11
9.0886668231
 21
1.4868632002
  0
SPLINE
  5
431
100
AcDbEntity
  8
0
100
AcDbSpline
 62
9
  6
CONTINUOUS
 70
0
 71
3
 72
28
 73
24
 74
22
 42
0.0000001
 43
0.0000001
 44
0.0000000001
 12
0.0361863689
 22
0.0067857492
 32
0.0
 13
0.0069014592
 23
0.036164479
 33
0.0
 40
0.0
 40
0.0
 40
0.0
 40
0.0
 40
0.0331932609
 40
0.0663647468
 40
0.0993035504
 40
0.1318843688
 40
0.1642531139
 40
0.1964515076
 40
0.228458271
 40
0.2603152434
 40
0.2920539726
 40
0.3236802584
 40
0.3551937647
 40
0.3866112093
 40
0.4491930714
 40
0.5114575046
 40
0.5734320356
 40
0.6351370377
 40
0.6965764222
 40
0.7577643703
 40
0.8187067732
 40
0.8794003983
 40
1.0
 40
1.0
 40
1.0
 40
1.0
 10
7.245109574
 20
1.6799805202
 30
0.0
 10
7.2455099552
 20
1.6800556006
 30
0.0
 10
7.2462993847
 20
1.6802701306
 30
0.0
 10
7.247423577
 20
1.6807482802
 30
0.0
 10
7.2484775076
 20
1.6813500619
 30
0.0
 10
7.2494559205
 20
1.6820501777
 30
0.0
 10
7.2503625241
 20
1.6828263402
 30
0.0
 10
7.2512069067
 20
1.6836590917
 30
0.0
 10
7.2519991718
 20
1.6845328276
 30
0.0
 10
7.2527423889
 20
1.6854412625
 30
0.0
 10
7.2534413043
 20
1.6863782413
 30
0.0
 10
7.2541009513
 20
1.6873380499
 30
0.0
 10
7.2547258483
 20
1.6883161097
 30
0.0
 10
7.2555142992
 20
1.6896396074
 30
0.0
 10
7.256424742
 20
1.6913285091
 30
0.0
 10
7.2574190099
 20
1.693395165
 30
0.0
 10
7.2583238723
 20
1.6954906995
 30
0.0
 10
7.2591483649
 20
1.6976081191
 30
0.0
 10
7.2599010246
 20
1.6997418239
 30
0.0
 10
7.2605852984
 20
1.7018885639
 30
0.0
 10
7.2612057014
 20
1.7040450832
 30
0.0
 10
7.2619506672
 20
1.7069232842
 30
0.0
 10
7.2624230782
 20
1.709098784
 30
0.0
 10
7.2627005159
 20
1.7105525913
 30
0.0
 11
7.245109574
 21
1.6799805202
 31
0.0
 11
7.246290105
 21
1.6802964728
 31
0.0
 11
7.2474155309
 21
1.6807707483
 31
0.0
 11
7.2484700057
 21
1.6813697076
 31
0.0
 11
7.2494472045
 21
1.6820653791
 31
0.0
 11
7.2503545591
 21
1.6828379804
 31
0.0
 11
7.2512005738
 21
1.6836683751
 31
0.0
 11
7.2519928136
 21
1.6845407136
 31
0.0
 11
7.2527363793
 21
1.6854477756
 31
0.0
 11
7.2534359723
 21
1.6863837393
 31
0.0
 11
7.2540962879
 21
1.687342793
 31
0.0
 11
7.2547213256
 21
1.6883202776
 31
0.0
 11
7.2553137462
 21
1.6893137521
 31
0.0
 11
7.2564107719
 21
1.6913399147
 31
0.0
 11
7.257406332
 21
1.6934048462
 31
0.0
 11
7.258312375
 21
1.6954989682
 31
0.0
 11
7.2591380866
 21
1.697615398
 31
0.0
 11
7.2598911058
 21
1.6997484005
 31
0.0
 11
7.2605759701
 21
1.7018945375
 31
0.0
 11
7.2611968339
 21
1.7040506503
 31
0.0
 11
7.261756892
 21
1.7062138911
 31
0.0
 11
7.2627005159
 21
1.7105525913
 31
0.0
  0
LINE
  5
432
100
AcDbEntity
  8
0
100
AcDbLine
 62
9
  6
CONTINUOUS
 10
7.0101826903
 20
1.9928725815
 11
7.0242067561
 21
1.9928501327
  0
SPLINE
  5
433
100
AcDbEntity
  8
0
100
AcDbSpline
 62
9
  6
CONTINUOUS
 70
0
 71
3
 72
28
 73
24
 74
22
 42
0.0000001
 43
0.0000001
 44
0.0000000001
 12
0.0068934192
 22
-0.0361534266
 32
0.0
 13
0.0362025929
 23
-0.0066303658
 33
0.0
 40
0.0
 40
0.0
 40
0.0
 40
0.0
 40
0.1206051101
 40
0.1812968318
 40
0.2422383123
 40
0.303427132
 40
0.3648689834
 40
0.4265776501
 40
0.4885553196
 40
0.5508201761
 40
0.6134012218
 40
0.6448206884
 40
0.676339315
 40
0.7079741609
 40
0.7397208561
 40
0.7715798374
 40
0.8035791793
 40
0.8680809968
 40
0.9006676478
 40
0.9171012326
 40
0.9336363312
 40
0.9668147925
 40
1.0
 40
1.0
 40
1.0
 40
1.0
 10
7.0111249127
 20
1.7105493506
 30
0.0
 10
7.0114020399
 20
1.7090959213
 30
0.0
 10
7.0118744555
 20
1.7069211277
 30
0.0
 10
7.0126196188
 20
1.7040439772
 30
0.0
 10
7.0132400341
 20
1.7018882714
 30
0.0
 10
7.0139242008
 20
1.6997422615
 30
0.0
 10
7.0146766577
 20
1.6976092006
 30
0.0
 10
7.0155008641
 20
1.6954923671
 30
0.0
 10
7.0164053657
 20
1.6933974158
 30
0.0
 10
7.0173992084
 20
1.6913313711
 30
0.0
 10
7.018309223
 20
1.6896429554
 30
0.0
 10
7.0190970345
 20
1.6883195913
 30
0.0
 10
7.0197213075
 20
1.6873413735
 30
0.0
 10
7.0203800584
 20
1.6863810976
 30
0.0
 10
7.0210779733
 20
1.6854436108
 30
0.0
 10
7.0218204934
 20
1.6845349286
 30
0.0
 10
7.0228786174
 20
1.683368334
 30
0.0
 10
7.0240435155
 20
1.6822861362
 30
0.0
 10
7.0251781159
 20
1.681474901
 30
0.0
 10
7.0258657078
 20
1.6810570539
 30
0.0
 10
7.0265809694
 20
1.6806730099
 30
0.0
 10
7.0275180256
 20
1.6802708672
 30
0.0
 10
7.0283075035
 20
1.6800566726
 30
0.0
 10
7.028707967
 20
1.6799833292
 30
0.0
 11
7.0111249127
 21
1.7105493506
 31
0.0
 11
7.0120683159
 21
1.7062119208
 31
0.0
 11
7.0126284622
 21
1.7040495503
 31
0.0
 11
7.0132493336
 21
1.7018942592
 31
0.0
 11
7.0139340948
 21
1.6997488496
 31
0.0
 11
7.014686916
 21
1.6976164865
 31
0.0
 11
7.015512354
 21
1.695500624
 31
0.0
 11
7.0164180515
 21
1.6934070615
 31
0.0
 11
7.0174131722
 21
1.6913427555
 31
0.0
 11
7.0185095627
 21
1.689317163
 31
0.0
 11
7.0191015026
 21
1.6883237675
 31
0.0
 11
7.0197258973
 21
1.6873461107
 31
0.0
 11
7.0203853831
 21
1.6863865785
 31
0.0
 11
7.0210841006
 21
1.6854500847
 31
0.0
 11
7.0218269828
 21
1.6845428763
 31
0.0
 11
7.0226189701
 21
1.683671212
 31
0.0
 11
7.0243731071
 21
1.6820716021
 31
0.0
 11
7.0253502636
 21
1.6813761956
 31
0.0
 11
7.0258673009
 21
1.6810623541
 31
0.0
 11
7.0264036988
 21
1.6807748913
 31
0.0
 11
7.0275277794
 21
1.6802978285
 31
0.0
 11
7.028707967
 21
1.6799833292
 31
0.0
  0
LINE
  5
434
100
AcDbEntity
  8
0
100
AcDbLine
 62
9
  6
CONTINUOUS
 10
7.337385435
 20
1.8128986177
 11
7.337819636
 21
1.8130178977
  0
LINE
  5
435
100
AcDbEntity
  8
0
100
AcDbLine
 62
9
  6
CONTINUOUS
 10
6.9360051671
 20
1.8130178976
 11
6.9364393348
 21
1.8128986242
  0
SPLINE
  5
436
100
AcDbEntity
  8
0
100
AcDbSpline
 62
9
  6
CONTINUOUS
 70
0
 71
3
 72
23
 73
19
 74
17
 42
0.0000001
 43
0.0000001
 44
0.0000000001
 12
-0.0238268934
 22
0.0046257254
 32
0.0
 13
-0.0079354672
 23
0.0229378845
 33
0.0
 40
0.0
 40
0.0
 40
0.0
 40
0.0
 40
0.0662583135
 40
0.1332797732
 40
0.200732848
 40
0.2682800856
 40
0.3355859696
 40
0.4023313053
 40
0.4682842427
 40
0.5332645851
 40
0.597098814
 40
0.6596259818
 40
0.7207051588
 40
0.780206902
 40
0.8379945407
 40
0.8939453496
 40
0.9479645116
 40
1.0
 40
1.0
 40
1.0
 40
1.0
 10
7.2813499414
 20
1.6966021833
 30
0.0
 10
7.2808236981
 20
1.6967043476
 30
0.0
 10
7.2797709598
 20
1.6969409823
 30
0.0
 10
7.2782080354
 20
1.6973851675
 30
0.0
 10
7.2766616795
 20
1.6979170888
 30
0.0
 10
7.2751441957
 20
1.6985326226
 30
0.0
 10
7.2736676795
 20
1.6992275717
 30
0.0
 10
7.272243977
 20
1.6999984979
 30
0.0
 10
7.2708828505
 20
1.700839958
 30
0.0
 10
7.2695922782
 20
1.701745718
 30
0.0
 10
7.2683800384
 20
1.7027100692
 30
0.0
 10
7.2672537918
 20
1.7037271802
 30
0.0
 10
7.2662215718
 20
1.7047914258
 30
0.0
 10
7.2652906923
 20
1.7058957459
 30
0.0
 10
7.2644662574
 20
1.7070308189
 30
0.0
 10
7.2637538004
 20
1.708187723
 30
0.0
 10
7.2631588685
 20
1.7093572812
 30
0.0
 10
7.2628382008
 20
1.7101547294
 30
0.0
 10
7.2627005588
 20
1.7105525907
 30
0.0
 11
7.2813499414
 21
1.6966021833
 31
0.0
 11
7.2797806973
 21
1.6969540333
 31
0.0
 11
7.2782157949
 21
1.6973982475
 31
0.0
 11
7.2766675728
 21
1.6979306455
 31
0.0
 11
7.2751483699
 21
1.6985470466
 31
0.0
 11
7.2736705247
 21
1.6992432701
 31
0.0
 11
7.2722461523
 21
1.7000150534
 31
0.0
 11
7.2708847691
 21
1.7008571793
 31
0.0
 11
7.2695942143
 21
1.7017638146
 31
0.0
 11
7.2683822997
 21
1.7027291161
 31
0.0
 11
7.2672568368
 21
1.7037472404
 31
0.0
 11
7.2662256232
 21
1.7048123233
 31
0.0
 11
7.2652956303
 21
1.7059172491
 31
0.0
 11
7.2644725477
 21
1.7070529616
 31
0.0
 11
7.2637619552
 21
1.708210238
 31
0.0
 11
7.2631694323
 21
1.7093798553
 31
0.0
 11
7.2627005588
 21
1.7105525907
 31
0.0
  0
LINE
  5
437
100
AcDbEntity
  8
0
100
AcDbLine
 62
6
  6
CONTINUOUS
 10
9.0401580937
 20
1.4674959737
 11
9.0386675631
 21
1.4868535037
  0
SPLINE
  5
438
100
AcDbEntity
  8
0
100
AcDbSpline
 62
9
  6
CONTINUOUS
 70
0
 71
3
 72
23
 73
19
 74
17
 42
0.0000001
 43
0.0000001
 44
0.0000000001
 12
0.0238268897
 22
0.0046258199
 32
0.0
 13
0.0079355274
 23
0.0229378789
 33
0.0
 40
0.0
 40
0.0
 40
0.0
 40
0.0
 40
0.0662583599
 40
0.1332798581
 40
0.2007329626
 40
0.2682802201
 40
0.335586113
 40
0.4023314455
 40
0.4682843699
 40
0.5332646927
 40
0.5970988983
 40
0.6596260416
 40
0.7207051942
 40
0.7802069151
 40
0.8379945365
 40
0.8939453361
 40
0.9479644991
 40
1.0
 40
1.0
 40
1.0
 40
1.0
 10
6.9924748617
 20
1.6966021368
 30
0.0
 10
6.9930011053
 20
1.6967043032
 30
0.0
 10
6.994053844
 20
1.6969409422
 30
0.0
 10
6.9956167686
 20
1.6973851335
 30
0.0
 10
6.9971631244
 20
1.6979170607
 30
0.0
 10
6.9986806075
 20
1.6985325999
 30
0.0
 10
7.0001571227
 20
1.6992275539
 30
0.0
 10
7.0015808238
 20
1.6999984845
 30
0.0
 10
7.0029419487
 20
1.7008399483
 30
0.0
 10
7.0042325194
 20
1.7017457115
 30
0.0
 10
7.0054447576
 20
1.7027100653
 30
0.0
 10
7.0065710028
 20
1.7037271782
 30
0.0
 10
7.0076032218
 20
1.7047914252
 30
0.0
 10
7.0085341009
 20
1.7058957462
 30
0.0
 10
7.0093585359
 20
1.7070308196
 30
0.0
 10
7.0100709937
 20
1.7081877238
 30
0.0
 10
7.0106659274
 20
1.709357282
 30
0.0
 10
7.0109865968
 20
1.7101547301
 30
0.0
 10
7.0111242399
 20
1.7105525915
 30
0.0
 11
6.9924748617
 21
1.6966021368
 31
0.0
 11
6.9940441066
 21
1.6969539931
 31
0.0
 11
6.9956090092
 21
1.6973982135
 31
0.0
 11
6.997157231
 21
1.6979306173
 31
0.0
 11
6.9986764333
 21
1.6985470238
 31
0.0
 11
7.0001542775
 21
1.6992432523
 31
0.0
 11
7.0015786485
 21
1.70001504
 31
0.0
 11
7.0029400302
 21
1.7008571696
 31
0.0
 11
7.0042305833
 21
1.7017638081
 31
0.0
 11
7.0054424963
 21
1.7027291121
 31
0.0
 11
7.0065679579
 21
1.7037472383
 31
0.0
 11
7.0075991704
 21
1.7048123227
 31
0.0
 11
7.0085291629
 21
1.7059172492
 31
0.0
 11
7.0093522457
 21
1.7070529622
 31
0.0
 11
7.0100628391
 21
1.7082102387
 31
0.0
 11
7.0106553637
 21
1.709379856
 31
0.0
 11
7.0111242399
 21
1.7105525915
 31
0.0
  0
SPLINE
  5
439
100
AcDbEntity
  8
0
100
AcDbSpline
 62
9
  6
CONTINUOUS
 70
0
 71
3
 72
22
 73
18
 74
16
 42
0.0000001
 43
0.0000001
 44
0.0000000001
 12
0.0318219567
 22
0.000165007
 32
0.0
 13
-0.0011189443
 23
0.0318027062
 33
0.0
 40
0.0
 40
0.0
 40
0.0
 40
0.0
 40
0.0614865756
 40
0.1232802986
 40
0.1852816381
 40
0.2473922847
 40
0.3095582142
 40
0.371807232
 40
0.4341613921
 40
0.4966323548
 40
0.5592371342
 40
0.6219859768
 40
0.6848747072
 40
0.7479020662
 40
0.8110631701
 40
0.8742582707
 40
1.0
 40
1.0
 40
1.0
 40
1.0
 10
6.9168853258
 20
1.7920846952
 30
0.0
 10
6.9175375335
 20
1.7920880771
 30
0.0
 10
6.918845803
 20
1.7921634816
 30
0.0
 10
6.9207893681
 20
1.792476105
 30
0.0
 10
6.9226981947
 20
1.7929844972
 30
0.0
 10
6.9245495658
 20
1.7936848168
 30
0.0
 10
6.9263211579
 20
1.7945736276
 30
0.0
 10
6.9279957886
 20
1.7956384157
 30
0.0
 10
6.9295581158
 20
1.7968672354
 30
0.0
 10
6.9309928728
 20
1.7982483712
 30
0.0
 10
6.9322844049
 20
1.7997697593
 30
0.0
 10
6.9334216659
 20
1.8014149469
 30
0.0
 10
6.9343938709
 20
1.8031679085
 30
0.0
 10
6.9351899784
 20
1.8050123231
 30
0.0
 10
6.9357985407
 20
1.8069305805
 30
0.0
 10
6.9363554959
 20
1.8095488148
 30
0.0
 10
6.9364865538
 20
1.8115656581
 30
0.0
 10
6.9364396544
 20
1.8128986338
 30
0.0
 11
6.9168853258
 21
1.7920846952
 31
0.0
 11
6.9188387909
 21
1.7921962799
 31
0.0
 11
6.9207803403
 21
1.7925080615
 31
0.0
 11
6.9226868835
 21
1.7930159418
 31
0.0
 11
6.9245353299
 21
1.7937158226
 31
0.0
 11
6.9263038581
 21
1.7946023061
 31
0.0
 11
6.9279757224
 21
1.795664795
 31
0.0
 11
6.9295354464
 21
1.7968913923
 31
0.0
 11
6.9309675535
 21
1.7982702012
 31
0.0
 11
6.9322573132
 21
1.799788593
 31
0.0
 11
6.9333929789
 21
1.8014310134
 31
0.0
 11
6.9343635501
 21
1.8031811764
 31
0.0
 11
6.9351580262
 21
1.8050227962
 31
0.0
 11
6.9357667298
 21
1.8069383448
 31
0.0
 11
6.9361852766
 21
1.808905326
 31
0.0
 11
6.9364396544
 21
1.8128986338
 31
0.0
  0
SPLINE
  5
43A
100
AcDbEntity
  8
0
100
AcDbSpline
 62
9
  6
CONTINUOUS
 70
0
 71
3
 72
22
 73
18
 74
16
 42
0.0000001
 43
0.0000001
 44
0.0000000001
 12
-0.031821274
 22
0.0001656917
 32
0.0
 13
0.0011183814
 23
0.0318020464
 33
0.0
 40
0.0
 40
0.0
 40
0.0
 40
0.0
 40
0.0614866011
 40
0.1232803387
 40
0.1852816871
 40
0.2473923418
 40
0.3095582805
 40
0.3718073043
 40
0.4341614659
 40
0.4966324261
 40
0.5592371993
 40
0.621986031
 40
0.6848747465
 40
0.747902088
 40
0.8110631732
 40
0.8742582582
 40
1.0
 40
1.0
 40
1.0
 40
1.0
 10
7.3569394772
 20
1.7920850012
 30
0.0
 10
7.3562872833
 20
1.7920883972
 30
0.0
 10
7.354979043
 20
1.7921638264
 30
0.0
 10
7.3530355244
 20
1.7924764769
 30
0.0
 10
7.3511267458
 20
1.7929848862
 30
0.0
 10
7.3492754225
 20
1.7936852128
 30
0.0
 10
7.3475038762
 20
1.7945740207
 30
0.0
 10
7.345829288
 20
1.7956387968
 30
0.0
 10
7.3442669989
 20
1.7968675961
 30
0.0
 10
7.3428322746
 20
1.7982487043
 30
0.0
 10
7.3415407688
 20
1.7997700583
 30
0.0
 10
7.3404035268
 20
1.8014152066
 30
0.0
 10
7.3394313332
 20
1.8031681249
 30
0.0
 10
7.3386352288
 20
1.8050124935
 30
0.0
 10
7.3380266608
 20
1.8069307032
 30
0.0
 10
7.3374696865
 20
1.8095488747
 30
0.0
 10
7.3373386016
 20
1.8115656722
 30
0.0
 10
7.3373854774
 20
1.8128986205
 30
0.0
 11
7.3569394772
 21
1.7920850012
 31
0.0
 11
7.3549860553
 21
1.792196623
 31
0.0
 11
7.3530445522
 21
1.7925084317
 31
0.0
 11
7.3511380569
 21
1.7930163291
 31
0.0
 11
7.349289658
 21
1.793716217
 31
0.0
 11
7.3475211754
 21
1.7946026977
 31
0.0
 11
7.3458493533
 21
1.7956651747
 31
0.0
 11
7.3442896673
 21
1.7968917519
 31
0.0
 11
7.3428575928
 21
1.7982705333
 31
0.0
 11
7.3415678592
 21
1.7997888912
 31
0.0
 11
7.3404322125
 21
1.8014312725
 31
0.0
 11
7.3394616526
 21
1.8031813925
 31
0.0
 11
7.3386671796
 21
1.8050229663
 31
0.0
 11
7.3380584703
 21
1.8069384675
 31
0.0
 11
7.3376399092
 21
1.8089054013
 31
0.0
 11
7.3373854774
 21
1.8128986205
 31
0.0
  0
SPLINE
  5
43B
100
AcDbEntity
  8
0
100
AcDbSpline
 62
9
  6
CONTINUOUS
 70
0
 71
3
 72
46
 73
42
 74
40
 42
0.0000001
 43
0.0000001
 44
0.0000000001
 12
-0.1776412524
 22
-0.1775191858
 32
0.0
 13
0.1775782854
 23
-0.1775821737
 33
0.0
 40
0.0
 40
0.0
 40
0.0
 40
0.0
 40
0.0005922847
 40
0.0012215969
 40
0.0019188111
 40
0.002706743
 40
0.0036011895
 40
0.0046128789
 40
0.0057491421
 40
0.0070150748
 40
0.0084142905
 40
0.009949402
 40
0.0116223303
 40
0.0134345076
 40
0.0174804289
 40
0.0220933488
 40
0.0272766123
 40
0.0330317553
 40
0.0393573688
 40
0.046250596
 40
0.0537081137
 40
0.0617262702
 40
0.0703011745
 40
0.0794287581
 40
0.0993249202
 40
0.1213777543
 40
0.1455336208
 40
0.171732118
 40
0.1999123315
 40
0.2300129355
 40
0.2619656964
 40
0.2956900593
 40
0.3311040304
 40
0.3681255021
 40
0.4466465944
 40
0.5304832147
 40
0.6188258232
 40
0.710846031
 40
0.8056987292
 40
0.9024483656
 40
1.0
 40
1.0
 40
1.0
 40
1.0
 10
1.8925245964
 20
7.5198085187
 30
0.0
 10
1.892489525
 20
7.5197734714
 30
0.0
 10
1.8924264926
 20
7.5196912948
 30
0.0
 10
1.8923620547
 20
7.5195427617
 30
0.0
 10
1.8923255472
 20
7.5193685729
 30
0.0
 10
1.8923161105
 20
7.51916896
 30
0.0
 10
1.892333219
 20
7.5189436473
 30
0.0
 10
1.8923766976
 20
7.5186923968
 30
0.0
 10
1.8924465007
 20
7.5184150504
 30
0.0
 10
1.8925426355
 20
7.5181115331
 30
0.0
 10
1.8926651185
 20
7.5177818212
 30
0.0
 10
1.8928139669
 20
7.5174259243
 30
0.0
 10
1.8929891821
 20
7.5170438646
 30
0.0
 10
1.8932684241
 20
7.5164785633
 30
0.0
 10
1.8936863269
 20
7.5157076928
 30
0.0
 10
1.8942757354
 20
7.5147098348
 30
0.0
 10
1.894970161
 20
7.5136084982
 30
0.0
 10
1.8957694274
 20
7.512404297
 30
0.0
 10
1.8966730802
 20
7.5110979537
 30
0.0
 10
1.8976804763
 20
7.5096903848
 30
0.0
 10
1.8987909262
 20
7.5081825644
 30
0.0
 10
1.9000037245
 20
7.5065754686
 30
0.0
 10
1.901318147
 20
7.5048700645
 30
0.0
 10
1.9032618402
 20
7.5023944238
 30
0.0
 10
1.9059430712
 20
7.4990636186
 30
0.0
 10
1.9094674227
 20
7.4947971355
 30
0.0
 10
1.913376374
 20
7.4901644976
 30
0.0
 10
1.9176601169
 20
7.4851773287
 30
0.0
 10
1.9223085332
 20
7.4798476542
 30
0.0
 10
1.9273111063
 20
7.4741879247
 30
0.0
 10
1.9326561135
 20
7.4682116403
 30
0.0
 10
1.9383303918
 20
7.4619332729
 30
0.0
 10
1.9443200783
 20
7.455368174
 30
0.0
 10
1.9528772429
 20
7.4460694217
 30
0.0
 10
1.9642532371
 20
7.4338561653
 30
0.0
 10
1.9786607519
 20
7.4185961245
 30
0.0
 10
1.9939409503
 20
7.402606463
 30
0.0
 10
2.0099498409
 20
7.3860381158
 30
0.0
 10
2.0265355078
 20
7.3690488935
 30
0.0
 10
2.0435295866
 20
7.3518116915
 30
0.0
 10
2.0550036249
 20
7.3402829844
 30
0.0
 10
2.0607779756
 20
7.3345085073
 30
0.0
 11
1.8925245964
 21
7.5198085187
 31
0.0
 11
1.8924335768
 21
7.519690874
 31
0.0
 11
1.8923692063
 21
7.5195465338
 31
0.0
 11
1.8923314668
 21
7.5193755534
 31
0.0
 11
1.8923203398
 21
7.5191779882
 31
0.0
 11
1.8923358072
 21
7.5189538933
 31
0.0
 11
1.8923778507
 21
7.5187033241
 31
0.0
 11
1.892446452
 21
7.5184263359
 31
0.0
 11
1.8925415929
 21
7.5181229838
 31
0.0
 11
1.8926632551
 21
7.5177933234
 31
0.0
 11
1.8928114203
 21
7.5174374097
 31
0.0
 11
1.8929860703
 21
7.5170552982
 31
0.0
 11
1.8931871867
 21
7.516647044
 31
0.0
 11
1.8936687462
 21
7.5157523289
 31
0.0
 11
1.8942559525
 21
7.5147537069
 31
0.0
 11
1.8949486595
 21
7.51365162
 31
0.0
 11
1.8957466609
 21
7.5124465639
 31
0.0
 11
1.8966493654
 21
7.5111393731
 31
0.0
 11
1.8976560306
 21
7.5097310155
 31
0.0
 11
1.8987659136
 21
7.5082224594
 31
0.0
 11
1.8999782717
 21
7.5066146731
 31
0.0
 11
1.901292362
 21
7.5049086247
 31
0.0
 11
1.9027074418
 21
7.5031052826
 31
0.0
 11
1.9058375983
 21
7.49921059
 31
0.0
 11
1.9093623637
 21
7.4949387696
 31
0.0
 11
1.9132725937
 21
7.4903007192
 31
0.0
 11
1.9175580602
 21
7.4853084029
 31
0.0
 11
1.9222085327
 21
7.4799737879
 31
0.0
 11
1.9272137678
 21
7.4743088527
 31
0.0
 11
1.9325622832
 21
7.4683267136
 31
0.0
 11
1.9382403416
 21
7.4620425568
 31
0.0
 11
1.9442339668
 21
7.4554717882
 31
0.0
 11
1.9505291822
 21
7.4486298137
 31
0.0
 11
1.963965594
 21
7.4341964635
 31
0.0
 11
1.9784167692
 21
7.4188846274
 31
0.0
 11
1.99374265
 21
7.4028428746
 31
0.0
 11
2.0097990986
 21
7.3862222538
 31
0.0
 11
2.0264383733
 21
7.3691760584
 31
0.0
 11
2.0434959935
 21
7.3518729104
 31
0.0
 11
2.0607779756
 21
7.3345085073
 31
0.0
  0
SPLINE
  5
43C
100
AcDbEntity
  8
0
100
AcDbSpline
 62
6
  6
CONTINUOUS
 70
0
 71
3
 72
11
 73
7
 74
5
 42
0.0000001
 43
0.0000001
 44
0.0000000001
 12
0.0036110635
 22
0.0767108163
 32
0.0
 13
0.0026087453
 23
0.0767514402
 33
0.0
 40
0.0
 40
0.0
 40
0.0
 40
0.0
 40
0.2190918449
 40
0.4600014141
 40
0.7210332325
 40
1.0
 40
1.0
 40
1.0
 40
1.0
 10
8.2800407784
 20
1.2319889153
 30
0.0
 10
8.2803044966
 20
1.2375911534
 30
0.0
 10
8.2808258309
 20
1.2493550442
 30
0.0
 10
8.2815703214
 20
1.2677974872
 30
0.0
 10
8.2823154196
 20
1.287773767
 30
0.0
 10
8.2827976639
 20
1.301588565
 30
0.0
 10
8.2830402483
 20
1.3087255988
 30
0.0
 11
8.2800407784
 21
1.2319889153
 31
0.0
 11
8.2807905858
 21
1.248797525
 31
0.0
 11
8.2815404806
 21
1.267283155
 31
0.0
 11
8.282290598
 21
1.2873152531
 31
0.0
 11
8.2830402483
 21
1.3087255988
 31
0.0
  0
SPLINE
  5
43D
100
AcDbEntity
  8
0
100
AcDbSpline
 62
6
  6
CONTINUOUS
 70
0
 71
3
 72
67
 73
63
 74
61
 42
0.0000001
 43
0.0000001
 44
0.0000000001
 12
0.3064973256
 22
0.530986853
 32
0.0
 13
0.1270119489
 23
0.59979631
 33
0.0
 40
0.0
 40
0.0
 40
0.0
 40
0.0
 40
0.0003592256
 40
0.0007789334
 40
0.0012607366
 40
0.0018056739
 40
0.0024144401
 40
0.0030875138
 40
0.0046277658
 40
0.0064282097
 40
0.0084895266
 40
0.0108112714
 40
0.0133925449
 40
0.0162322729
 40
0.0193292651
 40
0.0226822522
 40
0.0262899086
 40
0.0342628264
 40
0.0432307809
 40
0.0531743301
 40
0.0640738186
 40
0.0759071452
 40
0.0886478195
 40
0.1022688234
 40
0.1167427148
 40
0.1320382614
 40
0.1481220609
 40
0.182519105
 40
0.2196407113
 40
0.2591713708
 40
0.3007721505
 40
0.3440895636
 40
0.3887538609
 40
0.4343859393
 40
0.4805955808
 40
0.5269887705
 40
0.5731688267
 40
0.6187421479
 40
0.6633191971
 40
0.7065218319
 40
0.7479813285
 40
0.7873451243
 40
0.8242758451
 40
0.8584593542
 40
0.8744285207
 40
0.8896044315
 40
0.9039538183
 40
0.9174457413
 40
0.9300530938
 40
0.9417491702
 40
0.9525078414
 40
0.9623074053
 40
0.9711284755
 40
0.9789518905
 40
0.9824839861
 40
0.985760969
 40
0.9887815503
 40
0.9915445035
 40
0.9940486899
 40
0.9962931014
 40
0.9982769322
 40
1.0
 40
1.0
 40
1.0
 40
1.0
 10
8.1161506607
 20
1.1698175875
 30
0.0
 10
8.1161873612
 20
1.1698811689
 30
0.0
 10
8.1162595668
 20
1.1700233024
 30
0.0
 10
8.1163598191
 20
1.1702607885
 30
0.0
 10
8.1164602312
 20
1.1705389368
 30
0.0
 10
8.116560769
 20
1.1708577721
 30
0.0
 10
8.1166614231
 20
1.1712173338
 30
0.0
 10
8.1168021424
 20
1.1717766962
 30
0.0
 10
8.1169754261
 20
1.1725786808
 30
0.0
 10
8.1171757629
 20
1.1736644445
 30
0.0
 10
8.1173764407
 20
1.1749121962
 30
0.0
 10
8.1175774376
 20
1.1763212597
 30
0.0
 10
8.1177786512
 20
1.1778908088
 30
0.0
 10
8.1179800338
 20
1.1796199377
 30
0.0
 10
8.1181815435
 20
1.1815077341
 30
0.0
 10
8.118383166
 20
1.1835532753
 30
0.0
 10
8.1186614734
 20
1.1865924852
 30
0.0
 10
8.1190060639
 20
1.1907778231
 30
0.0
 10
8.1194077804
 20
1.1962574196
 30
0.0
 10
8.1198100228
 20
1.20233651
 30
0.0
 10
8.1202126374
 20
1.2090023158
 30
0.0
 10
8.1206154735
 20
1.216240698
 30
0.0
 10
8.1210185613
 20
1.2240360448
 30
0.0
 10
8.1214218425
 20
1.2323716934
 30
0.0
 10
8.121825226
 20
1.241230037
 30
0.0
 10
8.1222287311
 20
1.2505921776
 30
0.0
 10
8.1227792965
 20
1.2640233369
 30
0.0
 10
8.1234626804
 20
1.2819132505
 30
0.0
 10
8.124266411
 20
1.3045936916
 30
0.0
 10
8.1250706816
 20
1.3287471728
 30
0.0
 10
8.1258754559
 20
1.3541675084
 30
0.0
 10
8.1266805028
 20
1.3806374761
 30
0.0
 10
8.1274858196
 20
1.4079316615
 30
0.0
 10
8.1282912727
 20
1.4358171653
 30
0.0
 10
8.1290968433
 20
1.4640561364
 30
0.0
 10
8.1299024258
 20
1.4924071402
 30
0.0
 10
8.1307079891
 20
1.5206280501
 30
0.0
 10
8.1315134279
 20
1.5484776546
 30
0.0
 10
8.1323187277
 20
1.5757185222
 30
0.0
 10
8.1331237567
 20
1.6021182975
 30
0.0
 10
8.1339285073
 20
1.6274521594
 30
0.0
 10
8.1347327532
 20
1.6515036002
 30
0.0
 10
8.1355364408
 20
1.6740672189
 30
0.0
 10
8.1362199713
 20
1.6918509737
 30
0.0
 10
8.1367707106
 20
1.705190533
 30
0.0
 10
8.1371742082
 20
1.7144792846
 30
0.0
 10
8.1375775791
 20
1.7232612759
 30
0.0
 10
8.1379808394
 20
1.7315177621
 30
0.0
 10
8.1383838964
 20
1.7392313256
 30
0.0
 10
8.1387866912
 20
1.7463855057
 30
0.0
 10
8.1391892538
 20
1.7529649037
 30
0.0
 10
8.139591422
 20
1.7589555836
 30
0.0
 10
8.1399930376
 20
1.7643449477
 30
0.0
 10
8.1403377269
 20
1.7684540077
 30
0.0
 10
8.1406162138
 20
1.7714314116
 30
0.0
 10
8.1408178009
 20
1.7734301364
 30
0.0
 10
8.1410192676
 20
1.7752708278
 30
0.0
 10
8.1412205961
 20
1.7769525799
 30
0.0
 10
8.1414217445
 20
1.7784744924
 30
0.0
 10
8.1416226443
 20
1.7798356935
 30
0.0
 10
8.1418232297
 20
1.781035362
 30
0.0
 10
8.1419667029
 20
1.7817793506
 30
0.0
 10
8.1420396529
 20
1.7821238472
 30
0.0
 11
8.1161506607
 21
1.1698175875
 31
0.0
 11
8.1162517769
 21
1.1700132433
 31
0.0
 11
8.116352908
 21
1.1702498587
 31
0.0
 11
8.1164540515
 21
1.1705273951
 31
0.0
 11
8.116555205
 21
1.1708458135
 31
0.0
 11
8.1166563661
 21
1.1712050753
 31
0.0
 11
8.1167575323
 21
1.1716051416
 31
0.0
 11
8.1169598706
 21
1.1725275332
 31
0.0
 11
8.1171622003
 21
1.1736126781
 31
0.0
 11
8.1173645059
 21
1.1748601673
 31
0.0
 11
8.1175667881
 21
1.1762691753
 31
0.0
 11
8.117769052
 21
1.1778387672
 31
0.0
 11
8.1179713024
 21
1.1795680079
 31
0.0
 11
8.1181735443
 21
1.1814559625
 31
0.0
 11
8.1183757828
 21
1.1835016958
 31
0.0
 11
8.1185780227
 21
1.185704273
 31
0.0
 11
8.1189825211
 21
1.1905756781
 31
0.0
 11
8.1193870395
 21
1.1960590011
 31
0.0
 11
8.1197915655
 21
1.202141923
 31
0.0
 11
8.1201960868
 21
1.2088121091
 31
0.0
 11
8.1206005966
 21
1.2160557977
 31
0.0
 11
8.1210050979
 21
1.2238565835
 31
0.0
 11
8.1214095952
 21
1.2321977749
 31
0.0
 11
8.1218140922
 21
1.2410624471
 31
0.0
 11
8.122218591
 21
1.2504313694
 31
0.0
 11
8.1226230925
 21
1.2602839949
 31
0.0
 11
8.1234321062
 21
1.281357188
 31
0.0
 11
8.1242411311
 21
1.304101941
 31
0.0
 11
8.1250501582
 21
1.3283245538
 31
0.0
 11
8.1258591767
 21
1.3538170233
 31
0.0
 11
8.1266681806
 21
1.3803624645
 31
0.0
 11
8.1274771874
 21
1.4077340479
 31
0.0
 11
8.1282862109
 21
1.4356992278
 31
0.0
 11
8.129095245
 21
1.4640186558
 31
0.0
 11
8.1299042813
 21
1.4924506622
 31
0.0
 11
8.1307133114
 21
1.5207519442
 31
0.0
 11
8.1315223289
 21
1.5486810853
 31
0.0
 11
8.1323313316
 21
1.5759991538
 31
0.0
 11
8.1331403374
 21
1.602474192
 31
0.0
 11
8.1339493642
 21
1.6278799973
 31
0.0
 11
8.1347584036
 21
1.6520002488
 31
0.0
 11
8.1355674441
 21
1.6746278956
 31
0.0
 11
8.1363764786
 21
1.6955700732
 31
0.0
 11
8.1367809914
 21
1.7053523576
 31
0.0
 11
8.1371854998
 21
1.7146478622
 31
0.0
 11
8.137590003
 21
1.7234361206
 31
0.0
 11
8.1379945022
 21
1.731698079
 31
0.0
 11
8.1383990024
 21
1.7394170147
 31
0.0
 11
8.1388035088
 21
1.7465764232
 31
0.0
 11
8.1392080254
 21
1.7531601142
 31
0.0
 11
8.1396125448
 21
1.7591545617
 31
0.0
 11
8.1400170542
 21
1.7645475823
 31
0.0
 11
8.1404215403
 21
1.7693270073
 31
0.0
 11
8.1406237734
 21
1.77148306
 31
0.0
 11
8.1408260051
 21
1.7734819636
 31
0.0
 11
8.1410282407
 21
1.7753227967
 31
0.0
 11
8.1412304855
 21
1.7770046378
 31
0.0
 11
8.1414327446
 21
1.7785265655
 31
0.0
 11
8.1416350234
 21
1.7798876582
 31
0.0
 11
8.141837327
 21
1.7810869959
 31
0.0
 11
8.1420396529
 21
1.7821238472
 31
0.0
  0
SPLINE
  5
43E
100
AcDbEntity
  8
0
100
AcDbSpline
 62
6
  6
CONTINUOUS
 70
0
 71
3
 72
18
 73
14
 74
12
 42
0.0000001
 43
0.0000001
 44
0.0000000001
 12
-0.0058125579
 22
-0.0314483736
 32
0.0
 13
-0.0020455623
 23
-0.0319155402
 33
0.0
 40
0.0
 40
0.0
 40
0.0
 40
0.0
 40
0.0341582919
 40
0.0721918693
 40
0.1140862991
 40
0.1598245963
 40
0.2093880354
 40
0.2627566641
 40
0.3808248592
 40
0.5138398368
 40
0.661551345
 40
0.8236940818
 40
1.0
 40
1.0
 40
1.0
 40
1.0
 10
8.2830402483
 20
1.7508489415
 30
0.0
 10
8.2829740659
 20
1.7504908673
 30
0.0
 10
8.2828429533
 20
1.7497324671
 30
0.0
 10
8.2826565437
 20
1.7485305952
 30
0.0
 10
8.2824699015
 20
1.7472039764
 30
0.0
 10
8.28228308
 20
1.745753372
 30
0.0
 10
8.282096115
 20
1.7441795394
 30
0.0
 10
8.281837913
 20
1.74183777
 30
0.0
 10
8.2815181925
 20
1.7386078952
 30
0.0
 10
8.2811457855
 20
1.7343728907
 30
0.0
 10
8.2807729614
 20
1.7296664478
 30
0.0
 10
8.2803997773
 20
1.724497235
 30
0.0
 10
8.2801606803
 20
1.7208971682
 30
0.0
 10
8.2800404654
 20
1.7190215353
 30
0.0
 11
8.2830402483
 21
1.7508489415
 31
0.0
 11
8.2828529368
 21
1.7497727028
 31
0.0
 11
8.2826655435
 21
1.7485708717
 31
0.0
 11
8.2824780842
 21
1.7472442237
 31
0.0
 11
8.2822905746
 21
1.7457935341
 31
0.0
 11
8.2821030303
 21
1.7442195785
 31
0.0
 11
8.2819154671
 21
1.7425231322
 31
0.0
 11
8.281540347
 21
1.7387658695
 31
0.0
 11
8.2811653075
 21
1.7345284785
 31
0.0
 11
8.2807903366
 21
1.7298194183
 31
0.0
 11
8.2804154004
 21
1.7246474998
 31
0.0
 11
8.2800404654
 21
1.7190215353
 31
0.0
  0
SPLINE
  5
43F
100
AcDbEntity
  8
0
100
AcDbSpline
 62
6
  6
CONTINUOUS
 70
0
 71
3
 72
34
 73
30
 74
28
 42
0.0000001
 43
0.0000001
 44
0.0000000001
 12
-0.0049405436
 22
-0.1342409022
 32
0.0
 13
-0.0672324073
 23
-0.1162963121
 33
0.0
 40
0.0
 40
0.0
 40
0.0
 40
0.0
 40
0.1057837314
 40
0.2072302242
 40
0.3039571291
 40
0.3956135082
 40
0.4818620475
 40
0.5623766783
 40
0.6368707944
 40
0.7050671925
 40
0.7667108446
 40
0.7950084187
 40
0.8215884558
 40
0.8464251115
 40
0.8694940848
 40
0.8907773542
 40
0.9102588896
 40
0.9279231185
 40
0.9437551457
 40
0.9577412363
 40
0.9698733715
 40
0.9752441706
 40
0.9801518811
 40
0.9845974175
 40
0.9885823609
 40
0.9921093064
 40
0.9951824641
 40
0.9978087595
 40
1.0
 40
1.0
 40
1.0
 40
1.0
 10
8.1420409245
 20
1.3337764717
 30
0.0
 10
8.1418667148
 20
1.3290429705
 30
0.0
 10
8.141519334
 20
1.3197702692
 30
0.0
 10
8.140988165
 20
1.3061702635
 30
0.0
 10
8.1404570967
 20
1.2932033409
 30
0.0
 10
8.1399262281
 20
1.2809175316
 30
0.0
 10
8.1393956412
 20
1.269358366
 30
0.0
 10
8.138865272
 20
1.2585685301
 30
0.0
 10
8.1383353615
 20
1.2485880401
 30
0.0
 10
8.1378059651
 20
1.2394538038
 30
0.0
 10
8.1373533729
 20
1.2323872476
 30
0.0
 10
8.1369885363
 20
1.2271825013
 30
0.0
 10
8.1367228663
 20
1.2236230012
 30
0.0
 10
8.1364573091
 20
1.2202983083
 30
0.0
 10
8.1361918413
 20
1.217211591
 30
0.0
 10
8.1359265244
 20
1.2143656009
 30
0.0
 10
8.1356614144
 20
1.2117627364
 30
0.0
 10
8.1353965699
 20
1.2094053161
 30
0.0
 10
8.1351321123
 20
1.2072956202
 30
0.0
 10
8.1348680862
 20
1.2054357579
 30
0.0
 10
8.1346403546
 20
1.2040441026
 30
0.0
 10
8.1344558433
 20
1.2030576823
 30
0.0
 10
8.1343232331
 20
1.2024118122
 30
0.0
 10
8.1341907438
 20
1.2018293906
 30
0.0
 10
8.1340583962
 20
1.2013105053
 30
0.0
 10
8.1339262374
 20
1.2008552294
 30
0.0
 10
8.1337943138
 20
1.200463536
 30
0.0
 10
8.1336626966
 20
1.2001354339
 30
0.0
 10
8.1335667323
 20
1.1999417595
 30
0.0
 10
8.1335176249
 20
1.1998568151
 30
0.0
 11
8.1420409245
 21
1.3337764717
 31
0.0
 11
8.1415082183
 21
1.3195763426
 31
0.0
 11
8.140975512
 21
1.3059592699
 31
0.0
 11
8.1404428058
 21
1.2929766964
 31
0.0
 11
8.1399100996
 21
1.2806758607
 31
0.0
 11
8.1393773934
 21
1.2691021935
 31
0.0
 11
8.1388446871
 21
1.258299646
 31
0.0
 11
8.1383119809
 21
1.2483069073
 31
0.0
 11
8.1377792747
 21
1.2391614648
 31
0.0
 11
8.1372465684
 21
1.2308979155
 31
0.0
 11
8.1369802153
 21
1.2271059949
 31
0.0
 11
8.1367138622
 21
1.2235453995
 31
0.0
 11
8.1364475091
 21
1.2202196962
 31
0.0
 11
8.136181156
 21
1.2171322676
 31
0.0
 11
8.1359148029
 21
1.2142856821
 31
0.0
 11
8.1356484498
 21
1.2116822825
 31
0.0
 11
8.1353820967
 21
1.2093244114
 31
0.0
 11
8.1351157435
 21
1.2072144119
 31
0.0
 11
8.1348493904
 21
1.2053546115
 31
0.0
 11
8.1345830373
 21
1.203746793
 31
0.0
 11
8.1344498608
 21
1.2030377221
 31
0.0
 11
8.1343166842
 21
1.2023920521
 31
0.0
 11
8.1341835077
 21
1.2018099145
 31
0.0
 11
8.1340503311
 21
1.2012914408
 31
0.0
 11
8.1339171545
 21
1.2008367625
 31
0.0
 11
8.133783978
 21
1.2004460111
 31
0.0
 11
8.1336508014
 21
1.2001193182
 31
0.0
 11
8.1335176249
 21
1.1998568151
 31
0.0
  0
SPLINE
  5
440
100
AcDbEntity
  8
0
100
AcDbSpline
 62
6
  6
CONTINUOUS
 70
0
 71
3
 72
75
 73
71
 74
69
 42
0.0000001
 43
0.0000001
 44
0.0000000001
 12
0.3079672006
 22
0.5335347307
 32
0.0
 13
0.4997309418
 23
0.3602389364
 33
0.0
 40
0.0
 40
0.0
 40
0.0
 40
0.0
 40
0.0003725232
 40
0.000810065
 40
0.0013143798
 40
0.0018865816
 40
0.002527407
 40
0.0032373575
 40
0.0048658573
 40
0.0067739003
 40
0.0089620218
 40
0.0114295588
 40
0.0141754511
 40
0.0171984576
 40
0.0204972178
 40
0.0240702902
 40
0.0279161743
 40
0.0364182154
 40
0.0459829919
 40
0.0565887345
 40
0.068213162
 40
0.0808294969
 40
0.0944077228
 40
0.1089176825
 40
0.124327153
 40
0.1405993708
 40
0.1576969369
 40
0.1942126293
 40
0.2335370729
 40
0.2753107807
 40
0.3191475721
 40
0.364645051
 40
0.4113858396
 40
0.4589396219
 40
0.5068688157
 40
0.5547316421
 40
0.6020874128
 40
0.6484996006
 40
0.6935422759
 40
0.7368011939
 40
0.7778802463
 40
0.8163998725
 40
0.8520068169
 40
0.8686140407
 40
0.8843733603
 40
0.8992475018
 40
0.913202074
 40
0.9262067192
 40
0.9382314312
 40
0.9492473902
 40
0.9592311073
 40
0.9681607877
 40
0.9760150473
 40
0.9795333617
 40
0.9827770597
 40
0.9857447209
 40
0.9884350122
 40
0.9908467295
 40
0.9929788669
 40
0.9948309266
 40
0.9956521625
 40
0.9964037666
 40
0.9970860212
 40
0.9976993293
 40
0.9982442744
 40
0.9987217221
 40
0.9991330016
 40
0.9994802457
 40
0.9997670729
 40
1.0
 40
1.0
 40
1.0
 40
1.0
 10
8.0061506607
 20
1.1698175887
 30
0.0
 10
8.0061889023
 20
1.1698838401
 30
0.0
 10
8.006264046
 20
1.1700325377
 30
0.0
 10
8.0063681148
 20
1.1702817193
 30
0.0
 10
8.0064723662
 20
1.1705747563
 30
0.0
 10
8.00657676
 20
1.1709116773
 30
0.0
 10
8.0066812834
 20
1.1712925278
 30
0.0
 10
8.0068275437
 20
1.171886627
 30
0.0
 10
8.0070075588
 20
1.1727400751
 30
0.0
 10
8.0072155734
 20
1.1738971725
 30
0.0
 10
8.00742396
 20
1.175228891
 30
0.0
 10
8.0076326969
 20
1.1767344269
 30
0.0
 10
8.0078416662
 20
1.1784128322
 30
0.0
 10
8.0080508179
 20
1.180263089
 30
0.0
 10
8.0082601063
 20
1.1822841729
 30
0.0
 10
8.0084695174
 20
1.1844750482
 30
0.0
 10
8.0087586019
 20
1.1877315769
 30
0.0
 10
8.0091165055
 20
1.1922170964
 30
0.0
 10
8.0095337357
 20
1.1980901441
 30
0.0
 10
8.00995151
 20
1.2046057749
 30
0.0
 10
8.0103696311
 20
1.2117491709
 30
0.0
 10
8.0107880276
 20
1.2195038953
 30
0.0
 10
8.0112066933
 20
1.2278519339
 30
0.0
 10
8.0116255386
 20
1.2367741942
 30
0.0
 10
8.0120444895
 20
1.2462502212
 30
0.0
 10
8.0124635966
 20
1.2562580858
 30
0.0
 10
8.0130351551
 20
1.2705974157
 30
0.0
 10
8.0137445155
 20
1.2896686542
 30
0.0
 10
8.01457917
 20
1.3138057877
 30
0.0
 10
8.015414369
 20
1.3394471031
 30
0.0
 10
8.0162500716
 20
1.3663566459
 30
0.0
 10
8.0170860837
 20
1.3942866206
 30
0.0
 10
8.0179223246
 20
1.4229801885
 30
0.0
 10
8.0187587243
 20
1.4521733021
 30
0.0
 10
8.0195951811
 20
1.4815969134
 30
0.0
 10
8.0204316347
 20
1.5109798476
 30
0.0
 10
8.0212679868
 20
1.5400511466
 30
0.0
 10
8.0221041794
 20
1.5685431004
 30
0.0
 10
8.022940085
 20
1.5961934197
 30
0.0
 10
8.0237756759
 20
1.6227480931
 30
0.0
 10
8.0246107071
 20
1.6479626112
 30
0.0
 10
8.0254451352
 20
1.671604935
 30
0.0
 10
8.0261550849
 20
1.690223272
 30
0.0
 10
8.0267273545
 20
1.704169634
 30
0.0
 10
8.0271463804
 20
1.7138612783
 30
0.0
 10
8.0275652668
 20
1.7230076806
 30
0.0
 10
8.0279840207
 20
1.7315877993
 30
0.0
 10
8.0284025363
 20
1.7395820683
 30
0.0
 10
8.0288207536
 20
1.7469720349
 30
0.0
 10
8.0292387025
 20
1.7537406071
 30
0.0
 10
8.0296561491
 20
1.7598723426
 30
0.0
 10
8.0300729166
 20
1.7653532169
 30
0.0
 10
8.0304312943
 20
1.7695068886
 30
0.0
 10
8.0307212324
 20
1.7724942729
 30
0.0
 10
8.0309305049
 20
1.7744812594
 30
0.0
 10
8.0311396191
 20
1.7762972126
 30
0.0
 10
8.031348549
 20
1.7779411091
 30
0.0
 10
8.031557213
 20
1.7794119536
 30
0.0
 10
8.0317655588
 20
1.7807087816
 30
0.0
 10
8.0319452424
 20
1.781679215
 30
0.0
 10
8.0320907711
 20
1.7823673198
 30
0.0
 10
8.0321954314
 20
1.7828184485
 30
0.0
 10
8.0323000037
 20
1.7832256594
 30
0.0
 10
8.0324044748
 20
1.783588941
 30
0.0
 10
8.0325088128
 20
1.7839083017
 30
0.0
 10
8.0326129992
 20
1.7841837949
 30
0.0
 10
8.0327169895
 20
1.7844155198
 30
0.0
 10
8.0328209141
 20
1.7846037777
 30
0.0
 10
8.0329248112
 20
1.7847488863
 30
0.0
 10
8.0330019797
 20
1.7848242098
 30
0.0
 10
8.03304078
 20
1.7848521796
 30
0.0
 11
8.0061506607
 21
1.1698175887
 31
0.0
 11
8.0062556874
 21
1.1700216338
 31
0.0
 11
8.00636073
 21
1.1702698659
 31
0.0
 11
8.0064657858
 21
1.1705622417
 31
0.0
 11
8.0065708521
 21
1.1708987176
 31
0.0
 11
8.0066759262
 21
1.1712792503
 31
0.0
 11
8.0067810054
 21
1.1717037962
 31
0.0
 11
8.0069911681
 21
1.172684754
 31
0.0
 11
8.0072013184
 21
1.1738412429
 31
0.0
 11
8.0074114417
 21
1.1751727315
 31
0.0
 11
8.0076215411
 21
1.1766782392
 31
0.0
 11
8.007831622
 21
1.178356718
 31
0.0
 11
8.0080416901
 21
1.1802071196
 31
0.0
 11
8.0082517508
 21
1.1822283961
 31
0.0
 11
8.0084618099
 21
1.1844194992
 31
0.0
 11
8.0086718728
 21
1.1867793801
 31
0.0
 11
8.0090920195
 21
1.1920000836
 31
0.0
 11
8.0095121842
 21
1.1978773521
 31
0.0
 11
8.009932353
 21
1.2043973706
 31
0.0
 11
8.0103525127
 21
1.2115461258
 31
0.0
 11
8.0107726607
 21
1.2193069059
 31
0.0
 11
8.0111928019
 21
1.2276610542
 31
0.0
 11
8.0116129413
 21
1.2365898649
 31
0.0
 11
8.0120330825
 21
1.2460733859
 31
0.0
 11
8.0124532249
 21
1.2560888857
 31
0.0
 11
8.0128733676
 21
1.2666132572
 31
0.0
 11
8.0137136522
 21
1.2890926204
 31
0.0
 11
8.0145539421
 21
1.3133034034
 31
0.0
 11
8.0153942396
 21
1.3390238819
 31
0.0
 11
8.0162345301
 21
1.366015945
 31
0.0
 11
8.0170748157
 21
1.3940315329
 31
0.0
 11
8.0179151174
 21
1.4228133818
 31
0.0
 11
8.0187554358
 21
1.4520962752
 31
0.0
 11
8.0195957614
 21
1.4816105308
 31
0.0
 11
8.0204360861
 21
1.5110838849
 31
0.0
 11
8.0212764006
 21
1.5402447452
 31
0.0
 11
8.0221166942
 21
1.5688240769
 31
0.0
 11
8.0229569742
 21
1.5965593611
 31
0.0
 11
8.0237972618
 21
1.6231952576
 31
0.0
 11
8.0246375624
 21
1.6484875694
 31
0.0
 11
8.025477873
 21
1.6722022487
 31
0.0
 11
8.0263181838
 21
1.6941213863
 31
0.0
 11
8.0267383361
 21
1.7043434401
 31
0.0
 11
8.0271584849
 21
1.7140426879
 31
0.0
 11
8.027578629
 21
1.7231960904
 31
0.0
 11
8.0279987702
 21
1.7317823675
 31
0.0
 11
8.0284189143
 21
1.7397827016
 31
0.0
 11
8.0288390672
 21
1.7471784591
 31
0.0
 11
8.0292592322
 21
1.7539516915
 31
0.0
 11
8.029679399
 21
1.7600876741
 31
0.0
 11
8.0300995535
 21
1.76557263
 31
0.0
 11
8.0305196828
 21
1.7703928798
 31
0.0
 11
8.0307297407
 21
1.7725500929
 31
0.0
 11
8.030939801
 21
1.7745372632
 31
0.0
 11
8.0311498694
 21
1.7763533469
 31
0.0
 11
8.0313599514
 21
1.7779973003
 31
0.0
 11
8.0315700526
 21
1.7794680797
 31
0.0
 11
8.0317801785
 21
1.7807646413
 31
0.0
 11
8.0319903301
 21
1.7818860598
 31
0.0
 11
8.0320954104
 21
1.7823809394
 31
0.0
 11
8.0322004902
 21
1.7828318749
 31
0.0
 11
8.0323055666
 21
1.783238823
 31
0.0
 11
8.0324106369
 21
1.7836017405
 31
0.0
 11
8.0325156985
 21
1.7839205842
 31
0.0
 11
8.0326207486
 21
1.7841953106
 31
0.0
 11
8.0327257845
 21
1.7844258766
 31
0.0
 11
8.0328308036
 21
1.784612239
 31
0.0
 11
8.032935803
 21
1.7847543544
 31
0.0
 11
8.03304078
 21
1.7848521796
 31
0.0
  0
SPLINE
  5
441
100
AcDbEntity
  8
0
100
AcDbSpline
 62
6
  6
CONTINUOUS
 70
0
 71
3
 72
65
 73
61
 74
59
 42
0.0000001
 43
0.0000001
 44
0.0000000001
 12
0.0653529951
 22
0.60203795
 32
0.0
 13
0.5835155298
 23
0.1619578145
 33
0.0
 40
0.0
 40
0.0
 40
0.0
 40
0.0
 40
0.0064905187
 40
0.0139496392
 40
0.0223632201
 40
0.0317137418
 40
0.0419833909
 40
0.0531533806
 40
0.065200515
 40
0.0781001522
 40
0.0918275861
 40
0.1063561628
 40
0.1376949507
 40
0.1718674591
 40
0.2085978267
 40
0.2475933201
 40
0.2885387432
 40
0.3311070717
 40
0.3749558162
 40
0.4197347089
 40
0.4650839481
 40
0.5106403222
 40
0.556037796
 40
0.6009123133
 40
0.6449027065
 40
0.6876574785
 40
0.7288331981
 40
0.7681010815
 40
0.8051435338
 40
0.8396655955
 40
0.8558928357
 40
0.8713881399
 40
0.8861205736
 40
0.9000594147
 40
0.9131771376
 40
0.9254488447
 40
0.9368497582
 40
0.9473560009
 40
0.9569480383
 40
0.9656078
 40
0.9733174115
 40
0.9768108492
 40
0.9800614958
 40
0.9830681344
 40
0.9858296008
 40
0.9883448051
 40
0.9906127647
 40
0.9926326585
 40
0.9944040809
 40
0.9959276525
 40
0.9965969603
 40
0.9972049639
 40
0.9977520798
 40
0.9982389037
 40
0.9986663097
 40
0.9990356242
 40
0.9993489478
 40
0.9994857049
 40
0.9996099685
 40
1.0
 40
1.0
 40
1.0
 40
1.0
 10
7.9530405963
 20
1.1801970139
 30
0.0
 10
7.9531819879
 20
1.1814995267
 30
0.0
 10
7.9534598444
 20
1.1843017639
 30
0.0
 10
7.9538486138
 20
1.1887992669
 30
0.0
 10
7.954238099
 20
1.1938759288
 30
0.0
 10
7.9546281771
 20
1.1995213534
 30
0.0
 10
7.9550186542
 20
1.2057243546
 30
0.0
 10
7.9554093547
 20
1.2124726582
 30
0.0
 10
7.9558002922
 20
1.2197526523
 30
0.0
 10
7.9561914297
 20
1.2275495679
 30
0.0
 10
7.9565827148
 20
1.2358479652
 30
0.0
 10
7.9571181496
 20
1.2478657549
 30
0.0
 10
7.9577823317
 20
1.2640088513
 30
0.0
 10
7.9585615034
 20
1.2846324858
 30
0.0
 10
7.9593414456
 20
1.3068026813
 30
0.0
 10
7.9601218581
 20
1.3303408185
 30
0.0
 10
7.9609027103
 20
1.3550579945
 30
0.0
 10
7.9616837862
 20
1.3807552993
 30
0.0
 10
7.9624650961
 20
1.4072267595
 30
0.0
 10
7.9632465143
 20
1.4342598042
 30
0.0
 10
7.9640280363
 20
1.4616376864
 30
0.0
 10
7.9648095754
 20
1.4891404842
 30
0.0
 10
7.9655911117
 20
1.5165474169
 30
0.0
 10
7.966372555
 20
1.5436381169
 30
0.0
 10
7.9671538908
 20
1.5701951439
 30
0.0
 10
7.9679349987
 20
1.5960052146
 30
0.0
 10
7.9687158948
 20
1.6208615642
 30
0.0
 10
7.9694963529
 20
1.6445642579
 30
0.0
 10
7.97027641
 20
1.6669231028
 30
0.0
 10
7.9709386879
 20
1.6846322397
 30
0.0
 10
7.9714718802
 20
1.6979936307
 30
0.0
 10
7.9718633945
 20
1.70736278
 30
0.0
 10
7.9722547845
 20
1.7162695802
 30
0.0
 10
7.972646084
 20
1.7246959628
 30
0.0
 10
7.9730372638
 20
1.7326250673
 30
0.0
 10
7.9734282547
 20
1.7400412178
 30
0.0
 10
7.9738190142
 20
1.7469294499
 30
0.0
 10
7.9742095751
 20
1.7532758436
 30
0.0
 10
7.9745997672
 20
1.7590678041
 30
0.0
 10
7.9749894647
 20
1.7642938688
 30
0.0
 10
7.9753236489
 20
1.7682894735
 30
0.0
 10
7.9755934767
 20
1.771194586
 30
0.0
 10
7.9757890559
 20
1.7731531269
 30
0.0
 10
7.9759845325
 20
1.7749631342
 30
0.0
 10
7.976179894
 20
1.7766237662
 30
0.0
 10
7.976375103
 20
1.7781341901
 30
0.0
 10
7.9765701172
 20
1.7794935792
 30
0.0
 10
7.9767648481
 20
1.7807011769
 30
0.0
 10
7.9769592771
 20
1.7817563651
 30
0.0
 10
7.9771272695
 20
1.7825389557
 30
0.0
 10
7.977263548
 20
1.783087715
 30
0.0
 10
7.9773612186
 20
1.7834428508
 30
0.0
 10
7.9774587889
 20
1.7837596686
 30
0.0
 10
7.9775562533
 20
1.7840381808
 30
0.0
 10
7.9776535727
 20
1.7842784384
 30
0.0
 10
7.9777508021
 20
1.7844805464
 30
0.0
 10
7.9778350819
 20
1.7846231451
 30
0.0
 10
7.9779035799
 20
1.7847170286
 30
0.0
 10
7.9779882914
 20
1.7848165749
 30
0.0
 10
7.9780750377
 20
1.7848861031
 30
0.0
 10
7.9781509008
 20
1.7849071593
 30
0.0
 11
7.9530405963
 21
1.1801970139
 31
0.0
 11
7.9534328981
 21
1.184107881
 31
0.0
 11
7.9538252111
 21
1.1886078668
 31
0.0
 11
7.9542175464
 21
1.1936877905
 31
0.0
 11
7.9546098946
 21
1.1993366206
 31
0.0
 11
7.9550022453
 21
1.2055432714
 31
0.0
 11
7.9553945903
 21
1.2122961464
 31
0.0
 11
7.9557869303
 21
1.2195810286
 31
0.0
 11
7.9561792693
 21
1.2273828637
 31
0.0
 11
7.956571611
 21
1.2356865866
 31
0.0
 11
7.9569639577
 21
1.2444759724
 31
0.0
 11
7.9577486639
 21
1.2634377192
 31
0.0
 11
7.958533381
 21
1.2841168418
 31
0.0
 11
7.9593181021
 21
1.3063459762
 31
0.0
 11
7.96010282
 21
1.3299476184
 31
0.0
 11
7.9608875257
 21
1.3547307105
 31
0.0
 11
7.9616722137
 21
1.3804970672
 31
0.0
 11
7.9624568927
 21
1.4070391607
 31
0.0
 11
7.9632415717
 21
1.4341447694
 31
0.0
 11
7.9640262547
 21
1.4615959083
 31
0.0
 11
7.9648109433
 21
1.4891725336
 31
0.0
 11
7.9655956371
 21
1.5166528937
 31
0.0
 11
7.9663803305
 21
1.5438164341
 31
0.0
 11
7.9671650153
 21
1.5704443436
 31
0.0
 11
7.9679497011
 21
1.596323658
 31
0.0
 11
7.9687344045
 21
1.6212462814
 31
0.0
 11
7.9695191217
 21
1.6450129666
 31
0.0
 11
7.9703038425
 21
1.6674312083
 31
0.0
 11
7.9710885609
 21
1.6883221624
 31
0.0
 11
7.9714809173
 21
1.6981411324
 31
0.0
 11
7.9718732701
 21
1.7075164902
 31
0.0
 11
7.9722656174
 21
1.7164294478
 31
0.0
 11
7.972657958
 21
1.7248613342
 31
0.0
 11
7.9730502942
 21
1.7327954007
 31
0.0
 11
7.9734426317
 21
1.7402164722
 31
0.0
 11
7.973834976
 21
1.7471094198
 31
0.0
 11
7.9742273308
 21
1.753459625
 31
0.0
 11
7.9746196882
 21
1.7592550537
 31
0.0
 11
7.9750120373
 21
1.7644844885
 31
0.0
 11
7.9754043668
 21
1.7691367205
 31
0.0
 11
7.9756005236
 21
1.7712431444
 31
0.0
 11
7.9757966801
 21
1.7732018561
 31
0.0
 11
7.9759928407
 21
1.7750120026
 31
0.0
 11
7.97618901
 21
1.7766727309
 31
0.0
 11
7.9763851926
 21
1.7781831879
 31
0.0
 11
7.9765813931
 21
1.7795425205
 31
0.0
 11
7.976777616
 21
1.7807498756
 31
0.0
 11
7.9769738621
 21
1.7818045007
 31
0.0
 11
7.9771701169
 21
1.7827060227
 31
0.0
 11
7.9772682421
 21
1.7830992814
 31
0.0
 11
7.9773663628
 21
1.7834541579
 31
0.0
 11
7.9774644768
 21
1.7837706169
 31
0.0
 11
7.9775625819
 21
1.7840486228
 31
0.0
 11
7.9776606758
 21
1.7842881403
 31
0.0
 11
7.9777587564
 21
1.7844891338
 31
0.0
 11
7.9778568215
 21
1.7846515679
 31
0.0
 11
7.9779058474
 21
1.7847183141
 31
0.0
 11
7.9779548687
 21
1.7847754071
 31
0.0
 11
7.9781509008
 21
1.7849071593
 31
0.0
  0
SPLINE
  5
442
100
AcDbEntity
  8
0
100
AcDbSpline
 62
6
  6
CONTINUOUS
 70
0
 71
3
 72
9
 73
5
 74
3
 42
0.0000001
 43
0.0000001
 44
0.0000000001
 12
0.0000670828
 22
0.0000186192
 32
0.0
 13
0.0000696188
 23
0.0
 33
0.0
 40
0.0
 40
0.0
 40
0.0
 40
0.0
 40
0.2544049071
 40
1.0
 40
1.0
 40
1.0
 40
1.0
 10
7.9781509008
 20
1.7849071593
 30
0.0
 10
7.9781565895
 20
1.7849087382
 30
0.0
 10
7.97817914
 20
1.7849142341
 30
0.0
 10
7.9782024377
 20
1.7849167145
 30
0.0
 10
7.9782197402
 20
1.7849167145
 30
0.0
 11
7.9781509008
 21
1.7849071593
 31
0.0
 11
7.9781681118
 21
1.7849113394
 31
0.0
 11
7.9782197402
 21
1.7849167145
 31
0.0
  0
SPLINE
  5
443
100
AcDbEntity
  8
0
100
AcDbSpline
 62
6
  6
CONTINUOUS
 70
0
 71
3
 72
44
 73
40
 74
38
 42
0.0000001
 43
0.0000001
 44
0.0000000001
 12
-0.2705391453
 22
0.0003959493
 32
0.0
 13
-0.0085259717
 23
-0.2704050549
 33
0.0
 40
0.0
 40
0.0
 40
0.0
 40
0.0
 40
0.000195793
 40
0.0003985177
 40
0.0008478193
 40
0.0013871373
 40
0.0020384938
 40
0.0028143141
 40
0.0037218317
 40
0.0047654637
 40
0.0059480309
 40
0.0072714016
 40
0.0087368476
 40
0.0120970545
 40
0.0160332257
 40
0.0205473943
 40
0.0256398149
 40
0.0313084935
 40
0.0375507142
 40
0.044363456
 40
0.0517434898
 40
0.0596874399
 40
0.0772525028
 40
0.09702023
 40
0.1189431755
 40
0.1429731281
 40
0.1690584374
 40
0.1971360858
 40
0.22714041
 40
0.2590052748
 40
0.2926570938
 40
0.3649990068
 40
0.4435022474
 40
0.5274347755
 40
0.6160227975
 40
0.7084426578
 40
0.8038385913
 40
0.9013258363
 40
1.0
 40
1.0
 40
1.0
 40
1.0
 10
8.1055402496
 20
1.7549165367
 30
0.0
 10
8.105522593
 20
1.7549165625
 30
0.0
 10
8.1054865614
 20
1.7549131073
 30
0.0
 10
8.1054127732
 20
1.7548916621
 30
0.0
 10
8.105319364
 20
1.7548351917
 30
0.0
 10
8.1052139373
 20
1.7547303396
 30
0.0
 10
8.1051092091
 20
1.7545865783
 30
0.0
 10
8.1050047077
 20
1.754403466
 30
0.0
 10
8.1049001162
 20
1.7541806882
 30
0.0
 10
8.1047954125
 20
1.7539180681
 30
0.0
 10
8.1046905912
 20
1.7536155258
 30
0.0
 10
8.1045856609
 20
1.753273038
 30
0.0
 10
8.1044388669
 20
1.7527382378
 30
0.0
 10
8.1042581799
 20
1.7519687759
 30
0.0
 10
8.1040493633
 20
1.7509242494
 30
0.0
 10
8.1038401301
 20
1.7497209161
 30
0.0
 10
8.1036305679
 20
1.7483593631
 30
0.0
 10
8.1034207514
 20
1.7468403798
 30
0.0
 10
8.1032107391
 20
1.7451649604
 30
0.0
 10
8.1030005804
 20
1.743334131
 30
0.0
 10
8.1027902974
 20
1.7413489295
 30
0.0
 10
8.1024999753
 20
1.7383972222
 30
0.0
 10
8.1021405563
 20
1.7343299251
 30
0.0
 10
8.101721675
 20
1.7290026391
 30
0.0
 10
8.1013022309
 20
1.7230907787
 30
0.0
 10
8.1008823622
 20
1.7166079365
 30
0.0
 10
8.1004622609
 20
1.7095690149
 30
0.0
 10
8.1000418922
 20
1.7019904563
 30
0.0
 10
8.0996213108
 20
1.6938899642
 30
0.0
 10
8.0992005996
 20
1.6852861664
 30
0.0
 10
8.0986255623
 20
1.672867399
 30
0.0
 10
8.0979122728
 20
1.656244746
 30
0.0
 10
8.0970746878
 20
1.6350890869
 30
0.0
 10
8.0962363066
 20
1.6124673199
 30
0.0
 10
8.0953974263
 20
1.5885897644
 30
0.0
 10
8.0945581292
 20
1.5636778483
 30
0.0
 10
8.093718574
 20
1.5379629724
 30
0.0
 10
8.0928788406
 20
1.5116837982
 30
0.0
 10
8.0923205989
 20
1.4940028096
 30
0.0
 10
8.0920401679
 20
1.4851088121
 30
0.0
 11
8.1055402496
 21
1.7549165367
 31
0.0
 11
8.1054875134
 21
1.7549115683
 31
0.0
 11
8.1054347772
 21
1.7548965059
 31
0.0
 11
8.1053293054
 21
1.7548360823
 31
0.0
 11
8.1052238341
 21
1.7547352626
 31
0.0
 11
8.1051183633
 21
1.7545940941
 31
0.0
 11
8.105012893
 21
1.7544126283
 31
0.0
 11
8.1049074231
 21
1.7541909172
 31
0.0
 11
8.1048019535
 21
1.7539290124
 31
0.0
 11
8.1046964843
 21
1.7536269659
 31
0.0
 11
8.1045910154
 21
1.7532848293
 31
0.0
 11
8.1044855466
 21
1.7529026544
 31
0.0
 11
8.1042746095
 21
1.7520183971
 31
0.0
 11
8.1040636726
 21
1.7509746082
 31
0.0
 11
8.1038527353
 21
1.7497717021
 31
0.0
 11
8.1036417976
 21
1.7484102455
 31
0.0
 11
8.1034308593
 21
1.7468912203
 31
0.0
 11
8.1032199206
 21
1.7452156791
 31
0.0
 11
8.1030089816
 21
1.7433846742
 31
0.0
 11
8.1027980425
 21
1.7413992581
 31
0.0
 11
8.1025871033
 21
1.7392604833
 31
0.0
 11
8.1021652253
 21
1.7345272049
 31
0.0
 11
8.1017433478
 21
1.7291959212
 31
0.0
 11
8.1013214705
 21
1.7232799232
 31
0.0
 11
8.1008995934
 21
1.7167925764
 31
0.0
 11
8.1004777161
 21
1.7097480928
 31
0.0
 11
8.1000558386
 21
1.702163706
 31
0.0
 11
8.0996339612
 21
1.6940573235
 31
0.0
 11
8.0992120837
 21
1.68544695
 31
0.0
 11
8.0987902063
 21
1.6763525858
 31
0.0
 11
8.0979464515
 21
1.6567994419
 31
0.0
 11
8.0971026967
 21
1.6355779866
 31
0.0
 11
8.0962589419
 21
1.6128866095
 31
0.0
 11
8.0954151871
 21
1.5889349131
 31
0.0
 11
8.0945714323
 21
1.5639459369
 31
0.0
 11
8.0937276775
 21
1.5381513711
 31
0.0
 11
8.0928839227
 21
1.511790727
 31
0.0
 11
8.0920401679
 21
1.4851088121
 31
0.0
  0
SPLINE
  5
444
100
AcDbEntity
  8
0
100
AcDbSpline
 62
6
  6
CONTINUOUS
 70
0
 71
3
 72
36
 73
32
 74
30
 42
0.0000001
 43
0.0000001
 44
0.0000000001
 12
-0.0056221902
 22
-0.1622604931
 32
0.0
 13
-0.0813135574
 23
-0.140528225
 33
0.0
 40
0.0
 40
0.0
 40
0.0
 40
0.0
 40
0.2044927538
 40
0.3006351258
 40
0.3921050145
 40
0.4784885609
 40
0.5593824875
 40
0.6344155532
 40
0.7032477795
 40
0.7655543467
 40
0.7941741761
 40
0.8210614466
 40
0.8461836255
 40
0.8695103811
 40
0.8910184271
 40
0.9106861898
 40
0.9284925055
 40
0.9444168256
 40
0.9584418417
 40
0.9647393613
 40
0.9705592233
 40
0.9759009743
 40
0.9807644688
 40
0.9851500046
 40
0.9871638514
 40
0.9890586473
 40
0.9924921772
 40
0.995454385
 40
0.9979522849
 40
0.9990312693
 40
1.0
 40
1.0
 40
1.0
 40
1.0
 10
8.0330395689
 20
1.361784906
 30
0.0
 10
8.0326563365
 20
1.350724541
 30
0.0
 10
8.0320764719
 20
1.3344646921
 30
0.0
 10
8.0312689881
 20
1.3132596068
 30
0.0
 10
8.0306760279
 20
1.2984429978
 30
0.0
 10
8.0300834078
 20
1.2844523047
 30
0.0
 10
8.0294910971
 20
1.2713519929
 30
0.0
 10
8.0288992131
 20
1.2592025613
 30
0.0
 10
8.028307988
 20
1.2480603223
 30
0.0
 10
8.0278026395
 20
1.239429015
 30
0.0
 10
8.0273951836
 20
1.233066041
 30
0.0
 10
8.0270984203
 20
1.2287125304
 30
0.0
 10
8.0268017866
 20
1.2246461758
 30
0.0
 10
8.026505256
 20
1.2208717612
 30
0.0
 10
8.0262089103
 20
1.2173934995
 30
0.0
 10
8.0259128078
 20
1.2142151529
 30
0.0
 10
8.0256170455
 20
1.2113403865
 30
0.0
 10
8.0253216873
 20
1.2087727474
 30
0.0
 10
8.0250677472
 20
1.2068274787
 30
0.0
 10
8.0248624986
 20
1.2054276099
 30
0.0
 10
8.0247142153
 20
1.2044944153
 30
0.0
 10
8.0245660302
 20
1.2036398659
 30
0.0
 10
8.0244179515
 20
1.2028641888
 30
0.0
 10
8.0242913391
 20
1.2022678826
 30
0.0
 10
8.0241894012
 20
1.2018307194
 30
0.0
 10
8.024093485
 20
1.2014451086
 30
0.0
 10
8.023974828
 20
1.2010122818
 30
0.0
 10
8.0238276731
 20
1.2005538469
 30
0.0
 10
8.0236999206
 20
1.2002234292
 30
0.0
 10
8.0235960119
 20
1.2000003553
 30
0.0
 10
8.0235438807
 20
1.1999024694
 30
0.0
 10
8.0235176237
 20
1.1998570914
 30
0.0
 11
8.0330395689
 21
1.361784906
 31
0.0
 11
8.0318493258
 21
1.3286052407
 31
0.0
 11
8.0312542042
 21
1.3130071191
 31
0.0
 11
8.0306590826
 21
1.2981681922
 31
0.0
 11
8.030063961
 21
1.284155776
 31
0.0
 11
8.0294688395
 21
1.2710355008
 31
0.0
 11
8.0288737179
 21
1.2588678374
 31
0.0
 11
8.0282785963
 21
1.2477082412
 31
0.0
 11
8.0276834747
 21
1.2376098005
 31
0.0
 11
8.0273859139
 21
1.2329726835
 31
0.0
 11
8.0270883532
 21
1.2286174769
 31
0.0
 11
8.0267907924
 21
1.224549562
 31
0.0
 11
8.0264932316
 21
1.2207739873
 31
0.0
 11
8.0261956708
 21
1.2172946879
 31
0.0
 11
8.02589811
 21
1.2141153662
 31
0.0
 11
8.0256005492
 21
1.2112397251
 31
0.0
 11
8.0253029884
 21
1.2086714668
 31
0.0
 11
8.0250054276
 21
1.206413921
 31
0.0
 11
8.0248566473
 21
1.2054023519
 31
0.0
 11
8.0247078669
 21
1.2044692382
 31
0.0
 11
8.0245590865
 21
1.2036148198
 31
0.0
 11
8.0244103061
 21
1.2028393364
 31
0.0
 11
8.0242615257
 21
1.2021430277
 31
0.0
 11
8.0241871355
 21
1.2018246388
 31
0.0
 11
8.0241127453
 21
1.2015261336
 31
0.0
 11
8.0239639649
 21
1.2009888937
 31
0.0
 11
8.0238151845
 21
1.2005315475
 31
0.0
 11
8.0236664041
 21
1.2001542702
 31
0.0
 11
8.0235920139
 21
1.1999956679
 31
0.0
 11
8.0235176237
 21
1.1998570914
 31
0.0
  0
SPLINE
  5
445
100
AcDbEntity
  8
0
100
AcDbSpline
 62
6
  6
CONTINUOUS
 70
0
 71
3
 72
77
 73
73
 74
71
 42
0.0000001
 43
0.0000001
 44
0.0000000001
 12
-0.5562855452
 22
-0.0005062478
 32
0.0
 13
-0.2785717762
 23
-0.4815097399
 33
0.0
 40
0.0
 40
0.0
 40
0.0
 40
0.0
 40
0.0000953189
 40
0.0001940546
 40
0.0004129506
 40
0.0006756647
 40
0.0009928756
 40
0.0013706342
 40
0.0018124814
 40
0.0023205949
 40
0.0028963782
 40
0.0035407727
 40
0.0042544304
 40
0.0058911711
 40
0.0078090389
 40
0.0100085776
 40
0.0124892942
 40
0.0152503299
 40
0.018290602
 40
0.021608881
 40
0.0252038369
 40
0.0290740203
 40
0.0332173036
 40
0.0376310839
 40
0.0472595204
 40
0.0579379725
 40
0.0696440783
 40
0.082350033
 40
0.0960256106
 40
0.1106404664
 40
0.1261616047
 40
0.142551568
 40
0.1777857288
 40
0.2160178147
 40
0.2568929015
 40
0.3000310455
 40
0.3450328329
 40
0.3914790422
 40
0.4389393894
 40
0.4869721223
 40
0.5351316385
 40
0.5829699934
 40
0.6300434606
 40
0.6759137785
 40
0.720156195
 40
0.7623584033
 40
0.8021299042
 40
0.8391009429
 40
0.8729285118
 40
0.8885646471
 40
0.9033006726
 40
0.917100943
 40
0.9299343695
 40
0.9417726979
 40
0.9525878237
 40
0.9623540683
 40
0.971051421
 40
0.9749933715
 40
0.978661071
 40
0.9820522672
 40
0.9851651914
 40
0.9879988192
 40
0.9905523144
 40
0.9928250392
 40
0.9948166674
 40
0.9965273926
 40
0.9972777676
 40
0.997958474
 40
0.998570035
 40
0.9991132625
 40
0.9995893302
 40
1.0
 40
1.0
 40
1.0
 40
1.0
 10
7.9955402477
 20
1.7549166415
 30
0.0
 10
7.9955225728
 20
1.7549166254
 30
0.0
 10
7.9954865047
 20
1.754913076
 30
0.0
 10
7.9954126562
 20
1.7548914243
 30
0.0
 10
7.9953191957
 20
1.7548347116
 30
0.0
 10
7.9952136844
 20
1.7547296232
 30
0.0
 10
7.9951088665
 20
1.7545856262
 30
0.0
 10
7.9950042741
 20
1.7544022718
 30
0.0
 10
7.9948995923
 20
1.7541792275
 30
0.0
 10
7.9947947988
 20
1.7539163001
 30
0.0
 10
7.9946898881
 20
1.7536133917
 30
0.0
 10
7.9945848685
 20
1.7532704607
 30
0.0
 10
7.9944379386
 20
1.7527348656
 30
0.0
 10
7.9942570854
 20
1.7519640869
 30
0.0
 10
7.9940481269
 20
1.7509176401
 30
0.0
 10
7.9938387454
 20
1.7497121029
 30
0.0
 10
7.993628994
 20
1.7483482448
 30
0.0
 10
7.9934189925
 20
1.7468268966
 30
0.0
 10
7.9932087974
 20
1.7451489426
 30
0.0
 10
7.9929984565
 20
1.7433152747
 30
0.0
 10
7.9927880003
 20
1.7413268052
 30
0.0
 10
7.9925774728
 20
1.7391845745
 30
0.0
 10
7.9923668721
 20
1.7368898374
 30
0.0
 10
7.9920775233
 20
1.7335301481
 30
0.0
 10
7.9917185157
 20
1.7289602435
 30
0.0
 10
7.9912986697
 20
1.723038943
 30
0.0
 10
7.990878522
 20
1.7165457028
 30
0.0
 10
7.9904580488
 20
1.7094956692
 30
0.0
 10
7.9900373038
 20
1.7019054003
 30
0.0
 10
7.989616387
 20
1.6937923796
 30
0.0
 10
7.9891953516
 20
1.6851754056
 30
0.0
 10
7.9886197971
 20
1.6727380531
 30
0.0
 10
7.987905972
 20
1.6560913928
 30
0.0
 10
7.9870676477
 20
1.6349057943
 30
0.0
 10
7.9862286156
 20
1.6122535318
 30
0.0
 10
7.9853890025
 20
1.5883451862
 30
0.0
 10
7.9845490405
 20
1.5634032009
 30
0.0
 10
7.9837087712
 20
1.5376593286
 30
0.0
 10
7.9828683573
 20
1.511353146
 30
0.0
 10
7.9820278259
 20
1.4847291118
 30
0.0
 10
7.9811872929
 20
1.4580349497
 30
0.0
 10
7.9803467921
 20
1.43151875
 30
0.0
 10
7.9795064457
 20
1.4054272434
 30
0.0
 10
7.9786662784
 20
1.3800028732
 30
0.0
 10
7.9778264721
 20
1.3554822687
 30
0.0
 10
7.9769870694
 20
1.3320932346
 30
0.0
 10
7.9761483407
 20
1.3100534072
 30
0.0
 10
7.9753104242
 20
1.2895676452
 30
0.0
 10
7.9745957627
 20
1.273556055
 30
0.0
 10
7.9740190752
 20
1.261665552
 30
0.0
 10
7.9735981672
 20
1.2534855282
 30
0.0
 10
7.9731774093
 20
1.2458259287
 30
0.0
 10
7.9727568623
 20
1.2387044979
 30
0.0
 10
7.9723366476
 20
1.2321376154
 30
0.0
 10
7.9719168503
 20
1.2261407058
 30
0.0
 10
7.9714974546
 20
1.220727761
 30
0.0
 10
7.9711378227
 20
1.2165886329
 30
0.0
 10
7.9708474723
 20
1.2135787994
 30
0.0
 10
7.9706370073
 20
1.2115497938
 30
0.0
 10
7.9704266518
 20
1.2096753882
 30
0.0
 10
7.9702164081
 20
1.2079566804
 30
0.0
 10
7.9700063425
 20
1.2063945436
 30
0.0
 10
7.9697965057
 20
1.2049897142
 30
0.0
 10
7.9695870016
 20
1.203742875
 30
0.0
 10
7.9693778978
 20
1.2026547237
 30
0.0
 10
7.9691971897
 20
1.2018488524
 30
0.0
 10
7.9690505322
 20
1.2012849777
 30
0.0
 10
7.9689454714
 20
1.2009210188
 30
0.0
 10
7.9688405064
 20
1.2005971815
 30
0.0
 10
7.9687356452
 20
1.2003134175
 30
0.0
 10
7.9686309141
 20
1.2000696826
 30
0.0
 10
7.9685557575
 20
1.199923189
 30
0.0
 10
7.9685176238
 20
1.1998572751
 30
0.0
 11
7.9955402477
 21
1.7549166415
 31
0.0
 11
7.9954874691
 21
1.75491154
 31
0.0
 11
7.9954346905
 21
1.7548963345
 31
0.0
 11
7.9953291334
 21
1.7548356277
 31
0.0
 11
7.9952235763
 21
1.7547345544
 31
0.0
 11
7.9951180192
 21
1.7545931479
 31
0.0
 11
7.9950124621
 21
1.7544114415
 31
0.0
 11
7.9949069049
 21
1.7541894684
 31
0.0
 11
7.9948013478
 21
1.7539272618
 31
0.0
 11
7.9946957907
 21
1.7536248551
 31
0.0
 11
7.9945902336
 21
1.7532822815
 31
0.0
 11
7.9944846764
 21
1.7528995743
 31
0.0
 11
7.9942735622
 21
1.7520138922
 31
0.0
 11
7.9940624479
 21
1.7509681058
 31
0.0
 11
7.9938513337
 21
1.749762884
 31
0.0
 11
7.9936402194
 21
1.7483991406
 31
0.0
 11
7.9934291052
 21
1.7468777939
 31
0.0
 11
7.9932179909
 21
1.7451997618
 31
0.0
 11
7.9930068767
 21
1.7433659626
 31
0.0
 11
7.9927957624
 21
1.7413773143
 31
0.0
 11
7.9925846482
 21
1.7392347621
 31
0.0
 11
7.9923735339
 21
1.7369396015
 31
0.0
 11
7.9921624197
 21
1.7344933712
 31
0.0
 11
7.9917401912
 21
1.7291538771
 31
0.0
 11
7.9913179627
 21
1.7232286309
 31
0.0
 11
7.9908957342
 21
1.7167303936
 31
0.0
 11
7.9904735057
 21
1.7096748743
 31
0.0
 11
7.9900512772
 21
1.7020790712
 31
0.0
 11
7.9896290487
 21
1.6939600063
 31
0.0
 11
7.9892068202
 21
1.6853361479
 31
0.0
 11
7.9887845917
 21
1.6762284263
 31
0.0
 11
7.9879401347
 21
1.6566463636
 31
0.0
 11
7.9870956777
 21
1.6353951695
 31
0.0
 11
7.9862512207
 21
1.6126726263
 31
0.0
 11
7.9854067637
 21
1.5886903532
 31
0.0
 11
7.9845623067
 21
1.5636707459
 31
0.0
 11
7.9837178497
 21
1.537847184
 31
0.0
 11
7.9828733928
 21
1.5114591764
 31
0.0
 11
7.9820289358
 21
1.4847525978
 31
0.0
 11
7.9811844788
 21
1.4579754563
 31
0.0
 11
7.9803400218
 21
1.4313770616
 31
0.0
 11
7.9794955648
 21
1.405204381
 31
0.0
 11
7.9786511078
 21
1.3797013527
 31
0.0
 11
7.9778066508
 21
1.3551044173
 31
0.0
 11
7.9769621938
 21
1.3316431217
 31
0.0
 11
7.9761177368
 21
1.3095349233
 31
0.0
 11
7.9752732798
 21
1.2889858043
 31
0.0
 11
7.9744288228
 21
1.2701869662
 31
0.0
 11
7.9740065943
 21
1.2614990605
 31
0.0
 11
7.9735843658
 21
1.2533125003
 31
0.0
 11
7.9731621373
 21
1.2456472263
 31
0.0
 11
7.9727399088
 21
1.2385206706
 31
0.0
 11
7.9723176803
 21
1.2319487264
 31
0.0
 11
7.9718954518
 21
1.2259472602
 31
0.0
 11
7.9714732233
 21
1.2205308695
 31
0.0
 11
7.9710509948
 21
1.2157111149
 31
0.0
 11
7.9708398806
 21
1.21352845
 31
0.0
 11
7.9706287663
 21
1.2114991126
 31
0.0
 11
7.9704176521
 21
1.2096244885
 31
0.0
 11
7.9702065378
 21
1.20790573
 31
0.0
 11
7.9699954236
 21
1.2063436244
 31
0.0
 11
7.9697843093
 21
1.2049389271
 31
0.0
 11
7.9695731951
 21
1.2036923935
 31
0.0
 11
7.9693620808
 21
1.202604779
 31
0.0
 11
7.9691509666
 21
1.2016768391
 31
0.0
 11
7.9690454095
 21
1.2012729832
 31
0.0
 11
7.9689398523
 21
1.2009093259
 31
0.0
 11
7.9688342952
 21
1.2005859136
 31
0.0
 11
7.9687287381
 21
1.2003027593
 31
0.0
 11
7.968623181
 21
1.2000598757
 31
0.0
 11
7.9685176238
 21
1.1998572751
 31
0.0
  0
SPLINE
  5
446
100
AcDbEntity
  8
0
100
AcDbSpline
 62
6
  6
CONTINUOUS
 70
0
 71
3
 72
78
 73
74
 74
72
 42
0.0000001
 43
0.0000001
 44
0.0000000001
 12
-0.3080289545
 22
-0.5336415805
 32
0.0
 13
-0.5936718489
 23
-0.1649512325
 33
0.0
 40
0.0
 40
0.0
 40
0.0
 40
0.0
 40
0.0003741052
 40
0.0008137582
 40
0.0013207299
 40
0.0018961431
 40
0.0025407391
 40
0.003255022
 40
0.0048938769
 40
0.0068145314
 40
0.0090175011
 40
0.0115020995
 40
0.0142672483
 40
0.0173116873
 40
0.0206340369
 40
0.0242328362
 40
0.0281065635
 40
0.0366704064
 40
0.0463048628
 40
0.0569878801
 40
0.0686968288
 40
0.0814044062
 40
0.0950802621
 40
0.109693915
 40
0.1252125359
 40
0.1415988085
 40
0.1588148816
 40
0.1955785441
 40
0.2351604197
 40
0.2771952746
 40
0.3212911725
 40
0.3670401844
 40
0.4140191602
 40
0.4617921736
 40
0.5099159334
 40
0.557943105
 40
0.6054281864
 40
0.6519309181
 40
0.6970214313
 40
0.7402808913
 40
0.781309364
 40
0.8197243023
 40
0.8551704479
 40
0.871676019
 40
0.8873193489
 40
0.9020630196
 40
0.9158729255
 40
0.9287187355
 40
0.9405703798
 40
0.9513993958
 40
0.9611827353
 40
0.9698986777
 40
0.9738496824
 40
0.9775261975
 40
0.9809266433
 40
0.9840495655
 40
0.9868935835
 40
0.9894574232
 40
0.9917399712
 40
0.9937403864
 40
0.9954587509
 40
0.9962125894
 40
0.9968965323
 40
0.9975109887
 40
0.9980565527
 40
0.9985341079
 40
0.9989450147
 40
0.9992914647
 40
0.9994416798
 40
0.999577397
 40
0.9996995772
 40
0.999809541
 40
1.0
 40
1.0
 40
1.0
 40
1.0
 10
8.136429836
 20
1.7845430289
 30
0.0
 10
8.1363914242
 20
1.7844764829
 30
0.0
 10
8.1363159569
 20
1.7843270581
 30
0.0
 10
8.1362114685
 20
1.7840765786
 30
0.0
 10
8.136106795
 20
1.7837818851
 30
0.0
 10
8.1360019772
 20
1.7834429485
 30
0.0
 10
8.1358970282
 20
1.7830597228
 30
0.0
 10
8.1357501582
 20
1.782461743
 30
0.0
 10
8.1355694027
 20
1.7816025413
 30
0.0
 10
8.1353605439
 20
1.7804374649
 30
0.0
 10
8.1351513093
 20
1.7790963503
 30
0.0
 10
8.1349417211
 20
1.7775800156
 30
0.0
 10
8.1347318985
 20
1.7758894223
 30
0.0
 10
8.1345218922
 20
1.7740256008
 30
0.0
 10
8.1343117479
 20
1.7719895877
 30
0.0
 10
8.13410148
 20
1.7697824317
 30
0.0
 10
8.1338112103
 20
1.7665015617
 30
0.0
 10
8.1334518415
 20
1.7619824276
 30
0.0
 10
8.1330329046
 20
1.7560653348
 30
0.0
 10
8.1326134227
 20
1.7495008633
 30
0.0
 10
8.1321935962
 20
1.7423040714
 30
0.0
 10
8.1317734874
 20
1.7344916482
 30
0.0
 10
8.1313531069
 20
1.7260818545
 30
0.0
 10
8.1309325475
 20
1.7170940459
 30
0.0
 10
8.1305118759
 20
1.7075489867
 30
0.0
 10
8.1300910425
 20
1.6974689412
 30
0.0
 10
8.1295171548
 20
1.6830280536
 30
0.0
 10
8.1288049114
 20
1.6638248652
 30
0.0
 10
8.1279668214
 20
1.639525476
 30
0.0
 10
8.1271282017
 20
1.6137193187
 30
0.0
 10
8.1262890838
 20
1.5866458946
 30
0.0
 10
8.1254496687
 20
1.5585565533
 30
0.0
 10
8.1246100302
 20
1.52971166
 30
0.0
 10
8.1237702426
 20
1.5003788262
 30
0.0
 10
8.1229304065
 20
1.4708306208
 30
0.0
 10
8.1220905849
 20
1.4413415763
 30
0.0
 10
8.1212508716
 20
1.4121856028
 30
0.0
 10
8.1204113123
 20
1.3836330306
 30
0.0
 10
8.1195720401
 20
1.3559487224
 30
0.0
 10
8.118733083
 20
1.3293892816
 30
0.0
 10
8.1178947077
 20
1.304201613
 30
0.0
 10
8.1170569743
 20
1.2806196195
 30
0.0
 10
8.1163439045
 20
1.2620731254
 30
0.0
 10
8.115769005
 20
1.2482018657
 30
0.0
 10
8.1153482981
 20
1.2385799143
 30
0.0
 10
8.1149277339
 20
1.22951217
 30
0.0
 10
8.1145073181
 20
1.2210196491
 30
0.0
 10
8.1140871625
 20
1.2131218763
 30
0.0
 10
8.1136673156
 20
1.2058372543
 30
0.0
 10
8.1132477831
 20
1.1991827342
 30
0.0
 10
8.1128287556
 20
1.1931736196
 30
0.0
 10
8.1124694908
 20
1.1885765517
 30
0.0
 10
8.1121794283
 20
1.1852323504
 30
0.0
 10
8.1119691422
 20
1.1829771116
 30
0.0
 10
8.1117589736
 20
1.1808927318
 30
0.0
 10
8.1115489352
 20
1.1789802598
 30
0.0
 10
8.1113390675
 20
1.1772407201
 30
0.0
 10
8.1111294152
 20
1.1756751312
 30
0.0
 10
8.1109200837
 20
1.1742844684
 30
0.0
 10
8.1107111072
 20
1.1730696165
 30
0.0
 10
8.1105304729
 20
1.1721687332
 30
0.0
 10
8.1103838871
 20
1.1715372433
 30
0.0
 10
8.110278885
 20
1.1711289795
 30
0.0
 10
8.1101739966
 20
1.1707649988
 30
0.0
 10
8.1100692383
 20
1.1704453003
 30
0.0
 10
8.1099646445
 20
1.1701698102
 30
0.0
 10
8.1098602202
 20
1.1699384782
 30
0.0
 10
8.1097694911
 20
1.1697752122
 30
0.0
 10
8.1096958377
 20
1.1696681072
 30
0.0
 10
8.1096432364
 20
1.1696027411
 30
0.0
 10
8.1095904958
 20
1.1695483875
 30
0.0
 10
8.1095233808
 20
1.1694933207
 30
0.0
 10
8.1094673606
 20
1.1694639509
 30
0.0
 10
8.1094296705
 20
1.1694534787
 30
0.0
 11
8.136429836
 21
1.7845430289
 31
0.0
 11
8.1363243791
 21
1.7843380573
 31
0.0
 11
8.1362189062
 21
1.7840885361
 31
0.0
 11
8.1361134199
 21
1.7837945093
 31
0.0
 11
8.1360079232
 21
1.7834560209
 31
0.0
 11
8.1359024186
 21
1.7830731149
 31
0.0
 11
8.135796909
 21
1.7826458353
 31
0.0
 11
8.1355858856
 21
1.7816583313
 31
0.0
 11
8.1353748751
 21
1.7804938615
 31
0.0
 11
8.1351638918
 21
1.7791529733
 31
0.0
 11
8.1349529326
 21
1.7776366638
 31
0.0
 11
8.1347419918
 21
1.7759459936
 31
0.0
 11
8.1345310637
 21
1.7740820235
 31
0.0
 11
8.1343201427
 21
1.7720458141
 31
0.0
 11
8.1341092232
 21
1.769838426
 31
0.0
 11
8.1338982994
 21
1.7674609216
 31
0.0
 11
8.1334764309
 21
1.7622011011
 31
0.0
 11
8.1330545447
 21
1.7562797289
 31
0.0
 11
8.1326326552
 21
1.7497107973
 31
0.0
 11
8.132210776
 21
1.7425085376
 31
0.0
 11
8.1317889083
 21
1.734689989
 31
0.0
 11
8.1313670459
 21
1.7262740177
 31
0.0
 11
8.1309451824
 21
1.7172795331
 31
0.0
 11
8.1305233137
 21
1.7077268649
 31
0.0
 11
8.1301014402
 21
1.6976390899
 31
0.0
 11
8.1296795627
 21
1.6870395983
 31
0.0
 11
8.1288357998
 21
1.6644029593
 31
0.0
 11
8.1279920332
 21
1.6400287258
 31
0.0
 11
8.1271482728
 21
1.6141422078
 31
0.0
 11
8.1263045311
 21
1.5869851107
 31
0.0
 11
8.1254608027
 21
1.558808954
 31
0.0
 11
8.1246170647
 21
1.5298746103
 31
0.0
 11
8.123773315
 21
1.5004508068
 31
0.0
 11
8.1229295636
 21
1.4708107988
 31
0.0
 11
8.1220858221
 21
1.4412303285
 31
0.0
 11
8.1212420944
 21
1.4119840104
 31
0.0
 11
8.1203983716
 21
1.3833432356
 31
0.0
 11
8.1195546404
 21
1.3555730052
 31
0.0
 11
8.1187108887
 21
1.3289315429
 31
0.0
 11
8.1178671231
 21
1.3036654565
 31
0.0
 11
8.117023355
 21
1.2800106888
 31
0.0
 11
8.116179593
 21
1.258186438
 31
0.0
 11
8.115757717
 21
1.248025092
 31
0.0
 11
8.1153358459
 21
1.2383955087
 31
0.0
 11
8.1149139806
 21
1.2293208249
 31
0.0
 11
8.1144921192
 21
1.2208221544
 31
0.0
 11
8.1140702562
 21
1.2129183094
 31
0.0
 11
8.1136483861
 21
1.2056279767
 31
0.0
 11
8.1132265071
 21
1.1989689028
 31
0.0
 11
8.1128046309
 21
1.1929555648
 31
0.0
 11
8.1123827723
 21
1.18760173
 31
0.0
 11
8.1121718541
 21
1.1851764265
 31
0.0
 11
8.1119609432
 21
1.1829209386
 31
0.0
 11
8.111750034
 21
1.1808363566
 31
0.0
 11
8.1115391202
 21
1.1789237257
 31
0.0
 11
8.1113281958
 21
1.1771840912
 31
0.0
 11
8.1111172545
 21
1.1756184983
 31
0.0
 11
8.1109062903
 21
1.1742279922
 31
0.0
 11
8.1106952974
 21
1.1730136062
 31
0.0
 11
8.1104842834
 21
1.1719760562
 31
0.0
 11
8.1103787752
 21
1.1715237116
 31
0.0
 11
8.1102732699
 21
1.1711157129
 31
0.0
 11
8.1101677704
 21
1.1707521043
 31
0.0
 11
8.1100622795
 21
1.17043293
 31
0.0
 11
8.1099567999
 21
1.1701582342
 31
0.0
 11
8.1098513345
 21
1.169928061
 31
0.0
 11
8.109745886
 21
1.1697424546
 31
0.0
 11
8.109693169
 21
1.1696663779
 31
0.0
 11
8.1096404573
 21
1.1696014594
 31
0.0
 11
8.1095877513
 21
1.1695477047
 31
0.0
 11
8.1095350512
 21
1.1695051193
 31
0.0
 11
8.1094296705
 21
1.1694534787
 31
0.0
  0
SPLINE
  5
447
100
AcDbEntity
  8
0
100
AcDbSpline
 62
6
  6
CONTINUOUS
 70
0
 71
3
 72
9
 73
5
 74
3
 42
0.0000001
 43
0.0000001
 44
0.0000000001
 12
-0.0000671522
 22
-0.0000186582
 32
0.0
 13
-0.0000696961
 23
0.0
 33
0.0
 40
0.0
 40
0.0
 40
0.0
 40
0.0
 40
0.254413912
 40
1.0
 40
1.0
 40
1.0
 40
1.0
 10
8.1094296705
 20
1.1694534787
 30
0.0
 10
8.1094239757
 20
1.1694518964
 30
0.0
 10
8.1094014015
 20
1.1694463889
 30
0.0
 10
8.1093780778
 20
1.1694439029
 30
0.0
 10
8.1093607563
 20
1.1694439029
 30
0.0
 11
8.1094296705
 21
1.1694534787
 31
0.0
 11
8.1094124408
 21
1.1694492896
 31
0.0
 11
8.1093607563
 21
1.1694439029
 31
0.0
  0
SPLINE
  5
448
100
AcDbEntity
  8
0
100
AcDbSpline
 62
6
  6
CONTINUOUS
 70
0
 71
3
 72
78
 73
74
 74
72
 42
0.0000001
 43
0.0000001
 44
0.0000000001
 12
-0.2783246765
 22
-0.4816527581
 32
0.0
 13
-0.5562858533
 23
0.000233435
 33
0.0
 40
0.0
 40
0.0
 40
0.0
 40
0.0
 40
0.0004110403
 40
0.0008874941
 40
0.0014310527
 40
0.002042818
 40
0.0027235313
 40
0.0034737022
 40
0.0051836594
 40
0.007174536
 40
0.0094471187
 40
0.0120012099
 40
0.0148356828
 40
0.0179491672
 40
0.021340159
 40
0.0250070622
 40
0.028948215
 40
0.0376458828
 40
0.0474134741
 40
0.058227728
 40
0.0700651063
 40
0.0828997312
 40
0.096700411
 40
0.1114351228
 40
0.1270714311
 40
0.1435726884
 40
0.1608995288
 40
0.1978706077
 40
0.2376415935
 40
0.279844558
 40
0.3240861681
 40
0.3699571556
 40
0.4170301439
 40
0.4648687957
 40
0.5130280709
 40
0.5610610864
 40
0.6085210024
 40
0.6549677844
 40
0.6999689226
 40
0.7431075929
 40
0.783982452
 40
0.822214302
 40
0.8574492517
 40
0.8738390739
 40
0.8893590349
 40
0.9039745389
 40
0.9176511268
 40
0.9303559412
 40
0.9420614544
 40
0.9527413602
 40
0.9623697424
 40
0.9667827259
 40
0.9709253448
 40
0.9747955043
 40
0.9783911487
 40
0.9817102746
 40
0.9847509513
 40
0.9875115819
 40
0.9899914734
 40
0.992190308
 40
0.9941081205
 40
0.9957455422
 40
0.9964596424
 40
0.9971044454
 40
0.9976805284
 40
0.9981887619
 40
0.9986305146
 40
0.9990080244
 40
0.9993249141
 40
0.9995873209
 40
0.9998060084
 40
0.999904695
 40
1.0
 40
1.0
 40
1.0
 40
1.0
 10
8.1190628703
 20
1.7545036365
 30
0.0
 10
8.1190247361
 20
1.7544376436
 30
0.0
 10
8.1189495846
 20
1.7542909901
 30
0.0
 10
8.1188448587
 20
1.754047034
 30
0.0
 10
8.1187400012
 20
1.7537630869
 30
0.0
 10
8.1186350393
 20
1.7534391432
 30
0.0
 10
8.1185299766
 20
1.7530751838
 30
0.0
 10
8.1183833189
 20
1.7525114942
 30
0.0
 10
8.1182025884
 20
1.7517059555
 30
0.0
 10
8.1179934611
 20
1.7506181215
 30
0.0
 10
8.1177839619
 20
1.7493713366
 30
0.0
 10
8.1175741526
 20
1.7479662591
 30
0.0
 10
8.117364105
 20
1.7464037452
 30
0.0
 10
8.1171538755
 20
1.7446848111
 30
0.0
 10
8.1169435087
 20
1.7428104886
 30
0.0
 10
8.1167330249
 20
1.7407818198
 30
0.0
 10
8.1164426304
 20
1.7377722281
 30
0.0
 10
8.116083024
 20
1.7336329354
 30
0.0
 10
8.1156637046
 20
1.7282198369
 30
0.0
 10
8.1152438459
 20
1.7222230188
 30
0.0
 10
8.1148235924
 20
1.7156562529
 30
0.0
 10
8.1144031086
 20
1.7085346946
 30
0.0
 10
8.1139823586
 20
1.7008750384
 30
0.0
 10
8.1135614024
 20
1.6926951511
 30
0.0
 10
8.1131403422
 20
1.6840138831
 30
0.0
 10
8.1127191637
 20
1.6748514327
 30
0.0
 10
8.1121449403
 20
1.6617357938
 30
0.0
 10
8.1114321998
 20
1.6443072566
 30
0.0
 10
8.1105933988
 20
1.6222673782
 30
0.0
 10
8.1097540524
 20
1.5988784406
 30
0.0
 10
8.108914196
 20
1.5743577176
 30
0.0
 10
8.1080740696
 20
1.5489334544
 30
0.0
 10
8.107233693
 20
1.5228418524
 30
0.0
 10
8.1063932133
 20
1.4963257244
 30
0.0
 10
8.1055526628
 20
1.4696314939
 30
0.0
 10
8.1047121509
 20
1.4430075254
 30
0.0
 10
8.1038717109
 20
1.4167012589
 30
0.0
 10
8.1030314743
 20
1.3909574739
 30
0.0
 10
8.1021914772
 20
1.3660154007
 30
0.0
 10
8.1013518917
 20
1.3421071137
 30
0.0
 10
8.1005128502
 20
1.3194548348
 30
0.0
 10
8.0996745094
 20
1.2982691717
 30
0.0
 10
8.0989607049
 20
1.2816224303
 30
0.0
 10
8.0983851652
 20
1.2691851725
 30
0.0
 10
8.097964079
 20
1.2605683234
 30
0.0
 10
8.0975431823
 20
1.2524552106
 30
0.0
 10
8.0971224893
 20
1.2448648408
 30
0.0
 10
8.0967019682
 20
1.2378149425
 30
0.0
 10
8.0962817761
 20
1.2313217558
 30
0.0
 10
8.0958620129
 20
1.2254002983
 30
0.0
 10
8.0955030059
 20
1.2208302801
 30
0.0
 10
8.095213622
 20
1.2174708751
 30
0.0
 10
8.0950030069
 20
1.2151764153
 30
0.0
 10
8.0947924732
 20
1.2130341849
 30
0.0
 10
8.0945820321
 20
1.2110454315
 30
0.0
 10
8.0943717101
 20
1.2092113989
 30
0.0
 10
8.0941615348
 20
1.2075332837
 30
0.0
 10
8.0939515222
 20
1.2060120909
 30
0.0
 10
8.0937417509
 20
1.2046485983
 30
0.0
 10
8.0935323398
 20
1.2034433642
 30
0.0
 10
8.0933233605
 20
1.2023969371
 30
0.0
 10
8.0931425385
 20
1.2016259488
 30
0.0
 10
8.0929956261
 20
1.2010900543
 30
0.0
 10
8.092890613
 20
1.2007468981
 30
0.0
 10
8.092785711
 20
1.2004438239
 30
0.0
 10
8.0926809273
 20
1.2001808268
 30
0.0
 10
8.092576245
 20
1.1999578271
 30
0.0
 10
8.0924716482
 20
1.1997746147
 30
0.0
 10
8.0923668212
 20
1.1996308227
 30
0.0
 10
8.0922612904
 20
1.1995259666
 30
0.0
 10
8.0921678194
 20
1.1994694705
 30
0.0
 10
8.0920939812
 20
1.1994479653
 30
0.0
 10
8.0920579202
 20
1.1994444736
 30
0.0
 10
8.0920402479
 20
1.199444481
 30
0.0
 11
8.1190628703
 21
1.7545036365
 31
0.0
 11
8.1189573125
 21
1.7543008039
 31
0.0
 11
8.118851755
 21
1.7540576862
 31
0.0
 11
8.1187461979
 21
1.7537743353
 31
0.0
 11
8.118640641
 21
1.7534508032
 31
0.0
 11
8.1185350844
 21
1.7530871418
 31
0.0
 11
8.1184295279
 21
1.7526834029
 31
0.0
 11
8.1182184153
 21
1.7517559005
 31
0.0
 11
8.1180073028
 21
1.7506687114
 31
0.0
 11
8.1177961898
 21
1.7494222575
 31
0.0
 11
8.1175850763
 21
1.7480172245
 31
0.0
 11
8.1173739624
 21
1.7464546441
 31
0.0
 11
8.117162848
 21
1.7447355713
 31
0.0
 11
8.1169517334
 21
1.7428610611
 31
0.0
 11
8.1167406187
 21
1.7408321687
 31
0.0
 11
8.116529504
 21
1.7386499491
 31
0.0
 11
8.1161072748
 21
1.7338300175
 31
0.0
 11
8.1156850462
 21
1.7284128742
 31
0.0
 11
8.1152628179
 21
1.7224118928
 31
0.0
 11
8.1148405896
 21
1.7158404768
 31
0.0
 11
8.1144183611
 21
1.7087132516
 31
0.0
 11
8.1139961325
 21
1.7010477478
 31
0.0
 11
8.1135739039
 21
1.6928619174
 31
0.0
 11
8.1131516753
 21
1.6841739134
 31
0.0
 11
8.1127294468
 21
1.6750042125
 31
0.0
 11
8.1123072182
 21
1.6653747879
 31
0.0
 11
8.1114627611
 21
1.6448256419
 31
0.0
 11
8.110618304
 21
1.6227177252
 31
0.0
 11
8.1097738469
 21
1.5992560033
 31
0.0
 11
8.1089293898
 21
1.5746595112
 31
0.0
 11
8.1080849327
 21
1.5491561043
 31
0.0
 11
8.1072404756
 21
1.5229836843
 31
0.0
 11
8.1063960185
 21
1.4963851183
 31
0.0
 11
8.1055515615
 21
1.4696081048
 31
0.0
 11
8.1047071044
 21
1.4429013629
 31
0.0
 11
8.1038626473
 21
1.4165135893
 31
0.0
 11
8.1030181902
 21
1.3906897027
 31
0.0
 11
8.1021737331
 21
1.3656704511
 31
0.0
 11
8.101329276
 21
1.3416878796
 31
0.0
 11
8.1004848189
 21
1.318965458
 31
0.0
 11
8.0996403618
 21
1.2977143904
 31
0.0
 11
8.0987959047
 21
1.2781318839
 31
0.0
 11
8.0983736761
 21
1.2690242388
 31
0.0
 11
8.0979514476
 21
1.2604010342
 31
0.0
 11
8.097529219
 21
1.2522816063
 31
0.0
 11
8.0971069905
 21
1.2446852386
 31
0.0
 11
8.0966847619
 21
1.2376303532
 31
0.0
 11
8.0962625334
 21
1.2311324448
 31
0.0
 11
8.0958403048
 21
1.2252063865
 31
0.0
 11
8.0954180763
 21
1.2198669215
 31
0.0
 11
8.095206962
 21
1.2174211355
 31
0.0
 11
8.0949958477
 21
1.2151263455
 31
0.0
 11
8.0947847335
 21
1.2129838062
 31
0.0
 11
8.0945736192
 21
1.2109947723
 31
0.0
 11
8.0943625049
 21
1.2091604984
 31
0.0
 11
8.0941513906
 21
1.2074822391
 31
0.0
 11
8.0939402764
 21
1.2059611195
 31
0.0
 11
8.0937291621
 21
1.2045978403
 31
0.0
 11
8.0935180478
 21
1.2033930159
 31
0.0
 11
8.0933069335
 21
1.2023472607
 31
0.0
 11
8.0930958193
 21
1.2014611889
 31
0.0
 11
8.0929902621
 21
1.2010782262
 31
0.0
 11
8.092884705
 21
1.2007354148
 31
0.0
 11
8.0927791479
 21
1.2004328314
 31
0.0
 11
8.0926735907
 21
1.2001705528
 31
0.0
 11
8.0925680336
 21
1.1999486379
 31
0.0
 11
8.0924624764
 21
1.1997670915
 31
0.0
 11
8.0923569193
 21
1.199625908
 31
0.0
 11
8.0922513622
 21
1.199525082
 31
0.0
 11
8.092145805
 21
1.1994646082
 31
0.0
 11
8.0920930265
 21
1.1994495016
 31
0.0
 11
8.0920402479
 21
1.199444481
 31
0.0
  0
SPLINE
  5
449
100
AcDbEntity
  8
0
100
AcDbSpline
 62
6
  6
CONTINUOUS
 70
0
 71
3
 72
78
 73
74
 74
72
 42
0.0000001
 43
0.0000001
 44
0.0000000001
 12
-0.3080285107
 22
-0.5336418718
 32
0.0
 13
-0.5936913484
 23
-0.16488115
 33
0.0
 40
0.0
 40
0.0
 40
0.0
 40
0.0
 40
0.0003741064
 40
0.0008137606
 40
0.0013207334
 40
0.0018961474
 40
0.0025407438
 40
0.0032550266
 40
0.0048938792
 40
0.0068145276
 40
0.0090174852
 40
0.0115020648
 40
0.0142671881
 40
0.0173115955
 40
0.0206339073
 40
0.024232663
 40
0.02810634
 40
0.0366700074
 40
0.046304228
 40
0.0569870264
 40
0.0686957835
 40
0.0814031012
 40
0.0950787593
 40
0.1096924072
 40
0.1252110707
 40
0.1415973968
 40
0.1588135892
 40
0.1955774931
 40
0.2351595872
 40
0.2771946712
 40
0.3212908214
 40
0.3670400163
 40
0.4140190237
 40
0.4617917354
 40
0.5099148546
 40
0.5579415718
 40
0.6054267265
 40
0.6519297139
 40
0.6970205403
 40
0.7402802743
 40
0.7813089644
 40
0.8197241471
 40
0.8551704565
 40
0.8716761295
 40
0.887319543
 40
0.9020632455
 40
0.91587319
 40
0.9287190196
 40
0.9405706183
 40
0.9513995594
 40
0.9611828315
 40
0.9698986916
 40
0.9738496452
 40
0.9775261412
 40
0.9809266036
 40
0.9840495648
 40
0.986893631
 40
0.9894575152
 40
0.9917400908
 40
0.9937405075
 40
0.9954588632
 40
0.9962126949
 40
0.9968966294
 40
0.997511076
 40
0.9980566288
 40
0.9985341715
 40
0.9989450648
 40
0.9992915006
 40
0.9994417085
 40
0.9995774188
 40
0.9996995923
 40
0.99980955
 40
1.0
 40
1.0
 40
1.0
 40
1.0
 10
8.026429836
 20
1.7845430276
 30
0.0
 10
8.0263914241
 20
1.7844764814
 30
0.0
 10
8.0263159567
 20
1.7843270561
 30
0.0
 10
8.0262114681
 20
1.7840765759
 30
0.0
 10
8.0261067945
 20
1.7837818818
 30
0.0
 10
8.0260019765
 20
1.7834429447
 30
0.0
 10
8.0258970275
 20
1.7830597187
 30
0.0
 10
8.0257501575
 20
1.7824617392
 30
0.0
 10
8.0255694022
 20
1.7816025392
 30
0.0
 10
8.0253605441
 20
1.780437467
 30
0.0
 10
8.0251513104
 20
1.7790963598
 30
0.0
 10
8.0249417234
 20
1.7775800366
 30
0.0
 10
8.0247319024
 20
1.7758894588
 30
0.0
 10
8.0245218978
 20
1.7740256565
 30
0.0
 10
8.0243117556
 20
1.7719896665
 30
0.0
 10
8.0241014898
 20
1.7697825373
 30
0.0
 10
8.0238112248
 20
1.7665017223
 30
0.0
 10
8.02345186
 20
1.7619826828
 30
0.0
 10
8.0230329279
 20
1.7560657191
 30
0.0
 10
8.0226134525
 20
1.7495013798
 30
0.0
 10
8.0221936346
 20
1.742304725
 30
0.0
 10
8.0217735276
 20
1.7344924349
 30
0.0
 10
8.0213531475
 20
1.7260827358
 30
0.0
 10
8.0209325904
 20
1.7170949596
 30
0.0
 10
8.0205119158
 20
1.7075498813
 30
0.0
 10
8.0200910768
 20
1.6974697913
 30
0.0
 10
8.0195171836
 20
1.6830288181
 30
0.0
 10
8.0188049343
 20
1.6638255099
 30
0.0
 10
8.0179668384
 20
1.6395259781
 30
0.0
 10
8.0171282127
 20
1.6137196758
 30
0.0
 10
8.0162890906
 20
1.586646114
 30
0.0
 10
8.0154496721
 20
1.5585566755
 30
0.0
 10
8.0146100342
 20
1.5297117987
 30
0.0
 10
8.0137702518
 20
1.5003791504
 30
0.0
 10
8.012930424
 20
1.4708312303
 30
0.0
 10
8.012090608
 20
1.4413423941
 30
0.0
 10
8.0112508965
 20
1.4121864449
 30
0.0
 10
8.0104113332
 20
1.3836337394
 30
0.0
 10
8.0095720567
 20
1.3559492568
 30
0.0
 10
8.0087330953
 20
1.3293896495
 30
0.0
 10
8.0078947144
 20
1.3042018286
 30
0.0
 10
8.0070569784
 20
1.2806197055
 30
0.0
 10
8.006343903
 20
1.2620731059
 30
0.0
 10
8.0057690012
 20
1.2482017737
 30
0.0
 10
8.0053482929
 20
1.2385797773
 30
0.0
 10
8.0049277252
 20
1.2295120011
 30
0.0
 10
8.0045073076
 20
1.2210194612
 30
0.0
 10
8.0040871517
 20
1.2131216855
 30
0.0
 10
8.0036673048
 20
1.2058370839
 30
0.0
 10
8.0032477749
 20
1.199182602
 30
0.0
 10
8.0028287523
 20
1.193173533
 30
0.0
 10
8.0024694908
 20
1.1885765059
 30
0.0
 10
8.0021794272
 20
1.185232336
 30
0.0
 10
8.0019691401
 20
1.1829771083
 30
0.0
 10
8.0017589698
 20
1.180892721
 30
0.0
 10
8.0015489288
 20
1.1789802278
 30
0.0
 10
8.0013390579
 20
1.1772406611
 30
0.0
 10
8.0011294022
 20
1.1756750476
 30
0.0
 10
8.0009200674
 20
1.17428437
 30
0.0
 10
8.000711086
 20
1.1730695146
 30
0.0
 10
8.0005304485
 20
1.1721686348
 30
0.0
 10
8.0003838605
 20
1.1715371504
 30
0.0
 10
8.0002788573
 20
1.1711288922
 30
0.0
 10
8.0001739679
 20
1.1707649181
 30
0.0
 10
8.0000692088
 20
1.1704452271
 30
0.0
 10
7.9999646143
 20
1.1701697454
 30
0.0
 10
7.9998601894
 20
1.1699384227
 30
0.0
 10
7.9997694598
 20
1.1697751651
 30
0.0
 10
7.9996958058
 20
1.1696680674
 30
0.0
 10
7.9996432044
 20
1.169602707
 30
0.0
 10
7.9995904635
 20
1.1695483591
 30
0.0
 10
7.9995233481
 20
1.1694932999
 30
0.0
 10
7.9994673274
 20
1.169463937
 30
0.0
 10
7.9994296379
 20
1.1694534698
 30
0.0
 11
8.026429836
 21
1.7845430276
 31
0.0
 11
8.0263243789
 21
1.7843380553
 31
0.0
 11
8.0262189058
 21
1.7840885333
 31
0.0
 11
8.0261134194
 21
1.7837945059
 31
0.0
 11
8.0260079225
 21
1.783456017
 31
0.0
 11
8.0259024179
 21
1.7830731107
 31
0.0
 11
8.0257969082
 21
1.7826458312
 31
0.0
 11
8.0255858851
 21
1.7816583285
 31
0.0
 11
8.0253748751
 21
1.7804938624
 31
0.0
 11
8.0251638927
 21
1.7791529815
 31
0.0
 11
8.0249529347
 21
1.7776366835
 31
0.0
 11
8.0247419954
 21
1.7759460288
 31
0.0
 11
8.0245310692
 21
1.774082078
 31
0.0
 11
8.0243201502
 21
1.7720458917
 31
0.0
 11
8.0241092329
 21
1.7698385303
 31
0.0
 11
8.0238983115
 21
1.7674610567
 31
0.0
 11
8.0234764485
 21
1.762201344
 31
0.0
 11
8.0230545686
 21
1.7562801166
 31
0.0
 11
8.0226326857
 21
1.7497113195
 31
0.0
 11
8.0222108126
 21
1.7425091774
 31
0.0
 11
8.0217889494
 21
1.7346907883
 31
0.0
 11
8.0213670893
 21
1.7262749385
 31
0.0
 11
8.0209452253
 21
1.7172804566
 31
0.0
 11
8.0205233535
 21
1.7077277618
 31
0.0
 11
8.0201014754
 21
1.6976399534
 31
0.0
 11
8.0196795931
 21
1.687040388
 31
0.0
 11
8.0188358227
 21
1.6644035994
 31
0.0
 11
8.0179920503
 21
1.6400292301
 31
0.0
 11
8.0171482843
 21
1.6141425697
 31
0.0
 11
8.0163045374
 21
1.5869853159
 31
0.0
 11
8.0154608053
 21
1.5588090452
 31
0.0
 11
8.0146170667
 21
1.5298746805
 31
0.0
 11
8.0137733222
 21
1.5004510615
 31
0.0
 11
8.0129295821
 21
1.4708114465
 31
0.0
 11
8.0120858485
 21
1.4412312546
 31
0.0
 11
8.0112421202
 21
1.41198489
 31
0.0
 11
8.010398393
 21
1.3833439562
 31
0.0
 11
8.0095546567
 21
1.3555735315
 31
0.0
 11
8.0087109003
 21
1.3289318991
 31
0.0
 11
8.0078671304
 21
1.3036656777
 31
0.0
 11
8.0070233578
 21
1.2800107582
 31
0.0
 11
8.0061795913
 21
1.2581864055
 31
0.0
 11
8.0057577131
 21
1.2480249963
 31
0.0
 11
8.0053358397
 21
1.2383953611
 31
0.0
 11
8.0049139721
 21
1.2293206573
 31
0.0
 11
8.0044921086
 21
1.2208219627
 31
0.0
 11
8.0040702446
 21
1.2129181052
 31
0.0
 11
8.0036483752
 21
1.2056278003
 31
0.0
 11
8.0032264993
 21
1.1989687721
 31
0.0
 11
8.0028046272
 21
1.1929554751
 31
0.0
 11
8.0023827714
 21
1.1876016907
 31
0.0
 11
8.0021718536
 21
1.1851764187
 31
0.0
 11
8.0019609419
 21
1.1829209425
 31
0.0
 11
8.0017500307
 21
1.1808363504
 31
0.0
 11
8.001539114
 21
1.1789236956
 31
0.0
 11
8.001328186
 21
1.1771840314
 31
0.0
 11
8.0011172408
 21
1.1756184113
 31
0.0
 11
8.0009062724
 21
1.1742278885
 31
0.0
 11
8.0006952754
 21
1.1730135023
 31
0.0
 11
8.0004842581
 21
1.1719759584
 31
0.0
 11
8.0003787485
 21
1.1715236185
 31
0.0
 11
8.000273242
 21
1.1711156254
 31
0.0
 11
8.0001677414
 21
1.1707520234
 31
0.0
 11
8.0000622496
 21
1.1704328566
 31
0.0
 11
7.9999567693
 21
1.1701581693
 31
0.0
 11
7.9998513032
 21
1.1699280055
 31
0.0
 11
7.9997458543
 21
1.1697424095
 31
0.0
 11
7.9996931371
 21
1.1696663382
 31
0.0
 11
7.9996404252
 21
1.1696014254
 31
0.0
 11
7.999587719
 21
1.1695476767
 31
0.0
 11
7.9995350188
 21
1.1695050975
 31
0.0
 11
7.9994296379
 21
1.1694534698
 31
0.0
  0
SPLINE
  5
44A
100
AcDbEntity
  8
0
100
AcDbSpline
 62
6
  6
CONTINUOUS
 70
0
 71
3
 72
9
 73
5
 74
3
 42
0.0000001
 43
0.0000001
 44
0.0000000001
 12
-0.0000671219
 22
-0.0000186412
 32
0.0
 13
-0.0000696624
 23
0.0
 33
0.0
 40
0.0
 40
0.0
 40
0.0
 40
0.0
 40
0.2544100331
 40
1.0
 40
1.0
 40
1.0
 40
1.0
 10
7.9994296379
 20
1.1694534698
 30
0.0
 10
7.9994239458
 20
1.169451889
 30
0.0
 10
7.9994013819
 20
1.1694463865
 30
0.0
 10
7.9993780695
 20
1.1694439029
 30
0.0
 10
7.9993607564
 20
1.1694439029
 30
0.0
 11
7.9994296379
 21
1.1694534698
 31
0.0
 11
7.9994124164
 21
1.1694492846
 31
0.0
 11
7.9993607564
 21
1.1694439029
 31
0.0
  0
SPLINE
  5
44B
100
AcDbEntity
  8
0
100
AcDbSpline
 62
6
  6
CONTINUOUS
 70
0
 71
3
 72
77
 73
73
 74
71
 42
0.0000001
 43
0.0000001
 44
0.0000000001
 12
-0.2783920658
 22
-0.4816132456
 32
0.0
 13
-0.5562851938
 23
-0.0004938295
 33
0.0
 40
0.0
 40
0.0
 40
0.0
 40
0.0
 40
0.0004109046
 40
0.0008871594
 40
0.0014304862
 40
0.0020420192
 40
0.0027225327
 40
0.00347257
 40
0.0051825929
 40
0.0071740553
 40
0.0094471112
 40
0.0120011484
 40
0.0148352398
 40
0.0179482585
 40
0.0213389451
 40
0.0250059486
 40
0.0289477176
 40
0.0376458926
 40
0.0474126986
 40
0.0582267075
 40
0.0700651161
 40
0.0828994399
 40
0.0966994318
 40
0.1114346739
 40
0.1270714509
 40
0.1435721023
 40
0.1608987051
 40
0.1978704168
 40
0.2376412125
 40
0.2798441918
 40
0.3240860717
 40
0.3699567794
 40
0.4170300668
 40
0.4648685489
 40
0.5130279977
 40
0.5610609189
 40
0.6085210525
 40
0.6549675311
 40
0.6999691849
 40
0.7431073272
 40
0.7839828274
 40
0.8222142411
 40
0.8574493654
 40
0.8738387239
 40
0.8893593555
 40
0.9039751645
 40
0.9176507967
 40
0.9303558628
 40
0.942062152
 40
0.9527416092
 40
0.9623693386
 40
0.9709256883
 40
0.9747962233
 40
0.9783919118
 40
0.981710549
 40
0.9847506073
 40
0.9875111357
 40
0.9899913421
 40
0.9921906565
 40
0.9941088628
 40
0.9957463455
 40
0.9964602772
 40
0.9971047759
 40
0.9976805172
 40
0.998188482
 40
0.9986301135
 40
0.9990076299
 40
0.9993246134
 40
0.9995871546
 40
0.9998059614
 40
0.9999046829
 40
1.0
 40
1.0
 40
1.0
 40
1.0
 10
8.0090628715
 20
1.7545032418
 30
0.0
 10
8.0090247407
 20
1.7544372761
 30
0.0
 10
8.0089495908
 20
1.7542906919
 30
0.0
 10
8.0088448613
 20
1.7540468518
 30
0.0
 10
8.008740001
 20
1.7537630371
 30
0.0
 10
8.0086350367
 20
1.7534392238
 30
0.0
 10
8.0085299721
 20
1.7530753743
 30
0.0
 10
8.0083833005
 20
1.75251174
 30
0.0
 10
8.0082025589
 20
1.7517061052
 30
0.0
 10
8.0079934717
 20
1.750618052
 30
0.0
 10
8.0077839835
 20
1.7493710779
 30
0.0
 10
8.0075741587
 20
1.747965997
 30
0.0
 10
8.0073641015
 20
1.7464036545
 30
0.0
 10
8.0071538642
 20
1.7446849381
 30
0.0
 10
8.006943492
 20
1.742810743
 30
0.0
 10
8.0067330058
 20
1.7407819995
 30
0.0
 10
8.00644265
 20
1.7377721787
 30
0.0
 10
8.0060830517
 20
1.7336328264
 30
0.0
 10
8.0056636864
 20
1.7282198336
 30
0.0
 10
8.0052438155
 20
1.7222230214
 30
0.0
 10
8.0048236208
 20
1.7156561677
 30
0.0
 10
8.0044031095
 20
1.7085346096
 30
0.0
 10
8.0039823343
 20
1.7008750467
 30
0.0
 10
8.0035614026
 20
1.6926951076
 30
0.0
 10
8.0031403566
 20
1.6840137737
 30
0.0
 10
8.0027191539
 20
1.674851402
 30
0.0
 10
8.0021449281
 20
1.6617358138
 30
0.0
 10
8.0014322114
 20
1.644307253
 30
0.0
 10
8.0005933923
 20
1.6222673097
 30
0.0
 10
7.9997540476
 20
1.5988783752
 30
0.0
 10
7.9989142017
 20
1.5743576725
 30
0.0
 10
7.9980740598
 20
1.5489333785
 30
0.0
 10
7.9972336985
 20
1.5228418269
 30
0.0
 10
7.9963932067
 20
1.4963256665
 30
0.0
 10
7.9955526661
 20
1.469631476
 30
0.0
 10
7.9947121446
 20
1.4430074761
 30
0.0
 10
7.9938717184
 20
1.4167012657
 30
0.0
 10
7.9930314608
 20
1.3909574243
 30
0.0
 10
7.9921914933
 20
1.3660154306
 30
0.0
 10
7.991351872
 20
1.3421070494
 30
0.0
 10
7.9905128691
 20
1.3194548489
 30
0.0
 10
7.989674493
 20
1.2982691355
 30
0.0
 10
7.9889607245
 20
1.2816225418
 30
0.0
 10
7.9883851464
 20
1.2691852259
 30
0.0
 10
7.9879640828
 20
1.2605682884
 30
0.0
 10
7.9875432081
 20
1.2524551777
 30
0.0
 10
7.9871224661
 20
1.2448648917
 30
0.0
 10
7.986701958
 20
1.2378149849
 30
0.0
 10
7.986281795
 20
1.2313216964
 30
0.0
 10
7.9858620479
 20
1.225400297
 30
0.0
 10
7.9854427303
 20
1.2200645687
 30
0.0
 10
7.9850830064
 20
1.2159907683
 30
0.0
 10
7.9847924877
 20
1.2130339426
 30
0.0
 10
7.9845820495
 20
1.2110452032
 30
0.0
 10
7.9843717193
 20
1.2092113716
 30
0.0
 10
7.9841615163
 20
1.2075334873
 30
0.0
 10
7.9839515055
 20
1.2060123718
 30
0.0
 10
7.9837417417
 20
1.2046487496
 30
0.0
 10
7.9835323412
 20
1.2034432911
 30
0.0
 10
7.9833233769
 20
1.2023966854
 30
0.0
 10
7.9831425626
 20
1.2016256406
 30
0.0
 10
7.9829956403
 20
1.2010898281
 30
0.0
 10
7.9828906208
 20
1.2007468318
 30
0.0
 10
7.9827857095
 20
1.2004439405
 30
0.0
 10
7.9826809147
 20
1.2001810943
 30
0.0
 10
7.9825762309
 20
1.1999581748
 30
0.0
 10
7.9824716346
 20
1.1997749681
 30
0.0
 10
7.9823668104
 20
1.1996311223
 30
0.0
 10
7.982261288
 20
1.1995261713
 30
0.0
 10
7.9821678287
 20
1.1994695606
 30
0.0
 10
7.9820939886
 20
1.199447954
 30
0.0
 10
7.9820579235
 20
1.199444413
 30
0.0
 10
7.9820402491
 20
1.1994443973
 30
0.0
 11
8.0090628715
 21
1.7545032418
 31
0.0
 11
8.0089573144
 21
1.7543004941
 31
0.0
 11
8.0088517573
 21
1.7540574972
 31
0.0
 11
8.0087462002
 21
1.7537742842
 31
0.0
 11
8.0086406431
 21
1.7534508884
 31
0.0
 11
8.0085350859
 21
1.7530873432
 31
0.0
 11
8.0084295288
 21
1.7526836817
 31
0.0
 11
8.0082184146
 21
1.7517561431
 31
0.0
 11
8.0080073003
 21
1.7506686233
 31
0.0
 11
8.0077961861
 21
1.7494219038
 31
0.0
 11
8.0075850719
 21
1.7480169025
 31
0.0
 11
8.0073739576
 21
1.7464545377
 31
0.0
 11
8.0071628434
 21
1.7447357274
 31
0.0
 11
8.0069517291
 21
1.7428613898
 31
0.0
 11
8.0067406149
 21
1.7408324429
 31
0.0
 11
8.0065295007
 21
1.7386498809
 31
0.0
 11
8.0061072722
 21
1.7338296703
 31
0.0
 11
8.0056850437
 21
1.7284129699
 31
0.0
 11
8.0052628152
 21
1.7224121305
 31
0.0
 11
8.0048405868
 21
1.7158401459
 31
0.0
 11
8.0044183583
 21
1.7087130949
 31
0.0
 11
8.0039961298
 21
1.701047981
 31
0.0
 11
8.0035739013
 21
1.6928618625
 31
0.0
 11
8.0031516729
 21
1.6841736052
 31
0.0
 11
8.0027294444
 21
1.6750042497
 31
0.0
 11
8.0023072159
 21
1.6653749658
 31
0.0
 11
8.001462759
 21
1.6448254856
 31
0.0
 11
8.000618302
 21
1.6227176942
 31
0.0
 11
7.9997738451
 21
1.5992559848
 31
0.0
 11
7.9989293881
 21
1.5746593641
 31
0.0
 11
7.9980849311
 21
1.5491561354
 31
0.0
 11
7.9972404742
 21
1.522983572
 31
0.0
 11
7.9963960172
 21
1.4963851239
 31
0.0
 11
7.9955515603
 21
1.4696080373
 31
0.0
 11
7.9947071033
 21
1.4429013713
 31
0.0
 11
7.9938626464
 21
1.4165134999
 31
0.0
 11
7.9930181894
 21
1.3906898049
 31
0.0
 11
7.9921737325
 21
1.3656702883
 31
0.0
 11
7.9913292755
 21
1.3416880318
 31
0.0
 11
7.9904848186
 21
1.3189652734
 31
0.0
 11
7.9896403616
 21
1.2977144674
 31
0.0
 11
7.9887959047
 21
1.2781318809
 31
0.0
 11
7.9883736762
 21
1.2690245021
 31
0.0
 11
7.9879514477
 21
1.2604009316
 31
0.0
 11
7.9875292192
 21
1.252281341
 31
0.0
 11
7.9871069908
 21
1.2446855124
 31
0.0
 11
7.9866847623
 21
1.2376304929
 31
0.0
 11
7.9862625338
 21
1.2311321577
 31
0.0
 11
7.9858403053
 21
1.2252063548
 31
0.0
 11
7.9854180769
 21
1.2198672588
 31
0.0
 11
7.9849958484
 21
1.2151262507
 31
0.0
 11
7.9847847342
 21
1.2129835034
 31
0.0
 11
7.9845736199
 21
1.2109944466
 31
0.0
 11
7.9843625057
 21
1.209160448
 31
0.0
 11
7.9841513914
 21
1.2074825369
 31
0.0
 11
7.9839402772
 21
1.2059614761
 31
0.0
 11
7.983729163
 21
1.2045980208
 31
0.0
 11
7.9835180487
 21
1.2033929266
 31
0.0
 11
7.9833069345
 21
1.2023469488
 31
0.0
 11
7.9830958202
 21
1.2014608428
 31
0.0
 11
7.9829902631
 21
1.2010779778
 31
0.0
 11
7.982884706
 21
1.2007353438
 31
0.0
 11
7.9827791489
 21
1.2004329621
 31
0.0
 11
7.9826735918
 21
1.2001708449
 31
0.0
 11
7.9825680347
 21
1.1999490048
 31
0.0
 11
7.9824624775
 21
1.1997674543
 31
0.0
 11
7.9823569204
 21
1.1996262059
 31
0.0
 11
7.9822513633
 21
1.1995252719
 31
0.0
 11
7.9821458062
 21
1.1994646649
 31
0.0
 11
7.9820930276
 21
1.1994494879
 31
0.0
 11
7.9820402491
 21
1.1994443973
 31
0.0
  0
SPLINE
  5
44C
100
AcDbEntity
  8
0
100
AcDbSpline
 62
6
  6
CONTINUOUS
 70
0
 71
3
 72
46
 73
42
 74
40
 42
0.0000001
 43
0.0000001
 44
0.0000000001
 12
-0.238197207
 22
-0.4125316261
 32
0.0
 13
-0.0161819495
 23
-0.4760865431
 33
0.0
 40
0.0
 40
0.0
 40
0.0
 40
0.0
 40
0.0003205258
 40
0.0006799347
 40
0.0015186265
 40
0.0025209424
 40
0.0036894507
 40
0.005025677
 40
0.0065305617
 40
0.0082046797
 40
0.0100481551
 40
0.0120607759
 40
0.01424222
 40
0.019109893
 40
0.0246474951
 40
0.0308507699
 40
0.0377145501
 40
0.0452311893
 40
0.0533923711
 40
0.062189687
 40
0.0716146542
 40
0.0816577413
 40
0.1035520678
 40
0.127778926
 40
0.1542365403
 40
0.1828093247
 40
0.213377359
 40
0.2458070001
 40
0.2799598229
 40
0.3156887154
 40
0.3528394025
 40
0.3912533833
 40
0.4307640795
 40
0.5123949245
 40
0.5963290851
 40
0.6811213914
 40
0.7653131976
 40
0.8474514459
 40
0.92613111
 40
0.9637567286
 40
1.0
 40
1.0
 40
1.0
 40
1.0
 10
7.9714298359
 20
1.7845431771
 30
0.0
 10
7.9714043865
 20
1.7844991015
 30
0.0
 10
7.9713539091
 20
1.7844035629
 30
0.0
 10
7.9712533378
 20
1.7841843031
 30
0.0
 10
7.9711298974
 20
1.783857032
 30
0.0
 10
7.9709878771
 20
1.7834005883
 30
0.0
 10
7.9708455122
 20
1.7828620736
 30
0.0
 10
7.9707028561
 20
1.7822415025
 30
0.0
 10
7.9705600036
 20
1.7815388545
 30
0.0
 10
7.9704170174
 20
1.7807542279
 30
0.0
 10
7.9702739327
 20
1.7798878031
 30
0.0
 10
7.9701307557
 20
1.7789398454
 30
0.0
 10
7.9699324429
 20
1.7775146629
 30
0.0
 10
7.9696871946
 20
1.7755310437
 30
0.0
 10
7.9694020094
 20
1.7729092194
 30
0.0
 10
7.9691164335
 20
1.7699688198
 30
0.0
 10
7.9688305609
 20
1.7667128827
 30
0.0
 10
7.9685444344
 20
1.7631449923
 30
0.0
 10
7.9682581085
 20
1.7592691954
 30
0.0
 10
7.9679716321
 20
1.7550896297
 30
0.0
 10
7.9676850448
 20
1.7506105977
 30
0.0
 10
7.9672914226
 20
1.7440545749
 30
0.0
 10
7.966803305
 20
1.735149717
 30
0.0
 10
7.9662323176
 20
1.7236392525
 30
0.0
 10
7.9656608373
 20
1.7110671703
 30
0.0
 10
7.9650888216
 20
1.6974872605
 30
0.0
 10
7.9645165465
 20
1.6829582988
 30
0.0
 10
7.9639439564
 20
1.6675426671
 30
0.0
 10
7.9633711884
 20
1.6513070299
 30
0.0
 10
7.962798264
 20
1.634321313
 30
0.0
 10
7.9622251932
 20
1.6166586152
 30
0.0
 10
7.9616520442
 20
1.5983951136
 30
0.0
 10
7.9608793122
 20
1.5730715303
 30
0.0
 10
7.9599202787
 20
1.5405222603
 30
0.0
 10
7.9587809379
 20
1.5007850636
 30
0.0
 10
7.9576414099
 20
1.4606410603
 30
0.0
 10
7.9565020307
 20
1.4207823346
 30
0.0
 10
7.9553631266
 20
1.3818946073
 30
0.0
 10
7.9544009814
 20
1.3503989995
 30
0.0
 10
7.9536251178
 20
1.3261886728
 30
0.0
 10
7.9532353496
 20
1.3144657154
 30
0.0
 10
7.953039854
 20
1.3087140708
 30
0.0
 11
7.9714298359
 21
1.7845431771
 31
0.0
 11
7.9713580065
 21
1.7844084419
 31
0.0
 11
7.9712861702
 21
1.784253033
 31
0.0
 11
7.9711424801
 21
1.7838802465
 31
0.0
 11
7.9709987726
 21
1.7834249217
 31
0.0
 11
7.9708550546
 21
1.7828871628
 31
0.0
 11
7.9707113331
 21
1.7822670737
 31
0.0
 11
7.9705676151
 21
1.7815647587
 31
0.0
 11
7.9704239073
 21
1.7807803284
 31
0.0
 11
7.9702802116
 21
1.7799140041
 31
0.0
 11
7.9701365265
 21
1.7789660973
 31
0.0
 11
7.9699928502
 21
1.7779369218
 31
0.0
 11
7.9697055166
 21
1.7756360215
 31
0.0
 11
7.9694181965
 21
1.7730138153
 31
0.0
 11
7.9691308757
 21
1.7700728158
 31
0.0
 11
7.9688435431
 21
1.7668158251
 31
0.0
 11
7.9685562002
 21
1.7632467359
 31
0.0
 11
7.9682688514
 21
1.7593696972
 31
0.0
 11
7.967981501
 21
1.7551888581
 31
0.0
 11
7.9676941534
 21
1.7507083716
 31
0.0
 11
7.9674068112
 21
1.7459328688
 31
0.0
 11
7.9668321385
 21
1.7355190994
 31
0.0
 11
7.9662574719
 21
1.7239926741
 31
0.0
 11
7.9656828037
 21
1.7114023943
 31
0.0
 11
7.9651081321
 21
1.6978035577
 31
0.0
 11
7.9645334568
 21
1.6832534682
 31
0.0
 11
7.963958781
 21
1.6678159294
 31
0.0
 11
7.9633841089
 21
1.6515569931
 31
0.0
 11
7.9628094414
 21
1.6345468298
 31
0.0
 11
7.9622347765
 21
1.6168590066
 31
0.0
 11
7.9616601125
 21
1.5985690918
 31
0.0
 11
7.9610854475
 21
1.5797564934
 31
0.0
 11
7.9599361063
 21
1.5408876931
 31
0.0
 11
7.9587867363
 21
1.5009212164
 31
0.0
 11
7.9576373586
 21
1.460545785
 31
0.0
 11
7.9564879722
 21
1.4204565258
 31
0.0
 11
7.955338657
 21
1.3813459123
 31
0.0
 11
7.9541892885
 21
1.3438835792
 31
0.0
 11
7.9536144367
 21
1.3259694051
 31
0.0
 11
7.953039854
 21
1.3087140708
 31
0.0
  0
SPLINE
  5
44D
100
AcDbEntity
  8
0
100
AcDbSpline
 62
6
  6
CONTINUOUS
 70
0
 71
3
 72
15
 73
11
 74
9
 42
0.0000001
 43
0.0000001
 44
0.0000000001
 12
-0.0019042745
 22
-0.0032930539
 32
0.0
 13
-0.000691529
 23
-0.003740622
 33
0.0
 40
0.0
 40
0.0
 40
0.0
 40
0.0
 40
0.0738947957
 40
0.1618753361
 40
0.2643388385
 40
0.381530858
 40
0.5136108472
 40
0.660685423
 40
0.8228099225
 40
1.0
 40
1.0
 40
1.0
 40
1.0
 10
7.9540628722
 20
1.7545032142
 30
0.0
 10
7.9540159668
 20
1.754422101
 30
0.0
 10
7.9539241234
 20
1.7542381121
 30
0.0
 10
7.9537977627
 20
1.7539274654
 30
0.0
 10
7.9536711418
 20
1.7535583295
 30
0.0
 10
7.9535443189
 20
1.7531306404
 30
0.0
 10
7.9534173308
 20
1.7526443051
 30
0.0
 10
7.9532902238
 20
1.7520993377
 30
0.0
 10
7.9531630209
 20
1.7514958171
 30
0.0
 10
7.9530817718
 20
1.7510732843
 30
0.0
 10
7.9530409278
 20
1.7508523506
 30
0.0
 11
7.9540628722
 21
1.7545032142
 31
0.0
 11
7.9539351291
 21
1.7542528209
 31
0.0
 11
7.9538073861
 21
1.7539434805
 31
0.0
 11
7.953679643
 21
1.7535752363
 31
0.0
 11
7.9535519
 21
1.7531481314
 31
0.0
 11
7.9534241569
 21
1.7526622088
 31
0.0
 11
7.9532964139
 21
1.7521175149
 31
0.0
 11
7.9531686709
 21
1.7515141672
 31
0.0
 11
7.9530409278
 21
1.7508523506
 31
0.0
  0
SPLINE
  5
44E
100
AcDbEntity
  8
0
100
AcDbSpline
 62
6
  6
CONTINUOUS
 70
0
 71
3
 72
73
 73
69
 74
67
 42
0.0000001
 43
0.0000001
 44
0.0000000001
 12
0.2902267517
 22
0.5029297094
 32
0.0
 13
0.3930464242
 23
0.4274159197
 33
0.0
 40
0.0
 40
0.0
 40
0.0
 40
0.0
 40
0.0002705082
 40
0.0006097404
 40
0.0010197273
 40
0.0015015719
 40
0.0020559186
 40
0.0026831627
 40
0.0041571955
 40
0.0059247746
 40
0.0079856078
 40
0.0103384886
 40
0.0129819917
 40
0.0159145739
 40
0.0191346172
 40
0.026430241
 40
0.0348511297
 40
0.044374426
 40
0.0549768142
 40
0.0666332379
 40
0.0793131273
 40
0.0929847346
 40
0.1076158407
 40
0.1231698007
 40
0.1568893979
 40
0.1938165746
 40
0.2335909829
 40
0.2758294863
 40
0.3201266792
 40
0.3660608886
 40
0.4131990739
 40
0.461096995
 40
0.5093065378
 40
0.5573777746
 40
0.604865762
 40
0.651332106
 40
0.696353443
 40
0.7395196199
 40
0.7804401666
 40
0.8187463419
 40
0.8540944766
 40
0.8705607965
 40
0.8861729909
 40
0.9008954722
 40
0.9146974131
 40
0.9275493295
 40
0.9394219326
 40
0.9502897713
 40
0.96013117
 40
0.9689246799
 40
0.9766503822
 40
0.9801083524
 40
0.9832943443
 40
0.9862068507
 40
0.9888444037
 40
0.9912055932
 40
0.9932892386
 40
0.9950950033
 40
0.9966230119
 40
0.9972830385
 40
0.9978739128
 40
0.9983958693
 40
0.9988492818
 40
0.9992347624
 40
0.9995533611
 40
0.9998070187
 40
0.9999107049
 40
1.0
 40
1.0
 40
1.0
 40
1.0
 10
7.5811955663
 20
1.1958416734
 30
0.0
 10
7.5812217359
 20
1.1958870222
 30
0.0
 10
7.5812721141
 20
1.1959941441
 30
0.0
 10
7.5813398165
 20
1.1961796549
 30
0.0
 10
7.5814078001
 20
1.1964081564
 30
0.0
 10
7.5814759831
 20
1.1966796958
 30
0.0
 10
7.5815443157
 20
1.1969943721
 30
0.0
 10
7.5816408176
 20
1.19749928
 30
0.0
 10
7.5817588911
 20
1.1982389027
 30
0.0
 10
7.5818946887
 20
1.1992562535
 30
0.0
 10
7.5820307897
 20
1.2004449606
 30
0.0
 10
7.5821671525
 20
1.2018041249
 30
0.0
 10
7.5823036498
 20
1.2033327539
 30
0.0
 10
7.5824402466
 20
1.2050298126
 30
0.0
 10
7.5826304529
 20
1.2076258399
 30
0.0
 10
7.5828647149
 20
1.2112836727
 30
0.0
 10
7.5831360259
 20
1.2161614464
 30
0.0
 10
7.58340765
 20
1.2216801122
 30
0.0
 10
7.5836794394
 20
1.2278256925
 30
0.0
 10
7.583951199
 20
1.2345827849
 30
0.0
 10
7.5842229389
 20
1.2419343763
 30
0.0
 10
7.5844946018
 20
1.2498620954
 30
0.0
 10
7.5847661201
 20
1.2583464116
 30
0.0
 10
7.5851380295
 20
1.2707098559
 30
0.0
 10
7.5855980928
 20
1.2873880712
 30
0.0
 10
7.5861361858
 20
1.3087538191
 30
0.0
 10
7.5866738784
 20
1.3317689302
 30
0.0
 10
7.5872109938
 20
1.3562109155
 30
0.0
 10
7.5877474086
 20
1.3818454444
 30
0.0
 10
7.5882830557
 20
1.4084285426
 30
0.0
 10
7.5888178554
 20
1.4357087311
 30
0.0
 10
7.5893517828
 20
1.46342942
 30
0.0
 10
7.5898847685
 20
1.4913307561
 30
0.0
 10
7.5904167884
 20
1.5191527518
 30
0.0
 10
7.5909477699
 20
1.5466373016
 30
0.0
 10
7.591477703
 20
1.5735314385
 30
0.0
 10
7.5920065027
 20
1.5995889264
 30
0.0
 10
7.5925341478
 20
1.6245727962
 30
0.0
 10
7.5930605211
 20
1.6482566421
 30
0.0
 10
7.593585525
 20
1.670426907
 30
0.0
 10
7.5940316316
 20
1.6878644652
 30
0.0
 10
7.5943906993
 20
1.7009102552
 30
0.0
 10
7.5946532727
 20
1.7099649928
 30
0.0
 10
7.5949155508
 20
1.7185038082
 30
0.0
 10
7.5951774879
 20
1.7265081035
 30
0.0
 10
7.5954390389
 20
1.7339604905
 30
0.0
 10
7.595700212
 20
1.7408446079
 30
0.0
 10
7.5959609649
 20
1.7471455891
 30
0.0
 10
7.5962211465
 20
1.7528500682
 30
0.0
 10
7.596480677
 20
1.757945703
 30
0.0
 10
7.5967037367
 20
1.761805984
 30
0.0
 10
7.596884067
 20
1.7645814553
 30
0.0
 10
7.5970141332
 20
1.7664265846
 30
0.0
 10
7.5971440437
 20
1.7681125025
 30
0.0
 10
7.5972737767
 20
1.7696382741
 30
0.0
 10
7.5974032912
 20
1.7710029958
 30
0.0
 10
7.5975325271
 20
1.772205948
 30
0.0
 10
7.5976614062
 20
1.7732466125
 30
0.0
 10
7.5977730342
 20
1.7740116364
 30
0.0
 10
7.5978638841
 20
1.7745418067
 30
0.0
 10
7.597928554
 20
1.7748788296
 30
0.0
 10
7.5979930882
 20
1.7751750776
 30
0.0
 10
7.5980574579
 20
1.7754305431
 30
0.0
 10
7.5981215884
 20
1.7756453277
 30
0.0
 10
7.5981854476
 20
1.7758194643
 30
0.0
 10
7.5982415089
 20
1.7759381152
 30
0.0
 10
7.5982876684
 20
1.7760113244
 30
0.0
 10
7.5983108533
 20
1.7760407587
 30
0.0
 10
7.5983225524
 20
1.7760534807
 30
0.0
 11
7.5811955663
 21
1.1958416734
 31
0.0
 11
7.5812644882
 21
1.1959828189
 31
0.0
 11
7.5813334033
 21
1.19616735
 31
0.0
 11
7.5814023097
 21
1.196395224
 31
0.0
 11
7.5814712053
 21
1.1966663983
 31
0.0
 11
7.5815400883
 21
1.1969808304
 31
0.0
 11
7.5816089567
 21
1.1973384777
 31
0.0
 11
7.5817466422
 21
1.1981832476
 31
0.0
 11
7.5818842468
 21
1.1992003498
 31
0.0
 11
7.5820217654
 21
1.2003890719
 31
0.0
 11
7.5821592019
 21
1.2017483731
 31
0.0
 11
7.5822965605
 21
1.2032772002
 31
0.0
 11
7.5824338457
 21
1.2049745
 31
0.0
 11
7.5825710617
 21
1.2068392192
 31
0.0
 11
7.5828453027
 21
1.2110666342
 31
0.0
 11
7.5831192984
 21
1.2159486524
 31
0.0
 11
7.5833930405
 21
1.2214717013
 31
0.0
 11
7.5836665195
 21
1.2276220417
 31
0.0
 11
7.5839397287
 21
1.2343849829
 31
0.0
 11
7.5842126708
 21
1.2417426683
 31
0.0
 11
7.584485351
 21
1.2496765844
 31
0.0
 11
7.5847577736
 21
1.2581679618
 31
0.0
 11
7.5850299403
 21
1.2671954736
 31
0.0
 11
7.5855735055
 21
1.2867676594
 31
0.0
 11
7.586116046
 21
1.3082030505
 31
0.0
 11
7.5866575626
 21
1.3312922401
 31
0.0
 11
7.5871980539
 21
1.3558126325
 31
0.0
 11
7.5877375173
 21
1.3815287287
 31
0.0
 11
7.5882759669
 21
1.4081956024
 31
0.0
 11
7.5888134219
 21
1.4355617392
 31
0.0
 11
7.5893498895
 21
1.4633691294
 31
0.0
 11
7.589885372
 21
1.4913575192
 31
0.0
 11
7.5904198683
 21
1.519265604
 31
0.0
 11
7.5909533777
 21
1.5468349735
 31
0.0
 11
7.5914859026
 21
1.5738110182
 31
0.0
 11
7.5920174597
 21
1.5999478513
 31
0.0
 11
7.5925480639
 21
1.6250072489
 31
0.0
 11
7.5930777145
 21
1.6487624044
 31
0.0
 11
7.593606409
 21
1.6709991102
 31
0.0
 11
7.5941341465
 21
1.6915176889
 31
0.0
 11
7.5943976576
 21
1.7010754445
 31
0.0
 11
7.5946609319
 21
1.710137049
 31
0.0
 11
7.5949239708
 21
1.7186818058
 31
0.0
 11
7.5951867773
 21
1.7266917761
 31
0.0
 11
7.5954493551
 21
1.7341497912
 31
0.0
 11
7.5957117076
 21
1.7410387823
 31
0.0
 11
7.5959738327
 21
1.747343891
 31
0.0
 11
7.5962357228
 21
1.7530524257
 31
0.0
 11
7.5964973704
 21
1.758151786
 31
0.0
 11
7.5967587735
 21
1.7626301952
 31
0.0
 11
7.5968893896
 21
1.7646338587
 31
0.0
 11
7.5970199532
 21
1.7664792342
 31
0.0
 11
7.5971504677
 21
1.7681653762
 31
0.0
 11
7.5972809366
 21
1.769691339
 31
0.0
 11
7.5974113631
 21
1.7710561773
 31
0.0
 11
7.5975417485
 21
1.7722590277
 31
0.0
 11
7.5976720834
 21
1.773299437
 31
0.0
 11
7.597802355
 21
1.7741770799
 31
0.0
 11
7.5978674631
 21
1.7745547623
 31
0.0
 11
7.5979325505
 21
1.7748916311
 31
0.0
 11
7.5979976157
 21
1.7751876456
 31
0.0
 11
7.5980626571
 21
1.7754427651
 31
0.0
 11
7.598127673
 21
1.7756569491
 31
0.0
 11
7.598192662
 21
1.7758301568
 31
0.0
 11
7.5982576223
 21
1.7759623476
 31
0.0
 11
7.5982900912
 21
1.7760130489
 31
0.0
 11
7.5983225524
 21
1.7760534807
 31
0.0
  0
SPLINE
  5
44F
100
AcDbEntity
  8
0
100
AcDbSpline
 62
6
  6
CONTINUOUS
 70
0
 71
3
 72
43
 73
39
 74
37
 42
0.0000001
 43
0.0000001
 44
0.0000000001
 12
-0.1952056815
 22
0.1200019812
 32
0.0
 13
-0.1620597984
 23
-0.1619949237
 33
0.0
 40
0.0
 40
0.0
 40
0.0
 40
0.0
 40
0.1425065592
 40
0.1779036942
 40
0.2131945911
 40
0.2483691746
 40
0.2834173847
 40
0.318329396
 40
0.3530936967
 40
0.3876937904
 40
0.4221127422
 40
0.4563340658
 40
0.4903366712
 40
0.5575706192
 40
0.590745013
 40
0.6235686619
 40
0.6559926781
 40
0.6879675364
 40
0.7194182039
 40
0.7502621885
 40
0.7804117488
 40
0.8097365313
 40
0.8240508913
 40
0.8381118637
 40
0.8518950481
 40
0.8653766366
 40
0.8785366251
 40
0.8913589106
 40
0.9038228076
 40
0.9159072583
 40
0.9276004996
 40
0.938902061
 40
0.9498197229
 40
0.9603737449
 40
0.9706034999
 40
0.9805680406
 40
0.9903389142
 40
1.0
 40
1.0
 40
1.0
 40
1.0
 10
6.6960114487
 20
3.0993916246
 30
0.0
 10
6.6867387521
 20
3.1050919811
 30
0.0
 10
6.6751123604
 20
3.1121271558
 30
0.0
 10
6.661084826
 20
3.1203972508
 30
0.0
 10
6.6540994306
 20
3.1244697884
 30
0.0
 10
6.6471156765
 20
3.128492004
 30
0.0
 10
6.6401342592
 20
3.132460045
 30
0.0
 10
6.6331560334
 20
3.136369992
 30
0.0
 10
6.6261822414
 20
3.1402174973
 30
0.0
 10
6.6192139036
 20
3.1439965294
 30
0.0
 10
6.6122525066
 20
3.1477008635
 30
0.0
 10
6.6053000235
 20
3.1513242624
 30
0.0
 10
6.5960803271
 20
3.156019541
 30
0.0
 10
6.5868587786
 20
3.1605344606
 30
0.0
 10
6.5776337559
 20
3.1648312049
 30
0.0
 10
6.5707728542
 20
3.1679046292
 30
0.0
 10
6.5639454409
 20
3.1708262952
 30
0.0
 10
6.5571611167
 20
3.1735790743
 30
0.0
 10
6.5504302099
 20
3.1761383221
 30
0.0
 10
6.543766445
 20
3.178475852
 30
0.0
 10
6.5371897425
 20
3.1805623089
 30
0.0
 10
6.5317569028
 20
3.1820685361
 30
0.0
 10
6.5274722725
 20
3.1831020774
 30
0.0
 10
6.5243239802
 20
3.1837800093
 30
0.0
 10
6.521220592
 20
3.1843589528
 30
0.0
 10
6.5181685999
 20
3.1848305968
 30
0.0
 10
6.5151747296
 20
3.1851865368
 30
0.0
 10
6.5122465163
 20
3.1854184688
 30
0.0
 10
6.509392776
 20
3.1855172807
 30
0.0
 10
6.5066236424
 20
3.1854729889
 30
0.0
 10
6.503949851
 20
3.1852756696
 30
0.0
 10
6.5013826894
 20
3.1849150374
 30
0.0
 10
6.4989340544
 20
3.1843827062
 30
0.0
 10
6.4966163054
 20
3.1836709846
 30
0.0
 10
6.4944426709
 20
3.1827713139
 30
0.0
 10
6.4924269783
 20
3.1816776425
 30
0.0
 10
6.4905802825
 20
3.1803924215
 30
0.0
 10
6.4894660013
 20
3.1794056985
 30
0.0
 10
6.4889441101
 20
3.1788840163
 30
0.0
 11
6.6960114487
 21
3.0993916246
 31
0.0
 11
6.6680617648
 21
3.1162767623
 31
0.0
 11
6.6610744925
 21
3.1203956773
 31
0.0
 11
6.6540881738
 21
3.1244680821
 31
0.0
 11
6.6471035011
 21
3.128490163
 31
0.0
 11
6.6401211822
 21
3.1324580416
 31
0.0
 11
6.6331419255
 21
3.1363678385
 31
0.0
 11
6.6261666394
 21
3.1402151149
 31
0.0
 11
6.6191967822
 21
3.143993897
 31
0.0
 11
6.6122339053
 21
3.1476979503
 31
0.0
 11
6.6052795696
 21
3.151321019
 31
0.0
 11
6.5983359467
 21
3.1548554257
 31
0.0
 11
6.5844935449
 21
3.1616181937
 31
0.0
 11
6.5776016547
 21
3.1648254557
 31
0.0
 11
6.5707364821
 21
3.1678976957
 31
0.0
 11
6.5639048161
 21
3.1708180556
 31
0.0
 11
6.5571140247
 21
3.1735687956
 31
0.0
 11
6.5503760394
 21
3.176125221
 31
0.0
 11
6.543704959
 21
3.1784593351
 31
0.0
 11
6.5371173038
 21
3.1805402725
 31
0.0
 11
6.5306393181
 21
3.1823256668
 31
0.0
 11
6.5274504194
 21
3.183093389
 31
0.0
 11
6.5243002658
 21
3.183769769
 31
0.0
 11
6.5211951401
 21
3.1843468588
 31
0.0
 11
6.5181418262
 21
3.1848162851
 31
0.0
 11
6.515147108
 21
3.1851696744
 31
0.0
 11
6.5122179248
 21
3.1853985985
 31
0.0
 11
6.509363519
 21
3.1854938174
 31
0.0
 11
6.5065948944
 21
3.1854454702
 31
0.0
 11
6.5039230993
 21
3.1852436804
 31
0.0
 11
6.5013592917
 21
3.1848787141
 31
0.0
 11
6.498915782
 21
3.1843423378
 31
0.0
 11
6.4966055706
 21
3.1836272159
 31
0.0
 11
6.4944416624
 21
3.1827260415
 31
0.0
 11
6.4924363273
 21
3.1816342384
 31
0.0
 11
6.490600297
 21
3.1803529446
 31
0.0
 11
6.4889441101
 21
3.1788840163
 31
0.0
  0
LINE
  5
450
100
AcDbEntity
  8
0
100
AcDbLine
 62
6
  6
CONTINUOUS
 10
6.638124543
 20
1.6803900153
 11
6.638362129
 21
1.6805889326
  0
LINE
  5
451
100
AcDbEntity
  8
0
100
AcDbLine
 62
6
  6
CONTINUOUS
 10
6.638362129
 20
1.6805889326
 11
6.6389123853
 21
1.6810495715
  0
LINE
  5
452
100
AcDbEntity
  8
0
100
AcDbLine
 62
6
  6
CONTINUOUS
 10
6.6389123853
 20
1.6672397114
 11
6.6384085704
 21
1.6667416294
  0
LINE
  5
453
100
AcDbEntity
  8
0
100
AcDbLine
 62
6
  6
CONTINUOUS
 10
6.6384085704
 20
1.6667416294
 11
6.6381562246
 21
1.6664921317
  0
LINE
  5
454
100
AcDbEntity
  8
0
100
AcDbLine
 62
6
  6
CONTINUOUS
 10
6.6381562246
 20
1.6664921317
 11
6.6379054703
 21
1.6662441921
  0
LINE
  5
455
100
AcDbEntity
  8
0
100
AcDbLine
 62
6
  6
CONTINUOUS
 10
6.638124543
 20
1.650601187
 11
6.6389123853
 21
1.6511039216
  0
LINE
  5
456
100
AcDbEntity
  8
0
100
AcDbLine
 62
6
  6
CONTINUOUS
 10
7.5990408888
 20
1.5478056315
 11
7.5986710008
 21
1.5363956595
  0
SPLINE
  5
457
100
AcDbEntity
  8
0
100
AcDbSpline
 62
6
  6
CONTINUOUS
 70
0
 71
3
 72
41
 73
37
 74
35
 42
0.0000001
 43
0.0000001
 44
0.0000000001
 12
-0.0108675233
 22
-0.3368840197
 32
0.0
 13
-0.1686381155
 23
-0.2918392225
 33
0.0
 40
0.0
 40
0.0
 40
0.0
 40
0.0
 40
0.0880045009
 40
0.1770348168
 40
0.2660499472
 40
0.3540108911
 40
0.4398888478
 40
0.5226816312
 40
0.6014226067
 40
0.675190375
 40
0.7099395978
 40
0.7431269469
 40
0.7746566118
 40
0.804438604
 40
0.8323835215
 40
0.858410412
 40
0.8824464602
 40
0.9044195632
 40
0.9242658811
 40
0.9419322174
 40
0.9499316778
 40
0.9573668492
 40
0.9642328766
 40
0.9705261093
 40
0.9762430925
 40
0.9813806145
 40
0.9859358346
 40
0.9899065295
 40
0.9916725467
 40
0.9932926748
 40
0.9947673902
 40
0.9960973859
 40
0.9972836764
 40
0.9983277723
 40
0.999231986
 40
1.0
 40
1.0
 40
1.0
 40
1.0
 10
7.5986710008
 20
1.5363956595
 30
0.0
 10
7.5983522038
 20
1.5265132228
 30
0.0
 10
7.5977184581
 20
1.506632912
 30
0.0
 10
7.5967769109
 20
1.4767562117
 30
0.0
 10
7.5958353496
 20
1.4468844078
 30
0.0
 10
7.5948939382
 20
1.417366953
 30
0.0
 10
7.5939527815
 20
1.3885489512
 30
0.0
 10
7.5930120771
 20
1.360767393
 30
0.0
 10
7.5920720271
 20
1.3343472429
 30
0.0
 10
7.591274358
 20
1.3133233277
 30
0.0
 10
7.590631638
 20
1.2974153784
 30
0.0
 10
7.5901593242
 20
1.2862500171
 30
0.0
 10
7.5896871381
 20
1.2756432571
 30
0.0
 10
7.5892151612
 20
1.265626105
 30
0.0
 10
7.5887433647
 20
1.2562279243
 30
0.0
 10
7.5882717971
 20
1.2474761727
 30
0.0
 10
7.5878006282
 20
1.2393963962
 30
0.0
 10
7.5873299116
 20
1.2320122727
 30
0.0
 10
7.5868596933
 20
1.2253453696
 30
0.0
 10
7.5864564399
 20
1.2202477718
 30
0.0
 10
7.5861307506
 20
1.2165430421
 30
0.0
 10
7.5858947315
 20
1.2140486135
 30
0.0
 10
7.5856588346
 20
1.2117467943
 30
0.0
 10
7.5854231046
 20
1.209639095
 30
0.0
 10
7.5851875907
 20
1.2077268954
 30
0.0
 10
7.5849523817
 20
1.2060115449
 30
0.0
 10
7.5847175463
 20
1.2044943984
 30
0.0
 10
7.584515218
 20
1.2033557494
 30
0.0
 10
7.5843514136
 20
1.2025455421
 30
0.0
 10
7.584233479
 20
1.2020122584
 30
0.0
 10
7.5841156338
 20
1.2015292358
 30
0.0
 10
7.5839978904
 20
1.2010965024
 30
0.0
 10
7.5838802791
 20
1.2007140744
 30
0.0
 10
7.5837628254
 20
1.2003819052
 30
0.0
 10
7.5836455711
 20
1.2000999708
 30
0.0
 10
7.5835607974
 20
1.1999319609
 30
0.0
 10
7.5835176252
 20
1.1998572487
 30
0.0
 11
7.5986710008
 21
1.5363956595
 31
0.0
 11
7.5977239149
 21
1.5067480508
 31
0.0
 11
7.596776829
 21
1.4767545073
 31
0.0
 11
7.5958297431
 21
1.4467660847
 31
0.0
 11
7.5948826573
 21
1.4171331648
 31
0.0
 11
7.5939355714
 21
1.3882027021
 31
0.0
 11
7.5929884855
 21
1.3603127036
 31
0.0
 11
7.5920413996
 21
1.3337892322
 31
0.0
 11
7.5910943137
 21
1.3089431667
 31
0.0
 11
7.5906207708
 21
1.297240196
 31
0.0
 11
7.5901472279
 21
1.2860641204
 31
0.0
 11
7.5896736849
 21
1.2754473104
 31
0.0
 11
7.589200142
 21
1.2654201896
 31
0.0
 11
7.588726599
 21
1.2560130075
 31
0.0
 11
7.5882530561
 21
1.2472531932
 31
0.0
 11
7.5877795132
 21
1.2391654719
 31
0.0
 11
7.5873059702
 21
1.2317743883
 31
0.0
 11
7.5868324272
 21
1.2251017852
 31
0.0
 11
7.5863588842
 21
1.2191660422
 31
0.0
 11
7.5861221128
 21
1.216480166
 31
0.0
 11
7.5858853415
 21
1.2139852826
 31
0.0
 11
7.5856485701
 21
1.2116831683
 31
0.0
 11
7.5854117988
 21
1.2095752318
 31
0.0
 11
7.5851750274
 21
1.2076628714
 31
0.0
 11
7.5849382559
 21
1.2059474855
 31
0.0
 11
7.5847014842
 21
1.2044304725
 31
0.0
 11
7.5844647124
 21
1.2031132234
 31
0.0
 11
7.5843463264
 21
1.2025298622
 31
0.0
 11
7.5842279404
 21
1.2019967701
 31
0.0
 11
7.5841095545
 21
1.2015140074
 31
0.0
 11
7.5839911685
 21
1.2010816345
 31
0.0
 11
7.5838727826
 21
1.2006997118
 31
0.0
 11
7.5837543967
 21
1.2003682996
 31
0.0
 11
7.5836360109
 21
1.2000874585
 31
0.0
 11
7.5835176252
 21
1.1998572487
 31
0.0
  0
LINE
  5
458
100
AcDbEntity
  8
0
100
AcDbLine
 62
6
  6
CONTINUOUS
 10
6.6389123853
 20
1.6298865424
 11
6.6379054703
 21
1.6290089739
  0
LINE
  5
459
100
AcDbEntity
  8
0
100
AcDbLine
 62
6
  6
CONTINUOUS
 10
6.638124543
 20
1.6073762973
 11
6.6389123853
 21
1.6076832601
  0
LINE
  5
45A
100
AcDbEntity
  8
0
100
AcDbLine
 62
6
  6
CONTINUOUS
 10
6.6389123853
 20
1.5807022124
 11
6.6379054703
 21
1.5800105856
  0
SPLINE
  5
45B
100
AcDbEntity
  8
0
100
AcDbSpline
 62
6
  6
CONTINUOUS
 70
0
 71
3
 72
24
 73
20
 74
18
 42
0.0000001
 43
0.0000001
 44
0.0000000001
 12
-0.0010555983
 22
-0.007587197
 32
0.0
 13
-0.0076602761
 23
-0.000003906
 33
0.0
 40
0.0
 40
0.0
 40
0.0
 40
0.0
 40
0.2226234922
 40
0.4166337559
 40
0.5029010994
 40
0.5820114531
 40
0.6539750051
 40
0.7188118274
 40
0.7765567593
 40
0.8272695421
 40
0.8710581973
 40
0.9080984654
 40
0.9386837025
 40
0.9517182313
 40
0.9633704583
 40
0.9737852397
 40
0.9831650474
 40
0.9917857067
 40
1.0
 40
1.0
 40
1.0
 40
1.0
 10
7.5990409208
 20
1.2066668701
 30
0.0
 10
7.5989625872
 20
1.2061038406
 30
0.0
 10
7.5988078302
 20
1.2050512519
 30
0.0
 10
7.5985941203
 20
1.2037848844
 30
0.0
 10
7.5984211075
 20
1.2028836332
 30
0.0
 10
7.5982965577
 20
1.2022904999
 30
0.0
 10
7.5981721084
 20
1.2017533689
 30
0.0
 10
7.5980477749
 20
1.2012723574
 30
0.0
 10
7.5979235927
 20
1.2008475475
 30
0.0
 10
7.5977995845
 20
1.2004789752
 30
0.0
 10
7.5976757945
 20
1.2001664911
 30
0.0
 10
7.5975522297
 20
1.1999099518
 30
0.0
 10
7.59744427
 20
1.1997337776
 30
0.0
 10
7.5973563622
 20
1.1996231405
 30
0.0
 10
7.5972938535
 20
1.1995586562
 30
0.0
 10
7.5972311214
 20
1.1995081351
 30
0.0
 10
7.5971679808
 20
1.199471668
 30
0.0
 10
7.5971043493
 20
1.199449504
 30
0.0
 10
7.5970612233
 20
1.1994444772
 30
0.0
 10
7.5970402487
 20
1.1994444665
 30
0.0
 11
7.5990409208
 21
1.2066668701
 31
0.0
 11
7.5987908368
 21
1.204979949
 31
0.0
 11
7.5985407528
 21
1.203514969
 31
0.0
 11
7.5984157108
 21
1.2028660753
 31
0.0
 11
7.5982906688
 21
1.2022731088
 31
0.0
 11
7.5981656268
 21
1.2017362169
 31
0.0
 11
7.5980405848
 21
1.2012555469
 31
0.0
 11
7.5979155428
 21
1.2008312462
 31
0.0
 11
7.5977905008
 21
1.2004634466
 31
0.0
 11
7.5976654588
 21
1.2001521912
 31
0.0
 11
7.5975404168
 21
1.199897491
 31
0.0
 11
7.5974153748
 21
1.1996993574
 31
0.0
 11
7.5973528538
 21
1.1996215064
 31
0.0
 11
7.5972903327
 21
1.1995578013
 31
0.0
 11
7.5972278117
 21
1.1995082433
 31
0.0
 11
7.5971652907
 21
1.199472834
 31
0.0
 11
7.5971027697
 21
1.1994515746
 31
0.0
 11
7.5970402487
 21
1.1994444665
 31
0.0
  0
LINE
  5
45C
100
AcDbEntity
  8
0
100
AcDbLine
 62
6
  6
CONTINUOUS
 10
6.638124543
 20
1.554064264
 11
6.6389123853
 21
1.5541516725
  0
LINE
  5
45D
100
AcDbEntity
  8
0
100
AcDbLine
 62
9
  6
CONTINUOUS
 10
7.3569394772
 20
1.7920850387
 11
7.3578020895
 21
1.7921803086
  0
SPLINE
  5
45E
100
AcDbEntity
  8
0
100
AcDbSpline
 62
9
  6
CONTINUOUS
 70
0
 71
3
 72
31
 73
27
 74
25
 42
0.0000001
 43
0.0000001
 44
0.0000000001
 12
0.1245093285
 22
-0.0136192331
 32
0.0
 13
0.0466252319
 23
-0.1162503511
 33
0.0
 40
0.0
 40
0.0
 40
0.0
 40
0.0
 40
0.0297720409
 40
0.0460478779
 40
0.0633516775
 40
0.081744522
 40
0.1012729093
 40
0.1219671135
 40
0.1438436268
 40
0.1669117319
 40
0.1911751836
 40
0.216633184
 40
0.2432778562
 40
0.2710954141
 40
0.3000703754
 40
0.3301860917
 40
0.3614250992
 40
0.3937696435
 40
0.4272018112
 40
0.4617036166
 40
0.4972570834
 40
0.5714440744
 40
0.6496291304
 40
0.7316851242
 40
0.8174997759
 40
1.0
 40
1.0
 40
1.0
 40
1.0
 10
6.9168853258
 20
1.7920850387
 30
0.0
 10
6.9181209581
 20
1.7919498813
 30
0.0
 10
6.9200119677
 20
1.7915304159
 30
0.0
 10
6.9225087488
 20
1.7906551156
 30
0.0
 10
6.9245014901
 20
1.7897912578
 30
0.0
 10
6.9265558144
 20
1.7887416883
 30
0.0
 10
6.9286706966
 20
1.7875080546
 30
0.0
 10
6.9308437956
 20
1.7860922788
 30
0.0
 10
6.9330724786
 20
1.7844961979
 30
0.0
 10
6.9353538341
 20
1.7827218127
 30
0.0
 10
6.9376848978
 20
1.7807710955
 30
0.0
 10
6.9400626577
 20
1.7786462392
 30
0.0
 10
6.9424834105
 20
1.7763491195
 30
0.0
 10
6.9449426995
 20
1.7738813219
 30
0.0
 10
6.9474360383
 20
1.771244669
 30
0.0
 10
6.9499589017
 20
1.7684409585
 30
0.0
 10
6.9525067855
 20
1.7654719901
 30
0.0
 10
6.9550748524
 20
1.7623392558
 30
0.0
 10
6.9576582612
 20
1.7590442519
 30
0.0
 10
6.9602521821
 20
1.7555884559
 30
0.0
 10
6.9637682883
 20
1.7506988537
 30
0.0
 10
6.9681536985
 20
1.7441901151
 30
0.0
 10
6.9733030118
 20
1.7358639107
 30
0.0
 10
6.9783670969
 20
1.7269226663
 30
0.0
 10
6.9850831272
 20
1.7139244665
 30
0.0
 10
6.98963849
 20
1.7036741127
 30
0.0
 10
6.9924748617
 20
1.6966022077
 30
0.0
 11
6.9168853258
 21
1.7920850387
 31
0.0
 11
6.9205343534
 21
1.7913168658
 31
0.0
 11
6.9224598006
 21
1.790647191
 31
0.0
 11
6.9244501456
 21
1.7897893635
 31
0.0
 11
6.9265035948
 21
1.7887450627
 31
0.0
 11
6.928618331
 21
1.7875159756
 31
0.0
 11
6.9307919565
 21
1.7861039686
 31
0.0
 11
6.9330214777
 21
1.7845110926
 31
0.0
 11
6.9353038738
 21
1.7827394067
 31
0.0
 11
6.9376361241
 21
1.7807909703
 31
0.0
 11
6.9400151768
 21
1.778667838
 31
0.0
 11
6.9424372619
 21
1.7763719591
 31
0.0
 11
6.9448978839
 21
1.7739051765
 31
0.0
 11
6.9473925154
 21
1.7712693282
 31
0.0
 11
6.9499166289
 21
1.7684662524
 31
0.0
 11
6.9524656498
 21
1.7654977371
 31
0.0
 11
6.955034797
 21
1.7623653499
 31
0.0
 11
6.9576192329
 21
1.7590705986
 31
0.0
 11
6.96021412
 21
1.7556149909
 31
0.0
 11
6.9628145573
 21
1.7519999946
 31
0.0
 11
6.9680108987
 21
1.7442967133
 31
0.0
 11
6.9731651734
 21
1.7359700682
 31
0.0
 11
6.978233077
 21
1.727028762
 31
0.0
 11
6.9831696996
 21
1.7174810383
 31
0.0
 11
6.9924748617
 21
1.6966022077
 31
0.0
  0
SPLINE
  5
45F
100
AcDbEntity
  8
0
100
AcDbSpline
 62
9
  6
CONTINUOUS
 70
0
 71
3
 72
23
 73
19
 74
17
 42
0.0000001
 43
0.0000001
 44
0.0000000001
 12
0.0175722774
 22
-0.0438473537
 32
0.0
 13
0.0470857054
 23
-0.0037830814
 33
0.0
 40
0.0
 40
0.0
 40
0.0
 40
0.0
 40
0.1084304958
 40
0.1643063822
 40
0.2212855512
 40
0.2793921341
 40
0.3386649262
 40
0.3991298745
 40
0.4608140618
 40
0.5237600246
 40
0.5879944686
 40
0.6535730883
 40
0.7204695553
 40
0.7886941801
 40
0.8581676242
 40
0.893351939
 40
0.9287734269
 40
1.0
 40
1.0
 40
1.0
 40
1.0
 10
6.9924748617
 20
1.6966022077
 30
0.0
 10
6.9931099853
 20
1.6950174109
 30
0.0
 10
6.9942119464
 20
1.6926690675
 30
0.0
 10
6.9959398435
 20
1.6896422196
 30
0.0
 10
6.9973971958
 20
1.6873772237
 30
0.0
 10
6.9990054413
 20
1.6851505733
 30
0.0
 10
7.0007663896
 20
1.6829714399
 30
0.0
 10
7.0026838301
 20
1.680851858
 30
0.0
 10
7.0047629724
 20
1.6788070356
 30
0.0
 10
7.0070074865
 20
1.6768531961
 30
0.0
 10
7.0094237928
 20
1.6750126968
 30
0.0
 10
7.0120139969
 20
1.6733094527
 30
0.0
 10
7.0147818562
 20
1.6717773528
 30
0.0
 10
7.0177248338
 20
1.6704573702
 30
0.0
 10
7.0203016613
 20
1.6695670375
 30
0.0
 10
7.0224326192
 20
1.6689947557
 30
0.0
 10
7.0246156906
 20
1.6685212657
 30
0.0
 10
7.0262834925
 20
1.6682915775
 30
0.0
 10
7.0274014103
 20
1.6682017589
 30
0.0
 11
6.9924748617
 21
1.6966022077
 31
0.0
 11
6.9946432508
 21
1.6919618678
 31
0.0
 11
6.9959510363
 21
1.6896692042
 31
0.0
 11
6.997407314
 21
1.6874056459
 31
0.0
 11
6.9990141824
 21
1.6851803518
 31
0.0
 11
7.0007741656
 21
1.6830027684
 31
0.0
 11
7.0026908143
 21
1.6808851309
 31
0.0
 11
7.0047686868
 21
1.6788424139
 31
0.0
 11
7.007012459
 21
1.6768913555
 31
0.0
 11
7.0094270401
 21
1.6750538041
 31
0.0
 11
7.0120168811
 21
1.6733541344
 31
0.0
 11
7.0147831923
 21
1.6718266419
 31
0.0
 11
7.0177244698
 21
1.6705094308
 31
0.0
 11
7.0208269216
 21
1.6694395437
 31
0.0
 11
7.0224321566
 21
1.6690088225
 31
0.0
 11
7.0240674814
 21
1.6686547339
 31
0.0
 11
7.0274014103
 21
1.6682017589
 31
0.0
  0
LINE
  5
460
100
AcDbEntity
  8
0
100
AcDbLine
 62
6
  6
CONTINUOUS
 10
6.6379054703
 20
1.40210204
 11
6.6389123853
 21
1.4015245565
  0
LINE
  5
461
100
AcDbEntity
  8
0
100
AcDbLine
 62
6
  6
CONTINUOUS
 10
6.6389123853
 20
1.3724236667
 11
6.638124543
 21
1.3726227902
  0
LINE
  5
462
100
AcDbEntity
  8
0
100
AcDbLine
 62
6
  6
CONTINUOUS
 10
6.6379054703
 20
1.3485994981
 11
6.6389123853
 21
1.3478071898
  0
SPLINE
  5
463
100
AcDbEntity
  8
0
100
AcDbSpline
 62
9
  6
CONTINUOUS
 70
0
 71
3
 72
22
 73
18
 74
16
 42
0.0000001
 43
0.0000001
 44
0.0000000001
 12
0.0470619719
 22
0.0039672108
 32
0.0
 13
0.0175827501
 23
0.0438339465
 33
0.0
 40
0.0
 40
0.0
 40
0.0
 40
0.0
 40
0.1416557106
 40
0.17654636
 40
0.2111439168
 40
0.2793836427
 40
0.3462932005
 40
0.4118810772
 40
0.4761309566
 40
0.5390956896
 40
0.6007959504
 40
0.6612738545
 40
0.7205583745
 40
0.7786762243
 40
0.8356656351
 40
0.8915506087
 40
1.0
 40
1.0
 40
1.0
 40
1.0
 10
7.2464233928
 20
1.6682017588
 30
0.0
 10
7.2486455918
 20
1.6683890848
 30
0.0
 10
7.2514027251
 20
1.6689089651
 30
0.0
 10
7.2545682139
 20
1.6699232985
 30
0.0
 10
7.2566007085
 20
1.6706808919
 30
0.0
 10
7.259040152
 20
1.6717804991
 30
0.0
 10
7.261808035
 20
1.6733120949
 30
0.0
 10
7.2643994028
 20
1.6750137128
 30
0.0
 10
7.2668163791
 20
1.6768535762
 30
0.0
 10
7.2690614281
 20
1.678807192
 30
0.0
 10
7.2711410901
 20
1.6808518065
 30
0.0
 10
7.2730589529
 20
1.6829711773
 30
0.0
 10
7.2748201805
 20
1.6851501654
 30
0.0
 10
7.2764285116
 20
1.6873767925
 30
0.0
 10
7.2778856967
 20
1.6896418954
 30
0.0
 10
7.2796128835
 20
1.692669136
 30
0.0
 10
7.2807143286
 20
1.6950176193
 30
0.0
 10
7.2813499414
 20
1.6966022076
 30
0.0
 11
7.2464233928
 21
1.6682017588
 31
0.0
 11
7.2529990473
 21
1.6694346838
 31
0.0
 11
7.254568495
 21
1.6699369112
 31
0.0
 11
7.2560997446
 21
1.6705072132
 31
0.0
 11
7.2590391983
 21
1.6718288064
 31
0.0
 11
7.2618053931
 21
1.673356606
 31
0.0
 11
7.2643959861
 21
1.6750549043
 31
0.0
 11
7.2668113293
 21
1.6768917513
 31
0.0
 11
7.2690557464
 21
1.6788425991
 31
0.0
 11
7.2711341364
 21
1.6808851205
 31
0.0
 11
7.2730511735
 21
1.6830025345
 31
0.0
 11
7.2748114144
 21
1.6851799705
 31
0.0
 11
7.276418361
 21
1.6874052519
 31
0.0
 11
7.277874448
 21
1.689668929
 31
0.0
 11
7.2791817441
 21
1.691961816
 31
0.0
 11
7.2813499414
 21
1.6966022076
 31
0.0
  0
SPLINE
  5
464
100
AcDbEntity
  8
0
100
AcDbSpline
 62
9
  6
CONTINUOUS
 70
0
 71
3
 72
31
 73
27
 74
25
 42
0.0000001
 43
0.0000001
 44
0.0000000001
 12
0.046624493
 22
0.1162506622
 32
0.0
 13
0.1245094434
 23
0.0136183081
 33
0.0
 40
0.0
 40
0.0
 40
0.0
 40
0.0
 40
0.1824983605
 40
0.2683123387
 40
0.3503678427
 40
0.4285524257
 40
0.5027390312
 40
0.5382923554
 40
0.5727940715
 40
0.6062262052
 40
0.6385707479
 40
0.6698097523
 40
0.6999254065
 40
0.7289002248
 40
0.7567175528
 40
0.7833618945
 40
0.8088195827
 40
0.8330833027
 40
0.8561521157
 40
0.878029521
 40
0.8987245216
 40
0.9182534494
 40
0.9366470046
 40
0.9539515655
 40
0.9702280066
 40
1.0
 40
1.0
 40
1.0
 40
1.0
 10
7.2813499414
 20
1.6966022076
 30
0.0
 10
7.2841862393
 20
1.7036740593
 30
0.0
 10
7.2887416353
 20
1.7139242849
 30
0.0
 10
7.2954575591
 20
1.7269223979
 30
0.0
 10
7.3005216154
 20
1.7358635815
 30
0.0
 10
7.3056708672
 20
1.7441897592
 30
0.0
 10
7.3100562585
 20
1.7506984607
 30
0.0
 10
7.313572311
 20
1.7555880705
 30
0.0
 10
7.3161662159
 20
1.7590438655
 30
0.0
 10
7.3187496301
 20
1.7623388593
 30
0.0
 10
7.3213177033
 20
1.7654715866
 30
0.0
 10
7.3238655673
 20
1.7684405686
 30
0.0
 10
7.3263883998
 20
1.7712442959
 30
0.0
 10
7.3288817043
 20
1.7738809567
 30
0.0
 10
7.3313409409
 20
1.7763487654
 30
0.0
 10
7.333761621
 20
1.7786459084
 30
0.0
 10
7.3361392975
 20
1.7807708356
 30
0.0
 10
7.338470378
 20
1.782721578
 30
0.0
 10
7.3407518175
 20
1.7844959834
 30
0.0
 10
7.3429806139
 20
1.7860920785
 30
0.0
 10
7.3451538159
 20
1.7875078666
 30
0.0
 10
7.3472687785
 20
1.7887415322
 30
0.0
 10
7.3493231788
 20
1.7897911375
 30
0.0
 10
7.3513159949
 20
1.790655041
 30
0.0
 10
7.3538128176
 20
1.7915303864
 30
0.0
 10
7.3557038458
 20
1.7919498907
 30
0.0
 10
7.3569394772
 20
1.7920850387
 30
0.0
 11
7.2813499414
 21
1.6966022076
 31
0.0
 11
7.2906550148
 21
1.7174808249
 31
0.0
 11
7.2955915813
 21
1.727028484
 31
0.0
 11
7.3006594467
 21
1.7359697426
 31
0.0
 11
7.3058136706
 21
1.7442963507
 31
0.0
 11
7.3110099698
 21
1.7519996035
 31
0.0
 11
7.3136103747
 21
1.7556146017
 31
0.0
 11
7.3162052457
 21
1.759070208
 31
0.0
 11
7.3187896845
 21
1.7623649522
 31
0.0
 11
7.3213588347
 21
1.7654973373
 31
0.0
 11
7.3239078401
 21
1.768465866
 31
0.0
 11
7.326431925
 21
1.7712689576
 31
0.0
 11
7.3289265201
 21
1.7739048162
 31
0.0
 11
7.3313870891
 21
1.7763716116
 31
0.0
 11
7.3338090956
 21
1.7786675138
 31
0.0
 11
7.3361880632
 21
1.7807906833
 31
0.0
 11
7.3385203289
 21
1.7827391541
 31
0.0
 11
7.3408028149
 21
1.7845108692
 31
0.0
 11
7.3430324563
 21
1.7861037697
 31
0.0
 11
7.3452061883
 21
1.7875157964
 31
0.0
 11
7.3473209913
 21
1.7887449038
 31
0.0
 11
7.3493745208
 21
1.7897892438
 31
0.0
 11
7.3513649489
 21
1.79064712
 31
0.0
 11
7.3532904608
 21
1.7913168396
 31
0.0
 11
7.3569394772
 21
1.7920850387
 31
0.0
  0
LINE
  5
465
100
AcDbEntity
  8
0
100
AcDbLine
 62
6
  6
CONTINUOUS
 10
6.638124543
 20
1.260427566
 11
6.6379054703
 21
1.2603242156
  0
SPLINE
  5
466
100
AcDbEntity
  8
0
100
AcDbSpline
 62
9
  6
CONTINUOUS
 70
0
 71
3
 72
12
 73
8
 74
6
 42
0.0000001
 43
0.0000001
 44
0.0000000001
 12
-0.4999411305
 22
0.4993862868
 32
0.0
 13
-0.5018387536
 23
0.4974793089
 33
0.0
 40
0.0
 40
0.0
 40
0.0
 40
0.0
 40
0.2500079943
 40
0.5000109917
 40
0.6250104443
 40
0.7500084579
 40
1.0
 40
1.0
 40
1.0
 40
1.0
 10
7.1168175881
 20
2.3478144047
 30
0.0
 10
7.075154495
 20
2.3894312594
 30
0.0
 10
6.9917697292
 20
2.4726046731
 30
0.0
 10
6.8874165658
 20
2.5764476445
 30
0.0
 10
6.8038768604
 20
2.659461864
 30
0.0
 10
6.7203051245
 20
2.7424400078
 30
0.0
 10
6.6575931851
 20
2.8046394952
 30
0.0
 10
6.6157747038
 20
2.8460947018
 30
0.0
 11
7.1168175881
 21
2.3478144047
 31
0.0
 11
6.9917443442
 21
2.4725808541
 31
0.0
 11
6.8665261923
 21
2.5971968649
 31
0.0
 11
6.8038723768
 21
2.6594578311
 31
0.0
 11
6.7411937132
 21
2.7216923391
 31
0.0
 11
6.6157747038
 21
2.8460947018
 31
0.0
  0
SPLINE
  5
467
100
AcDbEntity
  8
0
100
AcDbSpline
 62
9
  6
CONTINUOUS
 70
0
 71
3
 72
12
 73
8
 74
6
 42
0.0000001
 43
0.0000001
 44
0.0000000001
 12
-0.4993970895
 22
0.4999518682
 32
0.0
 13
-0.4974900319
 23
0.5018495708
 33
0.0
 40
0.0
 40
0.0
 40
0.0
 40
0.0
 40
0.2500079944
 40
0.5000109919
 40
0.6250104445
 40
0.750008458
 40
1.0
 40
1.0
 40
1.0
 40
1.0
 10
6.9372890698
 20
2.1682643461
 30
0.0
 10
6.8956713149
 20
2.2099283341
 30
0.0
 10
6.8124960983
 20
2.2933148871
 30
0.0
 10
6.7086508821
 20
2.3976702936
 30
0.0
 10
6.6256348712
 20
2.4812117975
 30
0.0
 10
6.5426549372
 20
2.5647853332
 30
0.0
 10
6.4804541086
 20
2.6274986238
 30
0.0
 10
6.4389980085
 20
2.6693180065
 30
0.0
 11
6.9372890698
 21
2.1682643461
 31
0.0
 11
6.812519919
 21
2.293340274
 31
0.0
 11
6.6879012142
 21
2.4185611171
 31
0.0
 11
6.6256389042
 21
2.4812162813
 31
0.0
 11
6.5634030535
 21
2.5438962947
 31
0.0
 11
6.4389980085
 21
2.6693180065
 31
0.0
  0
LINE
  5
468
100
AcDbEntity
  8
0
100
AcDbLine
 62
6
  6
CONTINUOUS
 10
9.0449206265
 20
1.4868632002
 11
9.0464114409
 21
1.4675018635
  0
LINE
  5
469
100
AcDbEntity
  8
0
100
AcDbLine
 62
6
  6
CONTINUOUS
 10
9.0949206996
 20
1.486862248
 11
9.0964116473
 21
1.4674991872
  0
LINE
  5
46A
100
AcDbEntity
  8
0
100
AcDbLine
 62
6
  6
CONTINUOUS
 10
9.1949210276
 20
1.486857982
 11
9.196411793
 21
1.4674972934
  0
LINE
  5
46B
100
AcDbEntity
  8
0
100
AcDbLine
 62
6
  6
CONTINUOUS
 10
9.2449204723
 20
1.486865201
 11
9.2464111269
 21
1.4675059408
  0
LINE
  5
46C
100
AcDbEntity
  8
0
100
AcDbLine
 62
6
  6
CONTINUOUS
 10
9.261879901
 20
1.4674995456
 11
9.2606997541
 21
1.4868439068
  0
LINE
  5
46D
100
AcDbEntity
  8
0
100
AcDbLine
 62
6
  6
CONTINUOUS
 10
9.2118763718
 20
1.4675572114
 11
9.2106991082
 21
1.4868545606
  0
LINE
  5
46E
100
AcDbEntity
  8
0
100
AcDbLine
 62
6
  6
CONTINUOUS
 10
9.1618798965
 20
1.467499592
 11
9.1607007494
 21
1.4868276497
  0
LINE
  5
46F
100
AcDbEntity
  8
0
100
AcDbLine
 62
6
  6
CONTINUOUS
 10
9.224377113
 20
1.4675451097
 11
9.2231988764
 21
1.4868583335
  0
LINE
  5
470
100
AcDbEntity
  8
0
100
AcDbLine
 62
6
  6
CONTINUOUS
 10
9.1743798676
 20
1.4675000605
 11
9.1732008505
 21
1.4868260003
  0
LINE
  5
471
100
AcDbEntity
  8
0
100
AcDbLine
 62
9
  6
CONTINUOUS
 10
7.1830326811
 20
2.4139911208
 11
7.1168176073
 21
2.3478144239
  0
SPLINE
  5
472
100
AcDbEntity
  8
0
100
AcDbSpline
 62
9
  6
CONTINUOUS
 70
0
 71
3
 72
24
 73
20
 74
18
 42
0.0000001
 43
0.0000001
 44
0.0000000001
 12
0.0196176854
 22
0.4625862818
 32
0.0
 13
-0.3133237017
 23
0.3408800076
 33
0.0
 40
0.0
 40
0.0
 40
0.0
 40
0.0
 40
0.0624663732
 40
0.124979621
 40
0.1875051824
 40
0.25001339
 40
0.312511361
 40
0.3750077058
 40
0.4375051879
 40
0.5000063273
 40
0.5625079018
 40
0.6250025048
 40
0.6874964023
 40
0.7499984823
 40
0.7812556548
 40
0.8125152179
 40
0.8750317124
 40
0.9375347207
 40
1.0
 40
1.0
 40
1.0
 40
1.0
 10
7.3450369696
 20
1.9928465466
 30
0.0
 10
7.3454454514
 20
2.0024785757
 30
0.0
 10
7.3457259974
 20
2.0217767286
 30
0.0
 10
7.3445672508
 20
2.0507053377
 30
0.0
 10
7.3418566407
 20
2.0795370548
 30
0.0
 10
7.3376196443
 20
2.1081812525
 30
0.0
 10
7.3318954053
 20
2.136560644
 30
0.0
 10
7.3247225979
 20
2.1646068642
 30
0.0
 10
7.3161389026
 20
2.1922540333
 30
0.0
 10
7.3061906513
 20
2.2194404227
 30
0.0
 10
7.2949242883
 20
2.246106719
 30
0.0
 10
7.2823832787
 20
2.2721963085
 30
0.0
 10
7.2686169665
 20
2.2976599543
 30
0.0
 10
7.2561650278
 20
2.3183225559
 30
0.0
 10
7.2456406965
 20
2.334495932
 30
0.0
 10
7.2347480411
 20
2.3504262635
 30
0.0
 10
7.2204610881
 20
2.369869712
 30
0.0
 10
7.2023042867
 20
2.3924103916
 30
0.0
 10
7.189556632
 20
2.4068933992
 30
0.0
 10
7.1830326811
 20
2.4139911208
 30
0.0
 11
7.3450369696
 21
1.9928465466
 31
0.0
 11
7.3454628655
 21
2.021765471
 31
0.0
 11
7.3443087615
 21
2.050686216
 31
0.0
 11
7.341601859
 21
2.0795088492
 31
0.0
 11
7.3373713797
 21
2.1081394168
 31
0.0
 11
7.3316538672
 21
2.1365056308
 31
0.0
 11
7.3244875232
 21
2.1645401093
 31
0.0
 11
7.3159117
 21
2.1921765743
 31
0.0
 11
7.3059709572
 21
2.2193537445
 31
0.0
 11
7.2947113273
 21
2.2460117515
 31
0.0
 11
7.2821790263
 21
2.2720920742
 31
0.0
 11
7.2684217623
 21
2.2975471441
 31
0.0
 11
7.2534879697
 21
2.3223347213
 31
0.0
 11
7.2455950123
 21
2.3344650114
 31
0.0
 11
7.2374262637
 21
2.3464126596
 31
0.0
 11
7.2202902722
 21
2.3697404596
 31
0.0
 11
7.2021392331
 21
2.3922794661
 31
0.0
 11
7.1830326811
 21
2.4139911208
 31
0.0
  0
SPLINE
  5
473
100
AcDbEntity
  8
0
100
AcDbSpline
 62
9
  6
CONTINUOUS
 70
0
 71
3
 72
25
 73
21
 74
19
 42
0.0000001
 43
0.0000001
 44
0.0000000001
 12
0.005691866
 22
0.3845783496
 32
0.0
 13
-0.2681824749
 23
0.2757010418
 33
0.0
 40
0.0
 40
0.0
 40
0.0
 40
0.0
 40
0.0624621785
 40
0.1249702149
 40
0.1874941626
 40
0.250007017
 40
0.312508267
 40
0.3750059332
 40
0.4062577553
 40
0.4375106161
 40
0.50001403
 40
0.5625176762
 40
0.5937703473
 40
0.6250212662
 40
0.687516448
 40
0.7500154202
 40
0.8125244106
 40
0.8750405712
 40
0.9375414724
 40
1.0
 40
1.0
 40
1.0
 40
1.0
 10
7.2496177143
 20
1.9928502228
 30
0.0
 10
7.2497362231
 20
2.0008574233
 30
0.0
 10
7.2495645804
 20
2.0168866889
 30
0.0
 10
7.2480923715
 20
2.0408892735
 30
0.0
 10
7.2454146935
 20
2.0647945655
 30
0.0
 10
7.2415387263
 20
2.0885340082
 30
0.0
 10
7.2364819079
 20
2.1120463898
 30
0.0
 10
7.2312994454
 20
2.1314060819
 30
0.0
 10
7.2265823172
 20
2.1467237629
 30
0.0
 10
7.2214873883
 20
2.1619207699
 30
0.0
 10
7.2144185863
 20
2.1806749817
 30
0.0
 10
7.2064391211
 20
2.1990600862
 30
0.0
 10
7.1995229945
 20
2.2135193325
 30
0.0
 10
7.192256037
 20
2.2278042289
 30
0.0
 10
7.182522592
 20
2.2453220019
 30
0.0
 10
7.1698372041
 20
2.2657524784
 30
0.0
 10
7.1561773787
 20
2.2855482437
 30
0.0
 10
7.1415789948
 20
2.3046626477
 30
0.0
 10
7.1260879988
 20
2.3230517398
 30
0.0
 10
7.1151893996
 20
2.334803833
 30
0.0
 10
7.109605972
 20
2.3405437934
 30
0.0
 11
7.2496177143
 21
1.9928502228
 31
0.0
 11
7.2493623853
 21
2.0168730983
 31
0.0
 11
7.247891699
 21
2.040869944
 31
0.0
 11
7.2452147504
 21
2.0647684748
 31
0.0
 11
7.241341541
 21
2.0884981793
 31
0.0
 11
7.2362880644
 21
2.1120002728
 31
0.0
 11
7.2300727458
 21
2.1352207286
 31
0.0
 11
7.2265351595
 21
2.1467084637
 31
0.0
 11
7.2227143815
 21
2.1581055613
 31
0.0
 11
7.2142364642
 21
2.1806011376
 31
0.0
 11
7.2046657517
 21
2.2026540693
 31
0.0
 11
7.1994789798
 21
2.2134978612
 31
0.0
 11
7.1940291253
 21
2.2242110917
 31
0.0
 11
7.1823554006
 21
2.2452229447
 31
0.0
 11
7.1696757487
 21
2.2656452445
 31
0.0
 11
7.1560215062
 21
2.2854338986
 31
0.0
 11
7.1414283071
 21
2.3045441137
 31
0.0
 11
7.1259410812
 21
2.3229295809
 31
0.0
 11
7.109605972
 21
2.3405437934
 31
0.0
  0
SPLINE
  5
474
100
AcDbEntity
  8
0
100
AcDbSpline
 62
9
  6
CONTINUOUS
 70
0
 71
3
 72
23
 73
19
 74
17
 42
0.0000001
 43
0.0000001
 44
0.0000000001
 12
-0.0026408562
 22
0.2044183654
 32
0.0
 13
-0.1463278734
 23
0.1427655269
 33
0.0
 40
0.0
 40
0.0
 40
0.0
 40
0.0
 40
0.062509714
 40
0.1250170965
 40
0.187522011
 40
0.2500239376
 40
0.3125228947
 40
0.3750191909
 40
0.4375133809
 40
0.5000062809
 40
0.5624988601
 40
0.6249922284
 40
0.6874873527
 40
0.7499849246
 40
0.812485266
 40
0.8749881994
 40
0.9374933523
 40
1.0
 40
1.0
 40
1.0
 40
1.0
 10
7.0242067549
 20
1.9928502228
 30
0.0
 10
7.0241517285
 20
1.9971096007
 30
0.0
 10
7.0238228036
 20
2.0056269693
 30
0.0
 10
7.0226781533
 20
2.0183595793
 30
0.0
 10
7.0208892092
 20
2.0310174973
 30
0.0
 10
7.0184644408
 20
2.0435683938
 30
0.0
 10
7.0154138069
 20
2.0559813754
 30
0.0
 10
7.0117486536
 20
2.0682263697
 30
0.0
 10
7.0074815824
 20
2.080274328
 30
0.0
 10
7.0026263587
 20
2.0920971877
 30
0.0
 10
6.997197954
 20
2.1036679573
 30
0.0
 10
6.9912124001
 20
2.1149606942
 30
0.0
 10
6.9846866626
 20
2.1259504533
 30
0.0
 10
6.9776387692
 20
2.1366133868
 30
0.0
 10
6.9700877466
 20
2.1469267161
 30
0.0
 10
6.9620533325
 20
2.1568687867
 30
0.0
 10
6.9535565638
 20
2.1664188504
 30
0.0
 10
6.9475975742
 20
2.1725119758
 30
0.0
 10
6.9445487526
 20
2.1754865739
 30
0.0
 11
7.0242067549
 21
1.9928502228
 31
0.0
 11
7.0237142459
 21
2.0056199285
 31
0.0
 11
7.0225707414
 21
2.0183473856
 31
0.0
 11
7.020783189
 21
2.0309999556
 31
0.0
 11
7.0183600657
 21
2.0435457013
 31
0.0
 11
7.0153113165
 21
2.0559536373
 31
0.0
 11
7.0116482684
 21
2.0681937324
 31
0.0
 11
7.007383511
 21
2.0802369333
 31
0.0
 11
7.0025308165
 21
2.0920552015
 31
0.0
 11
6.9971051316
 21
2.1036215481
 31
0.0
 11
6.9911224562
 21
2.1149100443
 31
0.0
 11
6.9845997675
 21
2.1258957741
 31
0.0
 11
6.9775550729
 21
2.1365548917
 31
0.0
 11
6.9700073415
 21
2.1468646313
 31
0.0
 11
6.9619764173
 21
2.1568032821
 31
0.0
 11
6.9534830364
 21
2.1663503548
 31
0.0
 11
6.9445487526
 21
2.1754865739
 31
0.0
  0
SPLINE
  5
475
100
AcDbEntity
  8
0
100
AcDbSpline
 62
9
  6
CONTINUOUS
 70
0
 71
3
 72
23
 73
19
 74
17
 42
0.0000001
 43
0.0000001
 44
0.0000000001
 12
-0.0005309664
 22
0.1948404247
 32
0.0
 13
-0.1377862499
 23
0.1377607432
 33
0.0
 40
0.0
 40
0.0
 40
0.0
 40
0.0
 40
0.0624984285
 40
0.124997723
 40
0.1874977835
 40
0.2499980097
 40
0.3124981475
 40
0.3749980571
 40
0.4374977483
 40
0.4999974301
 40
0.5624973074
 40
0.6249976784
 40
0.6874987909
 40
0.7500005225
 40
0.812502385
 40
0.8750035992
 40
0.9375031913
 40
1.0
 40
1.0
 40
1.0
 40
1.0
 10
7.0101826919
 20
1.9928724385
 30
0.0
 10
7.0101716303
 20
1.9969315119
 30
0.0
 10
7.0099499869
 20
2.0050505803
 30
0.0
 10
7.0090207594
 20
2.0171971537
 30
0.0
 10
7.0074979925
 20
2.0292840786
 30
0.0
 10
7.0053861826
 20
2.0412820735
 30
0.0
 10
7.002691113
 20
2.0531626559
 30
0.0
 10
6.9994197841
 20
2.064897598
 30
0.0
 10
6.9955803354
 20
2.0764590994
 30
0.0
 10
6.991181998
 20
2.0878197436
 30
0.0
 10
6.9862351723
 20
2.0989525619
 30
0.0
 10
6.9807513766
 20
2.1098310334
 30
0.0
 10
6.9747431728
 20
2.120429042
 30
0.0
 10
6.968224334
 20
2.1307209711
 30
0.0
 10
6.9612098868
 20
2.1406817225
 30
0.0
 10
6.9537158499
 20
2.1502867988
 30
0.0
 10
6.9457598436
 20
2.1595120317
 30
0.0
 10
6.9401595017
 20
2.1653945088
 30
0.0
 10
6.9372891014
 20
2.1682643777
 30
0.0
 11
7.0101826919
 21
1.9928724385
 31
0.0
 11
7.0098505304
 21
2.005045173
 31
0.0
 11
7.008921843
 21
2.0171871434
 31
0.0
 11
7.0073998214
 21
2.0292692373
 31
0.0
 11
7.0052889711
 21
2.041262512
 31
0.0
 11
7.0025950647
 21
2.0531384025
 31
0.0
 11
6.9993250919
 21
2.0648687096
 31
0.0
 11
6.9954871871
 21
2.0764256242
 31
0.0
 11
6.9910905911
 21
2.0877817541
 31
0.0
 11
6.9861456978
 21
2.0989101279
 31
0.0
 11
6.9806640074
 21
2.1097842294
 31
0.0
 11
6.9746580958
 21
2.1203779804
 31
0.0
 11
6.9681417376
 21
2.1306657667
 31
0.0
 11
6.9611299159
 21
2.1406224955
 31
0.0
 11
6.953638753
 21
2.150223615
 31
0.0
 11
6.9456856165
 21
2.1594452709
 31
0.0
 11
6.9372891014
 21
2.1682643777
 31
0.0
  0
SPLINE
  5
476
100
AcDbEntity
  8
0
100
AcDbSpline
 62
9
  6
CONTINUOUS
 70
0
 71
3
 72
20
 73
16
 74
14
 42
0.0000001
 43
0.0000001
 44
0.0000000001
 12
-0.0054043439
 22
0.1266957022
 32
0.0
 13
-0.093363144
 23
0.0858156817
 33
0.0
 40
0.0
 40
0.0
 40
0.0
 40
0.0
 40
0.1249330834
 40
0.1874570386
 40
0.2499668788
 40
0.312476944
 40
0.3749837712
 40
0.4374945477
 40
0.5000117965
 40
0.5625196006
 40
0.6250220284
 40
0.6875339794
 40
0.7500501797
 40
0.8750405902
 40
1.0
 40
1.0
 40
1.0
 40
1.0
 10
6.9287875857
 20
1.9928524629
 30
0.0
 10
6.9285625252
 20
1.9981286245
 30
0.0
 10
6.9276923168
 20
2.0060339854
 30
0.0
 10
6.9255555116
 20
2.016386006
 30
0.0
 10
6.9234837916
 20
2.0240434494
 30
0.0
 10
6.9209690668
 20
2.031565242
 30
0.0
 10
6.9180339218
 20
2.038933065
 30
0.0
 10
6.9147036728
 20
2.0461308451
 30
0.0
 10
6.91100436
 20
2.0531458222
 30
0.0
 10
6.9069597912
 20
2.0599668466
 30
0.0
 10
6.9025953603
 20
2.0665870998
 30
0.0
 10
6.8979373577
 20
2.0730043369
 30
0.0
 10
6.8913693265
 20
2.0812873881
 30
0.0
 10
6.8825454214
 20
2.0911333353
 30
0.0
 10
6.8749676083
 20
2.098506525
 30
0.0
 10
6.8710787405
 20
2.1020810173
 30
0.0
 11
6.9287875857
 21
1.9928524629
 31
0.0
 11
6.9270773617
 21
2.0086027623
 31
0.0
 11
6.9254772823
 21
2.0163683496
 31
0.0
 11
6.9234099274
 21
2.024020948
 31
0.0
 11
6.9208989527
 21
2.031539703
 31
0.0
 11
6.9179681588
 21
2.0389045253
 31
0.0
 11
6.9146422843
 21
2.0461001254
 31
0.0
 11
6.9109465918
 21
2.0531138955
 31
0.0
 11
6.9069063432
 21
2.0599336108
 31
0.0
 11
6.9025466957
 21
2.066552885
 31
0.0
 11
6.8978927205
 21
2.0729701256
 31
0.0
 11
6.8929694861
 21
2.079183882
 31
0.0
 11
6.8824146791
 21
2.0910085701
 31
0.0
 11
6.8710787405
 21
2.1020810173
 31
0.0
  0
LINE
  5
477
100
AcDbEntity
  8
0
100
AcDbLine
 62
9
  6
CONTINUOUS
 10
6.9372891014
 20
2.1682643777
 11
6.8710787405
 21
2.1020810173
  0
LINE
  5
478
100
AcDbEntity
  8
0
100
AcDbLine
 62
6
  6
CONTINUOUS
 10
9.2386674344
 20
1.4868553578
 11
9.2401545196
 21
1.4675421922
  0
LINE
  5
479
100
AcDbEntity
  8
0
100
AcDbLine
 62
6
  6
CONTINUOUS
 10
9.1118788911
 20
1.4675160797
 11
9.1106986744
 21
1.4868615776
  0
LINE
  5
47A
100
AcDbEntity
  8
0
100
AcDbLine
 62
6
  6
CONTINUOUS
 10
9.0618772843
 20
1.4675422607
 11
9.0606994621
 21
1.4868487895
  0
SPLINE
  5
47B
100
AcDbEntity
  8
0
100
AcDbSpline
 62
9
  6
CONTINUOUS
 70
0
 71
3
 72
32
 73
28
 74
26
 42
0.0000001
 43
0.0000001
 44
0.0000000001
 12
0.0455149236
 22
0.1220483885
 32
0.0
 13
0.1295609267
 23
0.0134678754
 33
0.0
 40
0.0
 40
0.0
 40
0.0
 40
0.0
 40
0.0938752463
 40
0.1842049049
 40
0.2708631238
 40
0.3537290724
 40
0.432659235
 40
0.5074921245
 40
0.5433192014
 40
0.5780560268
 40
0.6116809982
 40
0.6441727255
 40
0.6755100606
 40
0.7056720507
 40
0.7346377485
 40
0.7623871507
 40
0.7889016976
 40
0.814164954
 40
0.8381673915
 40
0.8609070655
 40
0.8823872381
 40
0.9026176684
 40
0.9216168155
 40
0.9394198692
 40
0.9560807734
 40
0.9716709774
 40
1.0
 40
1.0
 40
1.0
 40
1.0
 10
7.2627005121
 20
1.7105525907
 30
0.0
 10
7.2641247537
 20
1.7143716983
 30
0.0
 10
7.2670482272
 20
1.7218184567
 30
0.0
 10
7.2717292944
 20
1.7326100558
 30
0.0
 10
7.2765841717
 20
1.7427975671
 30
0.0
 10
7.281571279
 20
1.752366051
 30
0.0
 10
7.2866469371
 20
1.7613016708
 30
0.0
 10
7.2909751799
 20
1.7683064202
 30
0.0
 10
7.2944493264
 20
1.7735780072
 30
0.0
 10
7.2970128754
 20
1.7773057738
 30
0.0
 10
7.2995673469
 20
1.7808629193
 30
0.0
 10
7.3021078407
 20
1.7842472383
 30
0.0
 10
7.3046294365
 20
1.7874565117
 30
0.0
 10
7.3071272089
 20
1.7904884953
 30
0.0
 10
7.3095965234
 20
1.7933406552
 30
0.0
 10
7.3120327051
 20
1.7960104453
 30
0.0
 10
7.3144311191
 20
1.7984952976
 30
0.0
 10
7.3167871816
 20
1.8007929037
 30
0.0
 10
7.3190971077
 20
1.8029007197
 30
0.0
 10
7.3213577429
 20
1.8048160494
 30
0.0
 10
7.3235660027
 20
1.8065364075
 30
0.0
 10
7.3257188542
 20
1.8080593041
 30
0.0
 10
7.3278136562
 20
1.8093824131
 30
0.0
 10
7.3298479638
 20
1.8105035145
 30
0.0
 10
7.3318208641
 20
1.8114209368
 30
0.0
 10
7.3342863141
 20
1.8123401304
 30
0.0
 10
7.3361619881
 20
1.8127714354
 30
0.0
 10
7.3373854329
 20
1.8128986126
 30
0.0
 11
7.2627005121
 21
1.7105525907
 31
0.0
 11
7.2671720151
 21
1.7219338067
 31
0.0
 11
7.2718573361
 21
1.7327269765
 31
0.0
 11
7.2767165723
 21
1.7429155552
 31
0.0
 11
7.2817087351
 21
1.7524858001
 31
0.0
 11
7.2867907206
 21
1.7614233576
 31
0.0
 11
7.2919195449
 21
1.7697126303
 31
0.0
 11
7.2944883028
 21
1.7736088478
 31
0.0
 11
7.2970530064
 21
1.777336579
 31
0.0
 11
7.2996087066
 21
1.7808936023
 31
0.0
 11
7.3021504944
 21
1.7842776867
 31
0.0
 11
7.304673461
 21
1.7874866006
 31
0.0
 11
7.3071727435
 21
1.7905180393
 31
0.0
 11
7.309643632
 21
1.7933694549
 31
0.0
 11
7.3120814485
 21
1.7960382486
 31
0.0
 11
7.3144815147
 21
1.7985218219
 31
0.0
 11
7.3168391963
 21
1.8008175763
 31
0.0
 11
7.3191506377
 21
1.8029229163
 31
0.0
 11
7.3214126532
 21
1.8048352485
 31
0.0
 11
7.323622079
 21
1.80655198
 31
0.0
 11
7.3257757512
 21
1.8080705176
 31
0.0
 11
7.3278705433
 21
1.8093882936
 31
0.0
 11
7.3299039732
 21
1.8105031766
 31
0.0
 11
7.3318741005
 21
1.8114134026
 31
0.0
 11
7.3337790018
 21
1.8121172191
 31
0.0
 11
7.3373854329
 21
1.8128986126
 31
0.0
  0
LINE
  5
47C
100
AcDbEntity
  8
0
100
AcDbLine
 62
6
  6
CONTINUOUS
 10
9.1243788911
 20
1.4675160797
 11
9.1231986744
 21
1.4868615776
  0
LINE
  5
47D
100
AcDbEntity
  8
0
100
AcDbLine
 62
9
  6
CONTINUOUS
 10
7.3373854329
 20
1.8128986126
 11
7.3450369682
 21
1.9928465466
  0
LINE
  5
47E
100
AcDbEntity
  8
0
100
AcDbLine
 62
6
  6
CONTINUOUS
 10
9.0743772843
 20
1.4675422607
 11
9.0731994621
 21
1.4868487895
  0
LINE
  5
47F
100
AcDbEntity
  8
0
100
AcDbLine
 62
9
  6
CONTINUOUS
 10
7.0287079906
 20
1.6799817147
 11
7.0242069688
 21
1.9928502228
  0
ELLIPSE
  5
480
100
AcDbEntity
  8
0
100
AcDbEllipse
 62
6
  6
CONTINUOUS
 10
4.2927076963
 20
5.1485764806
 30
0.0
 11
-0.136108982
 21
0.136108982
 31
0.0
 40
0.0524585268
 41
0.0439895341
 42
3.0976031195
  0
ELLIPSE
  5
481
100
AcDbEntity
  8
0
100
AcDbEllipse
 62
6
  6
CONTINUOUS
 10
4.1365162297
 20
4.992385014
 30
0.0
 11
-0.136108982
 21
0.136108982
 31
0.0
 40
0.0524585268
 41
-3.0976031195
 42
-0.0439895341
  0
ELLIPSE
  5
482
100
AcDbEntity
  8
0
100
AcDbEllipse
 62
6
  6
CONTINUOUS
 10
3.5856009151
 20
5.8556832617
 30
0.0
 11
-0.136108982
 21
0.136108982
 31
0.0
 40
0.0524585268
 41
0.0439895341
 42
3.0976031195
  0
ELLIPSE
  5
483
100
AcDbEntity
  8
0
100
AcDbEllipse
 62
6
  6
CONTINUOUS
 10
3.4294094485
 20
5.6994917952
 30
0.0
 11
-0.136108982
 21
0.136108982
 31
0.0
 40
0.0524585268
 41
-3.0976031195
 42
-0.0439895341
  0
ELLIPSE
  5
484
100
AcDbEntity
  8
0
100
AcDbEllipse
 62
6
  6
CONTINUOUS
 10
2.8784941339
 20
6.5627900429
 30
0.0
 11
-0.136108982
 21
0.136108982
 31
0.0
 40
0.0524585268
 41
0.0439895341
 42
3.0976031195
  0
ELLIPSE
  5
485
100
AcDbEntity
  8
0
100
AcDbEllipse
 62
6
  6
CONTINUOUS
 10
2.7223026673
 20
6.4065985764
 30
0.0
 11
-0.136108982
 21
0.136108982
 31
0.0
 40
0.0524585268
 41
-3.0976031195
 42
-0.0439895341
  0
ELLIPSE
  5
486
100
AcDbEntity
  8
0
100
AcDbEllipse
 62
6
  6
CONTINUOUS
 10
2.1713873527
 20
7.2698968241
 30
0.0
 11
-0.136108982
 21
0.136108982
 31
0.0
 40
0.0524585268
 41
0.0439895341
 42
3.0976031195
  0
ELLIPSE
  5
487
100
AcDbEntity
  8
0
100
AcDbEllipse
 62
6
  6
CONTINUOUS
 10
2.0151958862
 20
7.1137053575
 30
0.0
 11
-0.136108982
 21
0.136108982
 31
0.0
 40
0.0524585268
 41
-3.0976031195
 42
-0.0439895341
  0
ELLIPSE
  5
488
100
AcDbEntity
  8
0
100
AcDbEllipse
 62
6
  6
CONTINUOUS
 10
6.7380253854
 20
1.4771803087
 30
0.0
 11
1.2419707196
 21
0.2109939883
 31
0.0
 40
0.0472419639
 41
1.4951779742
 42
1.5627707299
  0
ELLIPSE
  5
489
100
AcDbEntity
  8
0
100
AcDbEllipse
 62
6
  6
CONTINUOUS
 10
6.7380253854
 20
1.4771803087
 30
0.0
 11
1.2419707196
 21
0.2109939883
 31
0.0
 40
0.0472419639
 41
1.569675132
 42
1.6426561085
  0
ELLIPSE
  5
48A
100
AcDbEntity
  8
0
100
AcDbEllipse
 62
6
  6
CONTINUOUS
 10
6.7210115399
 20
1.4771803087
 30
0.0
 11
1.2419707196
 21
-0.2109939883
 31
0.0
 40
0.0472419639
 41
1.4974923661
 42
1.5719175163
  0
ELLIPSE
  5
48B
100
AcDbEntity
  8
0
100
AcDbEllipse
 62
6
  6
CONTINUOUS
 10
6.7210115399
 20
1.4771803087
 30
0.0
 11
1.2419707196
 21
-0.2109939883
 31
0.0
 40
0.0472419639
 41
1.5788219237
 42
1.6449719652
  0
ELLIPSE
  5
48C
100
AcDbEntity
  8
0
100
AcDbEllipse
 62
7
  6
CONTINUOUS
 10
6.7210115399
 20
1.4771803087
 30
0.0
 11
1.2419707196
 21
0.2109939883
 31
0.0
 40
0.0472419639
 41
7.8460111309
 42
7.9121060785
  0
ELLIPSE
  5
48D
100
AcDbEntity
  8
0
100
AcDbEllipse
 62
6
  6
CONTINUOUS
 10
6.7380253854
 20
1.4771803087
 30
0.0
 11
1.2418927827
 21
0.1873041559
 31
0.0
 40
0.0913782192
 41
1.4894832816
 42
1.5570153974
  0
ELLIPSE
  5
48E
100
AcDbEntity
  8
0
100
AcDbEllipse
 62
6
  6
CONTINUOUS
 10
6.7210115399
 20
1.4771803087
 30
0.0
 11
1.2418927827
 21
-0.1873041559
 31
0.0
 40
0.0913782192
 41
1.5845772562
 42
1.6507272976
  0
ELLIPSE
  5
48F
100
AcDbEntity
  8
0
100
AcDbEllipse
 62
6
  6
CONTINUOUS
 10
6.7210115399
 20
1.4771803087
 30
0.0
 11
1.2418927827
 21
-0.1873041559
 31
0.0
 40
0.0913782192
 41
1.5032476986
 42
1.5777278875
  0
ELLIPSE
  5
490
100
AcDbEntity
  8
0
100
AcDbEllipse
 62
7
  6
CONTINUOUS
 10
6.7210115399
 20
1.4771803087
 30
0.0
 11
1.2419707196
 21
0.2109939883
 31
0.0
 40
0.0472419639
 41
1.4814411723
 42
1.5559213613
  0
ELLIPSE
  5
491
100
AcDbEntity
  8
0
100
AcDbEllipse
 62
6
  6
CONTINUOUS
 10
6.7380253854
 20
1.4771803087
 30
0.0
 11
1.2418927827
 21
0.1873041559
 31
0.0
 40
0.0913782192
 41
1.5638647661
 42
1.636900776
  0
ELLIPSE
  5
492
100
AcDbEntity
  8
0
100
AcDbEllipse
 62
6
  6
CONTINUOUS
 10
6.7380253854
 20
1.4771803087
 30
0.0
 11
1.2418614118
 21
0.1490454473
 31
0.0
 40
0.1292068636
 41
1.4876976932
 42
1.5552904489
  0
ELLIPSE
  5
493
100
AcDbEntity
  8
0
100
AcDbEllipse
 62
6
  6
CONTINUOUS
 10
6.7210115399
 20
1.4771803087
 30
0.0
 11
1.2418614118
 21
-0.1490454473
 31
0.0
 40
0.1292068636
 41
1.5863022047
 42
1.6524522461
  0
ELLIPSE
  5
494
100
AcDbEntity
  8
0
100
AcDbEllipse
 62
6
  6
CONTINUOUS
 10
6.7210115399
 20
1.4771803087
 30
0.0
 11
1.2418614118
 21
-0.1490454473
 31
0.0
 40
0.1292068636
 41
1.5049726471
 42
1.579452836
  0
ELLIPSE
  5
495
100
AcDbEntity
  8
0
100
AcDbEllipse
 62
6
  6
CONTINUOUS
 10
6.7380253854
 20
1.4771803087
 30
0.0
 11
1.2418614118
 21
0.1490454473
 31
0.0
 40
0.1292068636
 41
1.5621398176
 42
1.6351758275
  0
ELLIPSE
  5
496
100
AcDbEntity
  8
0
100
AcDbEllipse
 62
7
  6
CONTINUOUS
 10
6.7380253854
 20
1.4771803087
 30
0.0
 11
1.2419138961
 21
0.0984535381
 31
0.0
 40
0.1575164203
 41
1.4907170026
 42
1.5583097583
  0
ELLIPSE
  5
497
100
AcDbEntity
  8
0
100
AcDbEllipse
 62
7
  6
CONTINUOUS
 10
6.7210115399
 20
1.4771803087
 30
0.0
 11
1.2419138961
 21
-0.0984535381
 31
0.0
 40
0.1575164203
 41
1.5832828953
 42
1.6494329368
  0
ELLIPSE
  5
498
100
AcDbEntity
  8
0
100
AcDbEllipse
 62
7
  6
CONTINUOUS
 10
6.7210115399
 20
1.4771803087
 30
0.0
 11
1.2419138961
 21
-0.0984535381
 31
0.0
 40
0.1575164203
 41
1.5019533377
 42
1.5764335266
  0
ELLIPSE
  5
499
100
AcDbEntity
  8
0
100
AcDbEllipse
 62
7
  6
CONTINUOUS
 10
6.7380253854
 20
1.4771803087
 30
0.0
 11
1.2419138961
 21
0.0984535381
 31
0.0
 40
0.1575164203
 41
1.5651591269
 42
1.6381951369
  0
ELLIPSE
  5
49A
100
AcDbEntity
  8
0
100
AcDbEllipse
 62
7
  6
CONTINUOUS
 10
6.7380253854
 20
1.4771803087
 30
0.0
 11
1.2419920919
 21
-0.0392095515
 31
0.0
 40
0.1734804855
 41
1.5086802758
 42
1.5762730316
  0
ELLIPSE
  5
49B
100
AcDbEntity
  8
0
100
AcDbEllipse
 62
7
  6
CONTINUOUS
 10
6.7380253854
 20
1.4771803087
 30
0.0
 11
1.2419920919
 21
0.0392095515
 31
0.0
 40
0.1734804855
 41
1.4977268663
 42
1.565319622
  0
ELLIPSE
  5
49C
100
AcDbEntity
  8
0
100
AcDbEllipse
 62
7
  6
CONTINUOUS
 10
6.7210115399
 20
1.4771803087
 30
0.0
 11
1.2419920919
 21
-0.0392095515
 31
0.0
 40
0.1734804855
 41
1.5762730316
 42
1.6424230731
  0
ELLIPSE
  5
49D
100
AcDbEntity
  8
0
100
AcDbEllipse
 62
7
  6
CONTINUOUS
 10
6.7210115399
 20
1.4771803087
 30
0.0
 11
1.2419920919
 21
0.0392095515
 31
0.0
 40
0.1734804855
 41
1.565319622
 42
1.6314696635
  0
ELLIPSE
  5
49E
100
AcDbEntity
  8
0
100
AcDbEllipse
 62
7
  6
CONTINUOUS
 10
6.7210115399
 20
1.4771803087
 30
0.0
 11
1.2419920919
 21
-0.0392095515
 31
0.0
 40
0.1734804855
 41
1.494943474
 42
1.5694236629
  0
ELLIPSE
  5
49F
100
AcDbEntity
  8
0
100
AcDbEllipse
 62
7
  6
CONTINUOUS
 10
6.7380253854
 20
1.4771803087
 30
0.0
 11
1.2419920919
 21
0.0392095515
 31
0.0
 40
0.1734804855
 41
1.5721689906
 42
1.6452050006
  0
ELLIPSE
  5
4A0
100
AcDbEntity
  8
0
100
AcDbEllipse
 62
7
  6
CONTINUOUS
 10
6.7380253854
 20
1.4771803087
 30
0.0
 11
1.242003818
 21
-0.0236176292
 31
0.0
 40
0.1752996036
 41
1.5392237968
 42
1.5439663181
  0
ELLIPSE
  5
4A1
100
AcDbEntity
  8
0
100
AcDbEllipse
 62
7
  6
CONTINUOUS
 10
6.7210115399
 20
1.4771803087
 30
0.0
 11
1.242003818
 21
0.0236176292
 31
0.0
 40
0.1752996036
 41
1.5976743722
 42
1.6023685019
  0
ELLIPSE
  5
4A2
100
AcDbEntity
  8
0
100
AcDbEllipse
 62
7
  6
CONTINUOUS
 10
6.7210115399
 20
1.4771803087
 30
0.0
 11
1.2419920919
 21
0.0392095515
 31
0.0
 40
0.1734804855
 41
7.7671753716
 42
7.8416555606
  0
ELLIPSE
  5
4A3
100
AcDbEntity
  8
0
100
AcDbEllipse
 62
7
  6
CONTINUOUS
 10
6.7380253854
 20
1.4771803087
 30
0.0
 11
1.2419920919
 21
-0.0392095515
 31
0.0
 40
0.1734804855
 41
1.5831224002
 42
1.6561584102
  0
ELLIPSE
  5
4A4
100
AcDbEntity
  8
0
100
AcDbEllipse
 62
7
  6
CONTINUOUS
 10
6.7210115399
 20
1.4771803087
 30
0.0
 11
1.242003818
 21
-0.0236176292
 31
0.0
 40
0.1752996036
 41
1.532234418
 42
1.5383112115
  0
ELLIPSE
  5
4A5
100
AcDbEntity
  8
0
100
AcDbEllipse
 62
7
  6
CONTINUOUS
 10
6.7380253854
 20
1.4771803087
 30
0.0
 11
1.242003818
 21
0.0236176292
 31
0.0
 40
0.1752996036
 41
1.6033260253
 42
1.609367273
  0
ELLIPSE
  5
4A6
100
AcDbEntity
  8
0
100
AcDbEllipse
 62
7
  6
CONTINUOUS
 10
6.7380253854
 20
1.4771803087
 30
0.0
 11
1.2419515777
 21
-0.2065138325
 31
0.0
 40
0.0586903576
 41
1.5516520485
 42
1.5525106256
  0
ELLIPSE
  5
4A7
100
AcDbEntity
  8
0
100
AcDbEllipse
 62
7
  6
CONTINUOUS
 10
6.7210115399
 20
1.4771803087
 30
0.0
 11
1.2418612493
 21
-0.1598765582
 31
0.0
 40
0.1205190352
 41
-1.5858703527
 42
-1.5833143042
  0
ELLIPSE
  5
4A8
100
AcDbEntity
  8
0
100
AcDbEllipse
 62
7
  6
CONTINUOUS
 10
6.7380253854
 20
1.4771803087
 30
0.0
 11
1.241975753
 21
0.0545738771
 31
0.0
 40
0.1707692235
 41
-1.5503193772
 42
-1.5433940161
  0
ELLIPSE
  5
4A9
100
AcDbEntity
  8
0
100
AcDbEllipse
 62
7
  6
CONTINUOUS
 10
6.7210115399
 20
1.4771803087
 30
0.0
 11
1.241975753
 21
-0.0545738771
 31
0.0
 40
0.1707692235
 41
-1.5981982821
 42
-1.5912692734
  0
ELLIPSE
  5
4AA
100
AcDbEntity
  8
0
100
AcDbEllipse
 62
7
  6
CONTINUOUS
 10
6.7210115399
 20
1.4771803087
 30
0.0
 11
1.241975753
 21
0.0545738771
 31
0.0
 40
0.1707692235
 41
-1.5433977685
 42
-1.5364735861
  0
ELLIPSE
  5
4AB
100
AcDbEntity
  8
0
100
AcDbEllipse
 62
7
  6
CONTINUOUS
 10
6.7380253854
 20
1.4771803087
 30
0.0
 11
1.241975753
 21
-0.0545738771
 31
0.0
 40
0.1707692235
 41
-1.6051237136
 42
-1.5981952287
  0
ELLIPSE
  5
4AC
100
AcDbEntity
  8
0
100
AcDbEllipse
 62
7
  6
CONTINUOUS
 10
6.7380253854
 20
1.4771803087
 30
0.0
 11
1.2420099407
 21
-0.0078879217
 31
0.0
 40
0.1762126804
 41
4.7135080948
 42
4.7484144825
  0
ELLIPSE
  5
4AD
100
AcDbEntity
  8
0
100
AcDbEllipse
 62
7
  6
CONTINUOUS
 10
6.7380253854
 20
1.4771803087
 30
0.0
 11
1.2420099407
 21
0.0078879217
 31
0.0
 40
0.1762126804
 41
-1.5719154412
 42
-1.5043226855
  0
ELLIPSE
  5
4AE
100
AcDbEntity
  8
0
100
AcDbEllipse
 62
7
  6
CONTINUOUS
 10
6.7210115399
 20
1.4771803087
 30
0.0
 11
1.2420099407
 21
-0.0078879217
 31
0.0
 40
0.1762126804
 41
-1.6358272538
 42
-1.5696772124
  0
ELLIPSE
  5
4AF
100
AcDbEntity
  8
0
100
AcDbEllipse
 62
7
  6
CONTINUOUS
 10
6.7210115399
 20
1.4771803087
 30
0.0
 11
1.2420099407
 21
0.0078879217
 31
0.0
 40
0.1762126804
 41
-1.6068216298
 42
-1.5719154412
  0
ELLIPSE
  5
4B0
100
AcDbEntity
  8
0
100
AcDbEllipse
 62
6
  6
CONTINUOUS
 10
6.7380253854
 20
1.4771803087
 30
0.0
 11
1.2419561716
 21
-0.0696237645
 31
0.0
 40
0.1671862392
 41
4.7217611264
 42
4.7893538821
  0
ELLIPSE
  5
4B1
100
AcDbEntity
  8
0
100
AcDbEllipse
 62
7
  6
CONTINUOUS
 10
6.7380253854
 20
1.4771803087
 30
0.0
 11
1.2419561716
 21
0.0696237645
 31
0.0
 40
0.1671862392
 41
-1.5801684728
 42
-1.512575717
  0
ELLIPSE
  5
4B2
100
AcDbEntity
  8
0
100
AcDbEllipse
 62
7
  6
CONTINUOUS
 10
6.7210115399
 20
1.4771803087
 30
0.0
 11
1.2419561716
 21
-0.0696237645
 31
0.0
 40
0.1671862392
 41
-1.6275742223
 42
-1.5614241808
  0
ELLIPSE
  5
4B3
100
AcDbEntity
  8
0
100
AcDbEllipse
 62
7
  6
CONTINUOUS
 10
6.7210115399
 20
1.4771803087
 30
0.0
 11
1.2419561716
 21
0.0696237645
 31
0.0
 40
0.1671862392
 41
-1.6463185143
 42
-1.5801684728
  0
ELLIPSE
  5
4B4
100
AcDbEntity
  8
0
100
AcDbEllipse
 62
7
  6
CONTINUOUS
 10
6.7210115399
 20
1.4771803087
 30
0.0
 11
1.2419561716
 21
-0.0696237645
 31
0.0
 40
0.1671862392
 41
4.728610495
 42
4.8030906839
  0
ELLIPSE
  5
4B5
100
AcDbEntity
  8
0
100
AcDbEllipse
 62
7
  6
CONTINUOUS
 10
6.7210115399
 20
1.4771803087
 30
0.0
 11
1.2420099407
 21
0.0078879217
 31
0.0
 40
0.1762126804
 41
-1.5650660726
 42
-1.4905858836
  0
ELLIPSE
  5
4B6
100
AcDbEntity
  8
0
100
AcDbEllipse
 62
7
  6
CONTINUOUS
 10
6.7380253854
 20
1.4771803087
 30
0.0
 11
1.2420099407
 21
-0.0078879217
 31
0.0
 40
0.1762126804
 41
4.6336227162
 42
4.7066587262
  0
ELLIPSE
  5
4B7
100
AcDbEntity
  8
0
100
AcDbEllipse
 62
7
  6
CONTINUOUS
 10
6.7380253854
 20
1.4771803087
 30
0.0
 11
1.2419561716
 21
0.0696237645
 31
0.0
 40
0.1671862392
 41
4.6231314558
 42
4.6961674658
  0
ELLIPSE
  5
4B8
100
AcDbEntity
  8
0
100
AcDbEllipse
 62
6
  6
CONTINUOUS
 10
6.7380253854
 20
1.4771803087
 30
0.0
 11
1.2418787215
 21
-0.1250971529
 31
0.0
 40
0.1447440546
 41
-1.5562169755
 42
-1.4886847132
  0
ELLIPSE
  5
4B9
100
AcDbEntity
  8
0
100
AcDbEllipse
 62
7
  6
CONTINUOUS
 10
6.7380253854
 20
1.4771803087
 30
0.0
 11
1.2418787215
 21
0.1250971529
 31
0.0
 40
0.1447440546
 41
4.6978096291
 42
4.7654023848
  0
ELLIPSE
  5
4BA
100
AcDbEntity
  8
0
100
AcDbEllipse
 62
7
  6
CONTINUOUS
 10
6.7210115399
 20
1.4771803087
 30
0.0
 11
1.2418787215
 21
-0.1250971529
 31
0.0
 40
0.1447440546
 41
4.6608182902
 42
4.7269683317
  0
ELLIPSE
  5
4BB
100
AcDbEntity
  8
0
100
AcDbEllipse
 62
6
  6
CONTINUOUS
 10
6.7210115399
 20
1.4771803087
 30
0.0
 11
1.2418787215
 21
0.1250971529
 31
0.0
 40
0.1447440546
 41
-1.6515257196
 42
-1.5853756781
  0
ELLIPSE
  5
4BC
100
AcDbEntity
  8
0
100
AcDbEllipse
 62
7
  6
CONTINUOUS
 10
6.7210115399
 20
1.4771803087
 30
0.0
 11
1.2418787215
 21
-0.1250971529
 31
0.0
 40
0.1447440546
 41
-1.5493676069
 42
-1.4748874179
  0
ELLIPSE
  5
4BD
100
AcDbEntity
  8
0
100
AcDbEllipse
 62
7
  6
CONTINUOUS
 10
6.7210115399
 20
1.4771803087
 30
0.0
 11
1.2419561716
 21
0.0696237645
 31
0.0
 40
0.1671862392
 41
-1.5733191041
 42
-1.4988985312
  0
ELLIPSE
  5
4BE
100
AcDbEntity
  8
0
100
AcDbEllipse
 62
6
  6
CONTINUOUS
 10
6.7380253854
 20
1.4771803087
 30
0.0
 11
1.2419561716
 21
-0.0696237645
 31
0.0
 40
0.1671862392
 41
4.6419349751
 42
4.7149117577
  0
ELLIPSE
  5
4BF
100
AcDbEntity
  8
0
100
AcDbEllipse
 62
7
  6
CONTINUOUS
 10
6.7380253854
 20
1.4771803087
 30
0.0
 11
1.2418787215
 21
0.1250971529
 31
0.0
 40
0.1447440546
 41
-1.6652610567
 42
-1.5922250467
  0
ELLIPSE
  5
4C0
100
AcDbEntity
  8
0
100
AcDbEllipse
 62
7
  6
CONTINUOUS
 10
6.7380253854
 20
1.4771803087
 30
0.0
 11
1.2418668189
 21
-0.1698870938
 31
0.0
 40
0.1112844692
 41
4.7276114941
 42
4.7952042498
  0
ELLIPSE
  5
4C1
100
AcDbEntity
  8
0
100
AcDbEllipse
 62
7
  6
CONTINUOUS
 10
6.7380253854
 20
1.4771803087
 30
0.0
 11
1.2418668189
 21
0.1698870938
 31
0.0
 40
0.1112844692
 41
4.6971664666
 42
4.7647592224
  0
ELLIPSE
  5
4C2
100
AcDbEntity
  8
0
100
AcDbEllipse
 62
7
  6
CONTINUOUS
 10
6.7210115399
 20
1.4771803087
 30
0.0
 11
1.2418668189
 21
0.1698870938
 31
0.0
 40
0.1112844692
 41
-1.652168882
 42
-1.5860188405
  0
ELLIPSE
  5
4C3
100
AcDbEntity
  8
0
100
AcDbEllipse
 62
6
  6
CONTINUOUS
 10
6.7210115399
 20
1.4771803087
 30
0.0
 11
1.2418787215
 21
0.1250971529
 31
0.0
 40
0.1447440546
 41
-1.5785263095
 42
-1.5040461205
  0
ELLIPSE
  5
4C4
100
AcDbEntity
  8
0
100
AcDbEllipse
 62
6
  6
CONTINUOUS
 10
6.7380253854
 20
1.4771803087
 30
0.0
 11
1.2418787215
 21
-0.1250971529
 31
0.0
 40
0.1447440546
 41
4.6470829531
 42
4.7201189631
  0
ELLIPSE
  5
4C5
100
AcDbEntity
  8
0
100
AcDbEllipse
 62
7
  6
CONTINUOUS
 10
6.7380253854
 20
1.4771803087
 30
0.0
 11
1.2418668189
 21
0.1698870938
 31
0.0
 40
0.1112844692
 41
-1.6659042191
 42
-1.5928682092
  0
ELLIPSE
  5
4C6
100
AcDbEntity
  8
0
100
AcDbEllipse
 62
7
  6
CONTINUOUS
 10
6.7380253854
 20
1.4771803087
 30
0.0
 11
1.2419312089
 21
-0.2010615364
 31
0.0
 40
0.069895874
 41
-1.5594810688
 42
-1.4918883131
  0
ELLIPSE
  5
4C7
100
AcDbEntity
  8
0
100
AcDbEllipse
 62
6
  6
CONTINUOUS
 10
6.7210115399
 20
1.4771803087
 30
0.0
 11
1.2419312089
 21
0.2010615364
 31
0.0
 40
0.069895874
 41
-1.6482616263
 42
-1.5821115848
  0
ELLIPSE
  5
4C8
100
AcDbEntity
  8
0
100
AcDbEllipse
 62
7
  6
CONTINUOUS
 10
6.7210115399
 20
1.4771803087
 30
0.0
 11
1.2418668189
 21
0.1698870938
 31
0.0
 40
0.1112844692
 41
-1.5791694719
 42
-1.504689283
  0
ELLIPSE
  5
4C9
100
AcDbEntity
  8
0
100
AcDbEllipse
 62
7
  6
CONTINUOUS
 10
6.7380253854
 20
1.4771803087
 30
0.0
 11
1.2418668189
 21
-0.1698870938
 31
0.0
 40
0.1112844692
 41
4.6477261155
 42
4.7207621255
  0
ELLIPSE
  5
4CA
100
AcDbEntity
  8
0
100
AcDbEllipse
 62
6
  6
CONTINUOUS
 10
6.7210115399
 20
1.4771803087
 30
0.0
 11
1.2419312089
 21
0.2010615364
 31
0.0
 40
0.069895874
 41
-1.5752622162
 42
-1.5007820272
  0
ELLIPSE
  5
4CB
100
AcDbEntity
  8
0
100
AcDbEllipse
 62
7
  6
CONTINUOUS
 10
6.7380253854
 20
1.4771803087
 30
0.0
 11
1.2419312089
 21
-0.2010615364
 31
0.0
 40
0.069895874
 41
4.6438188598
 42
4.7168548697
  0
ELLIPSE
  5
4CC
100
AcDbEntity
  8
0
100
AcDbEllipse
 62
7
  6
CONTINUOUS
 10
6.7210115399
 20
1.4771803087
 30
0.0
 11
1.2420099407
 21
-0.0078879217
 31
0.0
 40
0.1762126804
 41
4.7203574634
 42
4.7584135441
  0
ELLIPSE
  5
4CD
100
AcDbEntity
  8
0
100
AcDbEllipse
 62
7
  6
CONTINUOUS
 10
6.7380253854
 20
1.4771803087
 30
0.0
 11
1.2420099407
 21
0.0078879217
 31
0.0
 40
0.1762126804
 41
4.6666378805
 42
4.7044204973
  0
ELLIPSE
  5
4CE
100
AcDbEntity
  8
0
100
AcDbEllipse
 62
6
  6
CONTINUOUS
 10
6.0713024823
 20
3.213790228
 30
0.0
 11
0.0770746391
 21
0.0770746391
 31
0.0
 40
0.0524077793
 41
6.2831853072
 42
9.4247779608
  0
ELLIPSE
  5
4CF
100
AcDbEntity
  8
0
100
AcDbEllipse
 62
6
  6
CONTINUOUS
 10
6.7210115399
 20
1.4771803087
 30
0.0
 11
1.2418668189
 21
-0.1698870938
 31
0.0
 40
0.1112844692
 41
-1.5487244444
 42
-1.4742442555
  0
ELLIPSE
  5
4D0
100
AcDbEntity
  8
0
100
AcDbEllipse
 62
6
  6
CONTINUOUS
 10
6.7380253854
 20
1.4771803087
 30
0.0
 11
1.2419312089
 21
0.2010615364
 31
0.0
 40
0.069895874
 41
-1.5821115848
 42
-1.5145188291
  0
ELLIPSE
  5
4D1
100
AcDbEntity
  8
0
100
AcDbEllipse
 62
6
  6
CONTINUOUS
 10
6.7210115399
 20
1.4771803087
 30
0.0
 11
1.2419312089
 21
-0.2010615364
 31
0.0
 40
0.069895874
 41
-1.6256311103
 42
-1.5594810688
  0
ELLIPSE
  5
4D2
100
AcDbEntity
  8
0
100
AcDbEllipse
 62
6
  6
CONTINUOUS
 10
6.7210115399
 20
1.4771803087
 30
0.0
 11
1.2419312089
 21
-0.2010615364
 31
0.0
 40
0.069895874
 41
-1.5526317002
 42
-1.4781515112
  0
ELLIPSE
  5
4D3
100
AcDbEntity
  8
0
100
AcDbEllipse
 62
6
  6
CONTINUOUS
 10
6.7380253854
 20
1.4771803087
 30
0.0
 11
1.2419312089
 21
0.2010615364
 31
0.0
 40
0.069895874
 41
-1.6619969634
 42
-1.5889609534
  0
ELLIPSE
  5
4D4
100
AcDbEntity
  8
0
100
AcDbEllipse
 62
6
  6
CONTINUOUS
 10
6.7380253854
 20
1.4771803087
 30
0.0
 11
1.2419707196
 21
-0.2109939883
 31
0.0
 40
0.0472419639
 41
1.511229168
 42
1.5788219237
  0
ELLIPSE
  5
4D5
100
AcDbEntity
  8
0
100
AcDbEllipse
 62
6
  6
CONTINUOUS
 10
6.7380253854
 20
1.4771803087
 30
0.0
 11
1.2418927827
 21
-0.1873041559
 31
0.0
 40
0.0913782192
 41
1.5169845004
 42
1.5845772562
  0
ELLIPSE
  5
4D6
100
AcDbEntity
  8
0
100
AcDbEllipse
 62
6
  6
CONTINUOUS
 10
6.7210115399
 20
1.4771803087
 30
0.0
 11
1.2418927827
 21
0.1873041559
 31
0.0
 40
0.0913782192
 41
7.8402007046
 42
7.9063507461
  0
ELLIPSE
  5
4D7
100
AcDbEntity
  8
0
100
AcDbEllipse
 62
6
  6
CONTINUOUS
 10
6.7380253854
 20
1.4771803087
 30
0.0
 11
1.2419707196
 21
-0.2109939883
 31
0.0
 40
0.0472419639
 41
1.5856712923
 42
1.6587073023
  0
ELLIPSE
  5
4D8
100
AcDbEntity
  8
0
100
AcDbEllipse
 62
6
  6
CONTINUOUS
 10
6.7380253854
 20
1.4771803087
 30
0.0
 11
1.2418614118
 21
-0.1490454473
 31
0.0
 40
0.1292068636
 41
1.5187094489
 42
1.5863022047
  0
ELLIPSE
  5
4D9
100
AcDbEntity
  8
0
100
AcDbEllipse
 62
6
  6
CONTINUOUS
 10
6.7210115399
 20
1.4771803087
 30
0.0
 11
1.2418614118
 21
0.1490454473
 31
0.0
 40
0.1292068636
 41
7.8384757561
 42
7.9046257976
  0
ELLIPSE
  5
4DA
100
AcDbEntity
  8
0
100
AcDbEllipse
 62
6
  6
CONTINUOUS
 10
6.7210115399
 20
1.4771803087
 30
0.0
 11
1.2418927827
 21
0.1873041559
 31
0.0
 40
0.0913782192
 41
1.4756858399
 42
1.5501660288
  0
ELLIPSE
  5
4DB
100
AcDbEntity
  8
0
100
AcDbEllipse
 62
6
  6
CONTINUOUS
 10
6.7380253854
 20
1.4771803087
 30
0.0
 11
1.2418927827
 21
-0.1873041559
 31
0.0
 40
0.0913782192
 41
1.5914266248
 42
1.6644626348
  0
ELLIPSE
  5
4DC
100
AcDbEntity
  8
0
100
AcDbEllipse
 62
6
  6
CONTINUOUS
 10
6.7380253854
 20
1.4771803087
 30
0.0
 11
1.2419138961
 21
-0.0984535381
 31
0.0
 40
0.1575164203
 41
1.5156901395
 42
1.5832828953
  0
ELLIPSE
  5
4DD
100
AcDbEntity
  8
0
100
AcDbEllipse
 62
6
  6
CONTINUOUS
 10
6.7210115399
 20
1.4771803087
 30
0.0
 11
1.2419138961
 21
0.0984535381
 31
0.0
 40
0.1575164203
 41
7.8414950655
 42
7.907645107
  0
ELLIPSE
  5
4DE
100
AcDbEntity
  8
0
100
AcDbEllipse
 62
6
  6
CONTINUOUS
 10
6.7210115399
 20
1.4771803087
 30
0.0
 11
1.2418614118
 21
0.1490454473
 31
0.0
 40
0.1292068636
 41
1.4739608914
 42
1.5484410803
  0
ELLIPSE
  5
4DF
100
AcDbEntity
  8
0
100
AcDbEllipse
 62
6
  6
CONTINUOUS
 10
6.7380253854
 20
1.4771803087
 30
0.0
 11
1.2418614118
 21
-0.1490454473
 31
0.0
 40
0.1292068636
 41
1.5931515733
 42
1.6661875833
  0
ELLIPSE
  5
4E0
100
AcDbEntity
  8
0
100
AcDbEllipse
 62
6
  6
CONTINUOUS
 10
6.7210115399
 20
1.4771803087
 30
0.0
 11
1.2419138961
 21
0.0984535381
 31
0.0
 40
0.1575164203
 41
1.4770405263
 42
1.5514603897
  0
ELLIPSE
  5
4E1
100
AcDbEntity
  8
0
100
AcDbEllipse
 62
6
  6
CONTINUOUS
 10
6.7380253854
 20
1.4771803087
 30
0.0
 11
1.2419138961
 21
-0.0984535381
 31
0.0
 40
0.1575164203
 41
1.5901322639
 42
1.6631075898
  0
ELLIPSE
  5
4E2
100
AcDbEntity
  8
0
100
AcDbEllipse
 62
6
  6
CONTINUOUS
 10
6.7380253854
 20
1.4771803087
 30
0.0
 11
1.2418946385
 21
0.1120827243
 31
0.0
 40
0.151498192
 41
-1.5564494414
 42
-1.5518633661
  0
ELLIPSE
  5
4E3
100
AcDbEntity
  8
0
100
AcDbEllipse
 62
6
  6
CONTINUOUS
 10
6.7210115399
 20
1.4771803087
 30
0.0
 11
1.2418946385
 21
-0.1120827243
 31
0.0
 40
0.151498192
 41
-1.5897387902
 42
-1.5851416021
  0
ELLIPSE
  5
4E4
100
AcDbEntity
  8
0
100
AcDbEllipse
 62
6
  6
CONTINUOUS
 10
6.7210115399
 20
1.4771803087
 30
0.0
 11
1.2418668189
 21
-0.1698870938
 31
0.0
 40
0.1112844692
 41
4.6614614526
 42
4.7276114941
  0
ENDSEC
  0
SECTION
  2
OBJECTS
  0
DICTIONARY
  5
C
100
AcDbDictionary
280
0
281
1
  3
ACAD_GROUP
350
D
  3
ACAD_MLINESTYLE
350
17
  3
ACAD_LAYOUT
350
1A
  3
ACAD_PLOTSETTINGS
350
19
  3
ACAD_PLOTSTYLENAME
350
E
  0
DICTIONARY
  5
D
102
{ACAD_REACTORS
330
C
102
}
100
AcDbDictionary
280
0
281
1
  0
ACDBDICTIONARYWDFLT
  5
E
102
{ACAD_REACTORS
330
C
102
}
100
AcDbDictionary
281
1
  3
Normal
350
F
100
AcDbDictionaryWithDefault
340
F
  0
DICTIONARY
  5
17
102
{ACAD_REACTORS
330
C
102
}
100
AcDbDictionary
280
0
281
1
  3
Standard
350
18
  0
DICTIONARY
  5
19
102
{ACAD_REACTORS
330
C
102
}
100
AcDbDictionary
281
1
  0
DICTIONARY
  5
1A
102
{ACAD_REACTORS
330
C
102
}
100
AcDbDictionary
281
1
  3
Model
350
4E5
  3
Layout1
350
4E6
  0
ACDBPLACEHOLDER
  5
F
102
{ACAD_REACTORS
330
E
102
}
  0
MLINESTYLE
  5
18
102
{ACAD_REACTORS
330
17
102
}
100
AcDbMlineStyle
  2
STANDARD
 70
0
  3

 62
256
 51
90.0
 52
90.0
 71
2
 49
0.5
 62
256
  6
BYLAYER
 49
-0.5
 62
256
  6
BYLAYER
  0
LAYOUT
  5
4E5
102
{ACAD_REACTORS
330
1A
102
}
100
AcDbPlotSettings
  1

  2
none_device
  4
ANSI_A_(11.00_x_8.50_Inches)
  6

 40
0.0
 41
0.0
 42
0.0
 43
0.0
 44
279.4
 45
215.9
 46
0.0
 47
0.0
 48
0.0
 49
0.0
140
0.0
141
0.0
142
1.0
143
1.0
 70
1024
 72
0
 73
0
 74
0
  7

 75
0
147
1.0
148
0.0
149
0.0
100
AcDbLayout
  1
Model
 70
0
 71
0
 10
0.0
 20
0.0
 11
11.0
 21
8.5
 12
0.0
 22
0.0
 32
0.0
 14
0.0
 24
0.0
 34
0.0
 15
0.0
 25
0.0
 35
0.0
146
0.0
 13
0.0
 23
0.0
 33
0.0
 16
1.0
 26
0.0
 36
0.0
 17
0.0
 27
1.0
 37
0.0
 76
0
330
203
345
0
346
0
  0
LAYOUT
  5
4E6
102
{ACAD_REACTORS
330
1A
102
}
100
AcDbPlotSettings
  1

  2
none_device
  4
ANSI_A_(11.00_x_8.50_Inches)
  6

 40
0.0
 41
0.0
 42
0.0
 43
0.0
 44
279.4
 45
215.9
 46
0.0
 47
0.0
 48
0.0
 49
0.0
140
0.0
141
0.0
142
1.0
143
1.0
 70
0
 72
0
 73
0
 74
0
  7

 75
0
147
1.0
148
0.0
149
0.0
100
AcDbLayout
  1
Layout1
 70
0
 71
1
 10
0.0
 20
0.0
 11
11.0
 21
8.5
 12
0.0
 22
0.0
 32
0.0
 14
0.0
 24
0.0
 34
0.0
 15
0.0
 25
0.0
 35
0.0
146
0.0
 13
0.0
 23
0.0
 33
0.0
 16
1.0
 26
0.0
 36
0.0
 17
0.0
 27
1.0
 37
0.0
 76
0
330
204
345
0
346
0
  0
ENDSEC
  0
EOF
