999
DXF file: E:\BT Custom\CADOUTPUT\_TOP.dxf
999
Pro/ENGINEER 2018400 by Parametric Technology Corporation
  0
SECTION
  2
HEADER
  9
$ACADVER
  1
AC1018
  9
$DWGCODEPAGE
  3
ANSI_1252
  9
$EXTMAX
 10
22.0
 20
17.0
 30
0.0
  9
$EXTMIN
 10
0.0
 20
0.0
 30
0.0
  9
$LIMMIN
 10
0.0
 20
0.0
  9
$LIMMAX
 10
22.0
 20
17.0
  9
$VIEWCTR
 10
11.0
 20
8.5
  9
$VIEWSIZE
 40
17.0
  9
$CLAYER
  8
0
  9
$LTSCALE
 40
1.21
  9
$CELTYPE
  6
BYLAYER
  9
$DIMSCALE
 40
1.0
  9
$DIMASZ
 40
0.1
  9
$DIMEXO
 40
0.0625
  9
$DIMDLI
 40
0.836
  9
$DIMEXE
 40
0.125
  9
$DIMCEN
 40
0.198
  9
$DIMLFAC
 40
1.0
  9
$DIMBLK
  1
_FILLED
  9
$DIMALT
 70
1
  9
$DIMALTD
 70
2
  9
$DIMALTTD
 70
2
  9
$DIMALTF
 40
25.4
  9
$DIMTXT
 40
0.08
  9
$DIMTOL
 70
1
  9
$DIMLIM
 70
0
  9
$DIMTFAC
 40
1.0
  9
$DIMTP
 40
0.001
  9
$DIMTM
 40
0.001
  9
$DIMGAP
 40
0.09
  9
$DIMDSEP
 70
46
  9
$AUNITS
 70
0
  9
$PDMODE
 70
3
  9
$PDSIZE
 40
0.06
  9
$HANDSEED
  5
288
  9
$TILEMODE
 70
1
  9
$MEASUREMENT
 70
0
  9
$INSUNITS
 70
1
  0
ENDSEC
  0
SECTION
  2
CLASSES
  0
CLASS
  1
ACDBDICTIONARYWDFLT
  2
AcDbDictionaryWithDefault
  3
AutoCAD 2000
 90
0
 91
1
280
0
281
0
  0
CLASS
  1
ACDBPLACEHOLDER
  2
AcDbPlaceHolder
  3
AutoCAD 2000
 90
0
 91
1
280
0
281
0
  0
CLASS
  1
LAYOUT
  2
AcDbLayout
  3
AutoCAD 2000
 90
0
 91
0
280
0
281
0
  0
ENDSEC
  0
SECTION
  2
TABLES
  0
TABLE
  2
VPORT
  5
8
100
AcDbSymbolTable
 70
2
  0
VPORT
  5
1F4
100
AcDbSymbolTableRecord
100
AcDbViewportTableRecord
  2
*ACTIVE
 70
0
 10
0.0
 20
0.0
 11
1.0
 21
1.0
 12
11.0
 22
8.5
 13
0.0
 23
0.0
 14
1.0
 24
1.0
 15
0.0
 25
0.0
 16
0.0
 26
0.0
 36
1.0
 17
0.0
 27
0.0
 37
0.0
 40
17.0
 41
1.2941176471
 42
50.0
 43
0.0
 44
0.0
 50
0.0
 51
0.0
 71
0
 72
100
 73
1
 74
1
 75
0
 76
0
 77
0
 78
0
  0
ENDTAB
  0
TABLE
  2
LTYPE
  5
5
100
AcDbSymbolTable
 70
6
  0
LTYPE
  5
14
100
AcDbSymbolTableRecord
100
AcDbLinetypeTableRecord
  2
BYBLOCK
 70
0
  3

 72
65
 73
0
 40
0.0
  0
LTYPE
  5
15
100
AcDbSymbolTableRecord
100
AcDbLinetypeTableRecord
  2
BYLAYER
 70
0
  3

 72
65
 73
0
 40
0.0
  0
LTYPE
  5
16
100
AcDbSymbolTableRecord
100
AcDbLinetypeTableRecord
  2
CONTINUOUS
 70
64
  3
Solid line
 72
65
 73
0
 40
0.0
  0
LTYPE
  5
1F5
100
AcDbSymbolTableRecord
100
AcDbLinetypeTableRecord
  2
CENTER
 70
64
  3
____ _ ____ _ ____ _ ____ _ ____ _ ____ _ ____
 72
65
 73
4
 40
0.6
 49
0.375
 74
0
 49
-0.075
 74
0
 49
0.075
 74
0
 49
-0.075
 74
0
  0
LTYPE
  5
1F6
100
AcDbSymbolTableRecord
100
AcDbLinetypeTableRecord
  2
HIDDEN
 70
64
  3
- - - - - - - - - - - - - - - - - - - -
 72
65
 73
2
 40
0.2
 49
0.1
 74
0
 49
-0.1
 74
0
  0
LTYPE
  5
1F7
100
AcDbSymbolTableRecord
100
AcDbLinetypeTableRecord
  2
PHANTOM
 70
64
  3
_____ _ _ _____ _ _ _____ _ _ _____
 72
65
 73
6
 40
0.8
 49
0.45
 74
0
 49
-0.05
 74
0
 49
0.1
 74
0
 49
-0.05
 74
0
 49
0.1
 74
0
 49
-0.05
 74
0
  0
LTYPE
  5
1F8
100
AcDbSymbolTableRecord
100
AcDbLinetypeTableRecord
  2
DOT
 70
64
  3
. . . . . . . . . . . . . . . . . . . .
 72
65
 73
2
 40
0.2
 49
0.1
 74
0
 49
-0.1
 74
0
  0
LTYPE
  5
1F9
100
AcDbSymbolTableRecord
100
AcDbLinetypeTableRecord
  2
DASHED
 70
64
  3
- - - - - - - - - - - - - - - - - - - -
 72
65
 73
2
 40
0.2
 49
0.1
 74
0
 49
-0.1
 74
0
  0
ENDTAB
  0
TABLE
  2
LAYER
  5
2
100
AcDbSymbolTable
 70
36
  0
LAYER
  5
10
100
AcDbSymbolTableRecord
100
AcDbLayerTableRecord
  2
0
 70
0
 62
7
  6
CONTINUOUS
370
-3
390
F
  0
LAYER
  5
1FA
100
AcDbSymbolTableRecord
100
AcDbLayerTableRecord
  2
DEFAULT_1
 70
0
 62
7
  6
CENTER
370
-3
390
F
  0
LAYER
  5
1FB
100
AcDbSymbolTableRecord
100
AcDbLayerTableRecord
  2
DEFAULT_2
 70
0
 62
8
  6
HIDDEN
370
-3
390
F
  0
LAYER
  5
1FC
100
AcDbSymbolTableRecord
100
AcDbLayerTableRecord
  2
DEFAULT_3
 70
0
 62
7
  6
PHANTOM
370
-3
390
F
  0
LAYER
  5
1FD
100
AcDbSymbolTableRecord
100
AcDbLayerTableRecord
  2
ALL_FEATURES
 70
0
 62
7
  6
CONTINUOUS
370
-3
390
F
  0
LAYER
  5
1FE
100
AcDbSymbolTableRecord
100
AcDbLayerTableRecord
  2
AXES_FEATURES
 70
0
 62
7
  6
CONTINUOUS
370
-3
390
F
  0
LAYER
  5
1FF
100
AcDbSymbolTableRecord
100
AcDbLayerTableRecord
  2
DIMENSIONS
 70
0
 62
7
  6
CONTINUOUS
370
-3
390
F
  0
ENDTAB
  0
TABLE
  2
STYLE
  5
3
100
AcDbSymbolTable
 70
1
  0
STYLE
  5
11
100
AcDbSymbolTableRecord
100
AcDbTextStyleTableRecord
  2
STANDARD
 70
0
 40
0.0
 41
0.8
 50
0.0
 71
0
 42
0.2
  3
txt
  4

  0
STYLE
  5
200
100
AcDbSymbolTableRecord
100
AcDbTextStyleTableRecord
  2
TEXTSTYLE_1
 70
0
 40
0.0
 41
0.8
 50
0.0
 71
0
 42
0.2
  3
gdt
  4

  0
ENDTAB
  0
TABLE
  2
VIEW
  5
6
100
AcDbSymbolTable
 70
0
  0
ENDTAB
  0
TABLE
  2
UCS
  5
7
100
AcDbSymbolTable
 70
0
  0
ENDTAB
  0
TABLE
  2
APPID
  5
9
100
AcDbSymbolTable
 70
1
  0
APPID
  5
201
100
AcDbSymbolTableRecord
100
AcDbRegAppTableRecord
  2
ACAD
 70
0
  0
ENDTAB
  0
TABLE
  2
BLOCK_RECORD
  5
1
100
AcDbSymbolTable
 70
0
  0
BLOCK_RECORD
  5
202
100
AcDbSymbolTableRecord
100
AcDbBlockTableRecord
  2
*Model_Space
  0
BLOCK_RECORD
  5
203
100
AcDbSymbolTableRecord
100
AcDbBlockTableRecord
  2
*Paper_Space
  0
BLOCK_RECORD
  5
204
100
AcDbSymbolTableRecord
100
AcDbBlockTableRecord
  2
_FILLED
  0
ENDTAB
  0
TABLE
  2
DIMSTYLE
  5
A
100
AcDbSymbolTable
 70
1
100
AcDbDimStyleTable
 71
0
  0
DIMSTYLE
105
205
100
AcDbSymbolTableRecord
100
AcDbDimStyleTableRecord
  2
STANDARD
 70
0
  3

  4

 40
1.0
 41
0.1
 42
0.0625
 43
0.38
 44
0.125
 45
0.0
 46
0.0
 47
0.001
 48
0.001
140
0.08
141
0.09
142
0.0
143
25.4
144
1.0
145
0.0
146
1.0
147
0.09
 71
1.0
 72
0.0
 73
1
 74
1
 75
0
 76
0
 77
0
 78
4
 79
1
170
1
171
2
172
0
173
0
174
0
175
0
176
0
177
0
178
0
270
2
179
3
271
3
272
3
273
2
274
2
275
0
280
0
281
0
282
0
283
1
284
4
285
0
286
0
287
3
288
0
340
11
278
46
341
204
342
204
343
204
344
204
  0
ENDTAB
  0
ENDSEC
  0
SECTION
  2
BLOCKS
  0
BLOCK
  5
20
100
AcDbEntity
  8
0
100
AcDbBlockBegin
  2
*Model_Space
 70
0
 10
0.0
 20
0.0
 30
0.0
  3
*Model_Space
  1

  0
ENDBLK
  5
21
100
AcDbEntity
  8
0
100
AcDbBlockEnd
  0
BLOCK
  5
1C
100
AcDbEntity
  8
0
100
AcDbBlockBegin
  2
*Paper_Space
 70
0
 10
0.0
 20
0.0
 30
0.0
  3
*Paper_Space
  1

  0
ENDBLK
  5
1D
100
AcDbEntity
  8
0
100
AcDbBlockEnd
  0
BLOCK
  5
206
100
AcDbEntity
  8
0
100
AcDbBlockBegin
  2
_FILLED
 70
64
 10
0.0
 20
0.0
  3
_FILLED
  1

  0
SOLID
  5
207
100
AcDbEntity
  8
0
  6
BYBLOCK
 62
0
100
AcDbTrace
 10
0.0
 20
0.0
 11
-1.0
 21
0.2
 12
-1.0
 22
-0.2
 13
-1.0
 23
-0.2
  0
ENDBLK
  5
208
100
AcDbEntity
  8
0
  6
BYBLOCK
 62
0
100
AcDbBlockEnd
  0
ENDSEC
  0
SECTION
  2
ENTITIES
  0
LWPOLYLINE
  5
209
100
AcDbEntity
  8
0
100
AcDbPolyline
 62
7
  6
CONTINUOUS
 90
6
 70
0
 10
9.8621577774
 20
9.448668276
 10
9.864968675
 20
9.4161043019
 10
9.8837143741
 20
9.3000364783
 10
9.9165719592
 20
9.1802230141
 10
9.9621201272
 20
9.0585871154
 10
10.0136996897
 20
8.9442294909
  0
LINE
  5
20A
100
AcDbEntity
  8
0
100
AcDbLine
 62
7
  6
CONTINUOUS
 10
9.8598183383
 20
9.5158356274
 11
9.8621577774
 21
9.448668276
  0
LINE
  5
20B
100
AcDbEntity
  8
0
100
AcDbLine
 62
7
  6
CONTINUOUS
 10
10.4967561301
 20
4.8783670636
 11
10.4967693625
 21
4.8772714873
  0
LINE
  5
20C
100
AcDbEntity
  8
0
100
AcDbLine
 62
7
  6
CONTINUOUS
 10
10.49819315
 20
5.0270497456
 11
10.496761606
 21
4.8780050715
  0
LINE
  5
20D
100
AcDbEntity
  8
0
100
AcDbLine
 62
7
  6
CONTINUOUS
 10
10.182431537
 20
8.6032419347
 11
10.2313934949
 21
8.4762603914
  0
LINE
  5
20E
100
AcDbEntity
  8
0
100
AcDbLine
 62
7
  6
CONTINUOUS
 10
10.2313934949
 20
8.4762603914
 11
10.2315801518
 21
8.4756525002
  0
LWPOLYLINE
  5
20F
100
AcDbEntity
  8
0
100
AcDbPolyline
 62
7
  6
CONTINUOUS
 90
15
 70
0
 10
10.2315791046
 20
8.4756526296
 10
10.3095068289
 20
8.2071273675
 10
10.375421607
 20
7.9264311678
 10
10.4257915772
 20
7.6436690615
 10
10.4641308563
 20
7.3622287168
 10
10.4924817276
 20
7.084360566
 10
10.5113578804
 20
6.8115611697
 10
10.52204135
 20
6.5436357674
 10
10.5264605283
 20
6.2817907644
 10
10.5263140722
 20
6.0310253222
 10
10.5230485294
 20
5.799044872
 10
10.5176067258
 20
5.5851907928
 10
10.5108270067
 20
5.3866774846
 10
10.503827922
 20
5.2001399965
 10
10.49819315
 20
5.0270497456
  0
LINE
  5
210
100
AcDbEntity
  8
0
100
AcDbLine
 62
9
  6
CONTINUOUS
 10
10.0136996951
 20
8.9442294796
 11
10.0113287701
 21
8.9539486961
  0
LINE
  5
211
100
AcDbEntity
  8
0
100
AcDbLine
 62
9
  6
CONTINUOUS
 10
11.0473183383
 20
4.2613280934
 11
11.0473183382
 21
8.967466416
  0
LWPOLYLINE
  5
212
100
AcDbEntity
  8
0
100
AcDbPolyline
 62
7
  6
CONTINUOUS
 90
3
 70
0
 10
10.4969976372
 20
4.9025793731
 10
10.4889319167
 20
4.837761497
 10
10.4883251705
 20
4.8091551835
  0
LWPOLYLINE
  5
213
100
AcDbEntity
  8
0
100
AcDbPolyline
 62
7
  6
CONTINUOUS
 90
3
 70
0
 10
10.0137136153
 20
8.9442004493
 10
10.1047677065
 20
8.7628734542
 10
10.182431537
 20
8.6032419347
  0
LINE
  5
214
100
AcDbEntity
  8
0
100
AcDbLine
 62
7
  6
CONTINUOUS
 10
10.0137136153
 20
8.9442004493
 11
10.0136996951
 21
8.9442294796
  0
LWPOLYLINE
  5
215
100
AcDbEntity
  8
0
100
AcDbPolyline
 62
7
  6
CONTINUOUS
 90
4
 70
0
 10
11.8632422021
 20
8.4762571656
 10
11.9122035518
 20
8.6032383881
 10
11.9898679346
 20
8.7628714209
 10
12.0809230741
 20
8.9442004761
  0
LWPOLYLINE
  5
216
100
AcDbEntity
  8
0
100
AcDbPolyline
 62
7
  6
CONTINUOUS
 90
6
 70
0
 10
12.0809369816
 20
8.9442294797
 10
12.1325165651
 20
9.0585871544
 10
12.1780647217
 20
9.1802230275
 10
12.2109223043
 20
9.300036487
 10
12.229668002
 20
9.4161043062
 10
12.2324788991
 20
9.4486682751
  0
LINE
  5
217
100
AcDbEntity
  8
0
100
AcDbLine
 62
7
  6
CONTINUOUS
 10
12.0809230741
 20
8.9442004761
 11
12.0809369816
 21
8.9442294797
  0
LINE
  5
218
100
AcDbEntity
  8
0
100
AcDbLine
 62
7
  6
CONTINUOUS
 10
11.6057047598
 20
4.8377614996
 11
11.5976390735
 21
4.9025790989
  0
LINE
  5
219
100
AcDbEntity
  8
0
100
AcDbLine
 62
7
  6
CONTINUOUS
 10
11.6063115061
 20
4.8091551835
 11
11.6057047598
 21
4.8377614996
  0
LWPOLYLINE
  5
21A
100
AcDbEntity
  8
0
100
AcDbPolyline
 62
7
  6
CONTINUOUS
 90
16
 70
0
 10
11.5978750708
 20
4.8780050846
 10
11.5964438321
 20
5.0270376801
 10
11.5908099025
 20
5.2001088431
 10
11.5838117309
 20
5.386621611
 10
11.5770325431
 20
5.5851061174
 10
11.5715904847
 20
5.7989284399
 10
11.5683237736
 20
6.030877462
 10
11.5681748736
 20
6.2816145903
 10
11.5725898228
 20
6.5434344256
 10
11.5832667542
 20
6.8113356811
 10
11.602133664
 20
7.0841112394
 10
11.6304736827
 20
7.3619580794
 10
11.6688005454
 20
7.6433813184
 10
11.7191537929
 20
7.9261308905
 10
11.7850490022
 20
8.206822845
 10
11.863056241
 20
8.4756483585
  0
LINE
  5
21B
100
AcDbEntity
  8
0
100
AcDbLine
 62
7
  6
CONTINUOUS
 10
11.5978796413
 20
4.87830549
 11
11.5978750708
 21
4.8780050846
  0
LINE
  5
21C
100
AcDbEntity
  8
0
100
AcDbLine
 62
9
  6
CONTINUOUS
 10
12.0809369816
 20
8.9442294797
 11
12.0833079064
 21
8.953948736
  0
LINE
  5
21D
100
AcDbEntity
  8
0
100
AcDbLine
 62
7
  6
CONTINUOUS
 10
11.8630552324
 20
8.475648252
 11
11.8632422021
 21
8.4762571656
  0
LINE
  5
21E
100
AcDbEntity
  8
0
100
AcDbLine
 62
7
  6
CONTINUOUS
 10
12.2324788991
 20
9.4486682751
 11
12.2348183383
 21
9.5158356274
  0
ARC
  5
21F
100
AcDbEntity
  8
0
100
AcDbCircle
 62
7
  6
CONTINUOUS
 10
10.3108008898
 20
8.5003763604
 40
0.0829885868
100
AcDbArc
 50
181.1468358877
 51
196.8963375079
  0
CIRCLE
  5
220
100
AcDbEntity
  8
0
100
AcDbCircle
 62
7
  6
CONTINUOUS
 10
7.0473183383
 20
9.5158356274
 40
1.17
  0
CIRCLE
  5
221
100
AcDbEntity
  8
0
100
AcDbCircle
 62
9
  6
CONTINUOUS
 10
7.0473183383
 20
9.5158356274
 40
1.1043717104
  0
CIRCLE
  5
222
100
AcDbEntity
  8
0
100
AcDbCircle
 62
9
  6
CONTINUOUS
 10
7.0473183383
 20
9.5158356274
 40
1.0719223696
  0
CIRCLE
  5
223
100
AcDbEntity
  8
0
100
AcDbCircle
 62
9
  6
CONTINUOUS
 10
7.0473183383
 20
9.5158356274
 40
1.0407459276
  0
CIRCLE
  5
224
100
AcDbEntity
  8
0
100
AcDbCircle
 62
9
  6
CONTINUOUS
 10
7.0473183383
 20
9.5158356274
 40
1.0164705063
  0
CIRCLE
  5
225
100
AcDbEntity
  8
0
100
AcDbCircle
 62
9
  6
CONTINUOUS
 10
7.0473183383
 20
9.5158356274
 40
0.9793435571
  0
CIRCLE
  5
226
100
AcDbEntity
  8
0
100
AcDbCircle
 62
9
  6
CONTINUOUS
 10
7.0473183383
 20
9.5158356274
 40
0.9519481536
  0
CIRCLE
  5
227
100
AcDbEntity
  8
0
100
AcDbCircle
 62
9
  6
CONTINUOUS
 10
7.0473183383
 20
9.5158356274
 40
0.9418237702
  0
CIRCLE
  5
228
100
AcDbEntity
  8
0
100
AcDbCircle
 62
7
  6
CONTINUOUS
 10
7.0473183383
 20
9.5158356274
 40
0.8187389754
  0
CIRCLE
  5
229
100
AcDbEntity
  8
0
100
AcDbCircle
 62
9
  6
CONTINUOUS
 10
7.0473183383
 20
9.5158356274
 40
0.7877475635
  0
CIRCLE
  5
22A
100
AcDbEntity
  8
0
100
AcDbCircle
 62
9
  6
CONTINUOUS
 10
7.0473183383
 20
9.5158356274
 40
0.5244951005
  0
CIRCLE
  5
22B
100
AcDbEntity
  8
0
100
AcDbCircle
 62
9
  6
CONTINUOUS
 10
7.0473183383
 20
9.5158356274
 40
0.4346655436
  0
CIRCLE
  5
22C
100
AcDbEntity
  8
0
100
AcDbCircle
 62
9
  6
CONTINUOUS
 10
7.0473183383
 20
9.5158356274
 40
0.4101566489
  0
CIRCLE
  5
22D
100
AcDbEntity
  8
0
100
AcDbCircle
 62
9
  6
CONTINUOUS
 10
7.0473183383
 20
9.5158356274
 40
0.3313720138
  0
CIRCLE
  5
22E
100
AcDbEntity
  8
0
100
AcDbCircle
 62
7
  6
CONTINUOUS
 10
7.0473183383
 20
9.5158356274
 40
0.304
  0
ARC
  5
22F
100
AcDbEntity
  8
0
100
AcDbCircle
 62
7
  6
CONTINUOUS
 10
7.04788837
 20
9.5208911269
 40
0.2812871569
100
AcDbArc
 50
342.3863040841
 51
351.3200491994
  0
ARC
  5
230
100
AcDbEntity
  8
0
100
AcDbCircle
 62
7
  6
CONTINUOUS
 10
7.0473183383
 20
9.5158356274
 40
0.2812599991
100
AcDbArc
 50
0.0
 51
83.7854650567
  0
ARC
  5
231
100
AcDbEntity
  8
0
100
AcDbCircle
 62
7
  6
CONTINUOUS
 10
7.0476128457
 20
9.5153607885
 40
0.280877143
100
AcDbArc
 50
352.2846176411
 51
353.8752540186
  0
ARC
  5
232
100
AcDbEntity
  8
0
100
AcDbCircle
 62
7
  6
CONTINUOUS
 10
7.049298991
 20
9.5206710175
 40
0.2798594744
100
AcDbArc
 50
351.321012392
 51
352.7573938331
  0
ARC
  5
233
100
AcDbEntity
  8
0
100
AcDbCircle
 62
7
  6
CONTINUOUS
 10
7.0494831931
 20
9.5204110196
 40
0.2796220184
100
AcDbArc
 50
337.977841311
 51
340.9938743655
  0
ARC
  5
234
100
AcDbEntity
  8
0
100
AcDbCircle
 62
7
  6
CONTINUOUS
 10
7.0495707017
 20
9.5203732135
 40
0.2795269768
100
AcDbArc
 50
341.2035679905
 51
342.3831399059
  0
ARC
  5
235
100
AcDbEntity
  8
0
100
AcDbCircle
 62
7
  6
CONTINUOUS
 10
7.0499294418
 20
9.5202528492
 40
0.2791485863
100
AcDbArc
 50
340.994740145
 51
341.2032306967
  0
ARC
  5
236
100
AcDbEntity
  8
0
100
AcDbCircle
 62
7
  6
CONTINUOUS
 10
7.0507873818
 20
9.5149092514
 40
0.2776707263
100
AcDbArc
 50
346.6291518254
 51
352.2890046992
  0
ARC
  5
237
100
AcDbEntity
  8
0
100
AcDbCircle
 62
7
  6
CONTINUOUS
 10
7.0473183383
 20
9.5158356274
 40
0.2542
100
AcDbArc
 50
50.2863052764
 51
46.4674084149
  0
ARC
  5
238
100
AcDbEntity
  8
0
100
AcDbCircle
 62
7
  6
CONTINUOUS
 10
11.0473183383
 20
9.5158356274
 40
1.185
100
AcDbArc
 50
191.5382429514
 51
208.9417744632
  0
ARC
  5
239
100
AcDbEntity
  8
0
100
AcDbCircle
 62
7
  6
CONTINUOUS
 10
11.0473183383
 20
9.5158356274
 40
1.185
100
AcDbArc
 50
331.0575589554
 51
348.5357938802
  0
CIRCLE
  5
23A
100
AcDbEntity
  8
0
100
AcDbCircle
 62
7
  6
CONTINUOUS
 10
11.0473183383
 20
9.5158356274
 40
0.455
  0
CIRCLE
  5
23B
100
AcDbEntity
  8
0
100
AcDbCircle
 62
7
  6
CONTINUOUS
 10
11.0473183383
 20
9.5158356274
 40
0.3305
  0
CIRCLE
  5
23C
100
AcDbEntity
  8
0
100
AcDbCircle
 62
9
  6
CONTINUOUS
 10
11.0473183383
 20
9.5158356274
 40
0.2834999985
  0
CIRCLE
  5
23D
100
AcDbEntity
  8
0
100
AcDbCircle
 62
7
  6
CONTINUOUS
 10
11.0473183383
 20
9.5158356274
 40
0.272
  0
CIRCLE
  5
23E
100
AcDbEntity
  8
0
100
AcDbCircle
 62
9
  6
CONTINUOUS
 10
11.0473183383
 20
9.5158356274
 40
0.2369912274
  0
CIRCLE
  5
23F
100
AcDbEntity
  8
0
100
AcDbCircle
 62
7
  6
CONTINUOUS
 10
11.0473183383
 20
9.5158356274
 40
0.18
  0
CIRCLE
  5
240
100
AcDbEntity
  8
0
100
AcDbCircle
 62
7
  6
CONTINUOUS
 10
11.0473183383
 20
9.5158356274
 40
0.17
  0
ARC
  5
241
100
AcDbEntity
  8
0
100
AcDbCircle
 62
7
  6
CONTINUOUS
 10
9.3806094648
 20
10.2769676701
 40
3.0091457203
100
AcDbArc
 50
333.7255961458
 51
333.9174301489
  0
ARC
  5
242
100
AcDbEntity
  8
0
100
AcDbCircle
 62
9
  6
CONTINUOUS
 10
11.0510852132
 20
7.4774619066
 40
1.3265790689
100
AcDbArc
 50
90.1626939012
 51
92.1064981707
  0
ARC
  5
243
100
AcDbEntity
  8
0
100
AcDbCircle
 62
9
  6
CONTINUOUS
 10
12.6029963542
 20
8.2729852337
 40
0.7700179121
100
AcDbArc
 50
161.2862452128
 51
162.9534418977
  0
ARC
  5
244
100
AcDbEntity
  8
0
100
AcDbCircle
 62
7
  6
CONTINUOUS
 10
11.7838295658
 20
8.5003773679
 40
0.0829948306
100
AcDbArc
 50
343.1020661654
 51
358.8522870121
  0
ARC
  5
245
100
AcDbEntity
  8
0
100
AcDbCircle
 62
7
  6
CONTINUOUS
 10
12.6892680156
 20
10.2647958139
 40
2.9815564339
100
AcDbArc
 50
206.0816766672
 51
206.2757644817
  0
CIRCLE
  5
246
100
AcDbEntity
  8
0
100
AcDbCircle
 62
7
  6
CONTINUOUS
 10
15.0473183383
 20
9.5158356274
 40
1.17
  0
CIRCLE
  5
247
100
AcDbEntity
  8
0
100
AcDbCircle
 62
9
  6
CONTINUOUS
 10
15.0473183383
 20
9.5158356274
 40
1.1043717104
  0
CIRCLE
  5
248
100
AcDbEntity
  8
0
100
AcDbCircle
 62
9
  6
CONTINUOUS
 10
15.0473183383
 20
9.5158356274
 40
1.0719223696
  0
CIRCLE
  5
249
100
AcDbEntity
  8
0
100
AcDbCircle
 62
9
  6
CONTINUOUS
 10
15.0473183383
 20
9.5158356274
 40
1.0407459276
  0
CIRCLE
  5
24A
100
AcDbEntity
  8
0
100
AcDbCircle
 62
9
  6
CONTINUOUS
 10
15.0473183383
 20
9.5158356274
 40
1.0164705063
  0
CIRCLE
  5
24B
100
AcDbEntity
  8
0
100
AcDbCircle
 62
9
  6
CONTINUOUS
 10
15.0473183383
 20
9.5158356274
 40
0.9793435571
  0
CIRCLE
  5
24C
100
AcDbEntity
  8
0
100
AcDbCircle
 62
9
  6
CONTINUOUS
 10
15.0473183383
 20
9.5158356274
 40
0.9519481536
  0
CIRCLE
  5
24D
100
AcDbEntity
  8
0
100
AcDbCircle
 62
9
  6
CONTINUOUS
 10
15.0473183383
 20
9.5158356274
 40
0.9418237702
  0
CIRCLE
  5
24E
100
AcDbEntity
  8
0
100
AcDbCircle
 62
7
  6
CONTINUOUS
 10
15.0473183383
 20
9.5158356274
 40
0.8187389754
  0
CIRCLE
  5
24F
100
AcDbEntity
  8
0
100
AcDbCircle
 62
9
  6
CONTINUOUS
 10
15.0473183383
 20
9.5158356274
 40
0.7877475635
  0
CIRCLE
  5
250
100
AcDbEntity
  8
0
100
AcDbCircle
 62
9
  6
CONTINUOUS
 10
15.0473183383
 20
9.5158356274
 40
0.5244951005
  0
CIRCLE
  5
251
100
AcDbEntity
  8
0
100
AcDbCircle
 62
9
  6
CONTINUOUS
 10
15.0473183383
 20
9.5158356274
 40
0.4346655436
  0
CIRCLE
  5
252
100
AcDbEntity
  8
0
100
AcDbCircle
 62
9
  6
CONTINUOUS
 10
15.0473183383
 20
9.5158356274
 40
0.4101566489
  0
CIRCLE
  5
253
100
AcDbEntity
  8
0
100
AcDbCircle
 62
9
  6
CONTINUOUS
 10
15.0473183383
 20
9.5158356274
 40
0.3313720138
  0
CIRCLE
  5
254
100
AcDbEntity
  8
0
100
AcDbCircle
 62
7
  6
CONTINUOUS
 10
15.0473183383
 20
9.5158356274
 40
0.304
  0
ARC
  5
255
100
AcDbEntity
  8
0
100
AcDbCircle
 62
7
  6
CONTINUOUS
 10
15.04788837
 20
9.5208911269
 40
0.2812871569
100
AcDbArc
 50
342.3863040841
 51
351.3200491994
  0
ARC
  5
256
100
AcDbEntity
  8
0
100
AcDbCircle
 62
7
  6
CONTINUOUS
 10
15.0473183383
 20
9.5158356274
 40
0.2812599991
100
AcDbArc
 50
0.0
 51
83.7854650567
  0
ARC
  5
257
100
AcDbEntity
  8
0
100
AcDbCircle
 62
7
  6
CONTINUOUS
 10
15.0476128457
 20
9.5153607885
 40
0.280877143
100
AcDbArc
 50
352.2846176411
 51
353.8752540186
  0
ARC
  5
258
100
AcDbEntity
  8
0
100
AcDbCircle
 62
7
  6
CONTINUOUS
 10
15.049298991
 20
9.5206710175
 40
0.2798594745
100
AcDbArc
 50
351.321012392
 51
352.757393833
  0
ARC
  5
259
100
AcDbEntity
  8
0
100
AcDbCircle
 62
7
  6
CONTINUOUS
 10
15.0494831931
 20
9.5204110196
 40
0.2796220184
100
AcDbArc
 50
337.9778413109
 51
340.9938743655
  0
ARC
  5
25A
100
AcDbEntity
  8
0
100
AcDbCircle
 62
7
  6
CONTINUOUS
 10
15.0495707017
 20
9.5203732135
 40
0.2795269768
100
AcDbArc
 50
341.2035679905
 51
342.3831399059
  0
ARC
  5
25B
100
AcDbEntity
  8
0
100
AcDbCircle
 62
7
  6
CONTINUOUS
 10
15.0499294426
 20
9.5202528489
 40
0.2791485855
100
AcDbArc
 50
340.9947401446
 51
341.203230697
  0
ARC
  5
25C
100
AcDbEntity
  8
0
100
AcDbCircle
 62
7
  6
CONTINUOUS
 10
15.0507873818
 20
9.5149092514
 40
0.2776707263
100
AcDbArc
 50
346.6291518254
 51
352.2890046992
  0
ARC
  5
25D
100
AcDbEntity
  8
0
100
AcDbCircle
 62
7
  6
CONTINUOUS
 10
15.0473183383
 20
9.5158356274
 40
0.2542
100
AcDbArc
 50
50.2863052764
 51
46.4674084149
  0
SPLINE
  5
25E
100
AcDbEntity
  8
0
100
AcDbSpline
 62
7
  6
CONTINUOUS
 70
0
 71
3
 72
11
 73
7
 74
0
 42
0.0000001
 43
0.0000001
 44
0.0000000001
 40
0.0
 40
0.0
 40
0.0
 40
0.0
 40
0.2499980777
 40
0.5000025178
 40
0.750000608
 40
1.0
 40
1.0
 40
1.0
 40
1.0
 10
7.3285783372
 20
9.5158356274
 30
0.0
 10
7.3285800007
 20
9.5132935146
 30
0.0
 10
7.3285091708
 20
9.5082089478
 30
0.0
 10
7.3282000515
 20
9.500587952
 30
0.0
 10
7.327681898
 20
9.4929781661
 30
0.0
 10
7.3271967863
 20
9.4879164799
 30
0.0
 10
7.3269255302
 20
9.4853888668
 30
0.0
  0
SPLINE
  5
25F
100
AcDbEntity
  8
0
100
AcDbSpline
 62
7
  6
CONTINUOUS
 70
0
 71
3
 72
32
 73
28
 74
0
 42
0.0000001
 43
0.0000001
 44
0.0000000001
 40
0.0
 40
0.0
 40
0.0
 40
0.0
 40
0.062464232
 40
0.0937385632
 40
0.1250010255
 40
0.1562579053
 40
0.1875159719
 40
0.2499958326
 40
0.2812551838
 40
0.3125134483
 40
0.3437708773
 40
0.3750285144
 40
0.4062866421
 40
0.4375451061
 40
0.5000226189
 40
0.5625012594
 40
0.5937609005
 40
0.6250202529
 40
0.6562790215
 40
0.6875366787
 40
0.7500128426
 40
0.8124920474
 40
0.8437478244
 40
0.875001995
 40
0.9062623618
 40
0.9375346365
 40
1.0
 40
1.0
 40
1.0
 40
1.0
 10
7.2224029299
 20
9.7001262289
 30
0.0
 10
7.2134327592
 20
9.7089982203
 30
0.0
 10
7.1989403305
 20
9.7213252444
 30
0.0
 10
7.1779992542
 20
9.7354566964
 30
0.0
 10
7.16153624
 20
9.7448676642
 30
0.0
 10
7.1444260924
 20
9.7530342613
 30
0.0
 10
7.1208829374
 20
9.762198401
 30
0.0
 10
7.0963818318
 20
9.768729974
 30
0.0
 10
7.0714007151
 20
9.772500459
 30
0.0
 10
7.0524972558
 20
9.7739477475
 30
0.0
 10
7.0335401796
 20
9.7740029109
 30
0.0
 10
7.0146302722
 20
9.772666128
 30
0.0
 10
6.9958674403
 20
9.7699519544
 30
0.0
 10
6.9711946369
 20
9.7645134392
 30
0.0
 10
6.9411943956
 20
9.7543605591
 30
0.0
 10
6.9129902174
 20
9.739952923
 30
0.0
 10
6.8918709947
 20
9.7260847804
 30
0.0
 10
6.8768208448
 20
9.7145560831
 30
0.0
 10
6.8626427016
 20
9.701971132
 30
0.0
 10
6.8450123251
 20
9.6838752103
 30
0.0
 10
6.8254920191
 20
9.6589380148
 30
0.0
 10
6.8097600018
 20
9.6314548167
 30
0.0
 10
6.7996356249
 20
9.6083087395
 30
0.0
 10
6.7933057551
 20
9.5904405271
 30
0.0
 10
6.7882675888
 20
9.5721617096
 30
0.0
 10
6.783313996
 20
9.5473907589
 30
0.0
 10
6.7815950472
 20
9.5284501807
 30
0.0
 10
6.7813605127
 20
9.5158356274
 30
0.0
  0
SPLINE
  5
260
100
AcDbEntity
  8
0
100
AcDbSpline
 62
7
  6
CONTINUOUS
 70
0
 71
3
 72
38
 73
34
 74
0
 42
0.0000001
 43
0.0000001
 44
0.0000000001
 40
0.0
 40
0.0
 40
0.0
 40
0.0
 40
0.0624375692
 40
0.0937002613
 40
0.124952289
 40
0.1562027647
 40
0.1874563595
 40
0.2187101871
 40
0.2499620938
 40
0.2812130973
 40
0.3124636732
 40
0.3437150364
 40
0.3749666825
 40
0.4062193507
 40
0.4374722473
 40
0.4687246087
 40
0.4999762743
 40
0.5312269159
 40
0.5624778486
 40
0.5937288347
 40
0.6249806734
 40
0.6562328749
 40
0.6874853886
 40
0.7187381651
 40
0.7499902449
 40
0.7812421026
 40
0.812493158
 40
0.8437445069
 40
0.87499644
 40
0.9062489246
 40
0.9375004699
 40
0.9687488062
 40
1.0
 40
1.0
 40
1.0
 40
1.0
 10
6.7813605127
 20
9.5158356274
 30
0.0
 10
6.7810674918
 20
9.5000753557
 30
0.0
 10
6.7827328929
 20
9.4763142897
 30
0.0
 10
6.7891029725
 20
9.4453901015
 30
0.0
 10
6.7959235072
 20
9.4226868606
 30
0.0
 10
6.8047210253
 20
9.4006803626
 30
0.0
 10
6.8154259452
 20
9.379534744
 30
0.0
 10
6.8279454211
 20
9.3594100152
 30
0.0
 10
6.8421902262
 20
9.340468132
 30
0.0
 10
6.8580377917
 20
9.3228466554
 30
0.0
 10
6.8753716491
 20
9.3066851521
 30
0.0
 10
6.894051375
 20
9.2921002406
 30
0.0
 10
6.9139344998
 20
9.279202844
 30
0.0
 10
6.9348675496
 20
9.2680901643
 30
0.0
 10
6.9566860837
 20
9.258835776
 30
0.0
 10
6.9792269079
 20
9.2515156036
 30
0.0
 10
7.0023157202
 20
9.2461722969
 30
0.0
 10
7.0257811986
 20
9.2428555273
 30
0.0
 10
7.0494450705
 20
9.241579136
 30
0.0
 10
7.0731311079
 20
9.2423521757
 30
0.0
 10
7.0966621158
 20
9.2451662379
 30
0.0
 10
7.1198648841
 20
9.249991116
 30
0.0
 10
7.1425657087
 20
9.2567972582
 30
0.0
 10
7.1646012281
 20
9.2655195705
 30
0.0
 10
7.1858068057
 20
9.2761006941
 30
0.0
 10
7.2060307643
 20
9.2884536767
 30
0.0
 10
7.2251253905
 20
9.3024892762
 30
0.0
 10
7.2429510224
 20
9.3181045605
 30
0.0
 10
7.2593856823
 20
9.3351782703
 30
0.0
 10
7.2743048161
 20
9.3535907432
 30
0.0
 10
7.2876122647
 20
9.3731989276
 30
0.0
 10
7.299207233
 20
9.3938637033
 30
0.0
 10
7.3057453735
 20
9.4082484506
 30
0.0
 10
7.308703684
 20
9.4155625086
 30
0.0
  0
SPLINE
  5
261
100
AcDbEntity
  8
0
100
AcDbSpline
 62
7
  6
CONTINUOUS
 70
0
 71
3
 72
15
 73
11
 74
0
 42
0.0000001
 43
0.0000001
 44
0.0000000001
 40
0.0
 40
0.0
 40
0.0
 40
0.0
 40
0.1249646507
 40
0.2499392175
 40
0.3749286094
 40
0.4999170191
 40
0.6249256524
 40
0.7499382619
 40
0.8749650515
 40
1.0
 40
1.0
 40
1.0
 40
1.0
 10
7.3014380828
 20
9.5222227584
 30
0.0
 10
7.302227434
 20
9.5382493589
 30
0.0
 10
7.3007269966
 20
9.5705344566
 30
0.0
 10
7.2895185947
 20
9.6176276492
 30
0.0
 10
7.269809233
 20
9.6618543053
 30
0.0
 10
7.2424407782
 20
9.701791164
 30
0.0
 10
7.2083101426
 20
9.7361253307
 30
0.0
 10
7.1686653403
 20
9.7639072158
 30
0.0
 10
7.1247793585
 20
9.7843129162
 30
0.0
 10
7.0935741489
 20
9.7926426455
 30
0.0
 10
7.0777651694
 20
9.7954428118
 30
0.0
  0
SPLINE
  5
262
100
AcDbEntity
  8
0
100
AcDbSpline
 62
7
  6
CONTINUOUS
 70
0
 71
3
 72
11
 73
7
 74
0
 42
0.0000001
 43
0.0000001
 44
0.0000000001
 40
0.0
 40
0.0
 40
0.0
 40
0.0
 40
0.2499980777
 40
0.5000025178
 40
0.750000608
 40
1.0
 40
1.0
 40
1.0
 40
1.0
 10
15.3285783372
 20
9.5158356274
 30
0.0
 10
15.3285800007
 20
9.5132935146
 30
0.0
 10
15.3285091708
 20
9.5082089478
 30
0.0
 10
15.3282000515
 20
9.500587952
 30
0.0
 10
15.327681898
 20
9.4929781661
 30
0.0
 10
15.3271967863
 20
9.4879164799
 30
0.0
 10
15.3269255302
 20
9.4853888668
 30
0.0
  0
SPLINE
  5
263
100
AcDbEntity
  8
0
100
AcDbSpline
 62
7
  6
CONTINUOUS
 70
0
 71
3
 72
32
 73
28
 74
0
 42
0.0000001
 43
0.0000001
 44
0.0000000001
 40
0.0
 40
0.0
 40
0.0
 40
0.0
 40
0.062464232
 40
0.0937385632
 40
0.1250010255
 40
0.1562579053
 40
0.1875159719
 40
0.2499958326
 40
0.2812551838
 40
0.3125134483
 40
0.3437708773
 40
0.3750285144
 40
0.4062866421
 40
0.4375451061
 40
0.5000226189
 40
0.5625012594
 40
0.5937609005
 40
0.6250202529
 40
0.6562790215
 40
0.6875366787
 40
0.7500128426
 40
0.8124920474
 40
0.8437478244
 40
0.875001995
 40
0.9062623618
 40
0.9375346365
 40
1.0
 40
1.0
 40
1.0
 40
1.0
 10
15.2224029299
 20
9.7001262289
 30
0.0
 10
15.2134327592
 20
9.7089982203
 30
0.0
 10
15.1989403305
 20
9.7213252444
 30
0.0
 10
15.1779992542
 20
9.7354566964
 30
0.0
 10
15.16153624
 20
9.7448676642
 30
0.0
 10
15.1444260924
 20
9.7530342613
 30
0.0
 10
15.1208829374
 20
9.762198401
 30
0.0
 10
15.0963818318
 20
9.768729974
 30
0.0
 10
15.0714007151
 20
9.772500459
 30
0.0
 10
15.0524972558
 20
9.7739477475
 30
0.0
 10
15.0335401796
 20
9.7740029109
 30
0.0
 10
15.0146302722
 20
9.772666128
 30
0.0
 10
14.9958674403
 20
9.7699519544
 30
0.0
 10
14.9711946369
 20
9.7645134392
 30
0.0
 10
14.9411943956
 20
9.7543605591
 30
0.0
 10
14.9129902174
 20
9.739952923
 30
0.0
 10
14.8918709947
 20
9.7260847804
 30
0.0
 10
14.8768208448
 20
9.7145560831
 30
0.0
 10
14.8626427016
 20
9.701971132
 30
0.0
 10
14.8450123251
 20
9.6838752103
 30
0.0
 10
14.8254920191
 20
9.6589380148
 30
0.0
 10
14.8097600018
 20
9.6314548167
 30
0.0
 10
14.7996356249
 20
9.6083087395
 30
0.0
 10
14.7933057551
 20
9.5904405271
 30
0.0
 10
14.7882675888
 20
9.5721617096
 30
0.0
 10
14.783313996
 20
9.5473907589
 30
0.0
 10
14.7815950472
 20
9.5284501807
 30
0.0
 10
14.7813605127
 20
9.5158356274
 30
0.0
  0
SPLINE
  5
264
100
AcDbEntity
  8
0
100
AcDbSpline
 62
7
  6
CONTINUOUS
 70
0
 71
3
 72
38
 73
34
 74
0
 42
0.0000001
 43
0.0000001
 44
0.0000000001
 40
0.0
 40
0.0
 40
0.0
 40
0.0
 40
0.0624375692
 40
0.0937002613
 40
0.124952289
 40
0.1562027647
 40
0.1874563595
 40
0.2187101871
 40
0.2499620938
 40
0.2812130973
 40
0.3124636732
 40
0.3437150364
 40
0.3749666825
 40
0.4062193507
 40
0.4374722473
 40
0.4687246087
 40
0.4999762743
 40
0.5312269159
 40
0.5624778486
 40
0.5937288347
 40
0.6249806734
 40
0.6562328749
 40
0.6874853886
 40
0.7187381651
 40
0.7499902449
 40
0.7812421026
 40
0.812493158
 40
0.8437445069
 40
0.87499644
 40
0.9062489246
 40
0.9375004699
 40
0.9687488062
 40
1.0
 40
1.0
 40
1.0
 40
1.0
 10
14.7813605127
 20
9.5158356274
 30
0.0
 10
14.7810674918
 20
9.5000753557
 30
0.0
 10
14.7827328929
 20
9.4763142897
 30
0.0
 10
14.7891029725
 20
9.4453901015
 30
0.0
 10
14.7959235072
 20
9.4226868606
 30
0.0
 10
14.8047210253
 20
9.4006803626
 30
0.0
 10
14.8154259452
 20
9.379534744
 30
0.0
 10
14.8279454211
 20
9.3594100152
 30
0.0
 10
14.8421902262
 20
9.340468132
 30
0.0
 10
14.8580377917
 20
9.3228466554
 30
0.0
 10
14.8753716491
 20
9.3066851521
 30
0.0
 10
14.894051375
 20
9.2921002406
 30
0.0
 10
14.9139344998
 20
9.279202844
 30
0.0
 10
14.9348675496
 20
9.2680901643
 30
0.0
 10
14.9566860837
 20
9.258835776
 30
0.0
 10
14.9792269079
 20
9.2515156036
 30
0.0
 10
15.0023157202
 20
9.2461722969
 30
0.0
 10
15.0257811986
 20
9.2428555273
 30
0.0
 10
15.0494450705
 20
9.241579136
 30
0.0
 10
15.0731311079
 20
9.2423521757
 30
0.0
 10
15.0966621158
 20
9.2451662379
 30
0.0
 10
15.1198648841
 20
9.249991116
 30
0.0
 10
15.1425657087
 20
9.2567972582
 30
0.0
 10
15.1646012281
 20
9.2655195705
 30
0.0
 10
15.1858068057
 20
9.2761006941
 30
0.0
 10
15.2060307643
 20
9.2884536767
 30
0.0
 10
15.2251253905
 20
9.3024892762
 30
0.0
 10
15.2429510224
 20
9.3181045605
 30
0.0
 10
15.2593856823
 20
9.3351782703
 30
0.0
 10
15.2743048161
 20
9.3535907432
 30
0.0
 10
15.2876122647
 20
9.3731989276
 30
0.0
 10
15.299207233
 20
9.3938637033
 30
0.0
 10
15.3057453735
 20
9.4082484506
 30
0.0
 10
15.308703684
 20
9.4155625086
 30
0.0
  0
SPLINE
  5
265
100
AcDbEntity
  8
0
100
AcDbSpline
 62
7
  6
CONTINUOUS
 70
0
 71
3
 72
15
 73
11
 74
0
 42
0.0000001
 43
0.0000001
 44
0.0000000001
 40
0.0
 40
0.0
 40
0.0
 40
0.0
 40
0.1249646507
 40
0.2499392175
 40
0.3749286094
 40
0.4999170191
 40
0.6249256524
 40
0.7499382619
 40
0.8749650515
 40
1.0
 40
1.0
 40
1.0
 40
1.0
 10
15.3014380828
 20
9.5222227584
 30
0.0
 10
15.302227434
 20
9.5382493589
 30
0.0
 10
15.3007269966
 20
9.5705344566
 30
0.0
 10
15.2895185947
 20
9.6176276492
 30
0.0
 10
15.269809233
 20
9.6618543053
 30
0.0
 10
15.2424407782
 20
9.701791164
 30
0.0
 10
15.2083101426
 20
9.7361253307
 30
0.0
 10
15.1686653403
 20
9.7639072158
 30
0.0
 10
15.1247793585
 20
9.7843129162
 30
0.0
 10
15.0935741489
 20
9.7926426455
 30
0.0
 10
15.0777651694
 20
9.7954428118
 30
0.0
  0
SPLINE
  5
266
100
AcDbEntity
  8
0
100
AcDbSpline
 62
7
  6
CONTINUOUS
 70
0
 71
3
 72
23
 73
19
 74
0
 42
0.0000001
 43
0.0000001
 44
0.0000000001
 40
0.0
 40
0.0
 40
0.0
 40
0.0
 40
0.0619367867
 40
0.1239214798
 40
0.1859603316
 40
0.2480605632
 40
0.3102441277
 40
0.3725264818
 40
0.4349049214
 40
0.4973754516
 40
0.5599470338
 40
0.6226216987
 40
0.6853825128
 40
0.748210452
 40
0.8111001412
 40
0.8740444908
 40
0.937019519
 40
1.0
 40
1.0
 40
1.0
 40
1.0
 10
10.4883251704
 20
4.8091548317
 30
0.0
 10
10.4884153541
 20
4.7912272285
 30
0.0
 10
10.4903985862
 20
4.7553421822
 30
0.0
 10
10.4986773792
 20
4.7020719629
 30
0.0
 10
10.5121628515
 20
4.649821791
 30
0.0
 10
10.5307619168
 20
4.5991034527
 30
0.0
 10
10.5543688311
 20
4.5504351343
 30
0.0
 10
10.5826830675
 20
4.5042551808
 30
0.0
 10
10.6154168247
 20
4.4609911768
 30
0.0
 10
10.6522842703
 20
4.4210737667
 30
0.0
 10
10.6929846632
 20
4.3849440172
 30
0.0
 10
10.7370687278
 20
4.3528924329
 30
0.0
 10
10.7841017426
 20
4.325203681
 30
0.0
 10
10.8336503112
 20
4.3021653889
 30
0.0
 10
10.8852656888
 20
4.2840708511
 30
0.0
 10
10.9384232342
 20
4.2710195207
 30
0.0
 10
10.9926060525
 20
4.2631083494
 30
0.0
 10
11.0290884071
 20
4.2613275942
 30
0.0
 10
11.0473183383
 20
4.2613275975
 30
0.0
  0
SPLINE
  5
267
100
AcDbEntity
  8
0
100
AcDbSpline
 62
7
  6
CONTINUOUS
 70
0
 71
3
 72
14
 73
10
 74
0
 42
0.0000001
 43
0.0000001
 44
0.0000000001
 40
0.0
 40
0.0
 40
0.0
 40
0.0
 40
0.1316886474
 40
0.2607418501
 40
0.3877041715
 40
0.5129653865
 40
0.6367700281
 40
0.7592314122
 40
1.0
 40
1.0
 40
1.0
 40
1.0
 10
9.8621577774
 20
9.448668276
 30
0.0
 10
9.8637420912
 20
9.4258965097
 30
0.0
 10
9.8684649934
 20
9.3809040334
 30
0.0
 10
9.8799394761
 20
9.3146421967
 30
0.0
 10
9.895214506
 20
9.2503016594
 30
0.0
 10
9.9137850065
 20
9.1877917584
 30
0.0
 10
9.9351492565
 20
9.1270141106
 30
0.0
 10
9.9665092191
 20
9.0486117456
 30
0.0
 10
9.9929803418
 20
8.9914336147
 30
0.0
 10
10.0113287701
 20
8.953948736
 30
0.0
  0
SPLINE
  5
268
100
AcDbEntity
  8
0
100
AcDbSpline
 62
7
  6
CONTINUOUS
 70
0
 71
3
 72
27
 73
23
 74
0
 42
0.0000001
 43
0.0000001
 44
0.0000000001
 40
0.0
 40
0.0
 40
0.0
 40
0.0
 40
0.0625004125
 40
0.1249942388
 40
0.1562475872
 40
0.1875009368
 40
0.2187572749
 40
0.2500180034
 40
0.312531114
 40
0.3750428815
 40
0.437534028
 40
0.5
 40
0.562465972
 40
0.6249571185
 40
0.687468886
 40
0.7499819966
 40
0.7812427251
 40
0.8124990632
 40
0.8437524128
 40
0.8750057612
 40
0.9374995875
 40
1.0
 40
1.0
 40
1.0
 40
1.0
 10
11.0473183383
 20
10.7033356271
 30
0.0
 10
11.0084735495
 20
10.7033358434
 30
0.0
 10
10.9307382683
 20
10.6995226576
 30
0.0
 10
10.8345149153
 20
10.6852740961
 30
0.0
 10
10.7586891283
 20
10.668234242
 30
0.0
 10
10.7025159715
 20
10.6526319609
 30
0.0
 10
10.6471820239
 20
10.6342605092
 30
0.0
 10
10.5746988258
 20
10.6061773823
 30
0.0
 10
10.486779921
 20
10.5644934837
 30
0.0
 10
10.3866373999
 20
10.5045325757
 30
0.0
 10
10.292795998
 20
10.4351590521
 30
0.0
 10
10.2062428784
 20
10.3569110873
 30
0.0
 10
10.1279949135
 20
10.2703579676
 30
0.0
 10
10.0586213899
 20
10.1765165658
 30
0.0
 10
9.998660482
 20
10.0763740446
 30
0.0
 10
9.9569765834
 20
9.9884551399
 30
0.0
 10
9.9288934565
 20
9.9159719418
 30
0.0
 10
9.9105220048
 20
9.8606379942
 30
0.0
 10
9.8949197236
 20
9.8044648374
 30
0.0
 10
9.8778798696
 20
9.7286390504
 30
0.0
 10
9.8636313081
 20
9.6324156974
 30
0.0
 10
9.8598181223
 20
9.5546804162
 30
0.0
 10
9.8598183386
 20
9.5158356274
 30
0.0
  0
SPLINE
  5
269
100
AcDbEntity
  8
0
100
AcDbSpline
 62
7
  6
CONTINUOUS
 70
0
 71
3
 72
27
 73
23
 74
0
 42
0.0000001
 43
0.0000001
 44
0.0000000001
 40
0.0
 40
0.0
 40
0.0
 40
0.0
 40
0.0625004125
 40
0.1249942388
 40
0.1562475872
 40
0.1875009368
 40
0.2187572749
 40
0.2500180034
 40
0.312531114
 40
0.3750428815
 40
0.437534028
 40
0.5
 40
0.562465972
 40
0.6249571185
 40
0.687468886
 40
0.7499819966
 40
0.7812427251
 40
0.8124990632
 40
0.8437524128
 40
0.8750057612
 40
0.9374995875
 40
1.0
 40
1.0
 40
1.0
 40
1.0
 10
12.234818338
 20
9.5158356274
 30
0.0
 10
12.2348185543
 20
9.5546804162
 30
0.0
 10
12.2310053685
 20
9.6324156974
 30
0.0
 10
12.216756807
 20
9.7286390504
 30
0.0
 10
12.1997169529
 20
9.8044648374
 30
0.0
 10
12.1841146718
 20
9.8606379942
 30
0.0
 10
12.1657432201
 20
9.9159719418
 30
0.0
 10
12.1376600932
 20
9.9884551399
 30
0.0
 10
12.0959761946
 20
10.0763740446
 30
0.0
 10
12.0360152866
 20
10.1765165658
 30
0.0
 10
11.966641763
 20
10.2703579676
 30
0.0
 10
11.8883937982
 20
10.3569110873
 30
0.0
 10
11.8018406785
 20
10.4351590521
 30
0.0
 10
11.7079992767
 20
10.5045325757
 30
0.0
 10
11.6078567556
 20
10.5644934837
 30
0.0
 10
11.5199378508
 20
10.6061773823
 30
0.0
 10
11.4474546527
 20
10.6342605092
 30
0.0
 10
11.3921207051
 20
10.6526319609
 30
0.0
 10
11.3359475483
 20
10.668234242
 30
0.0
 10
11.2601217613
 20
10.6852740961
 30
0.0
 10
11.1638984083
 20
10.6995226576
 30
0.0
 10
11.0861631271
 20
10.7033358434
 30
0.0
 10
11.0473183383
 20
10.7033356271
 30
0.0
  0
SPLINE
  5
26A
100
AcDbEntity
  8
0
100
AcDbSpline
 62
7
  6
CONTINUOUS
 70
0
 71
3
 72
14
 73
10
 74
0
 42
0.0000001
 43
0.0000001
 44
0.0000000001
 40
0.0
 40
0.0
 40
0.0
 40
0.0
 40
0.2407685878
 40
0.3632299719
 40
0.4870346135
 40
0.6122958286
 40
0.7392581499
 40
0.8683113526
 40
1.0
 40
1.0
 40
1.0
 40
1.0
 10
12.0833079064
 20
8.953948736
 30
0.0
 10
12.1016563348
 20
8.9914336146
 30
0.0
 10
12.1281274574
 20
9.0486117454
 30
0.0
 10
12.1594874199
 20
9.1270141103
 30
0.0
 10
12.1808516699
 20
9.187791758
 30
0.0
 10
12.1994221705
 20
9.2503016588
 30
0.0
 10
12.2146972003
 20
9.3146421961
 30
0.0
 10
12.226171683
 20
9.3809040326
 30
0.0
 10
12.2308945852
 20
9.4258965089
 30
0.0
 10
12.2324788991
 20
9.4486682751
 30
0.0
  0
SPLINE
  5
26B
100
AcDbEntity
  8
0
100
AcDbSpline
 62
7
  6
CONTINUOUS
 70
0
 71
3
 72
23
 73
19
 74
0
 42
0.0000001
 43
0.0000001
 44
0.0000000001
 40
0.0
 40
0.0
 40
0.0
 40
0.0
 40
0.062980481
 40
0.1259555092
 40
0.1888998588
 40
0.251789548
 40
0.3146174872
 40
0.3773783013
 40
0.4400529662
 40
0.5026245484
 40
0.5650950786
 40
0.6274735182
 40
0.6897558723
 40
0.7519394369
 40
0.8140396684
 40
0.8760785203
 40
0.9380632134
 40
1.0
 40
1.0
 40
1.0
 40
1.0
 10
11.0473183383
 20
4.2613275978
 30
0.0
 10
11.0655482695
 20
4.2613275945
 30
0.0
 10
11.102030624
 20
4.2631083496
 30
0.0
 10
11.1562134423
 20
4.271019521
 30
0.0
 10
11.2093709878
 20
4.2840708514
 30
0.0
 10
11.2609863653
 20
4.3021653892
 30
0.0
 10
11.3105349339
 20
4.3252036814
 30
0.0
 10
11.3575679488
 20
4.3528924333
 30
0.0
 10
11.4016520134
 20
4.3849440176
 30
0.0
 10
11.4423524062
 20
4.4210737671
 30
0.0
 10
11.4792198519
 20
4.4609911772
 30
0.0
 10
11.5119536091
 20
4.5042551813
 30
0.0
 10
11.5402678455
 20
4.5504351348
 30
0.0
 10
11.5638747598
 20
4.5991034532
 30
0.0
 10
11.5824738251
 20
4.6498217915
 30
0.0
 10
11.5959592974
 20
4.7020719634
 30
0.0
 10
11.6042380904
 20
4.7553421827
 30
0.0
 10
11.6062213225
 20
4.791227229
 30
0.0
 10
11.6063115062
 20
4.8091548322
 30
0.0
  0
LINE
  5
26C
100
AcDbEntity
  8
0
100
AcDbLine
 62
7
  6
CONTINUOUS
 10
10.1485389398
 20
9.5158596073
 11
10.5907038158
 21
9.5158509887
  0
SPLINE
  5
26D
100
AcDbEntity
  8
0
100
AcDbSpline
 62
9
  6
CONTINUOUS
 70
0
 71
3
 72
19
 73
15
 74
0
 42
0.0000001
 43
0.0000001
 44
0.0000000001
 40
0.0
 40
0.0
 40
0.0
 40
0.0
 40
0.1509956289
 40
0.2958101531
 40
0.4321278796
 40
0.496801093
 40
0.5591609307
 40
0.6193050638
 40
0.6774066091
 40
0.7884103444
 40
0.8420096075
 40
0.8948259725
 40
0.9473154085
 40
1.0
 40
1.0
 40
1.0
 40
1.0
 10
10.4326554166
 20
9.0635613783
 30
0.0
 10
10.4112057613
 20
9.0810276568
 30
0.0
 10
10.3706332627
 20
9.1170627278
 30
0.0
 10
10.3156268361
 20
9.1740795473
 30
0.0
 10
10.2748848769
 20
9.2226665206
 30
0.0
 10
10.2459889917
 20
9.2613130143
 30
0.0
 10
10.226573136
 20
9.2895879923
 30
0.0
 10
10.2090624555
 20
9.3176775365
 30
0.0
 10
10.1886971852
 20
9.3544178755
 30
0.0
 10
10.1720348042
 20
9.3918163069
 30
0.0
 10
10.1599820498
 20
9.4298159667
 30
0.0
 10
10.1534482857
 20
9.4582205045
 30
0.0
 10
10.1494407082
 20
9.486921706
 30
0.0
 10
10.148538414
 20
9.5062010129
 30
0.0
 10
10.1485389394
 20
9.5158525164
 30
0.0
  0
SPLINE
  5
26E
100
AcDbEntity
  8
0
100
AcDbSpline
 62
9
  6
CONTINUOUS
 70
0
 71
3
 72
11
 73
7
 74
0
 42
0.0000001
 43
0.0000001
 44
0.0000000001
 40
0.0
 40
0.0
 40
0.0
 40
0.0
 40
0.2682965141
 40
0.5240884979
 40
0.7676477997
 40
1.0
 40
1.0
 40
1.0
 40
1.0
 10
10.4326554093
 20
9.0635613716
 30
0.0
 10
10.4428881421
 20
9.0729515804
 30
0.0
 10
10.4634588458
 20
9.0906730538
 30
0.0
 10
10.4951726868
 20
9.1146560871
 30
0.0
 10
10.5266739945
 20
9.1357188798
 30
0.0
 10
10.5477967367
 20
9.1484138116
 30
0.0
 10
10.5582264462
 20
9.154404266
 30
0.0
  0
SPLINE
  5
26F
100
AcDbEntity
  8
0
100
AcDbSpline
 62
9
  6
CONTINUOUS
 70
0
 71
3
 72
13
 73
9
 74
0
 42
0.0000001
 43
0.0000001
 44
0.0000000001
 40
0.0
 40
0.0
 40
0.0
 40
0.0
 40
0.2672477863
 40
0.3960986027
 40
0.5221101333
 40
0.6454221587
 40
0.7661176182
 40
1.0
 40
1.0
 40
1.0
 40
1.0
 10
10.5582264462
 20
9.154404266
 30
0.0
 10
10.5703500656
 20
9.1613676421
 30
0.0
 10
10.5885525389
 20
9.1712860255
 30
0.0
 10
10.6128731889
 20
9.1837195954
 30
0.0
 10
10.6306180382
 20
9.1924697639
 30
0.0
 10
10.6481017038
 20
9.2007804801
 30
0.0
 10
10.6708478111
 20
9.2111576459
 30
0.0
 10
10.6879149539
 20
9.2184376835
 30
0.0
 10
10.6992605436
 20
9.2230188211
 30
0.0
  0
SPLINE
  5
270
100
AcDbEntity
  8
0
100
AcDbSpline
 62
9
  6
CONTINUOUS
 70
0
 71
3
 72
18
 73
14
 74
0
 42
0.0000001
 43
0.0000001
 44
0.0000000001
 40
0.0
 40
0.0
 40
0.0
 40
0.0
 40
0.1650835012
 40
0.3227287815
 40
0.3963329784
 40
0.4658175667
 40
0.5310129073
 40
0.5921516809
 40
0.6496220838
 40
0.7040185959
 40
0.8061507329
 40
0.9034434061
 40
1.0
 40
1.0
 40
1.0
 40
1.0
 10
10.4326553442
 20
9.0635613688
 30
0.0
 10
10.436364433
 20
9.0437920598
 30
0.0
 10
10.4450876223
 20
9.0054191694
 30
0.0
 10
10.4577809947
 20
8.9588253826
 30
0.0
 10
10.4677045323
 20
8.9235524499
 30
0.0
 10
10.4745720778
 20
8.8991213362
 30
0.0
 10
10.4808738338
 20
8.8761092218
 30
0.0
 10
10.4865771053
 20
8.854451776
 30
0.0
 10
10.4916725722
 20
8.83399676
 30
0.0
 10
10.4976701715
 20
8.8086211005
 30
0.0
 10
10.5043324562
 20
8.7784195648
 30
0.0
 10
10.511812396
 20
8.7431410795
 30
0.0
 10
10.516914677
 20
8.720078165
 30
0.0
 10
10.5195960027
 20
8.7086230608
 30
0.0
  0
SPLINE
  5
271
100
AcDbEntity
  8
0
100
AcDbSpline
 62
9
  6
CONTINUOUS
 70
0
 71
3
 72
20
 73
16
 74
0
 42
0.0000001
 43
0.0000001
 44
0.0000000001
 40
0.0
 40
0.0
 40
0.0
 40
0.0
 40
0.0778858384
 40
0.1541776339
 40
0.2287455537
 40
0.3015540314
 40
0.4418876774
 40
0.5748968389
 40
0.699443236
 40
0.7579382339
 40
0.8135061488
 40
0.8658201625
 40
0.9145500041
 40
0.9593759562
 40
1.0
 40
1.0
 40
1.0
 40
1.0
 10
10.43265534
 20
9.063561391
 30
0.0
 10
10.4482356247
 20
9.0592065476
 30
0.0
 10
10.479208228
 20
9.0510474913
 30
0.0
 10
10.5254764691
 20
9.0402248892
 30
0.0
 10
10.5709578836
 20
9.0307333359
 30
0.0
 10
10.6296866025
 20
9.0196667891
 30
0.0
 10
10.7006190955
 20
9.0078836754
 30
0.0
 10
10.7823296473
 20
8.9954911881
 30
0.0
 10
10.8473215394
 20
8.9862350637
 30
0.0
 10
10.8964614974
 20
8.9797850794
 30
0.0
 10
10.930771301
 20
8.9756460154
 30
0.0
 10
10.9631205215
 20
8.9722135587
 30
0.0
 10
10.9933085184
 20
8.9696001787
 30
0.0
 10
11.0211312809
 20
8.9679179297
 30
0.0
 10
11.0388804308
 20
8.967466416
 30
0.0
 10
11.0473183382
 20
8.967466416
 30
0.0
  0
SPLINE
  5
272
100
AcDbEntity
  8
0
100
AcDbSpline
 62
9
  6
CONTINUOUS
 70
0
 71
3
 72
16
 73
12
 74
0
 42
0.0000001
 43
0.0000001
 44
0.0000000001
 40
0.0
 40
0.0
 40
0.0
 40
0.0
 40
0.1280352378
 40
0.2555481302
 40
0.3190272699
 40
0.3822713723
 40
0.5080336192
 40
0.6328241113
 40
0.7565766294
 40
0.8790566377
 40
1.0
 40
1.0
 40
1.0
 40
1.0
 10
11.0023240277
 20
8.8031451024
 30
0.0
 10
10.9812781419
 20
8.8023329667
 30
0.0
 10
10.9393085597
 20
8.7996260105
 30
0.0
 10
10.8871290014
 20
8.7938846874
 30
0.0
 10
10.8457076985
 20
8.7880995162
 30
0.0
 10
10.804681356
 20
8.7816172966
 30
0.0
 10
10.7539117776
 20
8.7722312556
 30
0.0
 10
10.6937564491
 20
8.7590517085
 30
0.0
 10
10.6345546938
 20
8.74417357
 30
0.0
 10
10.5764783722
 20
8.7275424236
 30
0.0
 10
10.5383902651
 20
8.7151487587
 30
0.0
 10
10.5195960025
 20
8.7086230615
 30
0.0
  0
SPLINE
  5
273
100
AcDbEntity
  8
0
100
AcDbSpline
 62
9
  6
CONTINUOUS
 70
0
 71
3
 72
19
 73
15
 74
0
 42
0.0000001
 43
0.0000001
 44
0.0000000001
 40
0.0
 40
0.0
 40
0.0
 40
0.0
 40
0.165082719
 40
0.2453632654
 40
0.3227308501
 40
0.3963401718
 40
0.4658191958
 40
0.5310128335
 40
0.5921530397
 40
0.6496243122
 40
0.7040207432
 40
0.8061516268
 40
0.9034437331
 40
1.0
 40
1.0
 40
1.0
 40
1.0
 10
11.6619813585
 20
9.0635613971
 30
0.0
 10
11.6582722918
 20
9.0437922032
 30
0.0
 10
11.6516373424
 20
9.0146178774
 30
0.0
 10
11.6416954712
 20
8.9765742152
 30
0.0
 10
11.6342057935
 20
8.9494098463
 30
0.0
 10
11.6269319558
 20
8.9235526825
 30
0.0
 10
11.620064752
 20
8.8991217337
 30
0.0
 10
11.6137633059
 20
8.8761103087
 30
0.0
 10
11.6080598536
 20
8.8544528583
 30
0.0
 10
11.6029642479
 20
8.8339976216
 30
0.0
 10
11.5969666511
 20
8.8086220485
 30
0.0
 10
11.5903045107
 20
8.7784207525
 30
0.0
 10
11.582824635
 20
8.7431425612
 30
0.0
 10
11.577722379
 20
8.7200797792
 30
0.0
 10
11.5750410786
 20
8.7086247232
 30
0.0
  0
SPLINE
  5
274
100
AcDbEntity
  8
0
100
AcDbSpline
 62
9
  6
CONTINUOUS
 70
0
 71
3
 72
15
 73
11
 74
0
 42
0.0000001
 43
0.0000001
 44
0.0000000001
 40
0.0
 40
0.0
 40
0.0
 40
0.0
 40
0.1244046923
 40
0.2524811616
 40
0.3824829937
 40
0.5126474882
 40
0.6412111902
 40
0.7664252092
 40
0.8865736842
 40
1.0
 40
1.0
 40
1.0
 40
1.0
 10
11.5750410786
 20
8.7086247232
 30
0.0
 10
11.5539398006
 20
8.7159211816
 30
0.0
 10
11.510779958
 20
8.7297751954
 30
0.0
 10
11.4446330139
 20
8.7481816386
 30
0.0
 10
11.3768486673
 20
8.7643854541
 30
0.0
 10
11.3084409905
 20
8.7781626378
 30
0.0
 10
11.2404226113
 20
8.7892918092
 30
0.0
 10
11.1738047476
 20
8.7975541853
 30
0.0
 10
11.1096004747
 20
8.8027333254
 30
0.0
 10
11.0676751904
 20
8.8040340082
 30
0.0
 10
11.0473183382
 20
8.8040340082
 30
0.0
  0
SPLINE
  5
275
100
AcDbEntity
  8
0
100
AcDbSpline
 62
9
  6
CONTINUOUS
 70
0
 71
3
 72
23
 73
19
 74
0
 42
0.0000001
 43
0.0000001
 44
0.0000000001
 40
0.0
 40
0.0
 40
0.0
 40
0.0
 40
0.0590679373
 40
0.1187549888
 40
0.1793837392
 40
0.2410924277
 40
0.3038710061
 40
0.3675972982
 40
0.4320666321
 40
0.4970177396
 40
0.5621539418
 40
0.6271589358
 40
0.6917197947
 40
0.7555484361
 40
0.8184039701
 40
0.8801184479
 40
0.9406265459
 40
1.0
 40
1.0
 40
1.0
 40
1.0
 10
11.5978750708
 20
4.8780050846
 30
0.0
 10
11.5976223391
 20
4.8618478717
 30
0.0
 10
11.5948639722
 20
4.8293631051
 30
0.0
 10
11.5845076328
 20
4.781278108
 30
0.0
 10
11.5684173598
 20
4.7340431583
 30
0.0
 10
11.5470726183
 20
4.6880241806
 30
0.0
 10
11.5209414912
 20
4.6435713679
 30
0.0
 10
11.4904812779
 20
4.6010436199
 30
0.0
 10
11.4561454836
 20
4.5608017607
 30
0.0
 10
11.4183854098
 20
4.523210294
 30
0.0
 10
11.3776532413
 20
4.4886369971
 30
0.0
 10
11.3344067794
 20
4.4574469158
 30
0.0
 10
11.2891030196
 20
4.4300078427
 30
0.0
 10
11.2421971115
 20
4.4066892679
 30
0.0
 10
11.1941425356
 20
4.3878629303
 30
0.0
 10
11.1453860159
 20
4.3739046057
 30
0.0
 10
11.0963847625
 20
4.3651960956
 30
0.0
 10
11.0635611078
 20
4.3631356275
 30
0.0
 10
11.0473183383
 20
4.3631356274
 30
0.0
  0
SPLINE
  5
276
100
AcDbEntity
  8
0
100
AcDbSpline
 62
9
  6
CONTINUOUS
 70
0
 71
3
 72
23
 73
19
 74
0
 42
0.0000001
 43
0.0000001
 44
0.0000000001
 40
0.0
 40
0.0
 40
0.0
 40
0.0
 40
0.0590679374
 40
0.118754989
 40
0.1793837396
 40
0.2410924283
 40
0.3038710068
 40
0.367597299
 40
0.432066633
 40
0.4970177404
 40
0.5621539426
 40
0.6271589364
 40
0.6917197953
 40
0.7555484365
 40
0.8184039704
 40
0.880118448
 40
0.9406265459
 40
1.0
 40
1.0
 40
1.0
 40
1.0
 10
10.496761606
 20
4.8780050715
 30
0.0
 10
10.4970143383
 20
4.8618478588
 30
0.0
 10
10.4997727063
 20
4.8293630928
 30
0.0
 10
10.510129047
 20
4.7812780967
 30
0.0
 10
10.526219321
 20
4.734043148
 30
0.0
 10
10.5475640632
 20
4.6880241714
 30
0.0
 10
10.5736951906
 20
4.6435713598
 30
0.0
 10
10.6041554042
 20
4.6010436128
 30
0.0
 10
10.6384911985
 20
4.5608017547
 30
0.0
 10
10.6762512721
 20
4.5232102891
 30
0.0
 10
10.7169834403
 20
4.4886369932
 30
0.0
 10
10.7602299017
 20
4.4574469128
 30
0.0
 10
10.8055336609
 20
4.4300078406
 30
0.0
 10
10.8524395683
 20
4.4066892664
 30
0.0
 10
10.9004941434
 20
4.3878629295
 30
0.0
 10
10.9492506624
 20
4.3739046054
 30
0.0
 10
10.9982519149
 20
4.3651960955
 30
0.0
 10
11.0310755691
 20
4.3631356275
 30
0.0
 10
11.0473183383
 20
4.3631356274
 30
0.0
  0
SPLINE
  5
277
100
AcDbEntity
  8
0
100
AcDbSpline
 62
9
  6
CONTINUOUS
 70
0
 71
3
 72
26
 73
22
 74
0
 42
0.0000001
 43
0.0000001
 44
0.0000000001
 40
0.0
 40
0.0
 40
0.0
 40
0.0
 40
0.099097526
 40
0.1959758971
 40
0.289548538
 40
0.3788728588
 40
0.4631203554
 40
0.541753453
 40
0.6143699185
 40
0.6807998754
 40
0.7409761483
 40
0.7949888334
 40
0.8429784708
 40
0.8851073083
 40
0.9215681131
 40
0.937748278
 40
0.9526078321
 40
0.9661939917
 40
0.9785664193
 40
0.9898018053
 40
1.0
 40
1.0
 40
1.0
 40
1.0
 10
11.6619813527
 20
9.0635613664
 30
0.0
 10
11.6764465891
 20
9.0618351086
 30
0.0
 10
11.7050376738
 20
9.0582898969
 30
0.0
 10
11.747224884
 20
9.0526237244
 30
0.0
 10
11.7879213644
 20
9.0466705808
 30
0.0
 10
11.8266992703
 20
9.0404531309
 30
0.0
 10
11.8632072896
 20
9.0339800474
 30
0.0
 10
11.897175129
 20
9.0272821744
 30
0.0
 10
11.9284236864
 20
9.0203728119
 30
0.0
 10
11.9568455564
 20
9.0132909083
 30
0.0
 10
11.9823994727
 20
9.0060605332
 30
0.0
 10
12.0050910949
 20
8.9987266639
 30
0.0
 10
12.0249554597
 20
8.991330501
 30
0.0
 10
12.0420304939
 20
8.9839106136
 30
0.0
 10
12.0544233705
 20
8.9775107997
 30
0.0
 10
12.0629093107
 20
8.9723604793
 30
0.0
 10
12.0683358843
 20
8.9686679544
 30
0.0
 10
12.0730857348
 20
8.9649942386
 30
0.0
 10
12.0771624507
 20
8.9613418232
 30
0.0
 10
12.0805687786
 20
8.9577140152
 30
0.0
 10
12.0824805557
 20
8.9551989609
 30
0.0
 10
12.0833079064
 20
8.953948736
 30
0.0
  0
SPLINE
  5
278
100
AcDbEntity
  8
0
100
AcDbSpline
 62
9
  6
CONTINUOUS
 70
0
 71
3
 72
23
 73
19
 74
0
 42
0.0000001
 43
0.0000001
 44
0.0000000001
 40
0.0
 40
0.0
 40
0.0
 40
0.0
 40
0.0190728163
 40
0.038331583
 40
0.0780221056
 40
0.1202160983
 40
0.1656698321
 40
0.2148492073
 40
0.2679990817
 40
0.3252050997
 40
0.3864405768
 40
0.451599702
 40
0.5205204631
 40
0.5930004252
 40
0.6688076593
 40
0.7476884183
 40
0.8293726066
 40
1.0
 40
1.0
 40
1.0
 40
1.0
 10
11.8668140786
 20
8.4987378844
 30
0.0
 10
11.8668141944
 20
8.5011256155
 30
0.0
 10
11.8665648357
 20
8.5059280356
 30
0.0
 10
11.8650807175
 20
8.5155957686
 30
0.0
 10
11.8613461183
 20
8.5277741681
 30
0.0
 10
11.8541926733
 20
8.5420851589
 30
0.0
 10
11.844484526
 20
8.5562517896
 30
0.0
 10
11.832358985
 20
8.5702667645
 30
0.0
 10
11.8179422788
 20
8.5841221123
 30
0.0
 10
11.8013565828
 20
8.5978006926
 30
0.0
 10
11.7827237241
 20
8.6112809969
 30
0.0
 10
11.7621663116
 20
8.6245383518
 30
0.0
 10
11.7398079676
 20
8.6375464382
 30
0.0
 10
11.7157731911
 20
8.6502780312
 30
0.0
 10
11.6901872419
 20
8.6627053135
 30
0.0
 10
11.6631756707
 20
8.6748006608
 30
0.0
 10
11.6248696838
 20
8.6906775646
 30
0.0
 10
11.5952283733
 20
8.7016380802
 30
0.0
 10
11.5750403428
 20
8.7086188435
 30
0.0
  0
LINE
  5
279
100
AcDbEntity
  8
0
100
AcDbLine
 62
9
  6
CONTINUOUS
 10
11.0473183781
 20
8.967466416
 11
11.047318371
 21
9.0608433114
  0
SPLINE
  5
27A
100
AcDbEntity
  8
0
100
AcDbSpline
 62
9
  6
CONTINUOUS
 70
0
 71
3
 72
20
 73
16
 74
0
 42
0.0000001
 43
0.0000001
 44
0.0000000001
 40
0.0
 40
0.0
 40
0.0
 40
0.0
 40
0.0778858351
 40
0.1541776275
 40
0.2287455445
 40
0.3015540196
 40
0.4418876617
 40
0.5748968207
 40
0.6994432171
 40
0.7579382157
 40
0.8135061321
 40
0.8658201483
 40
0.9145499934
 40
0.9593759502
 40
1.0
 40
1.0
 40
1.0
 40
1.0
 10
11.6619812815
 20
9.0635613756
 30
0.0
 10
11.6464009997
 20
9.0592065336
 30
0.0
 10
11.6154284023
 20
9.0510474799
 30
0.0
 10
11.56916017
 20
9.040224881
 30
0.0
 10
11.5236787641
 20
9.0307333302
 30
0.0
 10
11.4649500563
 20
9.0196667861
 30
0.0
 10
11.394017576
 20
9.0078836747
 30
0.0
 10
11.3123070385
 20
8.9954911895
 30
0.0
 10
11.247315157
 20
8.9862350665
 30
0.0
 10
11.1981752064
 20
8.9797850828
 30
0.0
 10
11.1638654072
 20
8.975646019
 30
0.0
 10
11.1315161903
 20
8.9722135622
 30
0.0
 10
11.1013281959
 20
8.9696001816
 30
0.0
 10
11.0735054349
 20
8.9679179315
 30
0.0
 10
11.0557562855
 20
8.9674664167
 30
0.0
 10
11.0473183781
 20
8.967466416
 30
0.0
  0
SPLINE
  5
27B
100
AcDbEntity
  8
0
100
AcDbSpline
 62
9
  6
CONTINUOUS
 70
0
 71
3
 72
11
 73
7
 74
0
 42
0.0000001
 43
0.0000001
 44
0.0000000001
 40
0.0
 40
0.0
 40
0.0
 40
0.0
 40
0.2682974758
 40
0.524090352
 40
0.7676508986
 40
1.0
 40
1.0
 40
1.0
 40
1.0
 10
11.6619812739
 20
9.0635613826
 30
0.0
 10
11.651748651
 20
9.07295149
 30
0.0
 10
11.6311782178
 20
9.0906728428
 30
0.0
 10
11.5994645651
 20
9.1146554025
 30
0.0
 10
11.5679642266
 20
9.1357186431
 30
0.0
 10
11.5468409284
 20
9.1484117773
 30
0.0
 10
11.5364115635
 20
9.154402163
 30
0.0
  0
SPLINE
  5
27C
100
AcDbEntity
  8
0
100
AcDbSpline
 62
9
  6
CONTINUOUS
 70
0
 71
3
 72
13
 73
9
 74
0
 42
0.0000001
 43
0.0000001
 44
0.0000000001
 40
0.0
 40
0.0
 40
0.0
 40
0.0
 40
0.1353249266
 40
0.2672828774
 40
0.3961299836
 40
0.5221010223
 40
0.7660337579
 40
1.0
 40
1.0
 40
1.0
 40
1.0
 10
11.5364115635
 20
9.154402163
 30
0.0
 10
11.5302719792
 20
9.1579285981
 30
0.0
 10
11.5180651603
 20
9.1647544295
 30
0.0
 10
11.499780523
 20
9.17451522
 30
0.0
 10
11.4817611619
 20
9.1837266502
 30
0.0
 10
11.4583472443
 20
9.195249447
 30
0.0
 10
11.4296975245
 20
9.2085800947
 30
0.0
 10
11.4067076108
 20
9.2184267687
 30
0.0
 10
11.3953612216
 20
9.2230210393
 30
0.0
  0
LINE
  5
27D
100
AcDbEntity
  8
0
100
AcDbLine
 62
7
  6
CONTINUOUS
 10
11.5039326706
 20
9.5158512942
 11
11.9460977413
 21
9.515860085
  0
SPLINE
  5
27E
100
AcDbEntity
  8
0
100
AcDbSpline
 62
9
  6
CONTINUOUS
 70
0
 71
3
 72
23
 73
19
 74
0
 42
0.0000001
 43
0.0000001
 44
0.0000000001
 40
0.0
 40
0.0
 40
0.0
 40
0.0
 40
0.0190728357
 40
0.0383316111
 40
0.0780221255
 40
0.1202160868
 40
0.1656697775
 40
0.2148491065
 40
0.2679989376
 40
0.3252049193
 40
0.3864403692
 40
0.4515994783
 40
0.5205202351
 40
0.5930002051
 40
0.6688074595
 40
0.747688251
 40
0.8293724837
 40
1.0
 40
1.0
 40
1.0
 40
1.0
 10
10.2278225885
 20
8.4987374754
 30
0.0
 10
10.2278224575
 20
8.501125207
 30
0.0
 10
10.228071786
 20
8.5059276283
 30
0.0
 10
10.2295558456
 20
8.5155953647
 30
0.0
 10
10.2332903752
 20
8.5277737712
 30
0.0
 10
10.2404437466
 20
8.5420847733
 30
0.0
 10
10.2501518271
 20
8.556251415
 30
0.0
 10
10.2622773074
 20
8.5702664007
 30
0.0
 10
10.2766939587
 20
8.5841217594
 30
0.0
 10
10.2932796054
 20
8.597800351
 30
0.0
 10
10.3119124203
 20
8.6112806668
 30
0.0
 10
10.3324697941
 20
8.6245380337
 30
0.0
 10
10.3548281045
 20
8.6375461325
 30
0.0
 10
10.3788628523
 20
8.6502777383
 30
0.0
 10
10.4044487775
 20
8.6627050339
 30
0.0
 10
10.4314603292
 20
8.6748003948
 30
0.0
 10
10.4697662981
 20
8.6906773185
 30
0.0
 10
10.4994075983
 20
8.7016378477
 30
0.0
 10
10.5195956233
 20
8.7086186198
 30
0.0
  0
SPLINE
  5
27F
100
AcDbEntity
  8
0
100
AcDbSpline
 62
7
  6
CONTINUOUS
 70
0
 71
3
 72
15
 73
11
 74
0
 42
0.0000001
 43
0.0000001
 44
0.0000000001
 40
0.0
 40
0.0
 40
0.0
 40
0.0
 40
0.1360294491
 40
0.2696262213
 40
0.4004051076
 40
0.5279673085
 40
0.6519398794
 40
0.7720212545
 40
0.8880357721
 40
1.0
 40
1.0
 40
1.0
 40
1.0
 10
10.0157845834
 20
8.9448847917
 30
0.0
 10
10.0257121746
 20
8.9247752374
 30
0.0
 10
10.0458261184
 20
8.8851308994
 30
0.0
 10
10.0764612714
 20
8.8266565086
 30
0.0
 10
10.1066607162
 20
8.7695308202
 30
0.0
 10
10.1357718097
 20
8.7136244333
 30
0.0
 10
10.16314278
 20
8.6588062641
 30
0.0
 10
10.1881221883
 20
8.6049407019
 30
0.0
 10
10.2100554922
 20
8.5518927861
 30
0.0
 10
10.2224200973
 20
8.5163641911
 30
0.0
 10
10.2278289268
 20
8.4987153666
 30
0.0
  0
SPLINE
  5
280
100
AcDbEntity
  8
0
100
AcDbSpline
 62
9
  6
CONTINUOUS
 70
0
 71
3
 72
26
 73
22
 74
0
 42
0.0000001
 43
0.0000001
 44
0.0000000001
 40
0.0
 40
0.0
 40
0.0
 40
0.0
 40
0.0990975216
 40
0.1959758903
 40
0.2895485305
 40
0.3788728521
 40
0.4631203502
 40
0.5417534497
 40
0.6143699172
 40
0.6807998759
 40
0.7409761501
 40
0.7949888363
 40
0.8429784742
 40
0.8851073119
 40
0.9215681163
 40
0.9377482809
 40
0.9526078346
 40
0.9661939937
 40
0.9785664207
 40
0.9898018061
 40
1.0
 40
1.0
 40
1.0
 40
1.0
 10
10.4326554171
 20
9.0635613775
 30
0.0
 10
10.4181901782
 20
9.0618351197
 30
0.0
 10
10.3895990885
 20
9.058289908
 30
0.0
 10
10.3474118702
 20
9.0526237353
 30
0.0
 10
10.3067153813
 20
9.0466705914
 30
0.0
 10
10.2679374668
 20
9.0404531411
 30
0.0
 10
10.2314294389
 20
9.0339800571
 30
0.0
 10
10.1974615913
 20
9.0272821836
 30
0.0
 10
10.1662130263
 20
9.0203728204
 30
0.0
 10
10.1377911492
 20
9.013290916
 30
0.0
 10
10.1122372266
 20
9.0060605401
 30
0.0
 10
10.0895455989
 20
8.99872667
 30
0.0
 10
10.0696812294
 20
8.9913305061
 30
0.0
 10
10.0526061912
 20
8.9839106177
 30
0.0
 10
10.0402133119
 20
8.9775108029
 30
0.0
 10
10.0317273698
 20
8.9723604818
 30
0.0
 10
10.0263007951
 20
8.9686679564
 30
0.0
 10
10.0215509435
 20
8.9649942401
 30
0.0
 10
10.0174742269
 20
8.9613418243
 30
0.0
 10
10.0140678984
 20
8.9577140158
 30
0.0
 10
10.012156121
 20
8.9551989611
 30
0.0
 10
10.0113287702
 20
8.953948736
 30
0.0
  0
LINE
  5
281
100
AcDbEntity
  8
0
100
AcDbLine
 62
7
  6
CONTINUOUS
 10
10.1483667425
 20
9.5158463744
 11
9.8598184175
 21
9.5158505332
  0
LINE
  5
282
100
AcDbEntity
  8
0
100
AcDbLine
 62
7
  6
CONTINUOUS
 10
11.0473176259
 20
9.972505301
 11
11.0473164454
 21
10.7033355475
  0
LINE
  5
283
100
AcDbEntity
  8
0
100
AcDbLine
 62
7
  6
CONTINUOUS
 10
11.9460977423
 20
9.5158401056
 11
12.2348183382
 21
9.515841753
  0
SPLINE
  5
284
100
AcDbEntity
  8
0
100
AcDbSpline
 62
9
  6
CONTINUOUS
 70
0
 71
3
 72
19
 73
15
 74
0
 42
0.0000001
 43
0.0000001
 44
0.0000000001
 40
0.0
 40
0.0
 40
0.0
 40
0.0
 40
0.1509950841
 40
0.2958093277
 40
0.4321271091
 40
0.4968004653
 40
0.5591605026
 40
0.6193048748
 40
0.6774066722
 40
0.7884108436
 40
0.8420102163
 40
0.8948265692
 40
0.9473158201
 40
1.0
 40
1.0
 40
1.0
 40
1.0
 10
11.6619812671
 20
9.0635613766
 30
0.0
 10
11.6834303611
 20
9.0810271983
 30
0.0
 10
11.7240018692
 20
9.117061308
 30
0.0
 10
11.7790071194
 20
9.1740765801
 30
0.0
 10
11.8197483676
 20
9.2226622588
 30
0.0
 10
11.8486438979
 20
9.2613077488
 30
0.0
 10
11.8680596112
 20
9.2895820145
 30
0.0
 10
11.8855702626
 20
9.3176708442
 30
0.0
 10
11.9059356641
 20
9.3544102201
 30
0.0
 10
11.9225984394
 20
9.3918076068
 30
0.0
 10
11.9346519279
 20
9.4298061889
 30
0.0
 10
11.9411864011
 20
9.4582098687
 30
0.0
 10
11.9451948686
 20
9.4869101697
 30
0.0
 10
11.9460978817
 20
9.5061888951
 30
0.0
 10
11.9460977423
 20
9.5158401056
 30
0.0
  0
SPLINE
  5
285
100
AcDbEntity
  8
0
100
AcDbSpline
 62
7
  6
CONTINUOUS
 70
0
 71
3
 72
15
 73
11
 74
0
 42
0.0000001
 43
0.0000001
 44
0.0000000001
 40
0.0
 40
0.0
 40
0.0
 40
0.0
 40
0.1128089058
 40
0.2294699961
 40
0.3499329931
 40
0.4740029652
 40
0.6013908772
 40
0.731755613
 40
0.8647395818
 40
1.0
 40
1.0
 40
1.0
 40
1.0
 10
11.8736867796
 20
8.5200385756
 30
0.0
 10
11.8793770831
 20
8.5368590847
 30
0.0
 10
11.8920566619
 20
8.5707055187
 30
0.0
 10
11.9138881202
 20
8.6212919054
 30
0.0
 10
11.9382847213
 20
8.6726558646
 30
0.0
 10
11.9646871651
 20
8.7249107851
 30
0.0
 10
11.9925381457
 20
8.7781706848
 30
0.0
 10
12.0212799345
 20
8.8325465855
 30
0.0
 10
12.0503540918
 20
8.888148352
 30
0.0
 10
12.0694383786
 20
8.925815812
 30
0.0
 10
12.0788631201
 20
8.9449071693
 30
0.0
  0
ENDSEC
  0
SECTION
  2
OBJECTS
  0
DICTIONARY
  5
C
100
AcDbDictionary
280
0
281
1
  3
ACAD_GROUP
350
D
  3
ACAD_MLINESTYLE
350
17
  3
ACAD_LAYOUT
350
1A
  3
ACAD_PLOTSETTINGS
350
19
  3
ACAD_PLOTSTYLENAME
350
E
  0
DICTIONARY
  5
D
102
{ACAD_REACTORS
330
C
102
}
100
AcDbDictionary
280
0
281
1
  0
ACDBDICTIONARYWDFLT
  5
E
102
{ACAD_REACTORS
330
C
102
}
100
AcDbDictionary
281
1
  3
Normal
350
F
100
AcDbDictionaryWithDefault
340
F
  0
DICTIONARY
  5
17
102
{ACAD_REACTORS
330
C
102
}
100
AcDbDictionary
280
0
281
1
  3
Standard
350
18
  0
DICTIONARY
  5
19
102
{ACAD_REACTORS
330
C
102
}
100
AcDbDictionary
281
1
  0
DICTIONARY
  5
1A
102
{ACAD_REACTORS
330
C
102
}
100
AcDbDictionary
281
1
  3
Model
350
286
  3
Layout1
350
287
  0
ACDBPLACEHOLDER
  5
F
102
{ACAD_REACTORS
330
E
102
}
  0
MLINESTYLE
  5
18
102
{ACAD_REACTORS
330
17
102
}
100
AcDbMlineStyle
  2
STANDARD
 70
0
  3

 62
256
 51
90.0
 52
90.0
 71
2
 49
0.5
 62
256
  6
BYLAYER
 49
-0.5
 62
256
  6
BYLAYER
  0
LAYOUT
  5
286
102
{ACAD_REACTORS
330
1A
102
}
100
AcDbPlotSettings
  1

  2
none_device
  4
ANSI_C_(22.00_x_17.00_Inches)
  6

 40
0.0
 41
0.0
 42
0.0
 43
0.0
 44
558.8
 45
431.8
 46
0.0
 47
0.0
 48
0.0
 49
0.0
140
0.0
141
0.0
142
1.0
143
1.0
 70
1024
 72
0
 73
0
 74
0
  7

 75
0
147
1.0
148
0.0
149
0.0
100
AcDbLayout
  1
Model
 70
0
 71
0
 10
0.0
 20
0.0
 11
22.0
 21
17.0
 12
0.0
 22
0.0
 32
0.0
 14
0.0
 24
0.0
 34
0.0
 15
0.0
 25
0.0
 35
0.0
146
0.0
 13
0.0
 23
0.0
 33
0.0
 16
1.0
 26
0.0
 36
0.0
 17
0.0
 27
1.0
 37
0.0
 76
0
330
202
345
0
346
0
  0
LAYOUT
  5
287
102
{ACAD_REACTORS
330
1A
102
}
100
AcDbPlotSettings
  1

  2
none_device
  4
ANSI_C_(22.00_x_17.00_Inches)
  6

 40
0.0
 41
0.0
 42
0.0
 43
0.0
 44
558.8
 45
431.8
 46
0.0
 47
0.0
 48
0.0
 49
0.0
140
0.0
141
0.0
142
1.0
143
1.0
 70
0
 72
0
 73
0
 74
0
  7

 75
0
147
1.0
148
0.0
149
0.0
100
AcDbLayout
  1
Layout1
 70
0
 71
1
 10
0.0
 20
0.0
 11
22.0
 21
17.0
 12
0.0
 22
0.0
 32
0.0
 14
0.0
 24
0.0
 34
0.0
 15
0.0
 25
0.0
 35
0.0
146
0.0
 13
0.0
 23
0.0
 33
0.0
 16
1.0
 26
0.0
 36
0.0
 17
0.0
 27
1.0
 37
0.0
 76
0
330
203
345
0
346
0
  0
ENDSEC
  0
EOF
