999
DXF file: E:\BT Custom\CADOUTPUT\_RIGHT.dxf
999
Pro/ENGINEER 2018400 by Parametric Technology Corporation
  0
SECTION
  2
HEADER
  9
$ACADVER
  1
AC1018
  9
$DWGCODEPAGE
  3
ANSI_1252
  9
$EXTMAX
 10
22.0
 20
17.0
 30
0.0
  9
$EXTMIN
 10
0.0
 20
0.0
 30
0.0
  9
$LIMMIN
 10
0.0
 20
0.0
  9
$LIMMAX
 10
22.0
 20
17.0
  9
$VIEWCTR
 10
11.0
 20
8.5
  9
$VIEWSIZE
 40
17.0
  9
$CLAYER
  8
0
  9
$LTSCALE
 40
1.21
  9
$CELTYPE
  6
BYLAYER
  9
$DIMSCALE
 40
1.0
  9
$DIMASZ
 40
0.1
  9
$DIMEXO
 40
0.0625
  9
$DIMDLI
 40
0.836
  9
$DIMEXE
 40
0.125
  9
$DIMCEN
 40
0.198
  9
$DIMLFAC
 40
1.0
  9
$DIMBLK
  1
_FILLED
  9
$DIMALT
 70
1
  9
$DIMALTD
 70
2
  9
$DIMALTTD
 70
2
  9
$DIMALTF
 40
25.4
  9
$DIMTXT
 40
0.08
  9
$DIMTOL
 70
1
  9
$DIMLIM
 70
0
  9
$DIMTFAC
 40
1.0
  9
$DIMTP
 40
0.001
  9
$DIMTM
 40
0.001
  9
$DIMGAP
 40
0.09
  9
$DIMDSEP
 70
46
  9
$AUNITS
 70
0
  9
$PDMODE
 70
3
  9
$PDSIZE
 40
0.06
  9
$HANDSEED
  5
2B6
  9
$TILEMODE
 70
1
  9
$MEASUREMENT
 70
0
  9
$INSUNITS
 70
1
  0
ENDSEC
  0
SECTION
  2
CLASSES
  0
CLASS
  1
ACDBDICTIONARYWDFLT
  2
AcDbDictionaryWithDefault
  3
AutoCAD 2000
 90
0
 91
1
280
0
281
0
  0
CLASS
  1
ACDBPLACEHOLDER
  2
AcDbPlaceHolder
  3
AutoCAD 2000
 90
0
 91
1
280
0
281
0
  0
CLASS
  1
LAYOUT
  2
AcDbLayout
  3
AutoCAD 2000
 90
0
 91
0
280
0
281
0
  0
ENDSEC
  0
SECTION
  2
TABLES
  0
TABLE
  2
VPORT
  5
8
100
AcDbSymbolTable
 70
2
  0
VPORT
  5
1F4
100
AcDbSymbolTableRecord
100
AcDbViewportTableRecord
  2
*ACTIVE
 70
0
 10
0.0
 20
0.0
 11
1.0
 21
1.0
 12
11.0
 22
8.5
 13
0.0
 23
0.0
 14
1.0
 24
1.0
 15
0.0
 25
0.0
 16
0.0
 26
0.0
 36
1.0
 17
0.0
 27
0.0
 37
0.0
 40
17.0
 41
1.2941176471
 42
50.0
 43
0.0
 44
0.0
 50
0.0
 51
0.0
 71
0
 72
100
 73
1
 74
1
 75
0
 76
0
 77
0
 78
0
  0
ENDTAB
  0
TABLE
  2
LTYPE
  5
5
100
AcDbSymbolTable
 70
6
  0
LTYPE
  5
14
100
AcDbSymbolTableRecord
100
AcDbLinetypeTableRecord
  2
BYBLOCK
 70
0
  3

 72
65
 73
0
 40
0.0
  0
LTYPE
  5
15
100
AcDbSymbolTableRecord
100
AcDbLinetypeTableRecord
  2
BYLAYER
 70
0
  3

 72
65
 73
0
 40
0.0
  0
LTYPE
  5
16
100
AcDbSymbolTableRecord
100
AcDbLinetypeTableRecord
  2
CONTINUOUS
 70
64
  3
Solid line
 72
65
 73
0
 40
0.0
  0
LTYPE
  5
1F5
100
AcDbSymbolTableRecord
100
AcDbLinetypeTableRecord
  2
CENTER
 70
64
  3
____ _ ____ _ ____ _ ____ _ ____ _ ____ _ ____
 72
65
 73
4
 40
0.6
 49
0.375
 74
0
 49
-0.075
 74
0
 49
0.075
 74
0
 49
-0.075
 74
0
  0
LTYPE
  5
1F6
100
AcDbSymbolTableRecord
100
AcDbLinetypeTableRecord
  2
HIDDEN
 70
64
  3
- - - - - - - - - - - - - - - - - - - -
 72
65
 73
2
 40
0.2
 49
0.1
 74
0
 49
-0.1
 74
0
  0
LTYPE
  5
1F7
100
AcDbSymbolTableRecord
100
AcDbLinetypeTableRecord
  2
PHANTOM
 70
64
  3
_____ _ _ _____ _ _ _____ _ _ _____
 72
65
 73
6
 40
0.8
 49
0.45
 74
0
 49
-0.05
 74
0
 49
0.1
 74
0
 49
-0.05
 74
0
 49
0.1
 74
0
 49
-0.05
 74
0
  0
LTYPE
  5
1F8
100
AcDbSymbolTableRecord
100
AcDbLinetypeTableRecord
  2
DOT
 70
64
  3
. . . . . . . . . . . . . . . . . . . .
 72
65
 73
2
 40
0.2
 49
0.1
 74
0
 49
-0.1
 74
0
  0
LTYPE
  5
1F9
100
AcDbSymbolTableRecord
100
AcDbLinetypeTableRecord
  2
DASHED
 70
64
  3
- - - - - - - - - - - - - - - - - - - -
 72
65
 73
2
 40
0.2
 49
0.1
 74
0
 49
-0.1
 74
0
  0
ENDTAB
  0
TABLE
  2
LAYER
  5
2
100
AcDbSymbolTable
 70
36
  0
LAYER
  5
10
100
AcDbSymbolTableRecord
100
AcDbLayerTableRecord
  2
0
 70
0
 62
7
  6
CONTINUOUS
370
-3
390
F
  0
LAYER
  5
1FA
100
AcDbSymbolTableRecord
100
AcDbLayerTableRecord
  2
DEFAULT_1
 70
0
 62
7
  6
CENTER
370
-3
390
F
  0
LAYER
  5
1FB
100
AcDbSymbolTableRecord
100
AcDbLayerTableRecord
  2
DEFAULT_2
 70
0
 62
8
  6
HIDDEN
370
-3
390
F
  0
LAYER
  5
1FC
100
AcDbSymbolTableRecord
100
AcDbLayerTableRecord
  2
DEFAULT_3
 70
0
 62
7
  6
PHANTOM
370
-3
390
F
  0
LAYER
  5
1FD
100
AcDbSymbolTableRecord
100
AcDbLayerTableRecord
  2
ALL_FEATURES
 70
0
 62
7
  6
CONTINUOUS
370
-3
390
F
  0
LAYER
  5
1FE
100
AcDbSymbolTableRecord
100
AcDbLayerTableRecord
  2
AXES_FEATURES
 70
0
 62
7
  6
CONTINUOUS
370
-3
390
F
  0
LAYER
  5
1FF
100
AcDbSymbolTableRecord
100
AcDbLayerTableRecord
  2
DIMENSIONS
 70
0
 62
7
  6
CONTINUOUS
370
-3
390
F
  0
ENDTAB
  0
TABLE
  2
STYLE
  5
3
100
AcDbSymbolTable
 70
1
  0
STYLE
  5
11
100
AcDbSymbolTableRecord
100
AcDbTextStyleTableRecord
  2
STANDARD
 70
0
 40
0.0
 41
0.8
 50
0.0
 71
0
 42
0.2
  3
txt
  4

  0
STYLE
  5
200
100
AcDbSymbolTableRecord
100
AcDbTextStyleTableRecord
  2
TEXTSTYLE_1
 70
0
 40
0.0
 41
0.8
 50
0.0
 71
0
 42
0.2
  3
gdt
  4

  0
ENDTAB
  0
TABLE
  2
VIEW
  5
6
100
AcDbSymbolTable
 70
0
  0
ENDTAB
  0
TABLE
  2
UCS
  5
7
100
AcDbSymbolTable
 70
0
  0
ENDTAB
  0
TABLE
  2
APPID
  5
9
100
AcDbSymbolTable
 70
1
  0
APPID
  5
201
100
AcDbSymbolTableRecord
100
AcDbRegAppTableRecord
  2
ACAD
 70
0
  0
ENDTAB
  0
TABLE
  2
BLOCK_RECORD
  5
1
100
AcDbSymbolTable
 70
0
  0
BLOCK_RECORD
  5
202
100
AcDbSymbolTableRecord
100
AcDbBlockTableRecord
  2
*Model_Space
  0
BLOCK_RECORD
  5
203
100
AcDbSymbolTableRecord
100
AcDbBlockTableRecord
  2
*Paper_Space
  0
BLOCK_RECORD
  5
204
100
AcDbSymbolTableRecord
100
AcDbBlockTableRecord
  2
_FILLED
  0
ENDTAB
  0
TABLE
  2
DIMSTYLE
  5
A
100
AcDbSymbolTable
 70
1
100
AcDbDimStyleTable
 71
0
  0
DIMSTYLE
105
205
100
AcDbSymbolTableRecord
100
AcDbDimStyleTableRecord
  2
STANDARD
 70
0
  3

  4

 40
1.0
 41
0.1
 42
0.0625
 43
0.38
 44
0.125
 45
0.0
 46
0.0
 47
0.001
 48
0.001
140
0.08
141
0.09
142
0.0
143
25.4
144
1.0
145
0.0
146
1.0
147
0.09
 71
1.0
 72
0.0
 73
1
 74
1
 75
0
 76
0
 77
0
 78
4
 79
1
170
1
171
2
172
0
173
0
174
0
175
0
176
0
177
0
178
0
270
2
179
3
271
3
272
3
273
2
274
2
275
0
280
0
281
0
282
0
283
1
284
4
285
0
286
0
287
3
288
0
340
11
278
46
341
204
342
204
343
204
344
204
  0
ENDTAB
  0
ENDSEC
  0
SECTION
  2
BLOCKS
  0
BLOCK
  5
20
100
AcDbEntity
  8
0
100
AcDbBlockBegin
  2
*Model_Space
 70
0
 10
0.0
 20
0.0
 30
0.0
  3
*Model_Space
  1

  0
ENDBLK
  5
21
100
AcDbEntity
  8
0
100
AcDbBlockEnd
  0
BLOCK
  5
1C
100
AcDbEntity
  8
0
100
AcDbBlockBegin
  2
*Paper_Space
 70
0
 10
0.0
 20
0.0
 30
0.0
  3
*Paper_Space
  1

  0
ENDBLK
  5
1D
100
AcDbEntity
  8
0
100
AcDbBlockEnd
  0
BLOCK
  5
206
100
AcDbEntity
  8
0
100
AcDbBlockBegin
  2
_FILLED
 70
64
 10
0.0
 20
0.0
  3
_FILLED
  1

  0
SOLID
  5
207
100
AcDbEntity
  8
0
  6
BYBLOCK
 62
0
100
AcDbTrace
 10
0.0
 20
0.0
 11
-1.0
 21
0.2
 12
-1.0
 22
-0.2
 13
-1.0
 23
-0.2
  0
ENDBLK
  5
208
100
AcDbEntity
  8
0
  6
BYBLOCK
 62
0
100
AcDbBlockEnd
  0
ENDSEC
  0
SECTION
  2
ENTITIES
  0
LINE
  5
209
100
AcDbEntity
  8
0
100
AcDbLine
 62
7
  6
CONTINUOUS
 10
7.2391537984
 20
10.5075722023
 11
7.2314385061
 21
10.4955328363
  0
LINE
  5
20A
100
AcDbEntity
  8
0
100
AcDbLine
 62
7
  6
CONTINUOUS
 10
7.2560045253
 20
10.533489608
 11
7.2391537984
 21
10.5075722023
  0
LINE
  5
20B
100
AcDbEntity
  8
0
100
AcDbLine
 62
7
  6
CONTINUOUS
 10
7.2654327383
 20
10.5477628645
 11
7.2560045253
 21
10.533489608
  0
LINE
  5
20C
100
AcDbEntity
  8
0
100
AcDbLine
 62
7
  6
CONTINUOUS
 10
7.3467862874
 20
10.4492929662
 11
7.2835125609
 21
10.2754498314
  0
LINE
  5
20D
100
AcDbEntity
  8
0
100
AcDbLine
 62
7
  6
CONTINUOUS
 10
7.369297452
 20
10.4453562835
 11
7.3679293714
 21
10.441597513
  0
LWPOLYLINE
  5
20E
100
AcDbEntity
  8
0
100
AcDbPolyline
 62
7
  6
CONTINUOUS
 90
4
 70
0
 10
7.5182903495
 20
10.8814050522
 10
7.433462761
 20
10.7788962962
 10
7.3423384279
 20
10.6587350929
 10
7.2654327394
 20
10.5477628659
  0
LINE
  5
20F
100
AcDbEntity
  8
0
100
AcDbLine
 62
7
  6
CONTINUOUS
 10
7.5182949927
 20
10.8814099488
 11
7.5182903495
 21
10.8814050522
  0
LINE
  5
210
100
AcDbEntity
  8
0
100
AcDbLine
 62
7
  6
CONTINUOUS
 10
7.5182949941
 20
10.8814099502
 11
7.5182903507
 21
10.8814050536
  0
LINE
  5
211
100
AcDbEntity
  8
0
100
AcDbLine
 62
7
  6
CONTINUOUS
 10
11.3409683527
 20
5.9707078233
 11
14.1869683527
 21
5.9707078233
  0
LINE
  5
212
100
AcDbEntity
  8
0
100
AcDbLine
 62
7
  6
CONTINUOUS
 10
8.1962269583
 20
10.1443785574
 11
8.1948588777
 21
10.1406197869
  0
LINE
  5
213
100
AcDbEntity
  8
0
100
AcDbLine
 62
9
  6
CONTINUOUS
 10
13.9339683527
 20
5.9847078233
 11
11.5939683527
 21
5.9847078233
  0
LINE
  5
214
100
AcDbEntity
  8
0
100
AcDbLine
 62
9
  6
CONTINUOUS
 10
11.6595966423
 20
6.0947078233
 11
13.8683400631
 21
6.0947078233
  0
LINE
  5
215
100
AcDbEntity
  8
0
100
AcDbLine
 62
9
  6
CONTINUOUS
 10
11.6920459831
 20
6.1457078233
 11
13.8358907223
 21
6.1457078233
  0
LINE
  5
216
100
AcDbEntity
  8
0
100
AcDbLine
 62
7
  6
CONTINUOUS
 10
11.4389683527
 20
6.1627078233
 11
11.6949656028
 21
6.1627078233
  0
LINE
  5
217
100
AcDbEntity
  8
0
100
AcDbLine
 62
7
  6
CONTINUOUS
 10
13.8329711026
 20
6.1627078233
 11
14.0889683527
 21
6.1627078233
  0
LINE
  5
218
100
AcDbEntity
  8
0
100
AcDbLine
 62
9
  6
CONTINUOUS
 10
11.7232224251
 20
6.2037078233
 11
13.8047142803
 21
6.2037078233
  0
LINE
  5
219
100
AcDbEntity
  8
0
100
AcDbLine
 62
9
  6
CONTINUOUS
 10
11.7474978464
 20
6.2447078233
 11
13.780438859
 21
6.2447078233
  0
LINE
  5
21A
100
AcDbEntity
  8
0
100
AcDbLine
 62
7
  6
CONTINUOUS
 10
8.2160019617
 20
10.1329243337
 11
8.1527282351
 21
9.9590811988
  0
LWPOLYLINE
  5
21B
100
AcDbEntity
  8
0
100
AcDbPolyline
 62
7
  6
CONTINUOUS
 90
4
 70
0
 10
8.3024102616
 20
10.1057309956
 10
8.3461146156
 20
10.1791372699
 10
8.4024028627
 20
10.2645295113
 10
8.456110001
 20
10.3381912777
  0
LWPOLYLINE
  5
21C
100
AcDbEntity
  8
0
100
AcDbPolyline
 62
7
  6
CONTINUOUS
 90
3
 70
0
 10
8.4561099725
 20
10.3381912405
 10
8.489105434
 20
10.3799446826
 10
8.5149128686
 20
10.4107939251
  0
LINE
  5
21D
100
AcDbEntity
  8
0
100
AcDbLine
 62
7
  6
CONTINUOUS
 10
8.4561028989
 20
10.3381833509
 11
8.5149128686
 21
10.4107939251
  0
LINE
  5
21E
100
AcDbEntity
  8
0
100
AcDbLine
 62
7
  6
CONTINUOUS
 10
8.4561099729
 20
10.3381912411
 11
8.4561028994
 21
10.3381833514
  0
LINE
  5
21F
100
AcDbEntity
  8
0
100
AcDbLine
 62
9
  6
CONTINUOUS
 10
11.7846247956
 20
6.3007078233
 11
13.7433119098
 21
6.3007078233
  0
LINE
  5
220
100
AcDbEntity
  8
0
100
AcDbLine
 62
9
  6
CONTINUOUS
 10
11.8120201991
 20
6.3357078233
 11
13.7159165063
 21
6.3357078233
  0
LINE
  5
221
100
AcDbEntity
  8
0
100
AcDbLine
 62
9
  6
CONTINUOUS
 10
11.8221445825
 20
6.3507078233
 11
13.7057921229
 21
6.3507078233
  0
LINE
  5
222
100
AcDbEntity
  8
0
100
AcDbLine
 62
7
  6
CONTINUOUS
 10
11.5389683527
 20
6.3547078233
 11
11.8262170115
 21
6.3547078233
  0
LINE
  5
223
100
AcDbEntity
  8
0
100
AcDbLine
 62
7
  6
CONTINUOUS
 10
13.7017196939
 20
6.3547078233
 11
13.9889683527
 21
6.3547078233
  0
LINE
  5
224
100
AcDbEntity
  8
0
100
AcDbLine
 62
9
  6
CONTINUOUS
 10
13.9071486036
 20
6.5346995769
 11
13.5902966392
 21
6.5346995769
  0
LINE
  5
225
100
AcDbEntity
  8
0
100
AcDbLine
 62
9
  6
CONTINUOUS
 10
11.9376400662
 20
6.5346995769
 11
11.6207881018
 21
6.5346995769
  0
LINE
  5
226
100
AcDbEntity
  8
0
100
AcDbLine
 62
7
  6
CONTINUOUS
 10
13.8715696918
 20
6.5457078233
 11
13.5878226888
 21
6.5457078233
  0
LINE
  5
227
100
AcDbEntity
  8
0
100
AcDbLine
 62
7
  6
CONTINUOUS
 10
11.9401140166
 20
6.5457078233
 11
11.6563670136
 21
6.5457078233
  0
LINE
  5
228
100
AcDbEntity
  8
0
100
AcDbLine
 62
9
  6
CONTINUOUS
 10
13.5794389152
 20
6.6397078233
 11
11.9484977902
 21
6.6397078233
  0
LINE
  5
229
100
AcDbEntity
  8
0
100
AcDbLine
 62
9
  6
CONTINUOUS
 10
11.9762207892
 20
7.0447078233
 11
13.5517159162
 21
7.0447078233
  0
LINE
  5
22A
100
AcDbEntity
  8
0
100
AcDbLine
 62
9
  6
CONTINUOUS
 10
12.2394732522
 20
7.5832023032
 11
13.2884634532
 21
7.5832023032
  0
LINE
  5
22B
100
AcDbEntity
  8
0
100
AcDbLine
 62
9
  6
CONTINUOUS
 10
12.3293028091
 20
7.7736028334
 11
13.1986338963
 21
7.7736028334
  0
LINE
  5
22C
100
AcDbEntity
  8
0
100
AcDbLine
 62
9
  6
CONTINUOUS
 10
13.1741250016
 20
7.912599682
 11
12.3538117038
 21
7.912599682
  0
LINE
  5
22D
100
AcDbEntity
  8
0
100
AcDbLine
 62
7
  6
CONTINUOUS
 10
13.0953403822
 20
7.9787078233
 11
12.4325977365
 21
7.9787078233
  0
LINE
  5
22E
100
AcDbEntity
  8
0
100
AcDbLine
 62
7
  6
CONTINUOUS
 10
7.2670272274
 20
10.1005397808
 11
8.05292672
 21
9.8144957584
  0
LINE
  5
22F
100
AcDbEntity
  8
0
100
AcDbLine
 62
9
  6
CONTINUOUS
 10
8.0635134781
 20
9.816918414
 11
7.2604745532
 21
10.1092006797
  0
LINE
  5
230
100
AcDbEntity
  8
0
100
AcDbLine
 62
9
  6
CONTINUOUS
 10
7.2835125609
 20
10.2754498314
 11
8.1527282351
 21
9.9590811988
  0
LINE
  5
231
100
AcDbEntity
  8
0
100
AcDbLine
 62
7
  6
CONTINUOUS
 10
8.2160019617
 20
10.1329243337
 11
7.3467862874
 21
10.4492929662
  0
LINE
  5
232
100
AcDbEntity
  8
0
100
AcDbLine
 62
7
  6
CONTINUOUS
 10
8.3024009964
 20
10.1057343678
 11
7.2314422142
 21
10.4955314867
  0
LINE
  5
233
100
AcDbEntity
  8
0
100
AcDbLine
 62
7
  6
CONTINUOUS
 10
11.5939683527
 20
5.9847078233
 11
11.5939683527
 21
5.9707078233
  0
LWPOLYLINE
  5
234
100
AcDbEntity
  8
0
100
AcDbPolyline
 62
7
  6
CONTINUOUS
 90
4
 70
0
 10
11.7214686722
 20
8.8552932708
 10
11.7901109845
 20
8.0911806617
 10
11.7901757257
 20
7.3112923339
 10
11.7214683541
 20
6.5457078233
  0
LINE
  5
235
100
AcDbEntity
  8
0
100
AcDbLine
 62
7
  6
CONTINUOUS
 10
12.9689683527
 20
10.0707078233
 11
13.2289683527
 21
10.0707078233
  0
LWPOLYLINE
  5
236
100
AcDbEntity
  8
0
100
AcDbPolyline
 62
7
  6
CONTINUOUS
 90
4
 70
0
 10
10.9381655355
 20
10.5261514994
 10
10.9949866967
 20
10.4686896955
 10
11.0556318377
 20
10.4006974445
 10
11.1058832329
 20
10.338183991
  0
LINE
  5
237
100
AcDbEntity
  8
0
100
AcDbLine
 62
7
  6
CONTINUOUS
 10
12.353811703
 20
7.9125996775
 11
12.3293028091
 21
7.7736028334
  0
LINE
  5
238
100
AcDbEntity
  8
0
100
AcDbLine
 62
9
  6
CONTINUOUS
 10
13.3331266242
 20
10.6614187346
 11
12.8648100812
 21
10.6614187346
  0
LINE
  5
239
100
AcDbEntity
  8
0
100
AcDbLine
 62
9
  6
CONTINUOUS
 10
13.4563401661
 20
10.8364960802
 11
12.7415965393
 21
10.8364960802
  0
LINE
  5
23A
100
AcDbEntity
  8
0
100
AcDbLine
 62
9
  6
CONTINUOUS
 10
12.7259683527
 20
10.8634164687
 11
13.4719683527
 21
10.8634164687
  0
LINE
  5
23B
100
AcDbEntity
  8
0
100
AcDbLine
 62
7
  6
CONTINUOUS
 10
9.9759684588
 20
10.9813933427
 11
10.0051044078
 21
10.9777041337
  0
LINE
  5
23C
100
AcDbEntity
  8
0
100
AcDbLine
 62
7
  6
CONTINUOUS
 10
12.6929683527
 20
11.0597078233
 11
12.6929683527
 21
11.0307078233
  0
LINE
  5
23D
100
AcDbEntity
  8
0
100
AcDbLine
 62
7
  6
CONTINUOUS
 10
12.6929683527
 20
10.9677078233
 11
12.6929683527
 21
10.9377078233
  0
LINE
  5
23E
100
AcDbEntity
  8
0
100
AcDbLine
 62
7
  6
CONTINUOUS
 10
12.7259683527
 20
11.1275867525
 11
12.7259683527
 21
11.0907078233
  0
LINE
  5
23F
100
AcDbEntity
  8
0
100
AcDbLine
 62
7
  6
CONTINUOUS
 10
12.7259683527
 20
10.9067078233
 11
12.7259683527
 21
10.8634164687
  0
LWPOLYLINE
  5
240
100
AcDbEntity
  8
0
100
AcDbPolyline
 62
7
  6
CONTINUOUS
 90
4
 70
0
 10
9.3198973018
 20
10.9278301332
 10
9.4908340948
 20
10.9673953611
 10
9.7529920115
 20
10.9925866755
 10
9.9759684588
 20
10.9813933427
  0
LINE
  5
241
100
AcDbEntity
  8
0
100
AcDbLine
 62
7
  6
CONTINUOUS
 10
12.7239683525
 20
10.9067078233
 11
13.4739683529
 21
10.9067078233
  0
LINE
  5
242
100
AcDbEntity
  8
0
100
AcDbLine
 62
9
  6
CONTINUOUS
 10
12.6929683527
 20
10.9377078233
 11
13.5049683527
 21
10.9377078233
  0
LINE
  5
243
100
AcDbEntity
  8
0
100
AcDbLine
 62
7
  6
CONTINUOUS
 10
13.5049683527
 20
10.9677078233
 11
12.6929683527
 21
10.9677078233
  0
LINE
  5
244
100
AcDbEntity
  8
0
100
AcDbLine
 62
7
  6
CONTINUOUS
 10
12.6929683527
 20
11.0307078233
 11
13.5049683527
 21
11.0307078233
  0
LINE
  5
245
100
AcDbEntity
  8
0
100
AcDbLine
 62
9
  6
CONTINUOUS
 10
13.5049683527
 20
11.0597078233
 11
12.6929683527
 21
11.0597078233
  0
LINE
  5
246
100
AcDbEntity
  8
0
100
AcDbLine
 62
7
  6
CONTINUOUS
 10
13.4739683515
 20
11.0907078233
 11
12.7239683539
 21
11.0907078233
  0
LINE
  5
247
100
AcDbEntity
  8
0
100
AcDbLine
 62
9
  6
CONTINUOUS
 10
13.4719683527
 20
11.1275867525
 11
12.7259683527
 21
11.1275867525
  0
LINE
  5
248
100
AcDbEntity
  8
0
100
AcDbLine
 62
9
  6
CONTINUOUS
 10
13.4476195434
 20
11.1578648247
 11
12.750317162
 21
11.1578648247
  0
LINE
  5
249
100
AcDbEntity
  8
0
100
AcDbLine
 62
7
  6
CONTINUOUS
 10
13.0052183527
 20
10.0707078233
 11
13.0052183527
 21
9.9647019955
  0
LINE
  5
24A
100
AcDbEntity
  8
0
100
AcDbLine
 62
7
  6
CONTINUOUS
 10
13.1927183527
 20
10.0707078233
 11
13.1927183527
 21
9.5660278351
  0
LINE
  5
24B
100
AcDbEntity
  8
0
100
AcDbLine
 62
7
  6
CONTINUOUS
 10
13.3331266242
 20
10.6614187346
 11
13.2289683527
 21
10.0707078233
  0
LINE
  5
24C
100
AcDbEntity
  8
0
100
AcDbLine
 62
7
  6
CONTINUOUS
 10
13.1741250024
 20
7.9125996775
 11
13.1986338963
 21
7.7736028334
  0
LINE
  5
24D
100
AcDbEntity
  8
0
100
AcDbLine
 62
7
  6
CONTINUOUS
 10
12.8648100812
 20
10.6614187346
 11
12.9689683527
 21
10.0707078233
  0
LINE
  5
24E
100
AcDbEntity
  8
0
100
AcDbLine
 62
7
  6
CONTINUOUS
 10
13.4719683527
 20
11.1275867525
 11
13.4719683527
 21
11.0907078233
  0
LINE
  5
24F
100
AcDbEntity
  8
0
100
AcDbLine
 62
7
  6
CONTINUOUS
 10
13.4719683527
 20
10.9067078233
 11
13.4719683527
 21
10.8634164687
  0
LINE
  5
250
100
AcDbEntity
  8
0
100
AcDbLine
 62
7
  6
CONTINUOUS
 10
13.5049683527
 20
11.0597078233
 11
13.5049683527
 21
11.0307078233
  0
LINE
  5
251
100
AcDbEntity
  8
0
100
AcDbLine
 62
7
  6
CONTINUOUS
 10
13.5049683527
 20
10.9677078233
 11
13.5049683527
 21
10.9377078233
  0
LINE
  5
252
100
AcDbEntity
  8
0
100
AcDbLine
 62
7
  6
CONTINUOUS
 10
11.8182123063
 20
11.4397763995
 11
11.8184120004
 21
11.4396094324
  0
LWPOLYLINE
  5
253
100
AcDbEntity
  8
0
100
AcDbPolyline
 62
7
  6
CONTINUOUS
 90
4
 70
0
 10
12.1208486037
 20
11.1643625622
 10
12.0271002164
 20
11.2547235209
 10
11.9177058761
 20
11.3542970954
 10
11.8184120004
 20
11.4396094324
  0
LWPOLYLINE
  5
254
100
AcDbEntity
  8
0
100
AcDbPolyline
 62
7
  6
CONTINUOUS
 90
5
 70
0
 10
13.806468352
 20
6.5457078233
 10
13.7802738312
 20
7.1830732818
 10
13.6994278971
 20
7.8307110089
 10
13.5646410466
 20
8.4686454337
 10
13.3816369733
 20
9.0791138265
  0
LWPOLYLINE
  5
255
100
AcDbEntity
  8
0
100
AcDbPolyline
 62
7
  6
CONTINUOUS
 90
4
 70
0
 10
10.047332311
 20
12.0506093153
 10
9.6965717844
 20
12.0301338785
 10
9.3471768923
 20
11.9725996569
 10
9.0083344138
 20
11.8795082434
  0
LINE
  5
256
100
AcDbEntity
  8
0
100
AcDbLine
 62
7
  6
CONTINUOUS
 10
10.1715485447
 20
12.0490757841
 11
10.047332311
 21
12.0506093153
  0
LINE
  5
257
100
AcDbEntity
  8
0
100
AcDbLine
 62
7
  6
CONTINUOUS
 10
13.9339683527
 20
5.9847078233
 11
13.9339683527
 21
5.9707078233
  0
ARC
  5
258
100
AcDbEntity
  8
0
100
AcDbCircle
 62
7
  6
CONTINUOUS
 10
7.7768511868
 20
10.0958892561
 40
0.4
100
AcDbArc
 50
315.7790569402
 51
340.0
  0
ARC
  5
259
100
AcDbEntity
  8
0
100
AcDbCircle
 62
7
  6
CONTINUOUS
 10
7.6593896092
 20
10.1386417741
 40
0.4
100
AcDbArc
 50
160.0
 51
184.2209430598
  0
ARC
  5
25A
100
AcDbEntity
  8
0
100
AcDbCircle
 62
7
  6
CONTINUOUS
 10
7.2704474296
 20
10.1099367067
 40
0.01
100
AcDbArc
 50
184.2209411427
 51
249.9999951894
  0
ARC
  5
25B
100
AcDbEntity
  8
0
100
AcDbCircle
 62
7
  6
CONTINUOUS
 10
8.0563469206
 20
9.8238926848
 40
0.01
100
AcDbArc
 50
250.0000048106
 51
315.7790588573
  0
ARC
  5
25C
100
AcDbEntity
  8
0
100
AcDbCircle
 62
7
  6
CONTINUOUS
 10
12.0627073281
 20
6.7393335863
 40
1.52
100
AcDbArc
 50
356.2419535375
 51
11.5898335015
  0
ARC
  5
25D
100
AcDbEntity
  8
0
100
AcDbCircle
 62
7
  6
CONTINUOUS
 10
13.4652293773
 20
6.7393335863
 40
1.52
100
AcDbArc
 50
168.4101664985
 51
183.7580464625
  0
ARC
  5
25E
100
AcDbEntity
  8
0
100
AcDbCircle
 62
7
  6
CONTINUOUS
 10
13.1517538851
 20
6.8036228994
 40
1.2
100
AcDbArc
 50
139.4848188736
 51
168.4101664985
  0
ARC
  5
25F
100
AcDbEntity
  8
0
100
AcDbCircle
 62
7
  6
CONTINUOUS
 10
12.3761828203
 20
6.8036228994
 40
1.2
100
AcDbArc
 50
11.5898335015
 51
40.5151811264
  0
ARC
  5
260
100
AcDbEntity
  8
0
100
AcDbCircle
 62
7
  6
CONTINUOUS
 10
13.5925569975
 20
7.8430621045
 40
0.4
100
AcDbArc
 50
190.0
 51
220.5151811264
  0
ARC
  5
261
100
AcDbEntity
  8
0
100
AcDbCircle
 62
7
  6
CONTINUOUS
 10
11.9353797079
 20
7.8430621045
 40
0.4
100
AcDbArc
 50
319.4848188736
 51
350.0
  0
ARC
  5
262
100
AcDbEntity
  8
0
100
AcDbCircle
 62
7
  6
CONTINUOUS
 10
11.6062353334
 20
6.6172264833
 40
0.343
100
AcDbArc
 50
309.0112542964
 51
3.7580464625
  0
ARC
  5
263
100
AcDbEntity
  8
0
100
AcDbCircle
 62
7
  6
CONTINUOUS
 10
13.921701372
 20
6.6172264833
 40
0.343
100
AcDbArc
 50
176.2419535375
 51
230.9887457036
  0
ARC
  5
264
100
AcDbEntity
  8
0
100
AcDbCircle
 62
7
  6
CONTINUOUS
 10
13.9975222356
 20
5.9950217843
 40
0.191
100
AcDbArc
 50
352.6865051602
 51
61.3945426589
  0
ARC
  5
265
100
AcDbEntity
  8
0
100
AcDbCircle
 62
7
  6
CONTINUOUS
 10
11.5304144698
 20
5.9950217843
 40
0.191
100
AcDbArc
 50
118.6054573411
 51
187.3134948398
  0
ARC
  5
266
100
AcDbEntity
  8
0
100
AcDbCircle
 62
7
  6
CONTINUOUS
 10
11.6285411291
 20
6.1860136689
 40
0.191
100
AcDbArc
 50
117.9672901182
 51
187.0087046342
  0
ARC
  5
267
100
AcDbEntity
  8
0
100
AcDbCircle
 62
7
  6
CONTINUOUS
 10
13.8993955763
 20
6.1860136689
 40
0.191
100
AcDbArc
 50
352.9912953658
 51
62.0327098818
  0
ARC
  5
268
100
AcDbEntity
  8
0
100
AcDbCircle
 62
7
  6
CONTINUOUS
 10
13.7992823953
 20
6.3770738142
 40
0.191
100
AcDbArc
 50
353.2752682602
 51
55.6154459522
  0
ARC
  5
269
100
AcDbEntity
  8
0
100
AcDbCircle
 62
7
  6
CONTINUOUS
 10
11.7286543101
 20
6.3770738142
 40
0.191
100
AcDbArc
 50
124.3845540478
 51
186.7247317398
  0
ARC
  5
26A
100
AcDbEntity
  8
0
100
AcDbCircle
 62
7
  6
CONTINUOUS
 10
11.7189683527
 20
5.9847078233
 40
0.125
100
AcDbArc
 50
118.3576365763
 51
180.0
  0
ARC
  5
26B
100
AcDbEntity
  8
0
100
AcDbCircle
 62
7
  6
CONTINUOUS
 10
13.8089683527
 20
5.9847078233
 40
0.125
100
AcDbArc
 50
0.0
 51
61.6423634237
  0
ARC
  5
26C
100
AcDbEntity
  8
0
100
AcDbCircle
 62
7
  6
CONTINUOUS
 10
13.0953403822
 20
7.8987078233
 40
0.08
100
AcDbArc
 50
10.0000032985
 51
90.0
  0
ARC
  5
26D
100
AcDbEntity
  8
0
100
AcDbCircle
 62
7
  6
CONTINUOUS
 10
12.4325963232
 20
7.8987078233
 40
0.08
100
AcDbArc
 50
90.0
 51
169.9999967015
  0
ARC
  5
26E
100
AcDbEntity
  8
0
100
AcDbCircle
 62
7
  6
CONTINUOUS
 10
13.7032039434
 20
6.2338097588
 40
0.078
100
AcDbArc
 50
8.03157335
 51
59.0556893899
  0
ARC
  5
26F
100
AcDbEntity
  8
0
100
AcDbCircle
 62
7
  6
CONTINUOUS
 10
11.824732762
 20
6.2338097588
 40
0.078
100
AcDbArc
 50
120.9443106101
 51
171.96842665
  0
ARC
  5
270
100
AcDbEntity
  8
0
100
AcDbCircle
 62
7
  6
CONTINUOUS
 10
13.7580194108
 20
6.1412291136
 40
0.078
100
AcDbArc
 50
3.291697165
 51
53.2265724875
  0
ARC
  5
271
100
AcDbEntity
  8
0
100
AcDbCircle
 62
7
  6
CONTINUOUS
 10
11.7699172946
 20
6.1412291136
 40
0.078
100
AcDbArc
 50
126.7734275125
 51
176.708302835
  0
ARC
  5
272
100
AcDbEntity
  8
0
100
AcDbCircle
 62
7
  6
CONTINUOUS
 10
11.6563669937
 20
6.4827078233
 40
0.063
100
AcDbArc
 50
89.9999819446
 51
124.3845381195
  0
ARC
  5
273
100
AcDbEntity
  8
0
100
AcDbCircle
 62
7
  6
CONTINUOUS
 10
13.8715697117
 20
6.4827078233
 40
0.063
100
AcDbArc
 50
55.6154618805
 51
90.0000180554
  0
ARC
  5
274
100
AcDbEntity
  8
0
100
AcDbCircle
 62
7
  6
CONTINUOUS
 10
11.7527441044
 20
6.3538832079
 40
0.062
100
AcDbArc
 50
300.94431061
 51
342.9532818348
  0
ARC
  5
275
100
AcDbEntity
  8
0
100
AcDbCircle
 62
7
  6
CONTINUOUS
 10
13.775192601
 20
6.3538832079
 40
0.062
100
AcDbArc
 50
197.0467181652
 51
239.05568939
  0
ARC
  5
276
100
AcDbEntity
  8
0
100
AcDbCircle
 62
7
  6
CONTINUOUS
 10
11.6861059904
 20
6.2533703874
 40
0.062
100
AcDbArc
 50
306.7734275127
 51
351.9684266499
  0
ARC
  5
277
100
AcDbEntity
  8
0
100
AcDbCircle
 62
7
  6
CONTINUOUS
 10
13.841830715
 20
6.2533703874
 40
0.062
100
AcDbArc
 50
188.0315733501
 51
233.2265724873
  0
ARC
  5
278
100
AcDbEntity
  8
0
100
AcDbCircle
 62
7
  6
CONTINUOUS
 10
11.6301482739
 20
6.1492678233
 40
0.062
100
AcDbArc
 50
298.3576365764
 51
356.708302835
  0
ARC
  5
279
100
AcDbEntity
  8
0
100
AcDbCircle
 62
7
  6
CONTINUOUS
 10
13.8977884315
 20
6.1492678233
 40
0.062
100
AcDbArc
 50
183.291697165
 51
241.6423634236
  0
ARC
  5
27A
100
AcDbEntity
  8
0
100
AcDbCircle
 62
7
  6
CONTINUOUS
 10
13.686278459
 20
6.326620131
 40
0.031
100
AcDbArc
 50
17.0467181652
 51
50.9887457036
  0
ARC
  5
27B
100
AcDbEntity
  8
0
100
AcDbCircle
 62
7
  6
CONTINUOUS
 10
11.8416582464
 20
6.326620131
 40
0.031
100
AcDbArc
 50
129.0112542964
 51
162.9532818348
  0
ARC
  5
27C
100
AcDbEntity
  8
0
100
AcDbCircle
 62
7
  6
CONTINUOUS
 10
13.0989683527
 20
9.5707078233
 40
1.625
100
AcDbArc
 50
77.6106032529
 51
102.3893967471
  0
ARC
  5
27D
100
AcDbEntity
  8
0
100
AcDbCircle
 62
7
  6
CONTINUOUS
 10
13.5812981779
 20
10.6176593938
 40
0.252
100
AcDbArc
 50
119.7268139317
 51
170.0
  0
ARC
  5
27E
100
AcDbEntity
  8
0
100
AcDbCircle
 62
7
  6
CONTINUOUS
 10
12.6166385275
 20
10.6176593938
 40
0.252
100
AcDbArc
 50
10.0
 51
60.2731860683
  0
ARC
  5
27F
100
AcDbEntity
  8
0
100
AcDbCircle
 62
7
  6
CONTINUOUS
 10
13.5049683527
 20
10.9992078233
 40
0.0315
100
AcDbArc
 50
270.0
 51
90.0
  0
ARC
  5
280
100
AcDbEntity
  8
0
100
AcDbCircle
 62
7
  6
CONTINUOUS
 10
12.6929683527
 20
10.9992078233
 40
0.0315
100
AcDbArc
 50
90.0
 51
270.0
  0
ARC
  5
281
100
AcDbEntity
  8
0
100
AcDbCircle
 62
7
  6
CONTINUOUS
 10
12.7569683527
 20
10.8634164693
 40
0.031
100
AcDbArc
 50
180.0
 51
240.2731977749
  0
ARC
  5
282
100
AcDbEntity
  8
0
100
AcDbCircle
 62
7
  6
CONTINUOUS
 10
13.4409683527
 20
10.8634164693
 40
0.031
100
AcDbArc
 50
299.7268022251
 51
360.0
  0
ARC
  5
283
100
AcDbEntity
  8
0
100
AcDbCircle
 62
7
  6
CONTINUOUS
 10
13.4739683527
 20
10.9377078233
 40
0.031
100
AcDbArc
 50
270.0000004024
 51
360.0
  0
ARC
  5
284
100
AcDbEntity
  8
0
100
AcDbCircle
 62
7
  6
CONTINUOUS
 10
12.7239683527
 20
10.9377078233
 40
0.031
100
AcDbArc
 50
180.0
 51
269.9999995976
  0
ARC
  5
285
100
AcDbEntity
  8
0
100
AcDbCircle
 62
7
  6
CONTINUOUS
 10
13.4739683527
 20
11.0597078233
 40
0.031
100
AcDbArc
 50
0.0
 51
90.0000022841
  0
ARC
  5
286
100
AcDbEntity
  8
0
100
AcDbCircle
 62
7
  6
CONTINUOUS
 10
12.7239683527
 20
11.0597078233
 40
0.031
100
AcDbArc
 50
89.9999977159
 51
180.0
  0
ARC
  5
287
100
AcDbEntity
  8
0
100
AcDbCircle
 62
7
  6
CONTINUOUS
 10
13.4409683527
 20
11.1275867524
 40
0.031
100
AcDbArc
 50
0.0
 51
77.6106056362
  0
ARC
  5
288
100
AcDbEntity
  8
0
100
AcDbCircle
 62
7
  6
CONTINUOUS
 10
12.7569683527
 20
11.1275867524
 40
0.031
100
AcDbArc
 50
102.3893943638
 51
180.0
  0
SPLINE
  5
289
100
AcDbEntity
  8
0
100
AcDbSpline
 62
7
  6
CONTINUOUS
 70
0
 71
3
 72
32
 73
28
 74
0
 42
0.0000001
 43
0.0000001
 44
0.0000000001
 40
0.0
 40
0.0
 40
0.0
 40
0.0
 40
0.1610775193
 40
0.3192158607
 40
0.3967909192
 40
0.4730918104
 40
0.5478112531
 40
0.6205692406
 40
0.6908278247
 40
0.7578653266
 40
0.8206714106
 40
0.8500483999
 40
0.8777905006
 40
0.9036176996
 40
0.9272025704
 40
0.9481933842
 40
0.9661734227
 40
0.9739009995
 40
0.9807184965
 40
0.9865762207
 40
0.9914244881
 40
0.9952159724
 40
0.9979218951
 40
0.9988615482
 40
0.9995223933
 40
0.9999021134
 40
1.0
 40
1.0
 40
1.0
 40
1.0
 10
13.1548775026
 20
9.6449082445
 30
0.0
 10
13.1577405388
 20
9.638872239
 30
0.0
 10
13.1634257221
 20
9.626915748
 30
0.0
 10
13.1705212869
 20
9.6120673403
 30
0.0
 10
13.1761181373
 20
9.6003996662
 30
0.0
 10
13.1802271086
 20
9.591855484
 30
0.0
 10
13.1842578068
 20
9.5834953519
 30
0.0
 10
13.1881878543
 20
9.5753649048
 30
0.0
 10
13.1919871916
 20
9.5675251536
 30
0.0
 10
13.1956142208
 20
9.5600605673
 30
0.0
 10
13.1985065253
 20
9.5541240832
 30
0.0
 10
13.2006888471
 20
9.5496545855
 30
0.0
 10
13.2022000889
 20
9.5465641535
 30
0.0
 10
13.2036076242
 20
9.5436904197
 30
0.0
 10
13.2048938344
 20
9.541069044
 30
0.0
 10
13.2060385883
 20
9.5387408049
 30
0.0
 10
13.2068949256
 20
9.5370035711
 30
0.0
 10
13.2074926821
 20
9.5357943502
 30
0.0
 10
13.2078684352
 20
9.5350359945
 30
0.0
 10
13.2081916727
 20
9.5343855474
 30
0.0
 10
13.2084607455
 20
9.5338464547
 30
0.0
 10
13.2086704249
 20
9.5334287734
 30
0.0
 10
13.2088131649
 20
9.5331478838
 30
0.0
 10
13.2088909925
 20
9.5329970058
 30
0.0
 10
13.2089361923
 20
9.532911997
 30
0.0
 10
13.2089477289
 20
9.532891251
 30
0.0
 10
13.2089683527
 20
9.5328557634
 30
0.0
 10
13.2089683527
 20
9.5328598232
 30
0.0
  0
SPLINE
  5
28A
100
AcDbEntity
  8
0
100
AcDbSpline
 62
7
  6
CONTINUOUS
 70
0
 71
3
 72
11
 73
7
 74
0
 42
0.0000001
 43
0.0000001
 44
0.0000000001
 40
0.0
 40
0.0
 40
0.0
 40
0.0
 40
0.2571727583
 40
0.5106592646
 40
0.7588174966
 40
1.0
 40
1.0
 40
1.0
 40
1.0
 10
13.2089683528
 20
9.532859823
 30
0.0
 10
13.2249638054
 20
9.4944315067
 30
0.0
 10
13.2561122161
 20
9.4178688974
 30
0.0
 10
13.3006193808
 20
9.303394465
 30
0.0
 10
13.3424708964
 20
9.1906795955
 30
0.0
 10
13.3689029274
 20
9.1160147399
 30
0.0
 10
13.3816369748
 20
9.0791138267
 30
0.0
  0
SPLINE
  5
28B
100
AcDbEntity
  8
0
100
AcDbSpline
 62
7
  6
CONTINUOUS
 70
0
 71
3
 72
11
 73
7
 74
0
 42
0.0000001
 43
0.0000001
 44
0.0000000001
 40
0.0
 40
0.0
 40
0.0
 40
0.0
 40
0.2431261553
 40
0.4899252969
 40
0.741752265
 40
1.0
 40
1.0
 40
1.0
 40
1.0
 10
11.6316313554
 20
9.2880347233
 30
0.0
 10
11.6413782968
 20
9.2535389726
 30
0.0
 10
11.6598604231
 20
9.1836923608
 30
0.0
 10
11.6841433177
 20
9.0770361752
 30
0.0
 10
11.7050071451
 20
8.9673872299
 30
0.0
 10
11.7163814014
 20
8.8930277366
 30
0.0
 10
11.7214686696
 20
8.8552932704
 30
0.0
  0
SPLINE
  5
28C
100
AcDbEntity
  8
0
100
AcDbSpline
 62
7
  6
CONTINUOUS
 70
0
 71
3
 72
15
 73
11
 74
0
 42
0.0000001
 43
0.0000001
 44
0.0000000001
 40
0.0
 40
0.0
 40
0.0
 40
0.0
 40
0.1236624617
 40
0.2471745341
 40
0.3708049688
 40
0.4948240865
 40
0.6194967936
 40
0.7450733635
 40
0.871815259
 40
1.0
 40
1.0
 40
1.0
 40
1.0
 10
11.1058844918
 20
10.3381833512
 30
0.0
 10
11.1354676075
 20
10.2995054965
 30
0.0
 10
11.1928166653
 20
10.2208149863
 30
0.0
 10
11.2732343298
 20
10.0988842851
 30
0.0
 10
11.3479226416
 20
9.9731949407
 30
0.0
 10
11.4168594251
 20
9.8437448614
 30
0.0
 10
11.4800242616
 20
9.7105329437
 30
0.0
 10
11.5372321654
 20
9.5734903002
 30
0.0
 10
11.5882878807
 20
9.4325691132
 30
0.0
 10
11.6179067333
 20
9.3366080254
 30
0.0
 10
11.6316313552
 20
9.2880347228
 30
0.0
  0
LINE
  5
28D
100
AcDbEntity
  8
0
100
AcDbLine
 62
7
  6
CONTINUOUS
 10
12.9889683527
 20
10.000615256
 11
12.9893612821
 21
9.9996368734
  0
SPLINE
  5
28E
100
AcDbEntity
  8
0
100
AcDbSpline
 62
7
  6
CONTINUOUS
 70
0
 71
3
 72
23
 73
19
 74
0
 42
0.0000001
 43
0.0000001
 44
0.0000000001
 40
0.0
 40
0.0
 40
0.0
 40
0.0
 40
0.0046738004
 40
0.0113413247
 40
0.0294376554
 40
0.0521014916
 40
0.0777984797
 40
0.1055586199
 40
0.1347718208
 40
0.1961187431
 40
0.2599790262
 40
0.3254124066
 40
0.3918817564
 40
0.4590481482
 40
0.5945925382
 40
0.7307143567
 40
0.8663114808
 40
1.0
 40
1.0
 40
1.0
 40
1.0
 10
12.9893612821
 20
9.9996368734
 30
0.0
 10
12.9896020189
 20
9.9990765489
 30
0.0
 10
12.9901984665
 20
9.9977221832
 30
0.0
 10
12.9917639043
 20
9.9942145593
 30
0.0
 10
12.9943134991
 20
9.9885756289
 30
0.0
 10
12.9979043133
 20
9.9806825246
 30
0.0
 10
13.0020327106
 20
9.9716486686
 30
0.0
 10
13.00652776
 20
9.961842798
 30
0.0
 10
13.0129746792
 20
9.9478145216
 30
0.0
 10
13.0214109132
 20
9.9295164146
 30
0.0
 10
13.0318551235
 20
9.9069398772
 30
0.0
 10
13.0426066097
 20
9.8837690638
 30
0.0
 10
13.0535645388
 20
9.8602184902
 30
0.0
 10
13.068413341
 20
9.8283882408
 30
0.0
 10
13.08716087
 20
9.7883480406
 30
0.0
 10
13.1097759829
 20
9.7402594827
 30
0.0
 10
13.1323599338
 20
9.6924239426
 30
0.0
 10
13.1474016785
 20
9.6606691756
 30
0.0
 10
13.1548775026
 20
9.6449082445
 30
0.0
  0
SPLINE
  5
28F
100
AcDbEntity
  8
0
100
AcDbSpline
 62
7
  6
CONTINUOUS
 70
0
 71
3
 72
14
 73
10
 74
0
 42
0.0000001
 43
0.0000001
 44
0.0000000001
 40
0.0
 40
0.0
 40
0.0
 40
0.0
 40
0.2511244994
 40
0.376850633
 40
0.5024385036
 40
0.6277135129
 40
0.7525058163
 40
0.8766562438
 40
1.0
 40
1.0
 40
1.0
 40
1.0
 10
12.1208474687
 20
11.1643630603
 30
0.0
 10
12.2075328486
 20
11.0785519344
 30
0.0
 10
12.3327838498
 20
10.9447602604
 30
0.0
 10
12.4893795226
 20
10.7575377159
 30
0.0
 10
12.6014501526
 20
10.6129172804
 30
0.0
 10
12.7077621301
 20
10.4645753065
 30
0.0
 10
12.807993126
 20
10.312892692
 30
0.0
 10
12.9020066474
 20
10.1583825018
 30
0.0
 10
12.9606911609
 20
10.0534319727
 30
0.0
 10
12.9889683427
 20
10.0006152776
 30
0.0
  0
SPLINE
  5
290
100
AcDbEntity
  8
0
100
AcDbSpline
 62
7
  6
CONTINUOUS
 70
0
 71
3
 72
15
 73
11
 74
0
 42
0.0000001
 43
0.0000001
 44
0.0000000001
 40
0.0
 40
0.0
 40
0.0
 40
0.0
 40
0.1245471234
 40
0.249010553
 40
0.3734967403
 40
0.4981131919
 40
0.6229721844
 40
0.7481711593
 40
0.8738085856
 40
1.0
 40
1.0
 40
1.0
 40
1.0
 10
10.005104407
 20
10.9777041339
 30
0.0
 10
10.0484549808
 20
10.971826301
 30
0.0
 10
10.1347012531
 20
10.95664486
 30
0.0
 10
10.2618440607
 20
10.9237903391
 30
0.0
 10
10.3860502622
 20
10.881057133
 30
0.0
 10
10.5066409141
 20
10.8286395978
 30
0.0
 10
10.6229343028
 20
10.7667393912
 30
0.0
 10
10.7342887013
 20
10.6956679637
 30
0.0
 10
10.8400490306
 20
10.6157447949
 30
0.0
 10
10.9062419626
 20
10.5569018064
 30
0.0
 10
10.9381654705
 20
10.526151562
 30
0.0
  0
SPLINE
  5
291
100
AcDbEntity
  8
0
100
AcDbSpline
 62
7
  6
CONTINUOUS
 70
0
 71
3
 72
15
 73
11
 74
0
 42
0.0000001
 43
0.0000001
 44
0.0000000001
 40
0.0
 40
0.0
 40
0.0
 40
0.0
 40
0.1253781489
 40
0.2508467346
 40
0.3762977146
 40
0.5016219638
 40
0.6267368081
 40
0.7515743594
 40
0.8760344909
 40
1.0
 40
1.0
 40
1.0
 40
1.0
 10
10.1715485416
 20
12.0490757848
 30
0.0
 10
10.2463463264
 20
12.0481448787
 30
0.0
 10
10.3959928844
 20
12.0397730108
 30
0.0
 10
10.6185140447
 20
12.0080835598
 30
0.0
 10
10.8375213737
 20
11.9576001052
 30
0.0
 10
11.0512192595
 20
11.8886588004
 30
0.0
 10
11.2578011664
 20
11.8016020817
 30
0.0
 10
11.4557544101
 20
11.6975074968
 30
0.0
 10
11.6436150309
 20
11.5774451761
 30
0.0
 10
11.7614705059
 20
11.4872164939
 30
0.0
 10
11.8182123063
 20
11.4397763995
 30
0.0
  0
SPLINE
  5
292
100
AcDbEntity
  8
0
100
AcDbSpline
 62
7
  6
CONTINUOUS
 70
0
 71
3
 72
15
 73
11
 74
0
 42
0.0000001
 43
0.0000001
 44
0.0000000001
 40
0.0
 40
0.0
 40
0.0
 40
0.0
 40
0.1277191625
 40
0.2540112574
 40
0.3792068897
 40
0.5035969005
 40
0.6275098361
 40
0.7513711599
 40
0.8755100312
 40
1.0
 40
1.0
 40
1.0
 40
1.0
 10
8.5149128686
 20
10.4107939251
 30
0.0
 10
8.5417933463
 20
10.4421513475
 30
0.0
 10
8.597592277
 20
10.5025552196
 30
0.0
 10
8.6873305417
 20
10.5862854509
 30
0.0
 10
8.7821366755
 20
10.6625295002
 30
0.0
 10
8.8815742884
 20
10.731272857
 30
0.0
 10
8.985322913
 20
10.7924739207
 30
0.0
 10
9.0931508654
 20
10.8459843752
 30
0.0
 10
9.204716927
 20
10.8916633475
 30
0.0
 10
9.2812079285
 20
10.9167030892
 30
0.0
 10
9.3198973018
 20
10.9278301332
 30
0.0
  0
SPLINE
  5
293
100
AcDbEntity
  8
0
100
AcDbSpline
 62
7
  6
CONTINUOUS
 70
0
 71
3
 72
13
 73
9
 74
0
 42
0.0000001
 43
0.0000001
 44
0.0000000001
 40
0.0
 40
0.0
 40
0.0
 40
0.0
 40
0.1251460974
 40
0.2503194843
 40
0.3753039432
 40
0.500148806
 40
0.7498261368
 40
1.0
 40
1.0
 40
1.0
 40
1.0
 10
9.3198973018
 20
10.9278301332
 30
0.0
 10
9.3464543766
 20
10.9354679343
 30
0.0
 10
9.3999647773
 20
10.9494228056
 30
0.0
 10
9.4811215656
 20
10.9663483569
 30
0.0
 10
9.5629572164
 20
10.9792120369
 30
0.0
 10
9.6726706133
 20
10.9909056575
 30
0.0
 10
9.8107751459
 20
10.9952992804
 30
0.0
 10
9.9211059887
 20
10.9878492574
 30
0.0
 10
9.9759684588
 20
10.9813933427
 30
0.0
  0
SPLINE
  5
294
100
AcDbEntity
  8
0
100
AcDbSpline
 62
7
  6
CONTINUOUS
 70
0
 71
3
 72
15
 73
11
 74
0
 42
0.0000001
 43
0.0000001
 44
0.0000000001
 40
0.0
 40
0.0
 40
0.0
 40
0.0
 40
0.1257928337
 40
0.2519638913
 40
0.3783899532
 40
0.5046551306
 40
0.6303059614
 40
0.7549949232
 40
0.878358398
 40
1.0
 40
1.0
 40
1.0
 40
1.0
 10
9.0083344138
 20
11.8795082434
 30
0.0
 10
8.9361036292
 20
11.8555351383
 30
0.0
 10
8.7930072018
 20
11.8025904682
 30
0.0
 10
8.5840300123
 20
11.7087096854
 30
0.0
 10
8.3816812818
 20
11.6006550306
 30
0.0
 10
8.1874082816
 20
11.479268325
 30
0.0
 10
8.0028139152
 20
11.3454024879
 30
0.0
 10
7.8289675602
 20
11.20058861
 30
0.0
 10
7.6668223844
 20
11.0463023594
 30
0.0
 10
7.5663087694
 20
10.9371836272
 30
0.0
 10
7.5182949941
 20
10.8814099502
 30
0.0
  0
SPLINE
  5
295
100
AcDbEntity
  8
0
100
AcDbSpline
 62
7
  6
CONTINUOUS
 70
0
 71
3
 72
14
 73
10
 74
0
 42
0.0000001
 43
0.0000001
 44
0.0000000001
 40
0.0
 40
0.0
 40
0.0
 40
0.0
 40
0.2498918598
 40
0.3749989274
 40
0.5001484789
 40
0.6252719123
 40
0.7502630806
 40
0.8751103412
 40
1.0
 40
1.0
 40
1.0
 40
1.0
 10
10.047332311
 20
12.0506093153
 30
0.0
 10
9.95927041
 20
12.050068069
 30
0.0
 10
9.8270755098
 20
12.0440634516
 30
0.0
 10
9.6517454161
 20
12.0257307275
 30
0.0
 10
9.5207833517
 20
12.0067955661
 30
0.0
 10
9.3907132513
 20
11.9827244249
 30
0.0
 10
9.2617885125
 20
11.9535995231
 30
0.0
 10
9.1341882117
 20
11.9194575411
 30
0.0
 10
9.0501057949
 20
11.8933719957
 30
0.0
 10
9.0083344138
 20
11.8795082434
 30
0.0
  0
LINE
  5
296
100
AcDbEntity
  8
0
100
AcDbLine
 62
9
  6
CONTINUOUS
 10
11.8182123063
 20
11.4397763995
 11
11.7444018708
 21
11.3631497448
  0
LINE
  5
297
100
AcDbEntity
  8
0
100
AcDbLine
 62
9
  6
CONTINUOUS
 10
11.7444018708
 20
11.3631497448
 11
11.7423722921
 21
11.361042728
  0
LINE
  5
298
100
AcDbEntity
  8
0
100
AcDbLine
 62
9
  6
CONTINUOUS
 10
11.7423722921
 20
11.361042728
 11
11.0141718505
 21
10.6050579468
  0
LINE
  5
299
100
AcDbEntity
  8
0
100
AcDbLine
 62
9
  6
CONTINUOUS
 10
11.0141718505
 20
10.6050579468
 11
11.0119732984
 21
10.6027755094
  0
LINE
  5
29A
100
AcDbEntity
  8
0
100
AcDbLine
 62
9
  6
CONTINUOUS
 10
11.0119732984
 20
10.6027755094
 11
10.9381654705
 21
10.526151562
  0
SPLINE
  5
29B
100
AcDbEntity
  8
0
100
AcDbSpline
 62
9
  6
CONTINUOUS
 70
0
 71
3
 72
28
 73
24
 74
0
 42
0.0000001
 43
0.0000001
 44
0.0000000001
 40
0.0
 40
0.0
 40
0.0
 40
0.0
 40
0.0004796476
 40
0.001355804
 40
0.0045449732
 40
0.0097228776
 40
0.0169032977
 40
0.0260857631
 40
0.0372657653
 40
0.0504372184
 40
0.0655932948
 40
0.0827267721
 40
0.1018301988
 40
0.1459163763
 40
0.1977902067
 40
0.2573892148
 40
0.3246505261
 40
0.3995108304
 40
0.4818720531
 40
0.571562681
 40
0.6684017857
 40
0.7722083894
 40
1.0
 40
1.0
 40
1.0
 40
1.0
 10
10.1715485447
 20
12.0490757841
 30
0.0
 10
10.1715654686
 20
12.0490721854
 30
0.0
 10
10.1715981962
 20
12.0490263432
 30
0.0
 10
10.171632383
 20
12.0488698779
 30
0.0
 10
10.1716499618
 20
12.0485315188
 30
0.0
 10
10.1716363629
 20
12.0479733454
 30
0.0
 10
10.1715898793
 20
12.0471964258
 30
0.0
 10
10.1715081016
 20
12.0462066438
 30
0.0
 10
10.1713911587
 20
12.0450024489
 30
0.0
 10
10.1712387506
 20
12.0435855028
 30
0.0
 10
10.171050952
 20
12.0419563451
 30
0.0
 10
10.1708278168
 20
12.0401159196
 30
0.0
 10
10.1704655888
 20
12.0372411435
 30
0.0
 10
10.1699225666
 20
12.0331261007
 30
0.0
 10
10.1691598832
 20
12.0275666727
 30
0.0
 10
10.1682590392
 20
12.021182422
 30
0.0
 10
10.1672211017
 20
12.0139801468
 30
0.0
 10
10.1660472629
 20
12.0059678965
 30
0.0
 10
10.1647394347
 20
11.9971575641
 30
0.0
 10
10.1633003626
 20
11.9875651973
 30
0.0
 10
10.1617332078
 20
11.9772097983
 30
0.0
 10
10.1594040198
 20
11.9619312877
 30
0.0
 10
10.1575845109
 20
11.9501087235
 30
0.0
 10
10.156329377
 20
11.9419880155
 30
0.0
  0
SPLINE
  5
29C
100
AcDbEntity
  8
0
100
AcDbSpline
 62
9
  6
CONTINUOUS
 70
0
 71
3
 72
15
 73
11
 74
0
 42
0.0000001
 43
0.0000001
 44
0.0000000001
 40
0.0
 40
0.0
 40
0.0
 40
0.0
 40
0.099393454
 40
0.220246426
 40
0.3560732496
 40
0.4996202771
 40
0.6432176467
 40
0.7791947815
 40
0.9002871166
 40
1.0
 40
1.0
 40
1.0
 40
1.0
 10
10.156329377
 20
11.9419880155
 30
0.0
 10
10.1519421444
 20
11.9136026522
 30
0.0
 10
10.1420885881
 20
11.8507238053
 30
0.0
 10
10.1259780648
 20
11.749095912
 30
0.0
 10
10.1077591511
 20
11.634883605
 30
0.0
 10
10.0884543108
 20
11.5141888488
 30
0.0
 10
10.0691423026
 20
11.3934512505
 30
0.0
 10
10.0509023627
 20
11.2791135356
 30
0.0
 10
10.0347580293
 20
11.1772835287
 30
0.0
 10
10.0248774726
 20
11.1142454658
 30
0.0
 10
10.0204746398
 20
11.08576911
 30
0.0
  0
LINE
  5
29D
100
AcDbEntity
  8
0
100
AcDbLine
 62
9
  6
CONTINUOUS
 10
10.0204746398
 20
11.08576911
 11
10.0194563809
 21
11.0791753179
  0
SPLINE
  5
29E
100
AcDbEntity
  8
0
100
AcDbSpline
 62
9
  6
CONTINUOUS
 70
0
 71
3
 72
28
 73
24
 74
0
 42
0.0000001
 43
0.0000001
 44
0.0000000001
 40
0.0
 40
0.0
 40
0.0
 40
0.0
 40
0.2281496756
 40
0.3320482174
 40
0.4289283332
 40
0.5186144
 40
0.6009308508
 40
0.6757247394
 40
0.742918867
 40
0.8024520326
 40
0.8542632791
 40
0.8982920709
 40
0.9173693728
 40
0.9344787739
 40
0.9496130845
 40
0.962765357
 40
0.9739290601
 40
0.9830984444
 40
0.9902694232
 40
0.9954421625
 40
0.9986318091
 40
0.9995117852
 40
1.0
 40
1.0
 40
1.0
 40
1.0
 10
10.0194563809
 20
11.0791753179
 30
0.0
 10
10.0182677416
 20
11.0714685885
 30
0.0
 10
10.0165452445
 20
11.0602510894
 30
0.0
 10
10.0143414271
 20
11.0457574753
 30
0.0
 10
10.0128600426
 20
11.0359409179
 30
0.0
 10
10.0115007846
 20
11.0268519377
 30
0.0
 10
10.0102664987
 20
11.0185075505
 30
0.0
 10
10.0091595301
 20
11.0109214531
 30
0.0
 10
10.0081814192
 20
11.0041035204
 30
0.0
 10
10.0073331764
 20
10.9980605387
 30
0.0
 10
10.0066157756
 20
10.9927987529
 30
0.0
 10
10.0061057205
 20
10.9889042572
 30
0.0
 10
10.0057660769
 20
10.9861837064
 30
0.0
 10
10.0055571718
 20
10.9844421029
 30
0.0
 10
10.005381706
 20
10.9829004534
 30
0.0
 10
10.0052397272
 20
10.9815596214
 30
0.0
 10
10.0051312914
 20
10.9804201121
 30
0.0
 10
10.005056127
 20
10.9794834195
 30
0.0
 10
10.0050142804
 20
10.9787481868
 30
0.0
 10
10.0050035861
 20
10.9782195808
 30
0.0
 10
10.0050219837
 20
10.9778993873
 30
0.0
 10
10.0050561451
 20
10.9777506824
 30
0.0
 10
10.0050880863
 20
10.9777076049
 30
0.0
 10
10.0051044078
 20
10.9777041337
 30
0.0
  0
LINE
  5
29F
100
AcDbEntity
  8
0
100
AcDbLine
 62
9
  6
CONTINUOUS
 10
12.1208486037
 20
11.1643625622
 11
12.0363583313
 21
11.0951926631
  0
LINE
  5
2A0
100
AcDbEntity
  8
0
100
AcDbLine
 62
9
  6
CONTINUOUS
 10
12.0363583313
 20
11.0951926631
 11
12.0353751207
 21
11.094391783
  0
LINE
  5
2A1
100
AcDbEntity
  8
0
100
AcDbLine
 62
9
  6
CONTINUOUS
 10
12.0353751207
 20
11.094391783
 11
11.1909479612
 21
10.4078215765
  0
LINE
  5
2A2
100
AcDbEntity
  8
0
100
AcDbLine
 62
9
  6
CONTINUOUS
 10
11.1909479612
 20
10.4078215765
 11
11.1058832597
 21
10.3381839569
  0
LINE
  5
2A3
100
AcDbEntity
  8
0
100
AcDbLine
 62
9
  6
CONTINUOUS
 10
13.3816369733
 20
9.0791138265
 11
12.9907790503
 21
9.0264191409
  0
LINE
  5
2A4
100
AcDbEntity
  8
0
100
AcDbLine
 62
9
  6
CONTINUOUS
 10
12.9907790503
 20
9.0264191409
 11
12.5356963028
 21
8.9650658047
  0
LINE
  5
2A5
100
AcDbEntity
  8
0
100
AcDbLine
 62
9
  6
CONTINUOUS
 10
12.5356963028
 20
8.9650658047
 11
12.4241933365
 21
8.9500332003
  0
LINE
  5
2A6
100
AcDbEntity
  8
0
100
AcDbLine
 62
9
  6
CONTINUOUS
 10
12.4241933365
 20
8.9500332003
 11
11.8451543171
 21
8.8719683274
  0
LINE
  5
2A7
100
AcDbEntity
  8
0
100
AcDbLine
 62
9
  6
CONTINUOUS
 10
11.8451543171
 20
8.8719683274
 11
11.8283974521
 21
8.8697092003
  0
LINE
  5
2A8
100
AcDbEntity
  8
0
100
AcDbLine
 62
9
  6
CONTINUOUS
 10
11.8283974521
 20
8.8697092003
 11
11.7214686696
 21
8.8552932704
  0
SPLINE
  5
2A9
100
AcDbEntity
  8
0
100
AcDbSpline
 62
9
  6
CONTINUOUS
 70
0
 71
3
 72
26
 73
22
 74
0
 42
0.0000001
 43
0.0000001
 44
0.0000000001
 40
0.0
 40
0.0
 40
0.0
 40
0.0
 40
0.0013799851
 40
0.0026753455
 40
0.004444895
 40
0.0067038497
 40
0.0094587856
 40
0.0164669272
 40
0.0254794883
 40
0.0364961661
 40
0.0645245478
 40
0.1005070183
 40
0.1443882295
 40
0.1961094024
 40
0.2556101664
 40
0.322829312
 40
0.3977051436
 40
0.480153593
 40
0.5700133747
 40
0.771253898
 40
1.0
 40
1.0
 40
1.0
 40
1.0
 10
7.5182903495
 20
10.8814050522
 30
0.0
 10
7.5182592107
 20
10.8813688635
 30
0.0
 10
7.5183010248
 20
10.8812536589
 30
0.0
 10
7.5183902971
 20
10.8811410506
 30
0.0
 10
7.5185170702
 20
10.881001997
 30
0.0
 10
7.5186877593
 20
10.8808428116
 30
0.0
 10
7.5190033227
 20
10.8805707694
 30
0.0
 10
7.5195154744
 20
10.8801714435
 30
0.0
 10
7.5202710945
 20
10.8796197314
 30
0.0
 10
7.5216353077
 20
10.8786693583
 30
0.0
 10
7.5237994549
 20
10.8772357207
 30
0.0
 10
7.5269436914
 20
10.8752241788
 30
0.0
 10
7.5308046112
 20
10.8728123139
 30
0.0
 10
7.5353766087
 20
10.8700034203
 30
0.0
 10
7.54065438
 20
10.8668011064
 30
0.0
 10
7.5466323208
 20
10.8632086588
 30
0.0
 10
7.553304186
 20
10.8592297663
 30
0.0
 10
7.5606606989
 20
10.8548697521
 30
0.0
 10
7.5717926677
 20
10.8483056679
 30
0.0
 10
7.5873102754
 20
10.8392148051
 30
0.0
 10
7.6001650116
 20
10.8317287484
 30
0.0
 10
7.6070072335
 20
10.8277526662
 30
0.0
  0
LINE
  5
2AA
100
AcDbEntity
  8
0
100
AcDbLine
 62
9
  6
CONTINUOUS
 10
7.6070072335
 20
10.8277526662
 11
7.6159562701
 21
10.8225570045
  0
SPLINE
  5
2AB
100
AcDbEntity
  8
0
100
AcDbSpline
 62
9
  6
CONTINUOUS
 70
0
 71
3
 72
42
 73
38
 74
0
 42
0.0000001
 43
0.0000001
 44
0.0000000001
 40
0.0
 40
0.0
 40
0.0
 40
0.0
 40
0.0582503961
 40
0.1257385592
 40
0.2007685228
 40
0.2815800289
 40
0.3662325386
 40
0.4526698692
 40
0.5388339238
 40
0.6226666081
 40
0.6630655854
 40
0.7021209505
 40
0.7396111943
 40
0.7753182369
 40
0.8090240058
 40
0.8405104613
 40
0.869576507
 40
0.8960683079
 40
0.9198402378
 40
0.9407467239
 40
0.950079963
 40
0.9586423015
 40
0.9664181928
 40
0.9733998785
 40
0.9795810726
 40
0.9849555402
 40
0.9895171355
 40
0.993259881
 40
0.9961781615
 40
0.9973266426
 40
0.9982674435
 40
0.9990005533
 40
0.9992894911
 40
0.999527041
 40
0.9997138756
 40
0.9998515286
 40
1.0
 40
1.0
 40
1.0
 40
1.0
 10
7.6159562701
 20
10.8225570045
 30
0.0
 10
7.6322464107
 20
10.8131073778
 30
0.0
 10
7.6674479594
 20
10.7927748093
 30
0.0
 10
7.7237228315
 20
10.7604278091
 30
0.0
 10
7.7863699442
 20
10.7245302395
 30
0.0
 10
7.8538658107
 20
10.6859329755
 30
0.0
 10
7.924584113
 20
10.6455415015
 30
0.0
 10
7.9968143121
 20
10.6043079385
 30
0.0
 10
8.0688129267
 20
10.5632033294
 30
0.0
 10
8.1278754629
 20
10.5294609082
 30
0.0
 10
8.1737014537
 20
10.503252357
 30
0.0
 10
8.2065140091
 20
10.4844688068
 30
0.0
 10
8.2380010295
 20
10.4664230487
 30
0.0
 10
8.2679767199
 20
10.449218528
 30
0.0
 10
8.296256277
 20
10.4329581787
 30
0.0
 10
8.322659655
 20
10.4177422128
 30
0.0
 10
8.3470248119
 20
10.4036605208
 30
0.0
 10
8.369210547
 20
10.3907923048
 30
0.0
 10
8.3890911544
 20
10.3792077714
 30
0.0
 10
8.4041554712
 20
10.3703763752
 30
0.0
 10
8.4149593521
 20
10.3640007199
 30
0.0
 10
8.4220976222
 20
10.359766378
 30
0.0
 10
8.4285713432
 20
10.3559019696
 30
0.0
 10
8.4343721675
 20
10.3524123144
 30
0.0
 10
8.4394943685
 20
10.3493007906
 30
0.0
 10
8.443932609
 20
10.3465705337
 30
0.0
 10
8.4476818442
 20
10.3442249916
 30
0.0
 10
8.4507367332
 20
10.3422673027
 30
0.0
 10
8.4528406011
 20
10.3408708553
 30
0.0
 10
8.45416805
 20
10.3399440242
 30
0.0
 10
8.4549045964
 20
10.3394050129
 30
0.0
 10
8.4554044684
 20
10.3390142545
 30
0.0
 10
8.4557132512
 20
10.3387476856
 30
0.0
 10
8.4558808119
 20
10.338591011
 30
0.0
 10
8.4560061971
 20
10.3384543015
 30
0.0
 10
8.4560946195
 20
10.338341541
 30
0.0
 10
8.4561391465
 20
10.3382294177
 30
0.0
 10
8.456110001
 20
10.3381912777
 30
0.0
  0
LINE
  5
2AC
100
AcDbEntity
  8
0
100
AcDbLine
 62
9
  6
CONTINUOUS
 10
7.2654327383
 20
10.5477628645
 11
7.3758366315
 21
10.4999887477
  0
LINE
  5
2AD
100
AcDbEntity
  8
0
100
AcDbLine
 62
9
  6
CONTINUOUS
 10
7.3758366315
 20
10.4999887477
 11
8.0141712513
 21
10.2241663992
  0
LINE
  5
2AE
100
AcDbEntity
  8
0
100
AcDbLine
 62
9
  6
CONTINUOUS
 10
8.0141712513
 20
10.2241663992
 11
8.1983348272
 21
10.1445779102
  0
LINE
  5
2AF
100
AcDbEntity
  8
0
100
AcDbLine
 62
9
  6
CONTINUOUS
 10
8.1983348272
 20
10.1445779102
 11
8.2124817854
 21
10.1384622841
  0
SPLINE
  5
2B0
100
AcDbEntity
  8
0
100
AcDbSpline
 62
9
  6
CONTINUOUS
 70
0
 71
3
 72
18
 73
14
 74
0
 42
0.0000001
 43
0.0000001
 44
0.0000000001
 40
0.0
 40
0.0
 40
0.0
 40
0.0
 40
0.0158295349
 40
0.0391067841
 40
0.0697158034
 40
0.1075357865
 40
0.1523430616
 40
0.2038097451
 40
0.3253910384
 40
0.4695356189
 40
0.6327055322
 40
0.8109220452
 40
1.0
 40
1.0
 40
1.0
 40
1.0
 10
13.1548775026
 20
9.6449082445
 30
0.0
 10
13.1517206306
 20
9.6440743307
 30
0.0
 10
13.1438990207
 20
9.6421003731
 30
0.0
 10
13.1299343213
 20
9.6386685295
 30
0.0
 10
13.111546459
 20
9.6342285009
 30
0.0
 10
13.0888288486
 20
9.6287998131
 30
0.0
 10
13.0619161337
 20
9.6224156605
 30
0.0
 10
13.0181805139
 20
9.6120943606
 30
0.0
 10
12.9544825148
 20
9.597151167
 30
0.0
 10
12.8683325039
 20
9.5770310491
 30
0.0
 10
12.7707918506
 20
9.5543168177
 30
0.0
 10
12.6642140989
 20
9.5295444381
 30
0.0
 10
12.5904149817
 20
9.5124113511
 30
0.0
 10
12.5524236675
 20
9.5035939866
 30
0.0
  0
SPLINE
  5
2B1
100
AcDbEntity
  8
0
100
AcDbSpline
 62
9
  6
CONTINUOUS
 70
0
 71
3
 72
12
 73
8
 74
0
 42
0.0000001
 43
0.0000001
 44
0.0000000001
 40
0.0
 40
0.0
 40
0.0
 40
0.0
 40
0.2869379868
 40
0.5655965747
 40
0.8106828663
 40
0.9135309983
 40
1.0
 40
1.0
 40
1.0
 40
1.0
 10
12.5524236675
 20
9.5035939866
 30
0.0
 10
12.4758215687
 20
9.4858154854
 30
0.0
 10
12.3248230232
 20
9.4507914989
 30
0.0
 10
12.1083993093
 20
9.4005647469
 30
0.0
 10
11.9411408248
 20
9.3616583851
 30
0.0
 10
11.8252118178
 20
9.3345667225
 30
0.0
 10
11.7747012967
 20
9.3227067352
 30
0.0
 10
11.7516362646
 20
9.3172676383
 30
0.0
  0
LINE
  5
2B2
100
AcDbEntity
  8
0
100
AcDbLine
 62
9
  6
CONTINUOUS
 10
11.7516362646
 20
9.3172676383
 11
11.7365057089
 21
9.313695773
  0
SPLINE
  5
2B3
100
AcDbEntity
  8
0
100
AcDbSpline
 62
9
  6
CONTINUOUS
 70
0
 71
3
 72
30
 73
26
 74
0
 42
0.0000001
 43
0.0000001
 44
0.0000000001
 40
0.0
 40
0.0
 40
0.0
 40
0.0
 40
0.2292018574
 40
0.3332312143
 40
0.430017843
 40
0.5194262364
 40
0.6013828791
 40
0.6758364752
 40
0.7427357952
 40
0.8020296683
 40
0.8536670176
 40
0.8975969279
 40
0.9166557756
 40
0.9337688279
 40
0.948929863
 40
0.9621327501
 40
0.9733715123
 40
0.9826404594
 40
0.9899345009
 40
0.9928397737
 40
0.9952502576
 40
0.9971663413
 40
0.9985896611
 40
0.9995257289
 40
1.0
 40
1.0
 40
1.0
 40
1.0
 10
11.7365057089
 20
9.313695773
 30
0.0
 10
11.7284764865
 20
9.31179813
 30
0.0
 10
11.7168041678
 20
9.3090341911
 30
0.0
 10
11.7017450273
 20
9.3054531971
 30
0.0
 10
11.6915831784
 20
9.3030289824
 30
0.0
 10
11.682196101
 20
9.3007810933
 30
0.0
 10
11.6735929323
 20
9.2987116457
 30
0.0
 10
11.6657798528
 20
9.2968220877
 30
0.0
 10
11.6587622645
 20
9.2951136814
 30
0.0
 10
11.6525455563
 20
9.2935877292
 30
0.0
 10
11.647135124
 20
9.292245508
 30
0.0
 10
11.6431336798
 20
9.2912388329
 30
0.0
 10
11.6403400884
 20
9.2905249077
 30
0.0
 10
11.6385511999
 20
9.2900620471
 30
0.0
 10
11.6369679203
 20
9.2896460809
 30
0.0
 10
11.6355909252
 20
9.2892771871
 30
0.0
 10
11.6344208183
 20
9.2889556321
 30
0.0
 10
11.6334583374
 20
9.2886815965
 30
0.0
 10
11.6327868236
 20
9.2884806803
 30
0.0
 10
11.6323546565
 20
9.2883423032
 30
0.0
 10
11.6321078073
 20
9.2882586459
 30
0.0
 10
11.6319143462
 20
9.2881872736
 30
0.0
 10
11.6317701535
 20
9.2881280819
 30
0.0
 10
11.6316830395
 20
9.2880822054
 30
0.0
 10
11.6316365866
 20
9.2880509736
 30
0.0
 10
11.6316313552
 20
9.2880347228
 30
0.0
  0
ENDSEC
  0
SECTION
  2
OBJECTS
  0
DICTIONARY
  5
C
100
AcDbDictionary
280
0
281
1
  3
ACAD_GROUP
350
D
  3
ACAD_MLINESTYLE
350
17
  3
ACAD_LAYOUT
350
1A
  3
ACAD_PLOTSETTINGS
350
19
  3
ACAD_PLOTSTYLENAME
350
E
  0
DICTIONARY
  5
D
102
{ACAD_REACTORS
330
C
102
}
100
AcDbDictionary
280
0
281
1
  0
ACDBDICTIONARYWDFLT
  5
E
102
{ACAD_REACTORS
330
C
102
}
100
AcDbDictionary
281
1
  3
Normal
350
F
100
AcDbDictionaryWithDefault
340
F
  0
DICTIONARY
  5
17
102
{ACAD_REACTORS
330
C
102
}
100
AcDbDictionary
280
0
281
1
  3
Standard
350
18
  0
DICTIONARY
  5
19
102
{ACAD_REACTORS
330
C
102
}
100
AcDbDictionary
281
1
  0
DICTIONARY
  5
1A
102
{ACAD_REACTORS
330
C
102
}
100
AcDbDictionary
281
1
  3
Model
350
2B4
  3
Layout1
350
2B5
  0
ACDBPLACEHOLDER
  5
F
102
{ACAD_REACTORS
330
E
102
}
  0
MLINESTYLE
  5
18
102
{ACAD_REACTORS
330
17
102
}
100
AcDbMlineStyle
  2
STANDARD
 70
0
  3

 62
256
 51
90.0
 52
90.0
 71
2
 49
0.5
 62
256
  6
BYLAYER
 49
-0.5
 62
256
  6
BYLAYER
  0
LAYOUT
  5
2B4
102
{ACAD_REACTORS
330
1A
102
}
100
AcDbPlotSettings
  1

  2
none_device
  4
ANSI_C_(22.00_x_17.00_Inches)
  6

 40
0.0
 41
0.0
 42
0.0
 43
0.0
 44
558.8
 45
431.8
 46
0.0
 47
0.0
 48
0.0
 49
0.0
140
0.0
141
0.0
142
1.0
143
1.0
 70
1024
 72
0
 73
0
 74
0
  7

 75
0
147
1.0
148
0.0
149
0.0
100
AcDbLayout
  1
Model
 70
0
 71
0
 10
0.0
 20
0.0
 11
22.0
 21
17.0
 12
0.0
 22
0.0
 32
0.0
 14
0.0
 24
0.0
 34
0.0
 15
0.0
 25
0.0
 35
0.0
146
0.0
 13
0.0
 23
0.0
 33
0.0
 16
1.0
 26
0.0
 36
0.0
 17
0.0
 27
1.0
 37
0.0
 76
0
330
202
345
0
346
0
  0
LAYOUT
  5
2B5
102
{ACAD_REACTORS
330
1A
102
}
100
AcDbPlotSettings
  1

  2
none_device
  4
ANSI_C_(22.00_x_17.00_Inches)
  6

 40
0.0
 41
0.0
 42
0.0
 43
0.0
 44
558.8
 45
431.8
 46
0.0
 47
0.0
 48
0.0
 49
0.0
140
0.0
141
0.0
142
1.0
143
1.0
 70
0
 72
0
 73
0
 74
0
  7

 75
0
147
1.0
148
0.0
149
0.0
100
AcDbLayout
  1
Layout1
 70
0
 71
1
 10
0.0
 20
0.0
 11
22.0
 21
17.0
 12
0.0
 22
0.0
 32
0.0
 14
0.0
 24
0.0
 34
0.0
 15
0.0
 25
0.0
 35
0.0
146
0.0
 13
0.0
 23
0.0
 33
0.0
 16
1.0
 26
0.0
 36
0.0
 17
0.0
 27
1.0
 37
0.0
 76
0
330
203
345
0
346
0
  0
ENDSEC
  0
EOF
