  0
SECTION
  2
HEADER
  9
$ACADVER
  1
AC1015
  9
$DWGCODEPAGE
  3
ANSI_1252
  9
$EXTMAX
 10
16.5354330709
 20
11.6929133858
 30
0.0
  9
$EXTMIN
 10
0.0
 20
0.0
 30
0.0
  9
$LIMMIN
 10
0.0
 20
0.0
  9
$LIMMAX
 10
16.5354330709
 20
11.6929133858
  9
$VIEWCTR
 10
8.2677165354
 20
5.8464566929
  9
$VIEWSIZE
 40
11.6929133858
  9
$CLAYER
  8
0
  9
$LTSCALE
 40
0.9094488189
  9
$CELTYPE
  6
BYLAYER
  9
$DIMSCALE
 40
1.0
  9
$DIMASZ
 40
0.1875
  9
$DIMEXO
 40
0.1033464567
  9
$DIMDLI
 40
0.6283464567
  9
$DIMEXE
 40
0.2976377953
  9
$DIMCEN
 40
0.1488188976
  9
$DIMLFAC
 40
1.0
  9
$DIMBLK
  1
_CLOSED
  9
$DIMTXT
 40
0.15625
  9
$DIMTOL
 70
0
  9
$DIMLIM
 70
0
  9
$DIMTFAC
 40
1.0
  9
$PDMODE
 70
3
  9
$PDSIZE
 40
0.3125
  9
$HANDSEED
  5
65C
  9
$TILEMODE
 70
1
  9
$MEASUREMENT
 70
0
  9
$INSUNITS
 70
1
  0
ENDSEC
  0
SECTION
  2
CLASSES
  0
CLASS
  1
ACDBDICTIONARYWDFLT
  2
AcDbDictionaryWithDefault
  3
AutoCAD 2000
 90
0
280
0
281
0
  0
CLASS
  1
ACDBPLACEHOLDER
  2
AcDbPlaceHolder
  3
AutoCAD 2000
 90
0
280
0
281
0
  0
CLASS
  1
LAYOUT
  2
AcDbLayout
  3
AutoCAD 2000
 90
0
280
0
281
0
  0
ENDSEC
  0
SECTION
  2
TABLES
  0
TABLE
  2
VPORT
  5
8
100
AcDbSymbolTable
 70
2
  0
VPORT
  5
1F4
100
AcDbSymbolTableRecord
100
AcDbViewportTableRecord
  2
*ACTIVE
 70
0
 10
0.0
 20
0.0
 11
1.0
 21
1.0
 12
8.2677165354
 22
5.8464566929
 13
0.0
 23
0.0
 14
1.0
 24
1.0
 15
0.0
 25
0.0
 16
0.0
 26
0.0
 36
1.0
 17
0.0
 27
0.0
 37
0.0
 40
11.6929133858
 41
1.4141414141
 42
50.0
 43
0.0
 44
0.0
 50
0.0
 51
0.0
 71
0
 72
100
 73
1
 74
1
 75
0
 76
0
 77
0
 78
0
  0
ENDTAB
  0
TABLE
  2
LTYPE
  5
5
100
AcDbSymbolTable
 70
6
  0
LTYPE
  5
14
100
AcDbSymbolTableRecord
100
AcDbLinetypeTableRecord
  2
BYBLOCK
 70
0
  3

 72
65
 73
0
 40
0.0
  0
LTYPE
  5
15
100
AcDbSymbolTableRecord
100
AcDbLinetypeTableRecord
  2
BYLAYER
 70
0
  3

 72
65
 73
0
 40
0.0
  0
LTYPE
  5
16
100
AcDbSymbolTableRecord
100
AcDbLinetypeTableRecord
  2
CONTINUOUS
 70
64
  3
Solid line
 72
65
 73
0
 40
0.0
  0
LTYPE
  5
1F5
100
AcDbSymbolTableRecord
100
AcDbLinetypeTableRecord
  2
CENTER
 70
64
  3
____ _ ____ _ ____ _ ____ _ ____ _ ____ _ ____
 72
65
 73
4
 40
0.6
 49
0.375
 74
0
 49
-0.075
 74
0
 49
0.075
 74
0
 49
-0.075
 74
0
  0
LTYPE
  5
1F6
100
AcDbSymbolTableRecord
100
AcDbLinetypeTableRecord
  2
HIDDEN
 70
64
  3
- - - - - - - - - - - - - - - - - - - -
 72
65
 73
2
 40
0.2
 49
0.1
 74
0
 49
-0.1
 74
0
  0
LTYPE
  5
1F7
100
AcDbSymbolTableRecord
100
AcDbLinetypeTableRecord
  2
PHANTOM
 70
64
  3
_____ _ _ _____ _ _ _____ _ _ _____
 72
65
 73
6
 40
0.8
 49
0.45
 74
0
 49
-0.05
 74
0
 49
0.1
 74
0
 49
-0.05
 74
0
 49
0.1
 74
0
 49
-0.05
 74
0
  0
LTYPE
  5
1F8
100
AcDbSymbolTableRecord
100
AcDbLinetypeTableRecord
  2
DOT
 70
64
  3
. . . . . . . . . . . . . . . . . . . .
 72
65
 73
2
 40
0.2
 49
0.1
 74
0
 49
-0.1
 74
0
  0
LTYPE
  5
1F9
100
AcDbSymbolTableRecord
100
AcDbLinetypeTableRecord
  2
DASHED
 70
64
  3
- - - - - - - - - - - - - - - - - - - -
 72
65
 73
2
 40
0.2
 49
0.1
 74
0
 49
-0.1
 74
0
  0
ENDTAB
  0
TABLE
  2
LAYER
  5
2
100
AcDbSymbolTable
 70
36
  0
LAYER
  5
10
100
AcDbSymbolTableRecord
100
AcDbLayerTableRecord
  2
0
 70
0
 62
7
  6
CONTINUOUS
370
-3
390
F
  0
LAYER
  5
1FA
100
AcDbSymbolTableRecord
100
AcDbLayerTableRecord
  2
DEFAULT_1
 70
0
 62
7
  6
CENTER
370
-3
390
F
  0
LAYER
  5
1FB
100
AcDbSymbolTableRecord
100
AcDbLayerTableRecord
  2
DEFAULT_2
 70
0
 62
8
  6
HIDDEN
370
-3
390
F
  0
LAYER
  5
1FC
100
AcDbSymbolTableRecord
100
AcDbLayerTableRecord
  2
DEFAULT_3
 70
0
 62
7
  6
PHANTOM
370
-3
390
F
  0
LAYER
  5
1FD
100
AcDbSymbolTableRecord
100
AcDbLayerTableRecord
  2
1-003
 70
0
 62
7
  6
CONTINUOUS
370
-3
390
F
  0
LAYER
  5
1FE
100
AcDbSymbolTableRecord
100
AcDbLayerTableRecord
  2
1-004
 70
0
 62
7
  6
CONTINUOUS
370
-3
390
F
  0
LAYER
  5
1FF
100
AcDbSymbolTableRecord
100
AcDbLayerTableRecord
  2
1-016
 70
0
 62
7
  6
CONTINUOUS
370
-3
390
F
  0
LAYER
  5
200
100
AcDbSymbolTableRecord
100
AcDbLayerTableRecord
  2
1-017
 70
0
 62
7
  6
CONTINUOUS
370
-3
390
F
  0
LAYER
  5
201
100
AcDbSymbolTableRecord
100
AcDbLayerTableRecord
  2
1-017_1
 70
0
 62
7
  6
CONTINUOUS
370
-3
390
F
  0
LAYER
  5
202
100
AcDbSymbolTableRecord
100
AcDbLayerTableRecord
  2
1-502
 70
0
 62
7
  6
CONTINUOUS
370
-3
390
F
  0
LAYER
  5
203
100
AcDbSymbolTableRecord
100
AcDbLayerTableRecord
  2
1-506
 70
0
 62
7
  6
CONTINUOUS
370
-3
390
F
  0
LAYER
  5
204
100
AcDbSymbolTableRecord
100
AcDbLayerTableRecord
  2
1-552
 70
0
 62
7
  6
CONTINUOUS
370
-3
390
F
  0
LAYER
  5
205
100
AcDbSymbolTableRecord
100
AcDbLayerTableRecord
  2
1-553
 70
0
 62
7
  6
CONTINUOUS
370
-3
390
F
  0
LAYER
  5
206
100
AcDbSymbolTableRecord
100
AcDbLayerTableRecord
  2
1-602
 70
0
 62
7
  6
CONTINUOUS
370
-3
390
F
  0
LAYER
  5
207
100
AcDbSymbolTableRecord
100
AcDbLayerTableRecord
  2
1-603
 70
0
 62
7
  6
CONTINUOUS
370
-3
390
F
  0
LAYER
  5
208
100
AcDbSymbolTableRecord
100
AcDbLayerTableRecord
  2
10016
 70
0
 62
7
  6
CONTINUOUS
370
-3
390
F
  0
LAYER
  5
209
100
AcDbSymbolTableRecord
100
AcDbLayerTableRecord
  2
10016_1
 70
0
 62
7
  6
CONTINUOUS
370
-3
390
F
  0
LAYER
  5
20A
100
AcDbSymbolTableRecord
100
AcDbLayerTableRecord
  2
10172
 70
0
 62
7
  6
CONTINUOUS
370
-3
390
F
  0
LAYER
  5
20B
100
AcDbSymbolTableRecord
100
AcDbLayerTableRecord
  2
10173
 70
0
 62
7
  6
CONTINUOUS
370
-3
390
F
  0
LAYER
  5
20C
100
AcDbSymbolTableRecord
100
AcDbLayerTableRecord
  2
10224
 70
0
 62
7
  6
CONTINUOUS
370
-3
390
F
  0
LAYER
  5
20D
100
AcDbSymbolTableRecord
100
AcDbLayerTableRecord
  2
10295
 70
0
 62
7
  6
CONTINUOUS
370
-3
390
F
  0
LAYER
  5
20E
100
AcDbSymbolTableRecord
100
AcDbLayerTableRecord
  2
10378
 70
0
 62
7
  6
CONTINUOUS
370
-3
390
F
  0
LAYER
  5
20F
100
AcDbSymbolTableRecord
100
AcDbLayerTableRecord
  2
10382
 70
0
 62
7
  6
CONTINUOUS
370
-3
390
F
  0
LAYER
  5
210
100
AcDbSymbolTableRecord
100
AcDbLayerTableRecord
  2
10529
 70
0
 62
7
  6
CONTINUOUS
370
-3
390
F
  0
LAYER
  5
211
100
AcDbSymbolTableRecord
100
AcDbLayerTableRecord
  2
10529_3
 70
0
 62
7
  6
CONTINUOUS
370
-3
390
F
  0
LAYER
  5
212
100
AcDbSymbolTableRecord
100
AcDbLayerTableRecord
  2
11003
 70
0
 62
7
  6
CONTINUOUS
370
-3
390
F
  0
LAYER
  5
213
100
AcDbSymbolTableRecord
100
AcDbLayerTableRecord
  2
2-240
 70
0
 62
7
  6
CONTINUOUS
370
-3
390
F
  0
LAYER
  5
214
100
AcDbSymbolTableRecord
100
AcDbLayerTableRecord
  2
3-252
 70
0
 62
7
  6
CONTINUOUS
370
-3
390
F
  0
LAYER
  5
215
100
AcDbSymbolTableRecord
100
AcDbLayerTableRecord
  2
3_ALL_SYMBOLS
 70
0
 62
7
  6
CONTINUOUS
370
-3
390
F
  0
LAYER
  5
216
100
AcDbSymbolTableRecord
100
AcDbLayerTableRecord
  2
91083
 70
0
 62
7
  6
CONTINUOUS
370
-3
390
F
  0
LAYER
  5
217
100
AcDbSymbolTableRecord
100
AcDbLayerTableRecord
  2
91083_1
 70
0
 62
7
  6
CONTINUOUS
370
-3
390
F
  0
LAYER
  5
218
100
AcDbSymbolTableRecord
100
AcDbLayerTableRecord
  2
92006
 70
0
 62
7
  6
CONTINUOUS
370
-3
390
F
  0
LAYER
  5
219
100
AcDbSymbolTableRecord
100
AcDbLayerTableRecord
  2
ALL_ASSEMBLY_MEMBERS
 70
0
 62
7
  6
CONTINUOUS
370
-3
390
F
  0
LAYER
  5
21A
100
AcDbSymbolTableRecord
100
AcDbLayerTableRecord
  2
ALL_ASSEMBLY_MEMBERS_1
 70
0
 62
7
  6
CONTINUOUS
370
-3
390
F
  0
LAYER
  5
21B
100
AcDbSymbolTableRecord
100
AcDbLayerTableRecord
  2
ALL_ASSEMBLY_MEMBERS_2
 70
0
 62
7
  6
CONTINUOUS
370
-3
390
F
  0
LAYER
  5
21C
100
AcDbSymbolTableRecord
100
AcDbLayerTableRecord
  2
ALL_ASSEMBLY_MEMBERS_3
 70
0
 62
7
  6
CONTINUOUS
370
-3
390
F
  0
LAYER
  5
21D
100
AcDbSymbolTableRecord
100
AcDbLayerTableRecord
  2
ALL_ASSEMBLY_MEMBERS_4
 70
0
 62
7
  6
CONTINUOUS
370
-3
390
F
  0
LAYER
  5
21E
100
AcDbSymbolTableRecord
100
AcDbLayerTableRecord
  2
ALL_ASSEMBLY_MEMBERS_5
 70
0
 62
7
  6
CONTINUOUS
370
-3
390
F
  0
LAYER
  5
21F
100
AcDbSymbolTableRecord
100
AcDbLayerTableRecord
  2
ALL_ASSEMBLY_MEMBERS_6
 70
0
 62
7
  6
CONTINUOUS
370
-3
390
F
  0
LAYER
  5
220
100
AcDbSymbolTableRecord
100
AcDbLayerTableRecord
  2
ALL_ASSEMBLY_MEMBERS_7
 70
0
 62
7
  6
CONTINUOUS
370
-3
390
F
  0
LAYER
  5
221
100
AcDbSymbolTableRecord
100
AcDbLayerTableRecord
  2
ALL_ASSEMBLY_MEMBERS_8
 70
0
 62
7
  6
CONTINUOUS
370
-3
390
F
  0
LAYER
  5
222
100
AcDbSymbolTableRecord
100
AcDbLayerTableRecord
  2
ALL_ASSEMBLY_MEMBERS_9
 70
0
 62
7
  6
CONTINUOUS
370
-3
390
F
  0
LAYER
  5
223
100
AcDbSymbolTableRecord
100
AcDbLayerTableRecord
  2
COLOR10
 70
0
 62
7
  6
CONTINUOUS
370
-3
390
F
  0
LAYER
  5
224
100
AcDbSymbolTableRecord
100
AcDbLayerTableRecord
  2
COLOR11
 70
0
 62
7
  6
CONTINUOUS
370
-3
390
F
  0
LAYER
  5
225
100
AcDbSymbolTableRecord
100
AcDbLayerTableRecord
  2
COLOR12
 70
0
 62
7
  6
CONTINUOUS
370
-3
390
F
  0
LAYER
  5
226
100
AcDbSymbolTableRecord
100
AcDbLayerTableRecord
  2
COLOR13
 70
0
 62
7
  6
CONTINUOUS
370
-3
390
F
  0
LAYER
  5
227
100
AcDbSymbolTableRecord
100
AcDbLayerTableRecord
  2
COLOR14
 70
0
 62
7
  6
CONTINUOUS
370
-3
390
F
  0
LAYER
  5
228
100
AcDbSymbolTableRecord
100
AcDbLayerTableRecord
  2
COLOR15
 70
0
 62
7
  6
CONTINUOUS
370
-3
390
F
  0
LAYER
  5
229
100
AcDbSymbolTableRecord
100
AcDbLayerTableRecord
  2
COLOR16
 70
0
 62
7
  6
CONTINUOUS
370
-3
390
F
  0
LAYER
  5
22A
100
AcDbSymbolTableRecord
100
AcDbLayerTableRecord
  2
COLOR2
 70
0
 62
7
  6
CONTINUOUS
370
-3
390
F
  0
LAYER
  5
22B
100
AcDbSymbolTableRecord
100
AcDbLayerTableRecord
  2
COLOR3
 70
0
 62
7
  6
CONTINUOUS
370
-3
390
F
  0
LAYER
  5
22C
100
AcDbSymbolTableRecord
100
AcDbLayerTableRecord
  2
COLOR4
 70
0
 62
7
  6
CONTINUOUS
370
-3
390
F
  0
LAYER
  5
22D
100
AcDbSymbolTableRecord
100
AcDbLayerTableRecord
  2
COLOR5
 70
0
 62
7
  6
CONTINUOUS
370
-3
390
F
  0
LAYER
  5
22E
100
AcDbSymbolTableRecord
100
AcDbLayerTableRecord
  2
COLOR6
 70
0
 62
7
  6
CONTINUOUS
370
-3
390
F
  0
LAYER
  5
22F
100
AcDbSymbolTableRecord
100
AcDbLayerTableRecord
  2
COLOR7
 70
0
 62
7
  6
CONTINUOUS
370
-3
390
F
  0
LAYER
  5
230
100
AcDbSymbolTableRecord
100
AcDbLayerTableRecord
  2
COLOR8
 70
0
 62
7
  6
CONTINUOUS
370
-3
390
F
  0
LAYER
  5
231
100
AcDbSymbolTableRecord
100
AcDbLayerTableRecord
  2
COLOR9
 70
0
 62
7
  6
CONTINUOUS
370
-3
390
F
  0
LAYER
  5
232
100
AcDbSymbolTableRecord
100
AcDbLayerTableRecord
  2
DEFAULT_COORDINATE_SYSTEM
 70
0
 62
7
  6
CONTINUOUS
370
-3
390
F
  0
LAYER
  5
233
100
AcDbSymbolTableRecord
100
AcDbLayerTableRecord
  2
DEFAULT_DATUM_AXES
 70
0
 62
7
  6
CONTINUOUS
370
-3
390
F
  0
LAYER
  5
234
100
AcDbSymbolTableRecord
100
AcDbLayerTableRecord
  2
DEFAULT_DATUM_CURVES
 70
0
 62
7
  6
CONTINUOUS
370
-3
390
F
  0
LAYER
  5
235
100
AcDbSymbolTableRecord
100
AcDbLayerTableRecord
  2
DEFAULT_DATUM_PLANES
 70
0
 62
7
  6
CONTINUOUS
370
-3
390
F
  0
LAYER
  5
236
100
AcDbSymbolTableRecord
100
AcDbLayerTableRecord
  2
INTF_10016
 70
0
 62
7
  6
CONTINUOUS
370
-3
390
F
  0
LAYER
  5
237
100
AcDbSymbolTableRecord
100
AcDbLayerTableRecord
  2
INTF_10172
 70
0
 62
7
  6
CONTINUOUS
370
-3
390
F
  0
LAYER
  5
238
100
AcDbSymbolTableRecord
100
AcDbLayerTableRecord
  2
INTF_10173
 70
0
 62
7
  6
CONTINUOUS
370
-3
390
F
  0
LAYER
  5
239
100
AcDbSymbolTableRecord
100
AcDbLayerTableRecord
  2
INTF_10224
 70
0
 62
7
  6
CONTINUOUS
370
-3
390
F
  0
LAYER
  5
23A
100
AcDbSymbolTableRecord
100
AcDbLayerTableRecord
  2
INTF_10295
 70
0
 62
7
  6
CONTINUOUS
370
-3
390
F
  0
LAYER
  5
23B
100
AcDbSymbolTableRecord
100
AcDbLayerTableRecord
  2
INTF_10378
 70
0
 62
7
  6
CONTINUOUS
370
-3
390
F
  0
LAYER
  5
23C
100
AcDbSymbolTableRecord
100
AcDbLayerTableRecord
  2
INTF_10382
 70
0
 62
7
  6
CONTINUOUS
370
-3
390
F
  0
LAYER
  5
23D
100
AcDbSymbolTableRecord
100
AcDbLayerTableRecord
  2
INTF_10529
 70
0
 62
7
  6
CONTINUOUS
370
-3
390
F
  0
LAYER
  5
23E
100
AcDbSymbolTableRecord
100
AcDbLayerTableRecord
  2
INTF_11003
 70
0
 62
7
  6
CONTINUOUS
370
-3
390
F
  0
LAYER
  5
23F
100
AcDbSymbolTableRecord
100
AcDbLayerTableRecord
  2
INTF_91083
 70
0
 62
7
  6
CONTINUOUS
370
-3
390
F
  0
LAYER
  5
240
100
AcDbSymbolTableRecord
100
AcDbLayerTableRecord
  2
INTF_92006
 70
0
 62
7
  6
CONTINUOUS
370
-3
390
F
  0
LAYER
  5
241
100
AcDbSymbolTableRecord
100
AcDbLayerTableRecord
  2
SOLID_GEOMETRY
 70
0
 62
7
  6
CONTINUOUS
370
-3
390
F
  0
ENDTAB
  0
TABLE
  2
STYLE
  5
3
100
AcDbSymbolTable
 70
1
  0
STYLE
  5
11
100
AcDbSymbolTableRecord
100
AcDbTextStyleTableRecord
  2
STANDARD
 70
0
 40
0.0
 41
0.8
 50
0.0
 71
0
 42
0.2
  3
txt
  4

  0
STYLE
  5
242
100
AcDbSymbolTableRecord
100
AcDbTextStyleTableRecord
  2
TEXTSTYLE_1
 70
0
 40
0.0
 41
0.8
 50
0.0
 71
0
 42
0.2
  3
gdt
  4

  0
ENDTAB
  0
TABLE
  2
VIEW
  5
6
100
AcDbSymbolTable
 70
0
  0
ENDTAB
  0
TABLE
  2
UCS
  5
7
100
AcDbSymbolTable
 70
0
  0
ENDTAB
  0
TABLE
  2
APPID
  5
9
100
AcDbSymbolTable
 70
1
  0
APPID
  5
243
100
AcDbSymbolTableRecord
100
AcDbRegAppTableRecord
  2
ACAD
 70
0
  0
ENDTAB
  0
TABLE
  2
BLOCK_RECORD
  5
1
100
AcDbSymbolTable
 70
0
  0
BLOCK_RECORD
  5
244
100
AcDbSymbolTableRecord
100
AcDbBlockTableRecord
  2
*Model_Space
  0
BLOCK_RECORD
  5
245
100
AcDbSymbolTableRecord
100
AcDbBlockTableRecord
  2
*Paper_Space
  0
ENDTAB
  0
TABLE
  2
DIMSTYLE
  5
A
100
AcDbSymbolTable
 70
1
100
AcDbDimStyleTable
 71
0
  0
DIMSTYLE
105
246
100
AcDbSymbolTableRecord
100
AcDbDimStyleTableRecord
  2
STANDARD
 70
0
  3

  4

 40
1.0
 41
0.1875
 42
0.0625
 43
0.38
 44
0.18
 45
0.0
 46
0.0
 47
0.01
 48
0.01
140
0.15625
141
0.09
142
0.0
143
25.4
144
1.0
145
0.0
146
1.0
147
0.09
 71
0.0
 72
0.0
 73
1
 74
1
 75
0
 76
0
 77
0
 78
4
170
0
171
2
172
0
173
0
174
0
175
0
176
0
177
0
178
0
270
2
271
2
272
2
273
2
274
2
275
0
280
0
281
0
282
0
283
1
284
4
285
0
286
0
287
3
288
0
340
11
  0
ENDTAB
  0
ENDSEC
  0
SECTION
  2
BLOCKS
  0
BLOCK
  5
20
100
AcDbEntity
  8
0
100
AcDbBlockBegin
  2
*Model_Space
 70
0
 10
0.0
 20
0.0
 30
0.0
  3
*Model_Space
  1

  0
ENDBLK
  5
21
100
AcDbEntity
  8
0
100
AcDbBlockEnd
  0
BLOCK
  5
1C
100
AcDbEntity
  8
0
100
AcDbBlockBegin
  2
*Paper_Space
 70
0
 10
0.0
 20
0.0
 30
0.0
  3
*Paper_Space
  1

  0
ENDBLK
  5
1D
100
AcDbEntity
  8
0
100
AcDbBlockEnd
  0
ENDSEC
  0
SECTION
  2
ENTITIES
  0
LINE
  5
247
100
AcDbEntity
  8
0
100
AcDbLine
 62
6
  6
CONTINUOUS
 10
2.8765814113
 20
1.9110379502
 11
2.8765814113
 21
1.8970379502
  0
LINE
  5
248
100
AcDbEntity
  8
0
100
AcDbLine
 62
7
  6
CONTINUOUS
 10
3.1090814113
 20
2.4520379502
 11
3.1090814113
 21
2.4970379502
  0
LINE
  5
249
100
AcDbEntity
  8
0
100
AcDbLine
 62
7
  6
CONTINUOUS
 10
3.2267177876
 20
2.6015379502
 11
3.2267177876
 21
2.4970379502
  0
LINE
  5
24A
100
AcDbEntity
  8
0
100
AcDbLine
 62
7
  6
CONTINUOUS
 10
3.7653314113
 20
4.0140379609
 11
3.7653314113
 21
4.0077841344
  0
LINE
  5
24B
100
AcDbEntity
  8
0
100
AcDbLine
 62
7
  6
CONTINUOUS
 10
3.7653314113
 20
3.9640379366
 11
3.7653314113
 21
3.9577841523
  0
LINE
  5
24C
100
AcDbEntity
  8
0
100
AcDbLine
 62
7
  6
CONTINUOUS
 10
3.7653314113
 20
3.9140379557
 11
3.7653314113
 21
3.9077841557
  0
LINE
  5
24D
100
AcDbEntity
  8
0
100
AcDbLine
 62
7
  6
CONTINUOUS
 10
3.7923914131
 20
4.0421738455
 11
3.7923914131
 21
4.0296609443
  0
LINE
  5
24E
100
AcDbEntity
  8
0
100
AcDbLine
 62
7
  6
CONTINUOUS
 10
3.7924183863
 20
3.9921535683
 11
3.7924183863
 21
3.9796536321
  0
LINE
  5
24F
100
AcDbEntity
  8
0
100
AcDbLine
 62
7
  6
CONTINUOUS
 10
3.7924361868
 20
3.9421731131
 11
3.7924361868
 21
3.9296731131
  0
LINE
  5
250
100
AcDbEntity
  8
0
100
AcDbLine
 62
6
  6
CONTINUOUS
 10
3.8350814113
 20
4.5770379502
 11
3.8350814113
 21
4.9520379502
  0
LINE
  5
251
100
AcDbEntity
  8
0
100
AcDbLine
 62
7
  6
CONTINUOUS
 10
3.8465820534
 20
4.1320379502
 11
3.8465820534
 21
4.0640379502
  0
LINE
  5
252
100
AcDbEntity
  8
0
100
AcDbLine
 62
9
  6
CONTINUOUS
 10
3.8488627558
 20
4.1320379502
 11
3.8488627558
 21
4.0640379502
  0
LINE
  5
253
100
AcDbEntity
  8
0
100
AcDbLine
 62
9
  6
CONTINUOUS
 10
3.8541608381
 20
3.9353277152
 11
3.8541608381
 21
3.9478277152
  0
LINE
  5
254
100
AcDbEntity
  8
0
100
AcDbLine
 62
7
  6
CONTINUOUS
 10
3.8615814113
 20
4.1840379502
 11
3.8615814113
 21
4.1320379502
  0
LINE
  5
255
100
AcDbEntity
  8
0
100
AcDbLine
 62
7
  6
CONTINUOUS
 10
3.8628322843
 20
4.2740379502
 11
3.8628322843
 21
4.9220379502
  0
LINE
  5
256
100
AcDbEntity
  8
0
100
AcDbLine
 62
7
  6
CONTINUOUS
 10
3.86860049
 20
4.9220379502
 11
3.86860049
 21
4.2740379502
  0
LINE
  5
257
100
AcDbEntity
  8
0
100
AcDbLine
 62
7
  6
CONTINUOUS
 10
3.869079026
 20
4.1320379502
 11
3.869079026
 21
4.0640379502
  0
LINE
  5
258
100
AcDbEntity
  8
0
100
AcDbLine
 62
6
  6
CONTINUOUS
 10
3.8783814113
 20
4.9383674187
 11
3.8783814113
 21
4.9520379502
  0
LINE
  5
259
100
AcDbEntity
  8
0
100
AcDbLine
 62
7
  6
CONTINUOUS
 10
3.8850382175
 20
4.2740379502
 11
3.8850382175
 21
4.9220379502
  0
LINE
  5
25A
100
AcDbEntity
  8
0
100
AcDbLine
 62
7
  6
CONTINUOUS
 10
3.8921065781
 20
4.2525379502
 11
3.8921065781
 21
4.2634450232
  0
LINE
  5
25B
100
AcDbEntity
  8
0
100
AcDbLine
 62
7
  6
CONTINUOUS
 10
3.8921065781
 20
4.9326308772
 11
3.8921065781
 21
4.9435379502
  0
LINE
  5
25C
100
AcDbEntity
  8
0
100
AcDbLine
 62
7
  6
CONTINUOUS
 10
3.8950814113
 20
4.2440379502
 11
3.8950814113
 21
4.1840379502
  0
LINE
  5
25D
100
AcDbEntity
  8
0
100
AcDbLine
 62
7
  6
CONTINUOUS
 10
3.9013219425
 20
4.0640379502
 11
3.9013219425
 21
4.1320379502
  0
LINE
  5
25E
100
AcDbEntity
  8
0
100
AcDbLine
 62
7
  6
CONTINUOUS
 10
3.9014646776
 20
4.9220379502
 11
3.9014646776
 21
4.2740379502
  0
LINE
  5
25F
100
AcDbEntity
  8
0
100
AcDbLine
 62
7
  6
CONTINUOUS
 10
3.9243657369
 20
4.2525379502
 11
3.9243657369
 21
4.9435379502
  0
LINE
  5
260
100
AcDbEntity
  8
0
100
AcDbLine
 62
9
  6
CONTINUOUS
 10
3.924994592
 20
4.0640379502
 11
3.924994592
 21
4.1320379502
  0
LINE
  5
261
100
AcDbEntity
  8
0
100
AcDbLine
 62
7
  6
CONTINUOUS
 10
3.9318376375
 20
4.2740379502
 11
3.9318376375
 21
4.9220379502
  0
LINE
  5
262
100
AcDbEntity
  8
0
100
AcDbLine
 62
7
  6
CONTINUOUS
 10
3.9405087588
 20
4.0640379502
 11
3.9405087588
 21
4.1320379502
  0
LINE
  5
263
100
AcDbEntity
  8
0
100
AcDbLine
 62
7
  6
CONTINUOUS
 10
3.9564215724
 20
4.9220379502
 11
3.9564215724
 21
4.2740379502
  0
LINE
  5
264
100
AcDbEntity
  8
0
100
AcDbLine
 62
7
  6
CONTINUOUS
 10
3.9752311242
 20
4.2525379502
 11
3.9752311242
 21
4.9435379502
  0
LINE
  5
265
100
AcDbEntity
  8
0
100
AcDbLine
 62
7
  6
CONTINUOUS
 10
3.9930111218
 20
4.9435379502
 11
3.9930111218
 21
4.2525379502
  0
LINE
  5
266
100
AcDbEntity
  8
0
100
AcDbLine
 62
7
  6
CONTINUOUS
 10
3.996105757
 20
4.2740379502
 11
3.996105757
 21
4.9220379502
  0
LINE
  5
267
100
AcDbEntity
  8
0
100
AcDbLine
 62
7
  6
CONTINUOUS
 10
4.0251044853
 20
4.9220379502
 11
4.0251044853
 21
4.2740379502
  0
LINE
  5
268
100
AcDbEntity
  8
0
100
AcDbLine
 62
7
  6
CONTINUOUS
 10
4.0369589459
 20
4.2525379502
 11
4.0369589459
 21
4.9435379502
  0
LINE
  5
269
100
AcDbEntity
  8
0
100
AcDbLine
 62
7
  6
CONTINUOUS
 10
4.0562038766
 20
4.9435379502
 11
4.0562038766
 21
4.2525379502
  0
LINE
  5
26A
100
AcDbEntity
  8
0
100
AcDbLine
 62
7
  6
CONTINUOUS
 10
4.0680583372
 20
4.2740379502
 11
4.0680583372
 21
4.9220379502
  0
LINE
  5
26B
100
AcDbEntity
  8
0
100
AcDbLine
 62
7
  6
CONTINUOUS
 10
4.0970570655
 20
4.9220379502
 11
4.0970570655
 21
4.2740379502
  0
LINE
  5
26C
100
AcDbEntity
  8
0
100
AcDbLine
 62
7
  6
CONTINUOUS
 10
4.1001517007
 20
4.2525379502
 11
4.1001517007
 21
4.9435379502
  0
LINE
  5
26D
100
AcDbEntity
  8
0
100
AcDbLine
 62
7
  6
CONTINUOUS
 10
4.1179316984
 20
4.9435379502
 11
4.1179316984
 21
4.2525379502
  0
LINE
  5
26E
100
AcDbEntity
  8
0
100
AcDbLine
 62
7
  6
CONTINUOUS
 10
4.1367412502
 20
4.2740379502
 11
4.1367412502
 21
4.9220379502
  0
LINE
  5
26F
100
AcDbEntity
  8
0
100
AcDbLine
 62
7
  6
CONTINUOUS
 10
4.1526540637
 20
4.0640379502
 11
4.1526540637
 21
4.1320379502
  0
LINE
  5
270
100
AcDbEntity
  8
0
100
AcDbLine
 62
7
  6
CONTINUOUS
 10
4.161325185
 20
4.9220379502
 11
4.161325185
 21
4.2740379502
  0
LINE
  5
271
100
AcDbEntity
  8
0
100
AcDbLine
 62
9
  6
CONTINUOUS
 10
4.1681682306
 20
4.1320379502
 11
4.1681682306
 21
4.0640379502
  0
LINE
  5
272
100
AcDbEntity
  8
0
100
AcDbLine
 62
7
  6
CONTINUOUS
 10
4.1687970857
 20
4.9435379502
 11
4.1687970857
 21
4.2525379502
  0
LINE
  5
273
100
AcDbEntity
  8
0
100
AcDbLine
 62
7
  6
CONTINUOUS
 10
4.1916981449
 20
4.2740379502
 11
4.1916981449
 21
4.9220379502
  0
LINE
  5
274
100
AcDbEntity
  8
0
100
AcDbLine
 62
7
  6
CONTINUOUS
 10
4.19184088
 20
4.1320379502
 11
4.19184088
 21
4.0640379502
  0
LINE
  5
275
100
AcDbEntity
  8
0
100
AcDbLine
 62
7
  6
CONTINUOUS
 10
4.1980814113
 20
4.2440379502
 11
4.1980814113
 21
4.1840379502
  0
LINE
  5
276
100
AcDbEntity
  8
0
100
AcDbLine
 62
7
  6
CONTINUOUS
 10
4.2010562444
 20
4.9435379502
 11
4.2010562444
 21
4.9326308772
  0
LINE
  5
277
100
AcDbEntity
  8
0
100
AcDbLine
 62
7
  6
CONTINUOUS
 10
4.2010562444
 20
4.2634450233
 11
4.2010562444
 21
4.2525379502
  0
LINE
  5
278
100
AcDbEntity
  8
0
100
AcDbLine
 62
7
  6
CONTINUOUS
 10
4.208124605
 20
4.9220379502
 11
4.208124605
 21
4.2740379502
  0
LINE
  5
279
100
AcDbEntity
  8
0
100
AcDbLine
 62
6
  6
CONTINUOUS
 10
4.2147814113
 20
4.9383674185
 11
4.2147814113
 21
4.9520379502
  0
LINE
  5
27A
100
AcDbEntity
  8
0
100
AcDbLine
 62
6
  6
CONTINUOUS
 10
3.6119158677
 20
3.6999329603
 11
3.6367161778
 21
3.8405825081
  0
LINE
  5
27B
100
AcDbEntity
  8
0
100
AcDbLine
 62
6
  6
CONTINUOUS
 10
2.8765814113
 20
1.8970379502
 11
5.2165814113
 21
1.8970379502
  0
LINE
  5
27C
100
AcDbEntity
  8
0
100
AcDbLine
 62
7
  6
CONTINUOUS
 10
6.6235814113
 20
1.8970379502
 11
9.4695814113
 21
1.8970379502
  0
LINE
  5
27D
100
AcDbEntity
  8
0
100
AcDbLine
 62
6
  6
CONTINUOUS
 10
10.8765814113
 20
1.8970379502
 11
13.2165814113
 21
1.8970379502
  0
LINE
  5
27E
100
AcDbEntity
  8
0
100
AcDbLine
 62
9
  6
CONTINUOUS
 10
13.2165814113
 20
1.9110379502
 11
10.8765814113
 21
1.9110379502
  0
LINE
  5
27F
100
AcDbEntity
  8
0
100
AcDbLine
 62
9
  6
CONTINUOUS
 10
5.2165814113
 20
1.9110379502
 11
2.8765814113
 21
1.9110379502
  0
LINE
  5
280
100
AcDbEntity
  8
0
100
AcDbLine
 62
9
  6
CONTINUOUS
 10
3.8541608381
 20
3.9478277152
 11
3.8336765519
 21
3.9634508134
  0
LINE
  5
281
100
AcDbEntity
  8
0
100
AcDbLine
 62
7
  6
CONTINUOUS
 10
3.8830814113
 20
4.2525379502
 11
3.8915814113
 21
4.2440379502
  0
LINE
  5
282
100
AcDbEntity
  8
0
100
AcDbLine
 62
7
  6
CONTINUOUS
 10
4.2978314113
 20
4.0640379502
 11
4.3007714111
 21
4.0610979504
  0
LINE
  5
283
100
AcDbEntity
  8
0
100
AcDbLine
 62
7
  6
CONTINUOUS
 10
4.3159979382
 20
4.0458714233
 11
4.3278274864
 21
4.0340418751
  0
LINE
  5
284
100
AcDbEntity
  8
0
100
AcDbLine
 62
6
  6
CONTINUOUS
 10
4.4564466448
 20
3.8405825081
 11
4.4812469549
 21
3.6999329603
  0
LINE
  5
285
100
AcDbEntity
  8
0
100
AcDbLine
 62
7
  6
CONTINUOUS
 10
4.2240837966
 20
4.0640379502
 11
4.2240837966
 21
4.1320379502
  0
LINE
  5
286
100
AcDbEntity
  8
0
100
AcDbLine
 62
7
  6
CONTINUOUS
 10
4.2245623325
 20
4.2740379502
 11
4.2245623325
 21
4.9220379502
  0
LINE
  5
287
100
AcDbEntity
  8
0
100
AcDbLine
 62
7
  6
CONTINUOUS
 10
4.2303305382
 20
4.9220379502
 11
4.2303305382
 21
4.2740379502
  0
LINE
  5
288
100
AcDbEntity
  8
0
100
AcDbLine
 62
7
  6
CONTINUOUS
 10
4.2315814113
 20
4.1840379502
 11
4.2315814113
 21
4.1320379502
  0
LINE
  5
289
100
AcDbEntity
  8
0
100
AcDbLine
 62
9
  6
CONTINUOUS
 10
4.2443000667
 20
4.0640379502
 11
4.2443000667
 21
4.1320379502
  0
LINE
  5
28A
100
AcDbEntity
  8
0
100
AcDbLine
 62
7
  6
CONTINUOUS
 10
4.2465807691
 20
4.1320379502
 11
4.2465807691
 21
4.0640379502
  0
LINE
  5
28B
100
AcDbEntity
  8
0
100
AcDbLine
 62
6
  6
CONTINUOUS
 10
4.2580814113
 20
4.5770379502
 11
4.2580814113
 21
4.9520379502
  0
LINE
  5
28C
100
AcDbEntity
  8
0
100
AcDbLine
 62
7
  6
CONTINUOUS
 10
4.3007347747
 20
4.054655551
 11
4.3007347734
 21
4.061134505
  0
LINE
  5
28D
100
AcDbEntity
  8
0
100
AcDbLine
 62
7
  6
CONTINUOUS
 10
4.3007360423
 20
4.0046664801
 11
4.3007360412
 21
4.0171601664
  0
LINE
  5
28E
100
AcDbEntity
  8
0
100
AcDbLine
 62
7
  6
CONTINUOUS
 10
4.3007414839
 20
3.9046489184
 11
4.3007414839
 21
3.9171489184
  0
LINE
  5
28F
100
AcDbEntity
  8
0
100
AcDbLine
 62
7
  6
CONTINUOUS
 10
4.3007678095
 20
3.9546661075
 11
4.3007678095
 21
3.9671797322
  0
LINE
  5
290
100
AcDbEntity
  8
0
100
AcDbLine
 62
7
  6
CONTINUOUS
 10
4.3278314113
 20
3.9890379512
 11
4.3278314113
 21
3.9827841369
  0
LINE
  5
291
100
AcDbEntity
  8
0
100
AcDbLine
 62
7
  6
CONTINUOUS
 10
4.3278314113
 20
3.9390379395
 11
4.3278314113
 21
3.9327841653
  0
LINE
  5
292
100
AcDbEntity
  8
0
100
AcDbLine
 62
9
  6
CONTINUOUS
 10
2.9422097008
 20
2.0210379502
 11
5.1509531217
 21
2.0210379502
  0
LINE
  5
293
100
AcDbEntity
  8
0
100
AcDbLine
 62
9
  6
CONTINUOUS
 10
10.9422097008
 20
2.0210379502
 11
13.1509531217
 21
2.0210379502
  0
LINE
  5
294
100
AcDbEntity
  8
0
100
AcDbLine
 62
9
  6
CONTINUOUS
 10
13.1185037809
 20
2.0720379502
 11
10.9746590416
 21
2.0720379502
  0
LINE
  5
295
100
AcDbEntity
  8
0
100
AcDbLine
 62
9
  6
CONTINUOUS
 10
5.1185037809
 20
2.0720379502
 11
2.9746590416
 21
2.0720379502
  0
LINE
  5
296
100
AcDbEntity
  8
0
100
AcDbLine
 62
7
  6
CONTINUOUS
 10
9.3715811148
 20
2.0890379502
 11
6.7215817078
 21
2.0890379502
  0
LINE
  5
297
100
AcDbEntity
  8
0
100
AcDbLine
 62
9
  6
CONTINUOUS
 10
3.0058354837
 20
2.1300379502
 11
5.0873273389
 21
2.1300379502
  0
LINE
  5
298
100
AcDbEntity
  8
0
100
AcDbLine
 62
9
  6
CONTINUOUS
 10
11.0058354837
 20
2.1300379502
 11
13.0873273389
 21
2.1300379502
  0
LINE
  5
299
100
AcDbEntity
  8
0
100
AcDbLine
 62
9
  6
CONTINUOUS
 10
13.0630519176
 20
2.1710379502
 11
11.0301109049
 21
2.1710379502
  0
LINE
  5
29A
100
AcDbEntity
  8
0
100
AcDbLine
 62
9
  6
CONTINUOUS
 10
5.0630519176
 20
2.1710379502
 11
3.0301109049
 21
2.1710379502
  0
LINE
  5
29B
100
AcDbEntity
  8
0
100
AcDbLine
 62
9
  6
CONTINUOUS
 10
3.0672378542
 20
2.2270379502
 11
5.0259249683
 21
2.2270379502
  0
LINE
  5
29C
100
AcDbEntity
  8
0
100
AcDbLine
 62
9
  6
CONTINUOUS
 10
11.0672378542
 20
2.2270379502
 11
13.0259249683
 21
2.2270379502
  0
LINE
  5
29D
100
AcDbEntity
  8
0
100
AcDbLine
 62
9
  6
CONTINUOUS
 10
12.9985295649
 20
2.2620379502
 11
11.0946332576
 21
2.2620379502
  0
LINE
  5
29E
100
AcDbEntity
  8
0
100
AcDbLine
 62
9
  6
CONTINUOUS
 10
4.9985295649
 20
2.2620379502
 11
3.0946332576
 21
2.2620379502
  0
LINE
  5
29F
100
AcDbEntity
  8
0
100
AcDbLine
 62
9
  6
CONTINUOUS
 10
3.104757641
 20
2.2770379502
 11
4.9884051815
 21
2.2770379502
  0
LINE
  5
2A0
100
AcDbEntity
  8
0
100
AcDbLine
 62
9
  6
CONTINUOUS
 10
11.104757641
 20
2.2770379502
 11
12.9884051815
 21
2.2770379502
  0
LINE
  5
2A1
100
AcDbEntity
  8
0
100
AcDbLine
 62
7
  6
CONTINUOUS
 10
9.2715811333
 20
2.2810379502
 11
6.8215816892
 21
2.2810379502
  0
LINE
  5
2A2
100
AcDbEntity
  8
0
100
AcDbLine
 62
7
  6
CONTINUOUS
 10
3.7656518242
 20
3.9574436044
 11
3.7928121326
 21
3.9417388384
  0
LINE
  5
2A3
100
AcDbEntity
  8
0
100
AcDbLine
 62
7
  6
CONTINUOUS
 10
3.7656728246
 20
4.0074084128
 11
3.7927822829
 21
3.9917341432
  0
LINE
  5
2A4
100
AcDbEntity
  8
0
100
AcDbLine
 62
7
  6
CONTINUOUS
 10
3.7804900017
 20
4.0488427682
 11
3.7927686907
 21
4.0417430252
  0
LINE
  5
2A5
100
AcDbEntity
  8
0
100
AcDbLine
 62
7
  6
CONTINUOUS
 10
4.3274964918
 20
3.9394262243
 11
4.3004015159
 21
3.9550901414
  0
LINE
  5
2A6
100
AcDbEntity
  8
0
100
AcDbLine
 62
7
  6
CONTINUOUS
 10
4.3274806315
 20
3.9894196142
 11
4.3003615319
 21
4.0050999015
  0
LINE
  5
2A7
100
AcDbEntity
  8
0
100
AcDbLine
 62
7
  6
CONTINUOUS
 10
4.3159999322
 20
4.0458694276
 11
4.3146872988
 21
4.0468325338
  0
LINE
  5
2A8
100
AcDbEntity
  8
0
100
AcDbLine
 62
7
  6
CONTINUOUS
 10
4.866445035
 20
2.4970379502
 11
4.866445035
 21
2.6015379502
  0
LINE
  5
2A9
100
AcDbEntity
  8
0
100
AcDbLine
 62
7
  6
CONTINUOUS
 10
4.9840814113
 20
2.4520379502
 11
4.9840814113
 21
2.4970379502
  0
LINE
  5
2AA
100
AcDbEntity
  8
0
100
AcDbLine
 62
7
  6
CONTINUOUS
 10
12.9840814113
 20
2.4520379502
 11
11.1090814113
 21
2.4520379502
  0
LINE
  5
2AB
100
AcDbEntity
  8
0
100
AcDbLine
 62
7
  6
CONTINUOUS
 10
4.9840814113
 20
2.4520379502
 11
3.1090814113
 21
2.4520379502
  0
LINE
  5
2AC
100
AcDbEntity
  8
0
100
AcDbLine
 62
9
  6
CONTINUOUS
 10
6.9034013949
 20
2.4610296891
 11
9.1897614276
 21
2.4610296891
  0
LINE
  5
2AD
100
AcDbEntity
  8
0
100
AcDbLine
 62
7
  6
CONTINUOUS
 10
9.1714944682
 20
2.4720379502
 11
6.9216683545
 21
2.4720379502
  0
LINE
  5
2AE
100
AcDbEntity
  8
0
100
AcDbLine
 62
7
  6
CONTINUOUS
 10
3.1090814113
 20
2.4970379502
 11
4.9840814113
 21
2.4970379502
  0
LINE
  5
2AF
100
AcDbEntity
  8
0
100
AcDbLine
 62
7
  6
CONTINUOUS
 10
11.1090814113
 20
2.4970379502
 11
12.9840814113
 21
2.4970379502
  0
LINE
  5
2B0
100
AcDbEntity
  8
0
100
AcDbLine
 62
9
  6
CONTINUOUS
 10
12.8620519738
 20
2.5660379502
 11
12.4615814113
 21
2.5660379502
  0
LINE
  5
2B1
100
AcDbEntity
  8
0
100
AcDbLine
 62
9
  6
CONTINUOUS
 10
12.4590814113
 20
2.5660379502
 11
11.6340814113
 21
2.5660379502
  0
LINE
  5
2B2
100
AcDbEntity
  8
0
100
AcDbLine
 62
9
  6
CONTINUOUS
 10
11.6207953913
 20
2.5660379502
 11
11.2311108488
 21
2.5660379502
  0
LINE
  5
2B3
100
AcDbEntity
  8
0
100
AcDbLine
 62
9
  6
CONTINUOUS
 10
4.8620519738
 20
2.5660379502
 11
4.4615814113
 21
2.5660379502
  0
LINE
  5
2B4
100
AcDbEntity
  8
0
100
AcDbLine
 62
9
  6
CONTINUOUS
 10
4.4590814113
 20
2.5660379502
 11
3.6340814113
 21
2.5660379502
  0
LINE
  5
2B5
100
AcDbEntity
  8
0
100
AcDbLine
 62
9
  6
CONTINUOUS
 10
3.6207953913
 20
2.5660379502
 11
3.2311108488
 21
2.5660379502
  0
LINE
  5
2B6
100
AcDbEntity
  8
0
100
AcDbLine
 62
7
  6
CONTINUOUS
 10
12.4694583143
 20
2.6015379502
 11
12.4435591788
 21
2.6015379502
  0
LINE
  5
2B7
100
AcDbEntity
  8
0
100
AcDbLine
 62
7
  6
CONTINUOUS
 10
11.6496025321
 20
2.6015379502
 11
11.6237012398
 21
2.6015379502
  0
LINE
  5
2B8
100
AcDbEntity
  8
0
100
AcDbLine
 62
7
  6
CONTINUOUS
 10
4.3147511764
 20
4.0467681112
 11
4.3003582755
 21
4.0550907243
  0
LINE
  5
2B9
100
AcDbEntity
  8
0
100
AcDbLine
 62
7
  6
CONTINUOUS
 10
4.2015814113
 20
4.9520379502
 11
4.2100814113
 21
4.9435379502
  0
LINE
  5
2BA
100
AcDbEntity
  8
0
100
AcDbLine
 62
6
  6
CONTINUOUS
 10
5.2165814113
 20
1.9110379502
 11
5.2165814113
 21
1.8970379502
  0
LINE
  5
2BB
100
AcDbEntity
  8
0
100
AcDbLine
 62
9
  6
CONTINUOUS
 10
12.8343289747
 20
2.9710379502
 11
11.2588338478
 21
2.9710379502
  0
LINE
  5
2BC
100
AcDbEntity
  8
0
100
AcDbLine
 62
9
  6
CONTINUOUS
 10
4.8343289747
 20
2.9710379502
 11
3.2588338478
 21
2.9710379502
  0
LINE
  5
2BD
100
AcDbEntity
  8
0
100
AcDbLine
 62
7
  6
CONTINUOUS
 10
3.7653314113
 20
4.0140379609
 11
3.7656583788
 21
4.0144216631
  0
LINE
  5
2BE
100
AcDbEntity
  8
0
100
AcDbLine
 62
7
  6
CONTINUOUS
 10
3.8915814113
 20
4.9520379502
 11
3.8830814113
 21
4.9435379502
  0
LINE
  5
2BF
100
AcDbEntity
  8
0
100
AcDbLine
 62
9
  6
CONTINUOUS
 10
3.5220863108
 20
3.5095324301
 11
4.5710765118
 21
3.5095324301
  0
LINE
  5
2C0
100
AcDbEntity
  8
0
100
AcDbLine
 62
9
  6
CONTINUOUS
 10
11.5220863108
 20
3.5095324301
 11
12.5710765118
 21
3.5095324301
  0
LINE
  5
2C1
100
AcDbEntity
  8
0
100
AcDbLine
 62
7
  6
CONTINUOUS
 10
3.7653314113
 20
3.9640379366
 11
3.7656598271
 21
3.9644224923
  0
LINE
  5
2C2
100
AcDbEntity
  8
0
100
AcDbLine
 62
7
  6
CONTINUOUS
 10
3.7653314113
 20
3.9140379557
 11
3.7656906025
 21
3.9144401463
  0
LINE
  5
2C3
100
AcDbEntity
  8
0
100
AcDbLine
 62
7
  6
CONTINUOUS
 10
3.7953314113
 20
4.0640379502
 11
3.7803859038
 21
4.0490924428
  0
LINE
  5
2C4
100
AcDbEntity
  8
0
100
AcDbLine
 62
9
  6
CONTINUOUS
 10
12.4812469549
 20
3.6999329603
 11
11.6119158677
 21
3.6999329603
  0
LINE
  5
2C5
100
AcDbEntity
  8
0
100
AcDbLine
 62
9
  6
CONTINUOUS
 10
4.4812469549
 20
3.6999329603
 11
3.6119158677
 21
3.6999329603
  0
LINE
  5
2C6
100
AcDbEntity
  8
0
100
AcDbLine
 62
9
  6
CONTINUOUS
 10
3.6367161778
 20
3.8405825081
 11
4.4564466448
 21
3.8405825081
  0
LINE
  5
2C7
100
AcDbEntity
  8
0
100
AcDbLine
 62
9
  6
CONTINUOUS
 10
11.6367161778
 20
3.8405825081
 11
12.4564466448
 21
3.8405825081
  0
LINE
  5
2C8
100
AcDbEntity
  8
0
100
AcDbLine
 62
9
  6
CONTINUOUS
 10
3.7135311825
 20
3.9050379502
 11
4.37963164
 21
3.9050379502
  0
LINE
  5
2C9
100
AcDbEntity
  8
0
100
AcDbLine
 62
9
  6
CONTINUOUS
 10
11.7135311825
 20
3.9050379502
 11
12.37963164
 21
3.9050379502
  0
LINE
  5
2CA
100
AcDbEntity
  8
0
100
AcDbLine
 62
7
  6
CONTINUOUS
 10
4.3278313907
 20
4.0340379502
 11
4.2741164973
 21
4.0340379502
  0
LINE
  5
2CB
100
AcDbEntity
  8
0
100
AcDbLine
 62
7
  6
CONTINUOUS
 10
4.3007713281
 20
4.0610979504
 11
4.2304920914
 21
4.0610979505
  0
LINE
  5
2CC
100
AcDbEntity
  8
0
100
AcDbLine
 62
7
  6
CONTINUOUS
 10
11.7953314113
 20
4.0640379502
 11
12.2978314113
 21
4.0640379502
  0
LINE
  5
2CD
100
AcDbEntity
  8
0
100
AcDbLine
 62
7
  6
CONTINUOUS
 10
11.8711122991
 20
4.0610980991
 11
11.7928048398
 21
4.061099488
  0
LINE
  5
2CE
100
AcDbEntity
  8
0
100
AcDbLine
 62
7
  6
CONTINUOUS
 10
4.2978314113
 20
4.0640379502
 11
3.7953314113
 21
4.0640379502
  0
LINE
  5
2CF
100
AcDbEntity
  8
0
100
AcDbLine
 62
7
  6
CONTINUOUS
 10
4.3278314112
 20
4.0327841628
 11
4.3274932904
 21
4.0323940592
  0
LINE
  5
2D0
100
AcDbEntity
  8
0
100
AcDbLine
 62
7
  6
CONTINUOUS
 10
4.3278314113
 20
3.9827841338
 11
4.3274871715
 21
3.982390416
  0
LINE
  5
2D1
100
AcDbEntity
  8
0
100
AcDbLine
 62
7
  6
CONTINUOUS
 10
4.3278314113
 20
3.9327841622
 11
4.3274765447
 21
3.9323844136
  0
LINE
  5
2D2
100
AcDbEntity
  8
0
100
AcDbLine
 62
7
  6
CONTINUOUS
 10
4.2100814113
 20
4.2525379502
 11
4.2015814113
 21
4.2440379502
  0
LINE
  5
2D3
100
AcDbEntity
  8
0
100
AcDbLine
 62
7
  6
CONTINUOUS
 10
3.8465737146
 20
4.1320379502
 11
4.2465907196
 21
4.1320379502
  0
LINE
  5
2D4
100
AcDbEntity
  8
0
100
AcDbLine
 62
7
  6
CONTINUOUS
 10
11.846572103
 20
4.1320379502
 11
12.2465891079
 21
4.1320379502
  0
LINE
  5
2D5
100
AcDbEntity
  8
0
100
AcDbLine
 62
7
  6
CONTINUOUS
 10
3.8615814113
 20
4.1840379502
 11
4.2315814113
 21
4.1840379502
  0
LINE
  5
2D6
100
AcDbEntity
  8
0
100
AcDbLine
 62
7
  6
CONTINUOUS
 10
11.8615814113
 20
4.1840379502
 11
12.2315814113
 21
4.1840379502
  0
LINE
  5
2D7
100
AcDbEntity
  8
0
100
AcDbLine
 62
7
  6
CONTINUOUS
 10
3.8915814113
 20
4.2440379502
 11
4.2010562444
 21
4.2440379502
  0
LINE
  5
2D8
100
AcDbEntity
  8
0
100
AcDbLine
 62
7
  6
CONTINUOUS
 10
11.8915814113
 20
4.2440379502
 11
12.2010562444
 21
4.2440379502
  0
LINE
  5
2D9
100
AcDbEntity
  8
0
100
AcDbLine
 62
7
  6
CONTINUOUS
 10
3.8830814113
 20
4.2525379502
 11
3.8833648123
 21
4.2525379502
  0
LINE
  5
2DA
100
AcDbEntity
  8
0
100
AcDbLine
 62
7
  6
CONTINUOUS
 10
3.8921065781
 20
4.2525379502
 11
3.8994712942
 21
4.2525379502
  0
LINE
  5
2DB
100
AcDbEntity
  8
0
100
AcDbLine
 62
7
  6
CONTINUOUS
 10
3.9243657369
 20
4.2525379502
 11
3.9379739579
 21
4.2525379502
  0
LINE
  5
2DC
100
AcDbEntity
  8
0
100
AcDbLine
 62
7
  6
CONTINUOUS
 10
3.9752311242
 20
4.2525379502
 11
3.9930111218
 21
4.2525379502
  0
LINE
  5
2DD
100
AcDbEntity
  8
0
100
AcDbLine
 62
7
  6
CONTINUOUS
 10
4.0369589459
 20
4.2525379502
 11
4.0562038766
 21
4.2525379502
  0
LINE
  5
2DE
100
AcDbEntity
  8
0
100
AcDbLine
 62
7
  6
CONTINUOUS
 10
4.1001517007
 20
4.2525379502
 11
4.1179316984
 21
4.2525379502
  0
LINE
  5
2DF
100
AcDbEntity
  8
0
100
AcDbLine
 62
7
  6
CONTINUOUS
 10
4.1551888646
 20
4.2525379502
 11
4.1687970857
 21
4.2525379502
  0
LINE
  5
2E0
100
AcDbEntity
  8
0
100
AcDbLine
 62
7
  6
CONTINUOUS
 10
4.1936915283
 20
4.2525379502
 11
4.2010562444
 21
4.2525379502
  0
LINE
  5
2E1
100
AcDbEntity
  8
0
100
AcDbLine
 62
7
  6
CONTINUOUS
 10
4.2097980102
 20
4.2525379502
 11
4.2100497927
 21
4.2525379502
  0
LINE
  5
2E2
100
AcDbEntity
  8
0
100
AcDbLine
 62
7
  6
CONTINUOUS
 10
11.8830814113
 20
4.2525379502
 11
11.8833648123
 21
4.2525379502
  0
LINE
  5
2E3
100
AcDbEntity
  8
0
100
AcDbLine
 62
7
  6
CONTINUOUS
 10
11.8921065781
 20
4.2525379502
 11
11.8994712942
 21
4.2525379502
  0
LINE
  5
2E4
100
AcDbEntity
  8
0
100
AcDbLine
 62
7
  6
CONTINUOUS
 10
11.9243657369
 20
4.2525379502
 11
11.9379739579
 21
4.2525379502
  0
LINE
  5
2E5
100
AcDbEntity
  8
0
100
AcDbLine
 62
7
  6
CONTINUOUS
 10
11.9752311242
 20
4.2525379502
 11
11.9930111218
 21
4.2525379502
  0
LINE
  5
2E6
100
AcDbEntity
  8
0
100
AcDbLine
 62
7
  6
CONTINUOUS
 10
12.0369589459
 20
4.2525379502
 11
12.0562038766
 21
4.2525379502
  0
LINE
  5
2E7
100
AcDbEntity
  8
0
100
AcDbLine
 62
7
  6
CONTINUOUS
 10
12.1001517007
 20
4.2525379502
 11
12.1179316984
 21
4.2525379502
  0
LINE
  5
2E8
100
AcDbEntity
  8
0
100
AcDbLine
 62
7
  6
CONTINUOUS
 10
12.1551888646
 20
4.2525379502
 11
12.1687970857
 21
4.2525379502
  0
LINE
  5
2E9
100
AcDbEntity
  8
0
100
AcDbLine
 62
7
  6
CONTINUOUS
 10
12.1936915283
 20
4.2525379502
 11
12.2010562444
 21
4.2525379502
  0
LINE
  5
2EA
100
AcDbEntity
  8
0
100
AcDbLine
 62
7
  6
CONTINUOUS
 10
12.2097980102
 20
4.2525379502
 11
12.2100497927
 21
4.2525379502
  0
LINE
  5
2EB
100
AcDbEntity
  8
0
100
AcDbLine
 62
7
  6
CONTINUOUS
 10
3.8628317121
 20
4.2740379502
 11
3.868600571
 21
4.2740379502
  0
LINE
  5
2EC
100
AcDbEntity
  8
0
100
AcDbLine
 62
7
  6
CONTINUOUS
 10
3.8850394576
 20
4.2740379502
 11
3.9014653825
 21
4.2740379502
  0
LINE
  5
2ED
100
AcDbEntity
  8
0
100
AcDbLine
 62
7
  6
CONTINUOUS
 10
3.9318394216
 20
4.2740379502
 11
3.9564215321
 21
4.2740379502
  0
LINE
  5
2EE
100
AcDbEntity
  8
0
100
AcDbLine
 62
7
  6
CONTINUOUS
 10
3.9961055231
 20
4.2740379502
 11
4.0251056279
 21
4.2740379502
  0
LINE
  5
2EF
100
AcDbEntity
  8
0
100
AcDbLine
 62
7
  6
CONTINUOUS
 10
4.0680582751
 20
4.2740379502
 11
4.0970550058
 21
4.2740379502
  0
LINE
  5
2F0
100
AcDbEntity
  8
0
100
AcDbLine
 62
7
  6
CONTINUOUS
 10
4.1367370544
 20
4.2740379502
 11
4.1613265468
 21
4.2740379502
  0
LINE
  5
2F1
100
AcDbEntity
  8
0
100
AcDbLine
 62
7
  6
CONTINUOUS
 10
4.1916797832
 20
4.2740379502
 11
4.2081020451
 21
4.2740379502
  0
LINE
  5
2F2
100
AcDbEntity
  8
0
100
AcDbLine
 62
7
  6
CONTINUOUS
 10
4.2245607811
 20
4.2740379502
 11
4.2303305382
 21
4.2740379502
  0
LINE
  5
2F3
100
AcDbEntity
  8
0
100
AcDbLine
 62
7
  6
CONTINUOUS
 10
11.8628322843
 20
4.2740379502
 11
11.8686020414
 21
4.2740379502
  0
LINE
  5
2F4
100
AcDbEntity
  8
0
100
AcDbLine
 62
7
  6
CONTINUOUS
 10
11.8850607774
 20
4.2740379502
 11
11.9014830393
 21
4.2740379502
  0
LINE
  5
2F5
100
AcDbEntity
  8
0
100
AcDbLine
 62
7
  6
CONTINUOUS
 10
11.9318362757
 20
4.2740379502
 11
11.9564257681
 21
4.2740379502
  0
LINE
  5
2F6
100
AcDbEntity
  8
0
100
AcDbLine
 62
7
  6
CONTINUOUS
 10
11.9961078167
 20
4.2740379502
 11
12.0251045474
 21
4.2740379502
  0
LINE
  5
2F7
100
AcDbEntity
  8
0
100
AcDbLine
 62
7
  6
CONTINUOUS
 10
12.0680571947
 20
4.2740379502
 11
12.0970572994
 21
4.2740379502
  0
LINE
  5
2F8
100
AcDbEntity
  8
0
100
AcDbLine
 62
7
  6
CONTINUOUS
 10
12.1367412904
 20
4.2740379502
 11
12.1613234009
 21
4.2740379502
  0
LINE
  5
2F9
100
AcDbEntity
  8
0
100
AcDbLine
 62
7
  6
CONTINUOUS
 10
12.19169744
 20
4.2740379502
 11
12.2081233649
 21
4.2740379502
  0
LINE
  5
2FA
100
AcDbEntity
  8
0
100
AcDbLine
 62
7
  6
CONTINUOUS
 10
12.2245622515
 20
4.2740379502
 11
12.2303311104
 21
4.2740379502
  0
LWPOLYLINE
  5
2FB
100
AcDbEntity
  8
0
100
AcDbPolyline
 62
7
  6
CONTINUOUS
 90
4
 70
0
 10
6.9230394538
 20
3.4040379772
 10
6.9196790109
 20
3.0913069058
 10
6.9192127718
 20
2.7623286133
 10
6.9215814113
 20
2.4720379502
  0
LINE
  5
2FC
100
AcDbEntity
  8
0
100
AcDbLine
 62
7
  6
CONTINUOUS
 10
7.2635023065
 20
7.2169376183
 11
7.2418748464
 21
7.0757904197
  0
LWPOLYLINE
  5
2FD
100
AcDbEntity
  8
0
100
AcDbPolyline
 62
7
  6
CONTINUOUS
 90
10
 70
0
 10
7.3534383674
 20
8.893224187
 10
7.3011989484
 20
8.5641664674
 10
7.2436835873
 20
8.1362811835
 10
7.1843982242
 20
7.6256867122
 10
7.1254551086
 20
7.0404336067
 10
7.0690652223
 20
6.3888540024
 10
7.0177482768
 20
5.6818301883
 10
6.9743129126
 20
4.9336878577
 10
6.9416394855
 20
4.1599708577
 10
6.9230394531
 20
3.4040379519
  0
LINE
  5
2FE
100
AcDbEntity
  8
0
100
AcDbLine
 62
9
  6
CONTINUOUS
 10
3.8336765519
 20
3.9197046169
 11
3.8541608381
 21
3.9353277152
  0
LINE
  5
2FF
100
AcDbEntity
  8
0
100
AcDbLine
 62
7
  6
CONTINUOUS
 10
8.1209179903
 20
6.8680445806
 11
8.0753229865
 21
6.8489300706
  0
LINE
  5
300
100
AcDbEntity
  8
0
100
AcDbLine
 62
7
  6
CONTINUOUS
 10
7.9808846547
 20
6.8093392756
 11
7.8603653586
 21
6.75881472
  0
LINE
  5
301
100
AcDbEntity
  8
0
100
AcDbLine
 62
7
  6
CONTINUOUS
 10
7.8973205399
 20
6.7561566288
 11
8.017839836
 21
6.8066811844
  0
LINE
  5
302
100
AcDbEntity
  8
0
100
AcDbLine
 62
7
  6
CONTINUOUS
 10
8.1122781678
 20
6.8462719793
 11
8.1618159039
 21
6.8670393766
  0
LINE
  5
303
100
AcDbEntity
  8
0
100
AcDbLine
 62
6
  6
CONTINUOUS
 10
12.2580814113
 20
4.5770379502
 11
12.2303305382
 21
4.5770379502
  0
LINE
  5
304
100
AcDbEntity
  8
0
100
AcDbLine
 62
6
  6
CONTINUOUS
 10
11.8628322843
 20
4.5770379502
 11
11.8350814113
 21
4.5770379502
  0
LINE
  5
305
100
AcDbEntity
  8
0
100
AcDbLine
 62
6
  6
CONTINUOUS
 10
4.2580814113
 20
4.5770379502
 11
4.2303305382
 21
4.5770379502
  0
LINE
  5
306
100
AcDbEntity
  8
0
100
AcDbLine
 62
6
  6
CONTINUOUS
 10
3.8628322843
 20
4.5770379502
 11
3.8350814113
 21
4.5770379502
  0
LINE
  5
307
100
AcDbEntity
  8
0
100
AcDbLine
 62
7
  6
CONTINUOUS
 10
12.2303311104
 20
4.9220379502
 11
12.2245622515
 21
4.9220379502
  0
LINE
  5
308
100
AcDbEntity
  8
0
100
AcDbLine
 62
7
  6
CONTINUOUS
 10
12.2081233649
 20
4.9220379502
 11
12.19169744
 21
4.9220379502
  0
LINE
  5
309
100
AcDbEntity
  8
0
100
AcDbLine
 62
7
  6
CONTINUOUS
 10
12.1613234009
 20
4.9220379502
 11
12.1367412904
 21
4.9220379502
  0
LINE
  5
30A
100
AcDbEntity
  8
0
100
AcDbLine
 62
7
  6
CONTINUOUS
 10
12.0970572994
 20
4.9220379502
 11
12.0680571947
 21
4.9220379502
  0
LINE
  5
30B
100
AcDbEntity
  8
0
100
AcDbLine
 62
7
  6
CONTINUOUS
 10
12.0251045474
 20
4.9220379502
 11
11.9961078167
 21
4.9220379502
  0
LINE
  5
30C
100
AcDbEntity
  8
0
100
AcDbLine
 62
7
  6
CONTINUOUS
 10
11.9564257681
 20
4.9220379502
 11
11.9318362757
 21
4.9220379502
  0
LINE
  5
30D
100
AcDbEntity
  8
0
100
AcDbLine
 62
7
  6
CONTINUOUS
 10
11.9014830393
 20
4.9220379502
 11
11.8850607774
 21
4.9220379502
  0
LINE
  5
30E
100
AcDbEntity
  8
0
100
AcDbLine
 62
7
  6
CONTINUOUS
 10
11.8686020414
 20
4.9220379502
 11
11.8628322843
 21
4.9220379502
  0
LINE
  5
30F
100
AcDbEntity
  8
0
100
AcDbLine
 62
7
  6
CONTINUOUS
 10
4.2303305382
 20
4.9220379502
 11
4.2245607811
 21
4.9220379502
  0
LINE
  5
310
100
AcDbEntity
  8
0
100
AcDbLine
 62
7
  6
CONTINUOUS
 10
4.2081020451
 20
4.9220379502
 11
4.1916797832
 21
4.9220379502
  0
LINE
  5
311
100
AcDbEntity
  8
0
100
AcDbLine
 62
7
  6
CONTINUOUS
 10
4.1613265468
 20
4.9220379502
 11
4.1367370544
 21
4.9220379502
  0
LINE
  5
312
100
AcDbEntity
  8
0
100
AcDbLine
 62
7
  6
CONTINUOUS
 10
4.0970550058
 20
4.9220379502
 11
4.0680582751
 21
4.9220379502
  0
LINE
  5
313
100
AcDbEntity
  8
0
100
AcDbLine
 62
7
  6
CONTINUOUS
 10
4.0251056279
 20
4.9220379502
 11
3.9961055231
 21
4.9220379502
  0
LINE
  5
314
100
AcDbEntity
  8
0
100
AcDbLine
 62
7
  6
CONTINUOUS
 10
3.9564215321
 20
4.9220379502
 11
3.9318394216
 21
4.9220379502
  0
LINE
  5
315
100
AcDbEntity
  8
0
100
AcDbLine
 62
7
  6
CONTINUOUS
 10
3.9014653825
 20
4.9220379502
 11
3.8850394576
 21
4.9220379502
  0
LINE
  5
316
100
AcDbEntity
  8
0
100
AcDbLine
 62
7
  6
CONTINUOUS
 10
3.868600571
 20
4.9220379502
 11
3.8628317121
 21
4.9220379502
  0
LINE
  5
317
100
AcDbEntity
  8
0
100
AcDbLine
 62
7
  6
CONTINUOUS
 10
12.2100814113
 20
4.9435379502
 11
12.2099554741
 21
4.9435379502
  0
LINE
  5
318
100
AcDbEntity
  8
0
100
AcDbLine
 62
7
  6
CONTINUOUS
 10
12.2010562444
 20
4.9435379502
 11
12.1936915283
 21
4.9435379502
  0
LINE
  5
319
100
AcDbEntity
  8
0
100
AcDbLine
 62
7
  6
CONTINUOUS
 10
12.1687970857
 20
4.9435379502
 11
12.1551888646
 21
4.9435379502
  0
LINE
  5
31A
100
AcDbEntity
  8
0
100
AcDbLine
 62
7
  6
CONTINUOUS
 10
12.1179316984
 20
4.9435379502
 11
12.1001517007
 21
4.9435379502
  0
LINE
  5
31B
100
AcDbEntity
  8
0
100
AcDbLine
 62
7
  6
CONTINUOUS
 10
12.0562038766
 20
4.9435379502
 11
12.0369589459
 21
4.9435379502
  0
LINE
  5
31C
100
AcDbEntity
  8
0
100
AcDbLine
 62
7
  6
CONTINUOUS
 10
11.9930111218
 20
4.9435379502
 11
11.9752311242
 21
4.9435379502
  0
LINE
  5
31D
100
AcDbEntity
  8
0
100
AcDbLine
 62
7
  6
CONTINUOUS
 10
11.9379739579
 20
4.9435379502
 11
11.9243657369
 21
4.9435379502
  0
LINE
  5
31E
100
AcDbEntity
  8
0
100
AcDbLine
 62
7
  6
CONTINUOUS
 10
11.8994712942
 20
4.9435379502
 11
11.8921065781
 21
4.9435379502
  0
LINE
  5
31F
100
AcDbEntity
  8
0
100
AcDbLine
 62
7
  6
CONTINUOUS
 10
11.8833648123
 20
4.9435379502
 11
11.8831130298
 21
4.9435379502
  0
LINE
  5
320
100
AcDbEntity
  8
0
100
AcDbLine
 62
7
  6
CONTINUOUS
 10
4.2100814113
 20
4.9435379502
 11
4.2099554741
 21
4.9435379502
  0
LINE
  5
321
100
AcDbEntity
  8
0
100
AcDbLine
 62
7
  6
CONTINUOUS
 10
4.2010562444
 20
4.9435379502
 11
4.1936915283
 21
4.9435379502
  0
LINE
  5
322
100
AcDbEntity
  8
0
100
AcDbLine
 62
7
  6
CONTINUOUS
 10
4.1687970857
 20
4.9435379502
 11
4.1551888646
 21
4.9435379502
  0
LINE
  5
323
100
AcDbEntity
  8
0
100
AcDbLine
 62
7
  6
CONTINUOUS
 10
4.1179316984
 20
4.9435379502
 11
4.1001517007
 21
4.9435379502
  0
LINE
  5
324
100
AcDbEntity
  8
0
100
AcDbLine
 62
7
  6
CONTINUOUS
 10
4.0562038766
 20
4.9435379502
 11
4.0369589459
 21
4.9435379502
  0
LINE
  5
325
100
AcDbEntity
  8
0
100
AcDbLine
 62
7
  6
CONTINUOUS
 10
3.9930111218
 20
4.9435379502
 11
3.9752311242
 21
4.9435379502
  0
LINE
  5
326
100
AcDbEntity
  8
0
100
AcDbLine
 62
7
  6
CONTINUOUS
 10
3.9379739579
 20
4.9435379502
 11
3.9243657369
 21
4.9435379502
  0
LINE
  5
327
100
AcDbEntity
  8
0
100
AcDbLine
 62
7
  6
CONTINUOUS
 10
3.8994712942
 20
4.9435379502
 11
3.8921065781
 21
4.9435379502
  0
LINE
  5
328
100
AcDbEntity
  8
0
100
AcDbLine
 62
7
  6
CONTINUOUS
 10
3.8833648123
 20
4.9435379502
 11
3.8831130298
 21
4.9435379502
  0
LINE
  5
329
100
AcDbEntity
  8
0
100
AcDbLine
 62
6
  6
CONTINUOUS
 10
12.2580814113
 20
4.9520379502
 11
12.2147814113
 21
4.9520379502
  0
LINE
  5
32A
100
AcDbEntity
  8
0
100
AcDbLine
 62
6
  6
CONTINUOUS
 10
11.8783814113
 20
4.9520379502
 11
11.8350814113
 21
4.9520379502
  0
LINE
  5
32B
100
AcDbEntity
  8
0
100
AcDbLine
 62
6
  6
CONTINUOUS
 10
4.2580814113
 20
4.9520379502
 11
4.2147814113
 21
4.9520379502
  0
LINE
  5
32C
100
AcDbEntity
  8
0
100
AcDbLine
 62
6
  6
CONTINUOUS
 10
3.8783814113
 20
4.9520379502
 11
3.8350814113
 21
4.9520379502
  0
LINE
  5
32D
100
AcDbEntity
  8
0
100
AcDbLine
 62
7
  6
CONTINUOUS
 10
3.8915814113
 20
4.9520379502
 11
4.2010562444
 21
4.9520379502
  0
LINE
  5
32E
100
AcDbEntity
  8
0
100
AcDbLine
 62
7
  6
CONTINUOUS
 10
11.8915823611
 20
4.9520370004
 11
12.2010555377
 21
4.9520379065
  0
LINE
  5
32F
100
AcDbEntity
  8
0
100
AcDbLine
 62
7
  6
CONTINUOUS
 10
7.361274082
 20
6.788565705
 11
7.3612740798
 21
6.7886030588
  0
LINE
  5
330
100
AcDbEntity
  8
0
100
AcDbLine
 62
7
  6
CONTINUOUS
 10
7.4965814113
 20
6.7933373561
 11
7.4965814113
 21
6.8113296658
  0
LWPOLYLINE
  5
331
100
AcDbEntity
  8
0
100
AcDbPolyline
 62
7
  6
CONTINUOUS
 90
24
 70
0
 10
7.4383793022
 20
8.9641629466
 10
7.4382433742
 20
8.9656796125
 10
7.4383478639
 20
8.9637113371
 10
7.4387522849
 20
8.9526540392
 10
7.4390460636
 20
8.9334263992
 10
7.4389792092
 20
8.9065647283
 10
7.4383866513
 20
8.8725066779
 10
7.4371534574
 20
8.8315598268
 10
7.4351891275
 20
8.7838464156
 10
7.4324128504
 20
8.7293641745
 10
7.4287480866
 20
8.668057677
 10
7.424119447
 20
8.5998381855
 10
7.4184511609
 20
8.524601319
 10
7.4116664796
 20
8.442262828
 10
7.4036854933
 20
8.3527413472
 10
7.3944252376
 20
8.2559568043
 10
7.3837995197
 20
8.1518352304
 10
7.3717208522
 20
8.0403307109
 10
7.3580994419
 20
7.9214151822
 10
7.342842788
 20
7.7950867376
 10
7.3258552302
 20
7.6613922386
 10
7.3070377599
 20
7.5204030294
 10
7.2862884222
 20
7.3722127527
 10
7.2635023065
 20
7.2169376183
  0
LINE
  5
332
100
AcDbEntity
  8
0
100
AcDbLine
 62
7
  6
CONTINUOUS
 10
8.0265814113
 20
6.8692857745
 11
8.0265814113
 21
6.8492320113
  0
LINE
  5
333
100
AcDbEntity
  8
0
100
AcDbLine
 62
7
  6
CONTINUOUS
 10
8.0265814113
 20
6.8063792436
 11
8.0265814113
 21
6.7516918588
  0
LINE
  5
334
100
AcDbEntity
  8
0
100
AcDbLine
 62
7
  6
CONTINUOUS
 10
8.0465814113
 20
9.6980305783
 11
8.0465814113
 21
7.2118247335
  0
LINE
  5
335
100
AcDbEntity
  8
0
100
AcDbLine
 62
7
  6
CONTINUOUS
 10
8.0465814113
 20
6.6511719568
 11
8.0465814113
 21
3.4040379502
  0
LINE
  5
336
100
AcDbEntity
  8
0
100
AcDbLine
 62
9
  6
CONTINUOUS
 10
8.0465814113
 20
3.4040379502
 11
8.0465814113
 21
2.4720379502
  0
LINE
  5
337
100
AcDbEntity
  8
0
100
AcDbLine
 62
7
  6
CONTINUOUS
 10
8.0665814113
 20
6.7516918588
 11
8.0665814113
 21
6.8063792436
  0
LINE
  5
338
100
AcDbEntity
  8
0
100
AcDbLine
 62
7
  6
CONTINUOUS
 10
8.0665814113
 20
6.8492320113
 11
8.0665814113
 21
6.8692857203
  0
LINE
  5
339
100
AcDbEntity
  8
0
100
AcDbLine
 62
7
  6
CONTINUOUS
 10
4.3003553381
 20
4.0167205727
 11
4.3241647627
 21
4.0304867378
  0
LINE
  5
33A
100
AcDbEntity
  8
0
100
AcDbLine
 62
7
  6
CONTINUOUS
 10
4.3003749952
 20
3.9667290594
 11
4.3274871513
 21
3.9824048559
  0
LINE
  5
33B
100
AcDbEntity
  8
0
100
AcDbLine
 62
7
  6
CONTINUOUS
 10
4.3003716753
 20
3.9167205745
 11
4.3274765338
 21
3.9323920338
  0
LINE
  5
33C
100
AcDbEntity
  8
0
100
AcDbLine
 62
7
  6
CONTINUOUS
 10
7.2675814113
 20
6.7864437018
 11
7.2904584109
 21
6.7539059163
  0
LINE
  5
33D
100
AcDbEntity
  8
0
100
AcDbLine
 62
7
  6
CONTINUOUS
 10
8.8027205486
 20
6.7539173042
 11
8.8255814113
 21
6.7864437018
  0
LINE
  5
33E
100
AcDbEntity
  8
0
100
AcDbLine
 62
7
  6
CONTINUOUS
 10
11.7656862887
 20
3.9323920338
 11
11.7927911472
 21
3.9167205745
  0
LINE
  5
33F
100
AcDbEntity
  8
0
100
AcDbLine
 62
7
  6
CONTINUOUS
 10
11.7656756712
 20
3.9824048559
 11
11.7927878273
 21
3.9667290594
  0
LINE
  5
340
100
AcDbEntity
  8
0
100
AcDbLine
 62
7
  6
CONTINUOUS
 10
11.7656695559
 20
4.0324112166
 11
11.7928074844
 21
4.0167205727
  0
LINE
  5
341
100
AcDbEntity
  8
0
100
AcDbLine
 62
7
  6
CONTINUOUS
 10
7.3993874594
 20
6.7663095786
 11
7.3823409916
 21
6.7828340862
  0
LINE
  5
342
100
AcDbEntity
  8
0
100
AcDbLine
 62
7
  6
CONTINUOUS
 10
8.5965814113
 20
6.7933373561
 11
8.5965814113
 21
6.8113305045
  0
LINE
  5
343
100
AcDbEntity
  8
0
100
AcDbLine
 62
7
  6
CONTINUOUS
 10
12.3274721972
 20
3.9144241663
 11
12.3003544359
 21
3.9301041342
  0
LINE
  5
344
100
AcDbEntity
  8
0
100
AcDbLine
 62
7
  6
CONTINUOUS
 10
12.3275029635
 20
3.9643990882
 11
12.3003688158
 21
3.980087612
  0
LINE
  5
345
100
AcDbEntity
  8
0
100
AcDbLine
 62
7
  6
CONTINUOUS
 10
12.3275044393
 20
4.0144184729
 11
12.3004030531
 21
4.0300859822
  0
LWPOLYLINE
  5
346
100
AcDbEntity
  8
0
100
AcDbPolyline
 62
7
  6
CONTINUOUS
 90
10
 70
0
 10
9.1701233695
 20
3.4040379519
 10
9.1515233371
 20
4.1599708577
 10
9.1188499099
 20
4.9336878577
 10
9.0754145457
 20
5.6818301883
 10
9.0240976002
 20
6.3888540024
 10
8.9677077139
 20
7.0404336067
 10
8.9087645984
 20
7.6256867122
 10
8.8494792353
 20
8.1362811835
 10
8.7919638741
 20
8.5641664674
 10
8.7397244551
 20
8.893224187
  0
LWPOLYLINE
  5
347
100
AcDbEntity
  8
0
100
AcDbPolyline
 62
7
  6
CONTINUOUS
 90
4
 70
0
 10
9.1715814113
 20
2.4720379502
 10
9.1739500507
 20
2.7623286133
 10
9.1734838117
 20
3.0913069058
 10
9.1701233687
 20
3.4040379772
  0
LINE
  5
348
100
AcDbEntity
  8
0
100
AcDbLine
 62
7
  6
CONTINUOUS
 10
7.7507832832
 20
6.7715293094
 11
7.9734739051
 21
6.8101991301
  0
LINE
  5
349
100
AcDbEntity
  8
0
100
AcDbLine
 62
7
  6
CONTINUOUS
 10
8.1479731887
 20
6.8405006127
 11
8.2601113925
 21
6.8599732074
  0
LINE
  5
34A
100
AcDbEntity
  8
0
100
AcDbLine
 62
7
  6
CONTINUOUS
 10
8.2201048083
 20
6.8628491613
 11
8.1196889175
 21
6.8454121248
  0
LINE
  5
34B
100
AcDbEntity
  8
0
100
AcDbLine
 62
7
  6
CONTINUOUS
 10
7.9451896338
 20
6.8151106422
 11
7.7224990119
 21
6.7764408216
  0
LINE
  5
34C
100
AcDbEntity
  8
0
100
AcDbLine
 62
7
  6
CONTINUOUS
 10
7.64927861
 20
6.7954695493
 11
7.9402379292
 21
6.8163975054
  0
LINE
  5
34D
100
AcDbEntity
  8
0
100
AcDbLine
 62
7
  6
CONTINUOUS
 10
8.1682322306
 20
6.8327965496
 11
8.3608500031
 21
6.846651051
  0
LINE
  5
34E
100
AcDbEntity
  8
0
100
AcDbLine
 62
7
  6
CONTINUOUS
 10
8.3256424045
 20
6.8516368763
 11
8.1529248933
 21
6.8392137495
  0
LINE
  5
34F
100
AcDbEntity
  8
0
100
AcDbLine
 62
7
  6
CONTINUOUS
 10
7.9249305919
 20
6.8228147053
 11
7.6339712727
 21
6.8018867491
  0
LINE
  5
350
100
AcDbEntity
  8
0
100
AcDbLine
 62
7
  6
CONTINUOUS
 10
7.6483410056
 20
6.8243326639
 11
7.9231917845
 21
6.8243326639
  0
LINE
  5
351
100
AcDbEntity
  8
0
100
AcDbLine
 62
7
  6
CONTINUOUS
 10
8.1699710381
 20
6.8243326639
 11
8.4448222268
 21
6.8243326639
  0
LINE
  5
352
100
AcDbEntity
  8
0
100
AcDbLine
 62
7
  6
CONTINUOUS
 10
8.4282509706
 20
6.831278591
 11
8.1699710381
 21
6.831278591
  0
LINE
  5
353
100
AcDbEntity
  8
0
100
AcDbLine
 62
7
  6
CONTINUOUS
 10
7.9231917845
 20
6.831278591
 11
7.6649136843
 21
6.831278591
  0
LINE
  5
354
100
AcDbEntity
  8
0
100
AcDbLine
 62
7
  6
CONTINUOUS
 10
7.7323143349
 20
6.846650942
 11
7.9249305919
 21
6.8327965496
  0
LINE
  5
355
100
AcDbEntity
  8
0
100
AcDbLine
 62
7
  6
CONTINUOUS
 10
8.1529248933
 20
6.8163975054
 11
8.4438842125
 21
6.7954695493
  0
LINE
  5
356
100
AcDbEntity
  8
0
100
AcDbLine
 62
7
  6
CONTINUOUS
 10
8.4591915498
 20
6.8018867491
 11
8.1682322306
 21
6.8228147053
  0
LINE
  5
357
100
AcDbEntity
  8
0
100
AcDbLine
 62
7
  6
CONTINUOUS
 10
7.9402379292
 20
6.8392137495
 11
7.7675198643
 21
6.8516369161
  0
LINE
  5
358
100
AcDbEntity
  8
0
100
AcDbLine
 62
7
  6
CONTINUOUS
 10
7.8330502582
 20
6.8599734109
 11
7.9451896338
 21
6.8405006127
  0
LINE
  5
359
100
AcDbEntity
  8
0
100
AcDbLine
 62
7
  6
CONTINUOUS
 10
8.1196889175
 20
6.8101991301
 11
8.3423795393
 21
6.7715293094
  0
LINE
  5
35A
100
AcDbEntity
  8
0
100
AcDbLine
 62
7
  6
CONTINUOUS
 10
8.3706638106
 20
6.7764408216
 11
8.1479731887
 21
6.8151106422
  0
LINE
  5
35B
100
AcDbEntity
  8
0
100
AcDbLine
 62
7
  6
CONTINUOUS
 10
7.9734739051
 20
6.8454121248
 11
7.8730578529
 21
6.8628491893
  0
LINE
  5
35C
100
AcDbEntity
  8
0
100
AcDbLine
 62
7
  6
CONTINUOUS
 10
7.931347574
 20
6.8670391018
 11
7.9808846547
 21
6.8462719793
  0
LINE
  5
35D
100
AcDbEntity
  8
0
100
AcDbLine
 62
7
  6
CONTINUOUS
 10
8.0753229865
 20
6.8066811844
 11
8.1958422826
 21
6.7561566288
  0
LINE
  5
35E
100
AcDbEntity
  8
0
100
AcDbLine
 62
7
  6
CONTINUOUS
 10
8.2327974639
 20
6.75881472
 11
8.1122781678
 21
6.8093392756
  0
LINE
  5
35F
100
AcDbEntity
  8
0
100
AcDbLine
 62
7
  6
CONTINUOUS
 10
8.017839836
 20
6.8489300706
 11
7.972244377
 21
6.8680447715
  0
LINE
  5
360
100
AcDbEntity
  8
0
100
AcDbLine
 62
7
  6
CONTINUOUS
 10
8.6825252187
 20
6.8244073567
 11
8.6800470121
 21
6.8257499755
  0
LWPOLYLINE
  5
361
100
AcDbEntity
  8
0
100
AcDbPolyline
 62
7
  6
CONTINUOUS
 90
19
 70
0
 10
8.739737758
 20
8.8931484027
 10
8.7329873165
 20
8.9309212249
 10
8.7242897428
 20
8.9774771158
 10
8.7155102461
 20
9.0219378205
 10
8.7066276064
 20
9.0641900741
 10
8.6975541261
 20
9.1043770218
 10
8.6880941781
 20
9.1429686857
 10
8.6778751489
 20
9.1808435099
 10
8.6662376157
 20
9.2193576516
 10
8.6519407932
 20
9.2606685353
 10
8.6328682601
 20
9.3074128259
 10
8.6053764638
 20
9.3626500727
 10
8.5653599724
 20
9.4264394355
 10
8.5099937282
 20
9.4944939369
 10
8.4396411002
 20
9.5594097071
 10
8.3557062744
 20
9.6158029936
 10
8.2579147476
 20
9.6604540382
 10
8.1454913005
 20
9.6895137542
 10
8.0465814113
 20
9.6980305783
  0
LWPOLYLINE
  5
362
100
AcDbEntity
  8
0
100
AcDbPolyline
 62
7
  6
CONTINUOUS
 90
27
 70
0
 10
8.8512879834
 20
7.0757903731
 10
8.8330716473
 20
7.1942944044
 10
8.8131771723
 20
7.3285316499
 10
8.7948282334
 20
7.4573870924
 10
8.7779483938
 20
7.5808298059
 10
8.7624642855
 20
7.6988386925
 10
8.7483054979
 20
7.8114020479
 10
8.7354044691
 20
7.9185170854
 10
8.7236966525
 20
8.0201904255
 10
8.7131203591
 20
8.1164529332
 10
8.7036160978
 20
8.2073497402
 10
8.6951272175
 20
8.2929251546
 10
8.6875980683
 20
8.3732393111
 10
8.6809751729
 20
8.4483560651
 10
8.6752074697
 20
8.5183376138
 10
8.6702461076
 20
8.5832426626
 10
8.6660446404
 20
8.6431238304
 10
8.6625578278
 20
8.6980439001
 10
8.6597411579
 20
8.7480584696
 10
8.6575504528
 20
8.7932042974
 10
8.6559407793
 20
8.833491731
 10
8.6548646528
 20
8.8688935211
 10
8.6542689347
 20
8.8993281475
 10
8.6540892612
 20
8.924612931
 10
8.6542381612
 20
8.944430307
 10
8.654584054
 20
8.9582899624
 10
8.6547092732
 20
8.9614628714
  0
LINE
  5
363
100
AcDbEntity
  8
0
100
AcDbLine
 62
7
  6
CONTINUOUS
 10
11.8830814113
 20
4.2525379502
 11
11.8915814113
 21
4.2440379502
  0
LINE
  5
364
100
AcDbEntity
  8
0
100
AcDbLine
 62
7
  6
CONTINUOUS
 10
12.2978314113
 20
4.0640379502
 11
12.3127769187
 21
4.0490924428
  0
LINE
  5
365
100
AcDbEntity
  8
0
100
AcDbLine
 62
7
  6
CONTINUOUS
 10
11.7653314113
 20
4.0327841628
 11
11.7656695321
 21
4.0323940592
  0
LINE
  5
366
100
AcDbEntity
  8
0
100
AcDbLine
 62
7
  6
CONTINUOUS
 10
12.2015814113
 20
4.9520379502
 11
12.2100814113
 21
4.9435379502
  0
LINE
  5
367
100
AcDbEntity
  8
0
100
AcDbLine
 62
6
  6
CONTINUOUS
 10
10.8765814113
 20
1.9110379502
 11
10.8765814113
 21
1.8970379502
  0
LINE
  5
368
100
AcDbEntity
  8
0
100
AcDbLine
 62
7
  6
CONTINUOUS
 10
11.1090814113
 20
2.4520379502
 11
11.1090814113
 21
2.4970379502
  0
LINE
  5
369
100
AcDbEntity
  8
0
100
AcDbLine
 62
7
  6
CONTINUOUS
 10
11.7688151275
 20
4.0340379502
 11
11.7653314113
 21
4.0327841628
  0
LINE
  5
36A
100
AcDbEntity
  8
0
100
AcDbLine
 62
7
  6
CONTINUOUS
 10
11.2267177876
 20
2.6015379502
 11
11.2267177876
 21
2.4970379502
  0
LINE
  5
36B
100
AcDbEntity
  8
0
100
AcDbLine
 62
7
  6
CONTINUOUS
 10
11.8915814113
 20
4.9520379502
 11
11.8830814113
 21
4.9435379502
  0
LINE
  5
36C
100
AcDbEntity
  8
0
100
AcDbLine
 62
7
  6
CONTINUOUS
 10
11.792804547
 20
4.0550907243
 11
11.7784116461
 21
4.0467681112
  0
LINE
  5
36D
100
AcDbEntity
  8
0
100
AcDbLine
 62
7
  6
CONTINUOUS
 10
11.6236985805
 20
2.4970379502
 11
11.6236985805
 21
2.6015379502
  0
LINE
  5
36E
100
AcDbEntity
  8
0
100
AcDbLine
 62
7
  6
CONTINUOUS
 10
11.6496006183
 20
2.6015379502
 11
11.6496006183
 21
2.4970379502
  0
LINE
  5
36F
100
AcDbEntity
  8
0
100
AcDbLine
 62
7
  6
CONTINUOUS
 10
11.7653314113
 20
3.9890379481
 11
11.7653314113
 21
3.9827841338
  0
LINE
  5
370
100
AcDbEntity
  8
0
100
AcDbLine
 62
7
  6
CONTINUOUS
 10
11.7653314113
 20
3.9390379363
 11
11.7653314113
 21
3.9327841622
  0
LINE
  5
371
100
AcDbEntity
  8
0
100
AcDbLine
 62
7
  6
CONTINUOUS
 10
11.792395013
 20
3.9671797322
 11
11.792395013
 21
3.9546661075
  0
LINE
  5
372
100
AcDbEntity
  8
0
100
AcDbLine
 62
7
  6
CONTINUOUS
 10
11.7924213386
 20
3.9171489184
 11
11.7924213386
 21
3.9046489184
  0
LINE
  5
373
100
AcDbEntity
  8
0
100
AcDbLine
 62
7
  6
CONTINUOUS
 10
11.7924267814
 20
4.0171601664
 11
11.7924267803
 21
4.0046664801
  0
LINE
  5
374
100
AcDbEntity
  8
0
100
AcDbLine
 62
7
  6
CONTINUOUS
 10
11.7924280491
 20
4.061134505
 11
11.7924280478
 21
4.054655551
  0
LINE
  5
375
100
AcDbEntity
  8
0
100
AcDbLine
 62
6
  6
CONTINUOUS
 10
11.8350814113
 20
4.5770379502
 11
11.8350814113
 21
4.9520379502
  0
LINE
  5
376
100
AcDbEntity
  8
0
100
AcDbLine
 62
7
  6
CONTINUOUS
 10
11.8465820534
 20
4.1320379502
 11
11.8465820534
 21
4.0640379502
  0
LINE
  5
377
100
AcDbEntity
  8
0
100
AcDbLine
 62
7
  6
CONTINUOUS
 10
11.8615814113
 20
4.1840379502
 11
11.8615814113
 21
4.1320379502
  0
LINE
  5
378
100
AcDbEntity
  8
0
100
AcDbLine
 62
7
  6
CONTINUOUS
 10
11.8628322843
 20
4.2740379502
 11
11.8628322843
 21
4.9220379502
  0
LINE
  5
379
100
AcDbEntity
  8
0
100
AcDbLine
 62
7
  6
CONTINUOUS
 10
11.86860049
 20
4.9220379502
 11
11.86860049
 21
4.2740379502
  0
LINE
  5
37A
100
AcDbEntity
  8
0
100
AcDbLine
 62
6
  6
CONTINUOUS
 10
11.8783814113
 20
4.9383674185
 11
11.8783814113
 21
4.9520379502
  0
LINE
  5
37B
100
AcDbEntity
  8
0
100
AcDbLine
 62
7
  6
CONTINUOUS
 10
11.8850382175
 20
4.2740379502
 11
11.8850382175
 21
4.9220379502
  0
LINE
  5
37C
100
AcDbEntity
  8
0
100
AcDbLine
 62
7
  6
CONTINUOUS
 10
11.8921065781
 20
4.2525379502
 11
11.8921065781
 21
4.2634450232
  0
LINE
  5
37D
100
AcDbEntity
  8
0
100
AcDbLine
 62
7
  6
CONTINUOUS
 10
11.8921065781
 20
4.9326308772
 11
11.8921065781
 21
4.9435379502
  0
LINE
  5
37E
100
AcDbEntity
  8
0
100
AcDbLine
 62
7
  6
CONTINUOUS
 10
11.8950814113
 20
4.2440379502
 11
11.8950814113
 21
4.1840379502
  0
LINE
  5
37F
100
AcDbEntity
  8
0
100
AcDbLine
 62
7
  6
CONTINUOUS
 10
11.9014646776
 20
4.9220379502
 11
11.9014646776
 21
4.2740379502
  0
LINE
  5
380
100
AcDbEntity
  8
0
100
AcDbLine
 62
7
  6
CONTINUOUS
 10
11.9243657369
 20
4.2525379502
 11
11.9243657369
 21
4.9435379502
  0
LINE
  5
381
100
AcDbEntity
  8
0
100
AcDbLine
 62
7
  6
CONTINUOUS
 10
11.9318376375
 20
4.2740379502
 11
11.9318376375
 21
4.9220379502
  0
LINE
  5
382
100
AcDbEntity
  8
0
100
AcDbLine
 62
9
  6
CONTINUOUS
 10
11.9459154826
 20
4.1320379502
 11
11.9459154826
 21
4.0640379502
  0
LINE
  5
383
100
AcDbEntity
  8
0
100
AcDbLine
 62
7
  6
CONTINUOUS
 10
11.9564215724
 20
4.9220379502
 11
11.9564215724
 21
4.2740379502
  0
LINE
  5
384
100
AcDbEntity
  8
0
100
AcDbLine
 62
7
  6
CONTINUOUS
 10
11.9752311242
 20
4.2525379502
 11
11.9752311242
 21
4.9435379502
  0
LINE
  5
385
100
AcDbEntity
  8
0
100
AcDbLine
 62
9
  6
CONTINUOUS
 10
11.9837477665
 20
4.1320379502
 11
11.9837477665
 21
4.0640379502
  0
LINE
  5
386
100
AcDbEntity
  8
0
100
AcDbLine
 62
6
  6
CONTINUOUS
 10
11.6119158677
 20
3.6999329603
 11
11.6367161778
 21
3.8405825081
  0
LINE
  5
387
100
AcDbEntity
  8
0
100
AcDbLine
 62
7
  6
CONTINUOUS
 10
11.7953314113
 20
4.0640379502
 11
11.7923914114
 21
4.0610979504
  0
LINE
  5
388
100
AcDbEntity
  8
0
100
AcDbLine
 62
7
  6
CONTINUOUS
 10
11.7771648843
 20
4.0458714233
 11
11.7670732694
 21
4.0357798083
  0
LINE
  5
389
100
AcDbEntity
  8
0
100
AcDbLine
 62
7
  6
CONTINUOUS
 10
11.7771628903
 20
4.0458694276
 11
11.7784755237
 21
4.0468325338
  0
LINE
  5
38A
100
AcDbEntity
  8
0
100
AcDbLine
 62
7
  6
CONTINUOUS
 10
12.3003506899
 20
3.9417388384
 11
12.3275109983
 21
3.9574436044
  0
LINE
  5
38B
100
AcDbEntity
  8
0
100
AcDbLine
 62
7
  6
CONTINUOUS
 10
12.3003941318
 20
4.0417430252
 11
12.3081347523
 21
4.0462187812
  0
LINE
  5
38C
100
AcDbEntity
  8
0
100
AcDbLine
 62
7
  6
CONTINUOUS
 10
12.3003805397
 20
3.9917341432
 11
12.3274899979
 21
4.0074084128
  0
LWPOLYLINE
  5
38D
100
AcDbEntity
  8
0
100
AcDbPolyline
 62
7
  6
CONTINUOUS
 90
18
 70
0
 10
8.0465814113
 20
9.6980305782
 10
7.9406498729
 20
9.6883202569
 10
7.8220181206
 20
9.6555556982
 10
7.71920747
 20
9.6051278651
 10
7.6318274422
 20
9.5414203517
 10
7.561120137
 20
9.4695938586
 10
7.5084278665
 20
9.3975113811
 10
7.4730032687
 20
9.3344295056
 10
7.4495936576
 20
9.2822274137
 10
7.4331978645
 20
9.2382382198
 10
7.4206164624
 20
9.1990663299
 10
7.4098830468
 20
9.1613011161
 10
7.400061174
 20
9.1229652937
 10
7.3906255624
 20
9.0826856936
 10
7.381249834
 20
9.0393877954
 10
7.3717098059
 20
8.9921276765
 10
7.3618557138
 20
8.9401034398
 10
7.3534255309
 20
8.8931510603
  0
LINE
  5
38E
100
AcDbEntity
  8
0
100
AcDbLine
 62
7
  6
CONTINUOUS
 10
11.9930111218
 20
4.9435379502
 11
11.9930111218
 21
4.2525379502
  0
LINE
  5
38F
100
AcDbEntity
  8
0
100
AcDbLine
 62
7
  6
CONTINUOUS
 10
11.996105757
 20
4.2740379502
 11
11.996105757
 21
4.9220379502
  0
LINE
  5
390
100
AcDbEntity
  8
0
100
AcDbLine
 62
7
  6
CONTINUOUS
 10
12.0251044853
 20
4.9220379502
 11
12.0251044853
 21
4.2740379502
  0
LINE
  5
391
100
AcDbEntity
  8
0
100
AcDbLine
 62
7
  6
CONTINUOUS
 10
12.0369589459
 20
4.2525379502
 11
12.0369589459
 21
4.9435379502
  0
LINE
  5
392
100
AcDbEntity
  8
0
100
AcDbLine
 62
7
  6
CONTINUOUS
 10
12.0562038766
 20
4.9435379502
 11
12.0562038766
 21
4.2525379502
  0
LINE
  5
393
100
AcDbEntity
  8
0
100
AcDbLine
 62
7
  6
CONTINUOUS
 10
12.0680583372
 20
4.2740379502
 11
12.0680583372
 21
4.9220379502
  0
LINE
  5
394
100
AcDbEntity
  8
0
100
AcDbLine
 62
7
  6
CONTINUOUS
 10
12.0970570655
 20
4.9220379502
 11
12.0970570655
 21
4.2740379502
  0
LINE
  5
395
100
AcDbEntity
  8
0
100
AcDbLine
 62
7
  6
CONTINUOUS
 10
12.1001517007
 20
4.2525379502
 11
12.1001517007
 21
4.9435379502
  0
LINE
  5
396
100
AcDbEntity
  8
0
100
AcDbLine
 62
9
  6
CONTINUOUS
 10
12.109415056
 20
4.0640379502
 11
12.109415056
 21
4.1320379502
  0
LINE
  5
397
100
AcDbEntity
  8
0
100
AcDbLine
 62
7
  6
CONTINUOUS
 10
12.1179316984
 20
4.9435379502
 11
12.1179316984
 21
4.2525379502
  0
LINE
  5
398
100
AcDbEntity
  8
0
100
AcDbLine
 62
7
  6
CONTINUOUS
 10
12.1367412502
 20
4.2740379502
 11
12.1367412502
 21
4.9220379502
  0
LINE
  5
399
100
AcDbEntity
  8
0
100
AcDbLine
 62
9
  6
CONTINUOUS
 10
12.1472473399
 20
4.0640379502
 11
12.1472473399
 21
4.1320379502
  0
LINE
  5
39A
100
AcDbEntity
  8
0
100
AcDbLine
 62
7
  6
CONTINUOUS
 10
12.161325185
 20
4.9220379502
 11
12.161325185
 21
4.2740379502
  0
LINE
  5
39B
100
AcDbEntity
  8
0
100
AcDbLine
 62
7
  6
CONTINUOUS
 10
12.1687970857
 20
4.9435379502
 11
12.1687970857
 21
4.2525379502
  0
LINE
  5
39C
100
AcDbEntity
  8
0
100
AcDbLine
 62
7
  6
CONTINUOUS
 10
12.1916981449
 20
4.2740379502
 11
12.1916981449
 21
4.9220379502
  0
LINE
  5
39D
100
AcDbEntity
  8
0
100
AcDbLine
 62
7
  6
CONTINUOUS
 10
12.1980814113
 20
4.2440379502
 11
12.1980814113
 21
4.1840379502
  0
LINE
  5
39E
100
AcDbEntity
  8
0
100
AcDbLine
 62
7
  6
CONTINUOUS
 10
12.2010562444
 20
4.9435379502
 11
12.2010562444
 21
4.9326308772
  0
LINE
  5
39F
100
AcDbEntity
  8
0
100
AcDbLine
 62
7
  6
CONTINUOUS
 10
12.2010562444
 20
4.2634450233
 11
12.2010562444
 21
4.2525379502
  0
LINE
  5
3A0
100
AcDbEntity
  8
0
100
AcDbLine
 62
7
  6
CONTINUOUS
 10
12.208124605
 20
4.9220379502
 11
12.208124605
 21
4.2740379502
  0
LINE
  5
3A1
100
AcDbEntity
  8
0
100
AcDbLine
 62
6
  6
CONTINUOUS
 10
12.2147814113
 20
4.9383674187
 11
12.2147814113
 21
4.9520379502
  0
LINE
  5
3A2
100
AcDbEntity
  8
0
100
AcDbLine
 62
7
  6
CONTINUOUS
 10
12.2245623325
 20
4.2740379502
 11
12.2245623325
 21
4.9220379502
  0
LINE
  5
3A3
100
AcDbEntity
  8
0
100
AcDbLine
 62
7
  6
CONTINUOUS
 10
12.2303305382
 20
4.9220379502
 11
12.2303305382
 21
4.2740379502
  0
LINE
  5
3A4
100
AcDbEntity
  8
0
100
AcDbLine
 62
7
  6
CONTINUOUS
 10
12.2315814113
 20
4.1840379502
 11
12.2315814113
 21
4.1320379502
  0
LINE
  5
3A5
100
AcDbEntity
  8
0
100
AcDbLine
 62
7
  6
CONTINUOUS
 10
12.2465807691
 20
4.1320379502
 11
12.2465807691
 21
4.0640379502
  0
LINE
  5
3A6
100
AcDbEntity
  8
0
100
AcDbLine
 62
6
  6
CONTINUOUS
 10
12.2580814113
 20
4.5770379502
 11
12.2580814113
 21
4.9520379502
  0
LINE
  5
3A7
100
AcDbEntity
  8
0
100
AcDbLine
 62
7
  6
CONTINUOUS
 10
12.3007266357
 20
3.9296731131
 11
12.3007266357
 21
3.9421731131
  0
LINE
  5
3A8
100
AcDbEntity
  8
0
100
AcDbLine
 62
7
  6
CONTINUOUS
 10
12.3007444362
 20
3.9796536321
 11
12.3007444362
 21
3.9921535683
  0
LINE
  5
3A9
100
AcDbEntity
  8
0
100
AcDbLine
 62
7
  6
CONTINUOUS
 10
12.3007714094
 20
4.0296609443
 11
12.3007714094
 21
4.0421738455
  0
LINE
  5
3AA
100
AcDbEntity
  8
0
100
AcDbLine
 62
7
  6
CONTINUOUS
 10
12.3278314113
 20
4.0140379609
 11
12.3278314113
 21
4.0077841344
  0
LINE
  5
3AB
100
AcDbEntity
  8
0
100
AcDbLine
 62
7
  6
CONTINUOUS
 10
12.3278314113
 20
3.9640379366
 11
12.3278314113
 21
3.9577841523
  0
LINE
  5
3AC
100
AcDbEntity
  8
0
100
AcDbLine
 62
7
  6
CONTINUOUS
 10
12.3278314113
 20
3.9140379557
 11
12.3278314113
 21
3.9077841557
  0
LINE
  5
3AD
100
AcDbEntity
  8
0
100
AcDbLine
 62
7
  6
CONTINUOUS
 10
11.7653314113
 20
3.9390379395
 11
11.7656663352
 21
3.9394229393
  0
LINE
  5
3AE
100
AcDbEntity
  8
0
100
AcDbLine
 62
7
  6
CONTINUOUS
 10
11.7653314113
 20
3.9890379512
 11
11.765682175
 21
3.9894311061
  0
LINE
  5
3AF
100
AcDbEntity
  8
0
100
AcDbLine
 62
7
  6
CONTINUOUS
 10
12.2100814113
 20
4.2525379502
 11
12.2015814113
 21
4.2440379502
  0
LINE
  5
3B0
100
AcDbEntity
  8
0
100
AcDbLine
 62
6
  6
CONTINUOUS
 10
12.4564466448
 20
3.8405825081
 11
12.4812469549
 21
3.6999329603
  0
LINE
  5
3B1
100
AcDbEntity
  8
0
100
AcDbLine
 62
7
  6
CONTINUOUS
 10
12.4435622042
 20
2.4970379502
 11
12.4435622042
 21
2.6015379502
  0
LINE
  5
3B2
100
AcDbEntity
  8
0
100
AcDbLine
 62
7
  6
CONTINUOUS
 10
12.469464242
 20
2.6015379502
 11
12.469464242
 21
2.4970379502
  0
LINE
  5
3B3
100
AcDbEntity
  8
0
100
AcDbLine
 62
7
  6
CONTINUOUS
 10
12.3127769187
 20
4.0490924428
 11
12.3126826069
 21
4.0488329882
  0
LINE
  5
3B4
100
AcDbEntity
  8
0
100
AcDbLine
 62
7
  6
CONTINUOUS
 10
12.3278314113
 20
3.9577841523
 11
12.3275110512
 21
3.9574043745
  0
LINE
  5
3B5
100
AcDbEntity
  8
0
100
AcDbLine
 62
7
  6
CONTINUOUS
 10
12.3278314113
 20
3.9077841557
 11
12.3275029367
 21
3.9073996003
  0
LINE
  5
3B6
100
AcDbEntity
  8
0
100
AcDbLine
 62
7
  6
CONTINUOUS
 10
12.3278314113
 20
4.0077841344
 11
12.3274900206
 21
4.0073920937
  0
LINE
  5
3B7
100
AcDbEntity
  8
0
100
AcDbLine
 62
7
  6
CONTINUOUS
 10
12.866445035
 20
2.4970379502
 11
12.866445035
 21
2.6015379502
  0
LINE
  5
3B8
100
AcDbEntity
  8
0
100
AcDbLine
 62
7
  6
CONTINUOUS
 10
12.9840814113
 20
2.4520379502
 11
12.9840814113
 21
2.4970379502
  0
LINE
  5
3B9
100
AcDbEntity
  8
0
100
AcDbLine
 62
6
  6
CONTINUOUS
 10
13.2165814113
 20
1.9110379502
 11
13.2165814113
 21
1.8970379502
  0
ARC
  5
3BA
100
AcDbEntity
  8
0
100
AcDbCircle
 62
7
  6
CONTINUOUS
 10
4.3647845115
 20
-8.2817278619
 40
12.3402588638
100
AcDbArc
 50
91.9702915629
 51
92.0883570989
  0
ARC
  5
3BB
100
AcDbEntity
  8
0
100
AcDbCircle
 62
7
  6
CONTINUOUS
 10
4.0219327717
 20
-1.9405251437
 40
5.9957362131
100
AcDbArc
 50
91.4554461949
 51
91.8513647501
  0
ARC
  5
3BC
100
AcDbEntity
  8
0
100
AcDbCircle
 62
7
  6
CONTINUOUS
 10
-1.938901413
 20
4.0787463814
 40
5.9946184848
100
AcDbArc
 50
8.0868940741
 51
8.2945061491
  0
ARC
  5
3BD
100
AcDbEntity
  8
0
100
AcDbCircle
 62
7
  6
CONTINUOUS
 10
-1.5108880571
 20
5.0557227656
 40
5.5621948922
100
AcDbArc
 50
351.6974236133
 51
351.9211761635
  0
ARC
  5
3BE
100
AcDbEntity
  8
0
100
AcDbCircle
 62
7
  6
CONTINUOUS
 10
0.6168414252
 20
3.9230415194
 40
3.6825750491
100
AcDbArc
 50
15.7402459875
 51
15.8585093323
  0
ARC
  5
3BF
100
AcDbEntity
  8
0
100
AcDbCircle
 62
7
  6
CONTINUOUS
 10
2.3574560101
 20
2.9061993984
 40
2.7476701196
100
AcDbArc
 50
47.19358381
 51
47.417935857
  0
ARC
  5
3C0
100
AcDbEntity
  8
0
100
AcDbCircle
 62
7
  6
CONTINUOUS
 10
2.4516661048
 20
3.0922768814
 40
2.5250221919
100
AcDbArc
 50
46.4398628106
 51
46.918377518
  0
ARC
  5
3C1
100
AcDbEntity
  8
0
100
AcDbCircle
 62
7
  6
CONTINUOUS
 10
2.1929952703
 20
3.5861612208
 40
2.4177081858
100
AcDbArc
 50
33.5413360232
 51
33.749656084
  0
ARC
  5
3C2
100
AcDbEntity
  8
0
100
AcDbCircle
 62
7
  6
CONTINUOUS
 10
2.5900250507
 20
3.1593007689
 40
2.403942521
100
AcDbArc
 50
47.4175249123
 51
47.6706187708
  0
ARC
  5
3C3
100
AcDbEntity
  8
0
100
AcDbCircle
 62
7
  6
CONTINUOUS
 10
2.085999748
 20
3.8432078895
 40
2.2566414316
100
AcDbArc
 50
28.5593538499
 51
29.1827168175
  0
ARC
  5
3C4
100
AcDbEntity
  8
0
100
AcDbCircle
 62
7
  6
CONTINUOUS
 10
2.4434338129
 20
3.4596040272
 40
2.237409899
100
AcDbArc
 50
40.8157049383
 51
41.5472451593
  0
ARC
  5
3C5
100
AcDbEntity
  8
0
100
AcDbCircle
 62
7
  6
CONTINUOUS
 10
2.7554259288
 20
3.3407882524
 40
2.1583918088
100
AcDbArc
 50
47.6723805222
 51
47.8320871727
  0
ARC
  5
3C6
100
AcDbEntity
  8
0
100
AcDbCircle
 62
7
  6
CONTINUOUS
 10
2.4551536438
 20
3.7613458918
 40
2.1024040763
100
AcDbArc
 50
33.7492409062
 51
33.9845025893
  0
ARC
  5
3C7
100
AcDbEntity
  8
0
100
AcDbCircle
 62
7
  6
CONTINUOUS
 10
2.769356915
 20
3.4316010947
 40
2.0601907305
100
AcDbArc
 50
46.9257085671
 51
47.2128292356
  0
ARC
  5
3C8
100
AcDbEntity
  8
0
100
AcDbCircle
 62
7
  6
CONTINUOUS
 10
2.8383530522
 20
3.615019413
 40
1.9094037752
100
AcDbArc
 50
43.8736718179
 51
44.0891374858
  0
ARC
  5
3C9
100
AcDbEntity
  8
0
100
AcDbCircle
 62
7
  6
CONTINUOUS
 10
2.6894336042
 20
3.9192949847
 40
1.8198531684
100
AcDbArc
 50
33.9840471504
 51
34.2507859517
  0
ARC
  5
3CA
100
AcDbEntity
  8
0
100
AcDbCircle
 62
6
  6
CONTINUOUS
 10
2.8888483919
 20
2.5435566103
 40
0.343
100
AcDbArc
 50
309.0112542963
 51
344.4151025565
  0
ARC
  5
3CB
100
AcDbEntity
  8
0
100
AcDbCircle
 62
6
  6
CONTINUOUS
 10
3.0015814113
 20
1.9110379502
 40
0.125
100
AcDbArc
 50
118.357636576
 51
180.0
  0
ARC
  5
3CC
100
AcDbEntity
  8
0
100
AcDbCircle
 62
6
  6
CONTINUOUS
 10
3.0525303531
 20
2.0675592405
 40
0.078
100
AcDbArc
 50
126.7734275145
 51
176.7083028377
  0
ARC
  5
3CD
100
AcDbEntity
  8
0
100
AcDbCircle
 62
6
  6
CONTINUOUS
 10
2.9127613325
 20
2.0755979502
 40
0.062
100
AcDbArc
 50
298.3576365766
 51
356.7083028349
  0
ARC
  5
3CE
100
AcDbEntity
  8
0
100
AcDbCircle
 62
6
  6
CONTINUOUS
 10
2.9687190489
 20
2.1797005143
 40
0.062
100
AcDbArc
 50
306.7734275174
 51
351.9684266557
  0
ARC
  5
3CF
100
AcDbEntity
  8
0
100
AcDbCircle
 62
6
  6
CONTINUOUS
 10
3.035357163
 20
2.2802133348
 40
0.062
100
AcDbArc
 50
300.9443106182
 51
342.9532818479
  0
ARC
  5
3D0
100
AcDbEntity
  8
0
100
AcDbCircle
 62
7
  6
CONTINUOUS
 10
0.8839549311
 20
5.1975595012
 40
3.4050033533
100
AcDbArc
 50
343.9499141227
 51
344.2628339623
  0
ARC
  5
3D1
100
AcDbEntity
  8
0
100
AcDbCircle
 62
7
  6
CONTINUOUS
 10
1.3902953329
 20
4.1432398474
 40
2.8783872733
100
AcDbArc
 50
15.8493258867
 51
16.1430803761
  0
ARC
  5
3D2
100
AcDbEntity
  8
0
100
AcDbCircle
 62
7
  6
CONTINUOUS
 10
2.3574560103
 20
6.2898765019
 40
2.7476701194
100
AcDbArc
 50
312.5820641431
 51
312.80641619
  0
ARC
  5
3D3
100
AcDbEntity
  8
0
100
AcDbCircle
 62
7
  6
CONTINUOUS
 10
2.3280474986
 20
6.2343548619
 40
2.7048172075
100
AcDbArc
 50
313.3270265805
 51
313.5519255534
  0
ARC
  5
3D4
100
AcDbEntity
  8
0
100
AcDbCircle
 62
7
  6
CONTINUOUS
 10
2.4310351087
 20
5.9707133195
 40
2.4730894345
100
AcDbArc
 50
316.3312334875
 51
316.681366583
  0
ARC
  5
3D5
100
AcDbEntity
  8
0
100
AcDbCircle
 62
7
  6
CONTINUOUS
 10
2.5900250504
 20
6.0367751318
 40
2.4039425214
100
AcDbArc
 50
312.3293812291
 51
312.5824750878
  0
ARC
  5
3D6
100
AcDbEntity
  8
0
100
AcDbCircle
 62
7
  6
CONTINUOUS
 10
2.5888434363
 20
5.9576542312
 40
2.3245832453
100
AcDbArc
 50
313.0725249332
 51
313.263686391
  0
ARC
  5
3D7
100
AcDbEntity
  8
0
100
AcDbCircle
 62
7
  6
CONTINUOUS
 10
2.284701765
 20
5.5490016909
 40
2.3076152109
100
AcDbArc
 50
326.0285191613
 51
326.4611181994
  0
ARC
  5
3D8
100
AcDbEntity
  8
0
100
AcDbCircle
 62
7
  6
CONTINUOUS
 10
2.2233253699
 20
5.2771507471
 40
2.0998273748
100
AcDbArc
 50
330.7940067094
 51
331.4639226232
  0
ARC
  5
3D9
100
AcDbEntity
  8
0
100
AcDbCircle
 62
7
  6
CONTINUOUS
 10
2.7985299456
 20
5.8078415528
 40
2.0942896923
100
AcDbArc
 50
312.0431962198
 51
312.3298531345
  0
ARC
  5
3DA
100
AcDbEntity
  8
0
100
AcDbCircle
 62
7
  6
CONTINUOUS
 10
2.5562485546
 20
5.6377744439
 40
2.0875187149
100
AcDbArc
 50
318.4264908645
 51
319.2105590379
  0
ARC
  5
3DB
100
AcDbEntity
  8
0
100
AcDbCircle
 62
7
  6
CONTINUOUS
 10
2.769356915
 20
5.7644748057
 40
2.0601907306
100
AcDbArc
 50
312.7871707644
 51
313.0742914328
  0
ARC
  5
3DC
100
AcDbEntity
  8
0
100
AcDbCircle
 62
7
  6
CONTINUOUS
 10
2.8130116092
 20
5.6055323543
 40
1.944635212
100
AcDbArc
 50
315.9123943631
 51
316.1992149575
  0
ARC
  5
3DD
100
AcDbEntity
  8
0
100
AcDbCircle
 62
6
  6
CONTINUOUS
 10
3.3453203866
 20
2.6656637132
 40
1.52
100
AcDbArc
 50
357.7540595743
 51
11.5898335017
  0
ARC
  5
3DE
100
AcDbEntity
  8
0
100
AcDbCircle
 62
6
  6
CONTINUOUS
 10
3.6587958789
 20
2.7299530263
 40
1.2
100
AcDbArc
 50
11.5898335019
 51
40.5151811264
  0
ARC
  5
3DF
100
AcDbEntity
  8
0
100
AcDbCircle
 62
7
  6
CONTINUOUS
 10
3.7091841293
 20
2.1032210315
 40
0.6936090559
100
AcDbArc
 50
133.5685756169
 51
134.0741154074
  0
ARC
  5
3E0
100
AcDbEntity
  8
0
100
AcDbCircle
 62
6
  6
CONTINUOUS
 10
3.1073458205
 20
2.1601398857
 40
0.078
100
AcDbArc
 50
120.9443106113
 51
171.9684266529
  0
ARC
  5
3E1
100
AcDbEntity
  8
0
100
AcDbCircle
 62
6
  6
CONTINUOUS
 10
3.1242713049
 20
2.2529502579
 40
0.031
100
AcDbArc
 50
129.0112543126
 51
162.9532818608
  0
ARC
  5
3E2
100
AcDbEntity
  8
0
100
AcDbCircle
 62
6
  6
CONTINUOUS
 10
3.2179927665
 20
3.7693922314
 40
0.4
100
AcDbArc
 50
319.4848188737
 51
349.9999999998
  0
ARC
  5
3E3
100
AcDbEntity
  8
0
100
AcDbCircle
 62
7
  6
CONTINUOUS
 10
3.8162839583
 20
3.6789330107
 40
0.3723569449
100
AcDbArc
 50
93.5235675496
 51
93.9613153373
  0
ARC
  5
3E4
100
AcDbEntity
  8
0
100
AcDbCircle
 62
6
  6
CONTINUOUS
 10
3.7135311825
 20
3.8270379502
 40
0.078
100
AcDbArc
 50
90.0
 51
170.0000000004
  0
ARC
  5
3E5
100
AcDbEntity
  8
0
100
AcDbCircle
 62
6
  6
CONTINUOUS
 10
4.7478424359
 20
2.6656637132
 40
1.52
100
AcDbArc
 50
168.4101664983
 51
182.2459404258
  0
ARC
  5
3E6
100
AcDbEntity
  8
0
100
AcDbCircle
 62
6
  6
CONTINUOUS
 10
4.4343669436
 20
2.7299530263
 40
1.2
100
AcDbArc
 50
139.4848188736
 51
168.4101664981
  0
ARC
  5
3E7
100
AcDbEntity
  8
0
100
AcDbCircle
 62
6
  6
CONTINUOUS
 10
5.2043144306
 20
2.5435566103
 40
0.343
100
AcDbArc
 50
195.6076000919
 51
230.9887457037
  0
ARC
  5
3E8
100
AcDbEntity
  8
0
100
AcDbCircle
 62
6
  6
CONTINUOUS
 10
5.0915814113
 20
1.9110379502
 40
0.125
100
AcDbArc
 50
0.0
 51
61.642363424
  0
ARC
  5
3E9
100
AcDbEntity
  8
0
100
AcDbCircle
 62
6
  6
CONTINUOUS
 10
5.0406324694
 20
2.0675592405
 40
0.078
100
AcDbArc
 50
3.2916971623
 51
53.2265724855
  0
ARC
  5
3EA
100
AcDbEntity
  8
0
100
AcDbCircle
 62
6
  6
CONTINUOUS
 10
4.985817002
 20
2.1601398857
 40
0.078
100
AcDbArc
 50
8.0315733471
 51
59.0556893887
  0
ARC
  5
3EB
100
AcDbEntity
  8
0
100
AcDbCircle
 62
6
  6
CONTINUOUS
 10
5.1804014901
 20
2.0755979502
 40
0.062
100
AcDbArc
 50
183.2916971651
 51
241.6423634234
  0
ARC
  5
3EC
100
AcDbEntity
  8
0
100
AcDbCircle
 62
6
  6
CONTINUOUS
 10
5.1244437736
 20
2.1797005143
 40
0.062
100
AcDbArc
 50
188.0315733443
 51
233.2265724826
  0
ARC
  5
3ED
100
AcDbEntity
  8
0
100
AcDbCircle
 62
6
  6
CONTINUOUS
 10
5.0578056595
 20
2.2802133348
 40
0.062
100
AcDbArc
 50
197.0467181521
 51
239.0556893818
  0
ARC
  5
3EE
100
AcDbEntity
  8
0
100
AcDbCircle
 62
6
  6
CONTINUOUS
 10
4.9688915176
 20
2.2529502579
 40
0.031
100
AcDbArc
 50
17.0467181393
 51
50.9887456875
  0
ARC
  5
3EF
100
AcDbEntity
  8
0
100
AcDbCircle
 62
7
  6
CONTINUOUS
 10
5.5031376561
 20
3.1593009471
 40
2.4039423114
100
AcDbArc
 50
132.3293820472
 51
132.5824759344
  0
ARC
  5
3F0
100
AcDbEntity
  8
0
100
AcDbCircle
 62
7
  6
CONTINUOUS
 10
5.5043124752
 20
3.2384291018
 40
2.3245730963
100
AcDbArc
 50
133.0725256045
 51
133.2636878892
  0
ARC
  5
3F1
100
AcDbEntity
  8
0
100
AcDbCircle
 62
7
  6
CONTINUOUS
 10
5.2946316926
 20
3.3882356315
 40
2.0942879457
100
AcDbArc
 50
132.0431956804
 51
132.3298528301
  0
ARC
  5
3F2
100
AcDbEntity
  8
0
100
AcDbCircle
 62
7
  6
CONTINUOUS
 10
5.5369104136
 20
3.5583048285
 40
2.0875135938
100
AcDbArc
 50
138.4264899027
 51
139.2105599997
  0
ARC
  5
3F3
100
AcDbEntity
  8
0
100
AcDbCircle
 62
7
  6
CONTINUOUS
 10
5.323804481
 20
3.4316026014
 40
2.0601886558
100
AcDbArc
 50
132.7871701115
 51
133.0742910637
  0
ARC
  5
3F4
100
AcDbEntity
  8
0
100
AcDbCircle
 62
7
  6
CONTINUOUS
 10
5.2548017265
 20
3.6150272434
 40
1.9093925494
100
AcDbArc
 50
135.9108633397
 51
136.1263302792
  0
ARC
  5
3F5
100
AcDbEntity
  8
0
100
AcDbCircle
 62
6
  6
CONTINUOUS
 10
4.8751700561
 20
3.7693922314
 40
0.4
100
AcDbArc
 50
190.0000000002
 51
220.5151811263
  0
ARC
  5
3F6
100
AcDbEntity
  8
0
100
AcDbCircle
 62
6
  6
CONTINUOUS
 10
4.37963164
 20
3.8270379502
 40
0.078
100
AcDbArc
 50
9.9999999995
 51
90.0
  0
ARC
  5
3F7
100
AcDbEntity
  8
0
100
AcDbCircle
 62
7
  6
CONTINUOUS
 10
5.503137656
 20
6.0367749531
 40
2.4039423112
100
AcDbArc
 50
227.4175240656
 51
227.6706179527
  0
ARC
  5
3F8
100
AcDbEntity
  8
0
100
AcDbCircle
 62
7
  6
CONTINUOUS
 10
5.3238044809
 20
5.764473299
 40
2.0601886558
100
AcDbArc
 50
226.9257089361
 51
227.2128298885
  0
ARC
  5
3F9
100
AcDbEntity
  8
0
100
AcDbCircle
 62
7
  6
CONTINUOUS
 10
5.2582009871
 20
5.767550604
 40
2.0399699202
100
AcDbArc
 50
227.7769382411
 51
227.9588628314
  0
ARC
  5
3FA
100
AcDbEntity
  8
0
100
AcDbCircle
 62
7
  6
CONTINUOUS
 10
5.280154502
 20
5.6055354682
 40
1.9446397407
100
AcDbArc
 50
223.8007841821
 51
224.0876041209
  0
ARC
  5
3FB
100
AcDbEntity
  8
0
100
AcDbCircle
 62
7
  6
CONTINUOUS
 10
5.4037321998
 20
5.2767829002
 40
1.8198567497
100
AcDbArc
 50
213.9840464758
 51
214.250784764
  0
ARC
  5
3FC
100
AcDbEntity
  8
0
100
AcDbCircle
 62
7
  6
CONTINUOUS
 10
6.0610985863
 20
4.0787463813
 40
5.9946184854
100
AcDbArc
 50
8.0868940741
 51
8.2945061491
  0
ARC
  5
3FD
100
AcDbEntity
  8
0
100
AcDbCircle
 62
7
  6
CONTINUOUS
 10
8.0465839056
 20
2.9591731653
 40
3.9466536255
100
AcDbArc
 50
89.7083506467
 51
90.2916545412
  0
ARC
  5
3FE
100
AcDbEntity
  8
0
100
AcDbCircle
 62
7
  6
CONTINUOUS
 10
8.0450470042
 20
3.0639611189
 40
3.8418593373
100
AcDbArc
 50
90.2766891128
 51
92.2059865701
  0
ARC
  5
3FF
100
AcDbEntity
  8
0
100
AcDbCircle
 62
7
  6
CONTINUOUS
 10
8.0460020123
 20
3.1965214289
 40
3.7040959951
100
AcDbArc
 50
89.9910377275
 51
92.4172181282
  0
ARC
  5
400
100
AcDbEntity
  8
0
100
AcDbCircle
 62
7
  6
CONTINUOUS
 10
8.0357941956
 20
3.3115027218
 40
3.5941448606
100
AcDbArc
 50
92.2676251702
 51
92.8148906052
  0
ARC
  5
401
100
AcDbEntity
  8
0
100
AcDbCircle
 62
7
  6
CONTINUOUS
 10
8.035182323
 20
3.4845430908
 40
3.4158745463
100
AcDbArc
 50
92.4396527201
 51
92.9465386641
  0
ARC
  5
402
100
AcDbEntity
  8
0
100
AcDbCircle
 62
7
  6
CONTINUOUS
 10
7.2091894279
 20
3.9985216498
 40
3.4049841578
100
AcDbArc
 50
163.949913131
 51
164.2628347363
  0
ARC
  5
403
100
AcDbEntity
  8
0
100
AcDbCircle
 62
7
  6
CONTINUOUS
 10
8.0465302488
 20
3.6054399437
 40
3.280417445
100
AcDbArc
 50
89.4812492968
 51
89.6351581733
  0
ARC
  5
404
100
AcDbEntity
  8
0
100
AcDbCircle
 62
7
  6
CONTINUOUS
 10
8.0465721657
 20
3.6134196616
 40
3.2724376219
100
AcDbArc
 50
89.6350024172
 51
90.3649837615
  0
ARC
  5
405
100
AcDbEntity
  8
0
100
AcDbCircle
 62
7
  6
CONTINUOUS
 10
8.0464679483
 20
3.6187646149
 40
3.2670918315
100
AcDbArc
 50
90.517969447
 51
91.1727265633
  0
ARC
  5
406
100
AcDbEntity
  8
0
100
AcDbCircle
 62
7
  6
CONTINUOUS
 10
8.0459177209
 20
3.6465816497
 40
3.239269362
100
AcDbArc
 50
91.1730662663
 51
91.3053198895
  0
ARC
  5
407
100
AcDbEntity
  8
0
100
AcDbCircle
 62
7
  6
CONTINUOUS
 10
8.0139679291
 20
3.7046618028
 40
3.2003892588
100
AcDbArc
 50
92.7702743441
 51
94.7625256031
  0
ARC
  5
408
100
AcDbEntity
  8
0
100
AcDbCircle
 62
7
  6
CONTINUOUS
 10
8.0427166438
 20
3.7649889594
 40
3.1208198987
100
AcDbArc
 50
91.2960868793
 51
92.4310427847
  0
ARC
  5
409
100
AcDbEntity
  8
0
100
AcDbCircle
 62
7
  6
CONTINUOUS
 10
8.0172970408
 20
3.8149369604
 40
3.0849982268
100
AcDbArc
 50
92.9302316396
 51
95.1311349055
  0
ARC
  5
40A
100
AcDbEntity
  8
0
100
AcDbCircle
 62
7
  6
CONTINUOUS
 10
8.0373328164
 20
3.8959729111
 40
2.9897254728
100
AcDbArc
 50
92.4344340957
 51
92.6694580783
  0
ARC
  5
40B
100
AcDbEntity
  8
0
100
AcDbCircle
 62
7
  6
CONTINUOUS
 10
8.0318738705
 20
4.007491868
 40
2.8780732983
100
AcDbArc
 50
92.6642991905
 51
93.4196618829
  0
ARC
  5
40C
100
AcDbEntity
  8
0
100
AcDbCircle
 62
7
  6
CONTINUOUS
 10
7.9821168555
 20
4.0951047587
 40
2.8086499676
100
AcDbArc
 50
94.7763125656
 51
95.3579204965
  0
ARC
  5
40D
100
AcDbEntity
  8
0
100
AcDbCircle
 62
7
  6
CONTINUOUS
 10
5.7357089649
 20
2.9061970361
 40
2.7476733153
100
AcDbArc
 50
132.5820638629
 51
132.8064156465
  0
ARC
  5
40E
100
AcDbEntity
  8
0
100
AcDbCircle
 62
7
  6
CONTINUOUS
 10
5.7651179225
 20
2.9617182601
 40
2.7048210116
100
AcDbArc
 50
133.327026241
 51
133.551924895
  0
ARC
  5
40F
100
AcDbEntity
  8
0
100
AcDbCircle
 62
7
  6
CONTINUOUS
 10
7.9765053979
 20
4.3035580633
 40
2.5946888139
100
AcDbArc
 50
95.1989688234
 51
95.6609304247
  0
ARC
  5
410
100
AcDbEntity
  8
0
100
AcDbCircle
 62
7
  6
CONTINUOUS
 10
8.0092997114
 20
4.3561878018
 40
2.5286523169
100
AcDbArc
 50
93.3803576798
 51
95.1788238549
  0
ARC
  5
411
100
AcDbEntity
  8
0
100
AcDbCircle
 62
7
  6
CONTINUOUS
 10
8.0465351792
 20
4.3488872041
 40
2.5208554497
100
AcDbArc
 50
89.3308569186
 51
89.5316030848
  0
ARC
  5
412
100
AcDbEntity
  8
0
100
AcDbCircle
 62
7
  6
CONTINUOUS
 10
8.0465705778
 20
4.354567857
 40
2.5151746973
100
AcDbArc
 50
89.5313515527
 51
89.9997532142
  0
ARC
  5
413
100
AcDbEntity
  8
0
100
AcDbCircle
 62
7
  6
CONTINUOUS
 10
8.0462330198
 20
4.3745021648
 40
2.4952376296
100
AcDbArc
 50
90.6669493578
 51
91.5249161281
  0
ARC
  5
414
100
AcDbEntity
  8
0
100
AcDbCircle
 62
7
  6
CONTINUOUS
 10
5.6624009764
 20
3.2251038505
 40
2.47346575
100
AcDbArc
 50
136.3317955824
 51
136.6813488373
  0
ARC
  5
415
100
AcDbEntity
  8
0
100
AcDbCircle
 62
7
  6
CONTINUOUS
 10
8.0451509724
 20
4.4166195006
 40
2.453106415
100
AcDbArc
 50
91.5258304902
 51
91.6999060956
  0
ARC
  5
416
100
AcDbEntity
  8
0
100
AcDbCircle
 62
7
  6
CONTINUOUS
 10
5.808443373
 20
3.6470860065
 40
2.3075939528
100
AcDbArc
 50
146.0285167283
 51
146.4611197423
  0
ARC
  5
417
100
AcDbEntity
  8
0
100
AcDbCircle
 62
7
  6
CONTINUOUS
 10
5.8698323061
 20
3.918927991
 40
2.0998214979
100
AcDbArc
 50
150.7940057719
 51
151.4639235607
  0
ARC
  5
418
100
AcDbEntity
  8
0
100
AcDbCircle
 62
7
  6
CONTINUOUS
 10
6.8130275284
 20
1.9213519112
 40
0.191
100
AcDbArc
 50
118.6054573412
 51
187.3134948397
  0
ARC
  5
419
100
AcDbEntity
  8
0
100
AcDbCircle
 62
7
  6
CONTINUOUS
 10
6.9111541877
 20
2.1123437958
 40
0.191
100
AcDbArc
 50
117.9672901181
 51
187.0087046342
  0
ARC
  5
41A
100
AcDbEntity
  8
0
100
AcDbCircle
 62
7
  6
CONTINUOUS
 10
7.0112673687
 20
2.3034039411
 40
0.191
100
AcDbArc
 50
124.3845618876
 51
186.7247317402
  0
ARC
  5
41B
100
AcDbEntity
  8
0
100
AcDbCircle
 62
7
  6
CONTINUOUS
 10
6.9389800523
 20
2.4090379502
 40
0.063
100
AcDbArc
 50
107.1922809511
 51
124.3845618839
  0
ARC
  5
41C
100
AcDbEntity
  8
0
100
AcDbCircle
 62
7
  6
CONTINUOUS
 10
6.4891119432
 20
5.0557227655
 40
5.5621948919
100
AcDbArc
 50
351.6974236133
 51
351.9211761635
  0
ARC
  5
41D
100
AcDbEntity
  8
0
100
AcDbCircle
 62
7
  6
CONTINUOUS
 10
6.7028865285
 20
5.0528415229
 40
2.8784070823
100
AcDbArc
 50
195.8493271316
 51
196.1430795956
  0
ARC
  5
41E
100
AcDbEntity
  8
0
100
AcDbCircle
 62
7
  6
CONTINUOUS
 10
5.9001620268
 20
5.6099109564
 40
2.4177015232
100
AcDbArc
 50
213.5413348306
 51
213.7496554697
  0
ARC
  5
41F
100
AcDbEntity
  8
0
100
AcDbCircle
 62
7
  6
CONTINUOUS
 10
6.0071689686
 20
5.3528712607
 40
2.2566481622
100
AcDbArc
 50
208.5593547795
 51
209.1827158879
  0
ARC
  5
420
100
AcDbEntity
  8
0
100
AcDbCircle
 62
7
  6
CONTINUOUS
 10
5.6380095137
 20
5.4347303143
 40
2.1024045247
100
AcDbArc
 50
213.7492427662
 51
213.9845043841
  0
ARC
  5
421
100
AcDbEntity
  8
0
100
AcDbCircle
 62
7
  6
CONTINUOUS
 10
5.7357089647
 20
6.2898788641
 40
2.7476733151
100
AcDbArc
 50
227.1935843535
 51
227.4179361371
  0
ARC
  5
422
100
AcDbEntity
  8
0
100
AcDbCircle
 62
7
  6
CONTINUOUS
 10
5.6414977691
 20
6.1038001179
 40
2.5250237128
100
AcDbArc
 50
226.4398627059
 51
226.9183771293
  0
ARC
  5
423
100
AcDbEntity
  8
0
100
AcDbCircle
 62
7
  6
CONTINUOUS
 10
5.6497334218
 20
5.7364757332
 40
2.2374157612
100
AcDbArc
 50
220.8157058966
 51
221.5472442009
  0
ARC
  5
424
100
AcDbEntity
  8
0
100
AcDbCircle
 62
7
  6
CONTINUOUS
 10
7.476312935
 20
5.2730319567
 40
3.6825662464
100
AcDbArc
 50
195.7402453989
 51
195.8585090294
  0
ARC
  5
425
100
AcDbEntity
  8
0
100
AcDbCircle
 62
7
  6
CONTINUOUS
 10
8.0429131228
 20
4.4869597081
 40
2.3827307834
100
AcDbArc
 50
91.69629314
 51
92.3730880844
  0
ARC
  5
426
100
AcDbEntity
  8
0
100
AcDbCircle
 62
7
  6
CONTINUOUS
 10
8.0404310882
 20
4.5481233971
 40
2.3215167777
100
AcDbArc
 50
92.3743877432
 51
92.4944555315
  0
ARC
  5
427
100
AcDbEntity
  8
0
100
AcDbCircle
 62
7
  6
CONTINUOUS
 10
8.0391895237
 20
4.576530543
 40
2.293082513
100
AcDbArc
 50
92.4943547857
 51
92.6590381067
  0
ARC
  5
428
100
AcDbEntity
  8
0
100
AcDbCircle
 62
7
  6
CONTINUOUS
 10
8.0373050712
 20
4.6167636434
 40
2.2528053077
100
AcDbArc
 50
92.6586332889
 51
92.9302146219
  0
ARC
  5
429
100
AcDbEntity
  8
0
100
AcDbCircle
 62
7
  6
CONTINUOUS
 10
7.9791416863
 20
4.6918868918
 40
2.1916014255
100
AcDbArc
 50
95.1857987994
 51
95.9828215655
  0
ARC
  5
42A
100
AcDbEntity
  8
0
100
AcDbCircle
 62
7
  6
CONTINUOUS
 10
7.9564303605
 20
4.9058485787
 40
1.97643796
100
AcDbArc
 50
95.9745208859
 51
96.826528626
  0
ARC
  5
42B
100
AcDbEntity
  8
0
100
AcDbCircle
 62
7
  6
CONTINUOUS
 10
7.7987240792
 20
5.1347853171
 40
1.7733833473
100
AcDbArc
 50
99.320701572
 51
99.5203650517
  0
ARC
  5
42C
100
AcDbEntity
  8
0
100
AcDbCircle
 62
7
  6
CONTINUOUS
 10
7.9257551494
 20
5.1576827675
 40
1.72274304
100
AcDbArc
 50
96.8091079947
 51
97.9306204889
  0
ARC
  5
42D
100
AcDbEntity
  8
0
100
AcDbCircle
 62
7
  6
CONTINUOUS
 10
7.7838475622
 20
5.2229014146
 40
1.68402018
100
AcDbArc
 50
99.6972230765
 51
99.8462445662
  0
ARC
  5
42E
100
AcDbEntity
  8
0
100
AcDbCircle
 62
7
  6
CONTINUOUS
 10
7.7776132095
 20
5.2588670466
 40
1.6475182105
100
AcDbArc
 50
99.8465148972
 51
99.9967871049
  0
ARC
  5
42F
100
AcDbEntity
  8
0
100
AcDbCircle
 62
7
  6
CONTINUOUS
 10
7.8952399439
 20
5.3759830592
 40
1.5023203035
100
AcDbArc
 50
97.9266687931
 51
98.7266128126
  0
ARC
  5
430
100
AcDbEntity
  8
0
100
AcDbCircle
 62
7
  6
CONTINUOUS
 10
7.8697406741
 20
5.5408918993
 40
1.3354517918
100
AcDbArc
 50
98.7187134463
 51
99.5576434512
  0
ARC
  5
431
100
AcDbEntity
  8
0
100
AcDbCircle
 62
7
  6
CONTINUOUS
 10
7.8449911889
 20
5.686901911
 40
1.187359149
100
AcDbArc
 50
99.5498036472
 51
100.3810938095
  0
ARC
  5
432
100
AcDbEntity
  8
0
100
AcDbCircle
 62
7
  6
CONTINUOUS
 10
7.6726653935
 20
5.7906289168
 40
1.1054511474
100
AcDbArc
 50
102.2838412072
 51
103.1269911998
  0
ARC
  5
433
100
AcDbEntity
  8
0
100
AcDbCircle
 62
7
  6
CONTINUOUS
 10
7.7341250293
 20
5.8271667758
 40
1.0579259534
100
AcDbArc
 50
101.8272573693
 51
102.2310853823
  0
ARC
  5
434
100
AcDbEntity
  8
0
100
AcDbCircle
 62
7
  6
CONTINUOUS
 10
7.6527986555
 20
5.8767721774
 40
1.0170469749
100
AcDbArc
 50
103.1391823655
 51
103.3919555267
  0
ARC
  5
435
100
AcDbEntity
  8
0
100
AcDbCircle
 62
7
  6
CONTINUOUS
 10
7.9058857798
 20
5.8650657238
 40
0.9969737713
100
AcDbArc
 50
98.7850477504
 51
99.8400851394
  0
ARC
  5
436
100
AcDbEntity
  8
0
100
AcDbCircle
 62
7
  6
CONTINUOUS
 10
7.6449506468
 20
5.9097922014
 40
0.9831071303
100
AcDbArc
 50
103.3927249768
 51
103.6343023854
  0
ARC
  5
437
100
AcDbEntity
  8
0
100
AcDbCircle
 62
7
  6
CONTINUOUS
 10
7.8073141643
 20
5.8881392713
 40
0.982626975
100
AcDbArc
 50
100.3345396657
 51
102.0583530818
  0
ARC
  5
438
100
AcDbEntity
  8
0
100
AcDbCircle
 62
7
  6
CONTINUOUS
 10
7.8895961612
 20
5.9593780839
 40
0.9012650056
100
AcDbArc
 50
99.8444017434
 51
100.252219288
  0
ARC
  5
439
100
AcDbEntity
  8
0
100
AcDbCircle
 62
7
  6
CONTINUOUS
 10
7.6204799468
 20
6.0097644048
 40
0.8801838344
100
AcDbArc
 50
103.6202892172
 51
105.2692569036
  0
ARC
  5
43A
100
AcDbEntity
  8
0
100
AcDbCircle
 62
7
  6
CONTINUOUS
 10
7.589223336
 20
6.1266681679
 40
0.7591755724
100
AcDbArc
 50
105.3171076263
 51
105.5663373301
  0
ARC
  5
43B
100
AcDbEntity
  8
0
100
AcDbCircle
 62
7
  6
CONTINUOUS
 10
7.7579367153
 20
6.1159396952
 40
0.7495378812
100
AcDbArc
 50
102.0049455907
 51
104.0772825007
  0
ARC
  5
43C
100
AcDbEntity
  8
0
100
AcDbCircle
 62
7
  6
CONTINUOUS
 10
7.6882870576
 20
6.1246091498
 40
0.7493354215
100
AcDbArc
 50
104.111202261
 51
104.2951561136
  0
ARC
  5
43D
100
AcDbEntity
  8
0
100
AcDbCircle
 62
7
  6
CONTINUOUS
 10
7.5824944681
 20
6.1508470053
 40
0.7340778872
100
AcDbArc
 50
105.5668391565
 51
105.7868712345
  0
ARC
  5
43E
100
AcDbEntity
  8
0
100
AcDbCircle
 62
7
  6
CONTINUOUS
 10
8.0457679301
 20
6.1670665306
 40
0.6824352464
100
AcDbArc
 50
91.6110706918
 51
92.3454370488
  0
ARC
  5
43F
100
AcDbEntity
  8
0
100
AcDbCircle
 62
7
  6
CONTINUOUS
 10
8.0464721566
 20
6.4087848134
 40
0.4324785616
100
AcDbArc
 50
89.9855256889
 51
92.6410744016
  0
ARC
  5
440
100
AcDbEntity
  8
0
100
AcDbCircle
 62
7
  6
CONTINUOUS
 10
8.0263680719
 20
6.4219030822
 40
0.4267993698
100
AcDbArc
 50
96.1175486389
 51
97.1190934292
  0
ARC
  5
441
100
AcDbEntity
  8
0
100
AcDbCircle
 62
7
  6
CONTINUOUS
 10
8.0440247629
 20
6.4609335055
 40
0.3802724908
100
AcDbArc
 50
92.6347721445
 51
93.9147518695
  0
ARC
  5
442
100
AcDbEntity
  8
0
100
AcDbCircle
 62
7
  6
CONTINUOUS
 10
7.7630390062
 20
6.5071475434
 40
0.3387305304
100
AcDbArc
 50
106.72585311
 51
107.5493211034
  0
ARC
  5
443
100
AcDbEntity
  8
0
100
AcDbCircle
 62
7
  6
CONTINUOUS
 10
7.4118756907
 20
6.9218404822
 40
0.2192161469
100
AcDbArc
 50
137.9966309187
 51
139.9262508204
  0
ARC
  5
444
100
AcDbEntity
  8
0
100
AcDbCircle
 62
7
  6
CONTINUOUS
 10
7.5941799633
 20
6.6406373975
 40
0.1991322152
100
AcDbArc
 50
114.1678803192
 51
114.5735973165
  0
ARC
  5
445
100
AcDbEntity
  8
0
100
AcDbCircle
 62
7
  6
CONTINUOUS
 10
7.4642434621
 20
6.8820966999
 40
0.1476195722
100
AcDbArc
 50
239.7945985635
 51
241.0897330941
  0
ARC
  5
446
100
AcDbEntity
  8
0
100
AcDbCircle
 62
7
  6
CONTINUOUS
 10
7.9777609741
 20
6.7049995297
 40
0.1393608112
100
AcDbArc
 50
103.5161542004
 51
105.619704899
  0
ARC
  5
447
100
AcDbEntity
  8
0
100
AcDbCircle
 62
7
  6
CONTINUOUS
 10
7.976102321
 20
6.944229415
 40
0.1327676606
100
AcDbArc
 50
254.3280583492
 51
256.5360825514
  0
ARC
  5
448
100
AcDbEntity
  8
0
100
AcDbCircle
 62
7
  6
CONTINUOUS
 10
7.41400756
 20
6.7619526445
 40
0.0634278823
100
AcDbArc
 50
130.5827854911
 51
134.0557188542
  0
ARC
  5
449
100
AcDbEntity
  8
0
100
AcDbCircle
 62
7
  6
CONTINUOUS
 10
7.415356997
 20
6.8185411449
 40
0.0602944136
100
AcDbArc
 50
222.7641224654
 51
224.6070430091
  0
ARC
  5
44A
100
AcDbEntity
  8
0
100
AcDbCircle
 62
7
  6
CONTINUOUS
 10
7.3847184029
 20
6.7880287988
 40
0.0230455307
100
AcDbArc
 50
168.1156920236
 51
177.5432449262
  0
ARC
  5
44B
100
AcDbEntity
  8
0
100
AcDbCircle
 62
7
  6
CONTINUOUS
 10
7.3798589195
 20
6.7864367076
 40
0.0207775095
100
AcDbArc
 50
172.8621682139
 51
179.9807128275
  0
ARC
  5
44C
100
AcDbEntity
  8
0
100
AcDbCircle
 62
7
  6
CONTINUOUS
 10
7.9337636205
 20
6.8348658978
 40
0.0149416744
100
AcDbArc
 50
230.6102354361
 51
233.7601163041
  0
ARC
  5
44D
100
AcDbEntity
  8
0
100
AcDbCircle
 62
7
  6
CONTINUOUS
 10
3.8868277991
 20
12.0424462663
 40
7.9887686753
100
AcDbArc
 50
272.0882148598
 51
272.2516380934
  0
ARC
  5
44E
100
AcDbEntity
  8
0
100
AcDbCircle
 62
7
  6
CONTINUOUS
 10
4.0150416541
 20
11.4800482758
 40
7.4220790987
100
AcDbArc
 50
271.4328003164
 51
271.6205390186
  0
ARC
  5
44F
100
AcDbEntity
  8
0
100
AcDbCircle
 62
7
  6
CONTINUOUS
 10
3.9903772446
 20
9.4033447022
 40
5.360128626
100
AcDbArc
 50
272.1731809488
 51
272.522513433
  0
ARC
  5
450
100
AcDbEntity
  8
0
100
AcDbCircle
 62
7
  6
CONTINUOUS
 10
3.9987334569
 20
9.2250044227
 40
5.1691056711
100
AcDbArc
 50
272.2391514329
 51
272.5083344413
  0
ARC
  5
451
100
AcDbEntity
  8
0
100
AcDbCircle
 62
7
  6
CONTINUOUS
 10
8.0459975597
 20
10.3761363312
 40
3.7038663522
100
AcDbArc
 50
267.5837108409
 51
270.0090317049
  0
ARC
  5
452
100
AcDbEntity
  8
0
100
AcDbCircle
 62
7
  6
CONTINUOUS
 10
8.0360023783
 20
10.1070780157
 40
3.4346261348
100
AcDbArc
 50
267.3385281578
 51
267.5610715579
  0
ARC
  5
453
100
AcDbEntity
  8
0
100
AcDbCircle
 62
7
  6
CONTINUOUS
 10
4.0775946953
 20
7.4220064016
 40
3.3768716237
100
AcDbArc
 50
272.5236945481
 51
272.7467745797
  0
ARC
  5
454
100
AcDbEntity
  8
0
100
AcDbCircle
 62
7
  6
CONTINUOUS
 10
8.0174409252
 20
9.7583043615
 40
3.0853676897
100
AcDbArc
 50
264.938471096
 51
267.3820977786
  0
ARC
  5
455
100
AcDbEntity
  8
0
100
AcDbCircle
 62
7
  6
CONTINUOUS
 10
8.0465864147
 20
9.2758959916
 40
2.5242833248
100
AcDbArc
 50
269.5461520171
 51
270.4538479829
  0
ARC
  5
456
100
AcDbEntity
  8
0
100
AcDbCircle
 62
7
  6
CONTINUOUS
 10
8.0214974518
 20
8.7407972156
 40
1.9885216026
100
AcDbArc
 50
265.3521641426
 51
266.4197294836
  0
ARC
  5
457
100
AcDbEntity
  8
0
100
AcDbCircle
 62
7
  6
CONTINUOUS
 10
7.8928629286
 20
7.673630447
 40
0.9132212701
100
AcDbArc
 50
259.2483268611
 51
261.0495209058
  0
ARC
  5
458
100
AcDbEntity
  8
0
100
AcDbCircle
 62
7
  6
CONTINUOUS
 10
7.6860536467
 20
7.4394595703
 40
0.7402383169
100
AcDbArc
 50
255.569418749
 51
255.8932478632
  0
ARC
  5
459
100
AcDbEntity
  8
0
100
AcDbCircle
 62
7
  6
CONTINUOUS
 10
8.0456072059
 20
7.4838915522
 40
0.6777793956
100
AcDbArc
 50
267.6520406353
 51
268.3914516241
  0
ARC
  5
45A
100
AcDbEntity
  8
0
100
AcDbCircle
 62
7
  6
CONTINUOUS
 10
8.0252619128
 20
7.2241746201
 40
0.4172022341
100
AcDbArc
 50
262.8693867205
 51
263.8939712114
  0
ARC
  5
45B
100
AcDbEntity
  8
0
100
AcDbCircle
 62
7
  6
CONTINUOUS
 10
12.016629606
 20
0.6827305466
 40
3.3814999031
100
AcDbArc
 50
92.4663912806
 51
92.9175890249
  0
ARC
  5
45C
100
AcDbEntity
  8
0
100
AcDbCircle
 62
7
  6
CONTINUOUS
 10
8.0471211344
 20
3.0180577852
 40
3.8877670163
100
AcDbArc
 50
87.805399254
 51
89.711919286
  0
ARC
  5
45D
100
AcDbEntity
  8
0
100
AcDbCircle
 62
7
  6
CONTINUOUS
 10
8.0471652627
 20
3.1967510685
 40
3.7038663561
100
AcDbArc
 50
87.5837108422
 51
90.0090317037
  0
ARC
  5
45E
100
AcDbEntity
  8
0
100
AcDbCircle
 62
7
  6
CONTINUOUS
 10
8.0564694765
 20
3.2912423841
 40
3.6144249106
100
AcDbArc
 50
87.1866496083
 51
87.730576726
  0
ARC
  5
45F
100
AcDbEntity
  8
0
100
AcDbCircle
 62
7
  6
CONTINUOUS
 10
8.0588602885
 20
3.5033006588
 40
3.3970964911
100
AcDbArc
 50
87.0519948376
 51
87.5628067945
  0
ARC
  5
460
100
AcDbEntity
  8
0
100
AcDbCircle
 62
7
  6
CONTINUOUS
 10
10.3574560107
 20
2.906199399
 40
2.7476701188
100
AcDbArc
 50
47.19358381
 51
47.417935857
  0
ARC
  5
461
100
AcDbEntity
  8
0
100
AcDbCircle
 62
7
  6
CONTINUOUS
 10
10.4516661046
 20
3.0922768812
 40
2.5250221922
100
AcDbArc
 50
46.4398628107
 51
46.918377518
  0
ARC
  5
462
100
AcDbEntity
  8
0
100
AcDbCircle
 62
7
  6
CONTINUOUS
 10
10.1929952707
 20
3.586161221
 40
2.4177081854
100
AcDbArc
 50
33.5413360232
 51
33.7496560841
  0
ARC
  5
463
100
AcDbEntity
  8
0
100
AcDbCircle
 62
7
  6
CONTINUOUS
 10
10.4434338128
 20
3.4596040271
 40
2.2374098992
100
AcDbArc
 50
40.8157049383
 51
41.5472451593
  0
ARC
  5
464
100
AcDbEntity
  8
0
100
AcDbCircle
 62
7
  6
CONTINUOUS
 10
9.2801352941
 20
1.9213519112
 40
0.191
100
AcDbArc
 50
352.6865051603
 51
61.3945426588
  0
ARC
  5
465
100
AcDbEntity
  8
0
100
AcDbCircle
 62
7
  6
CONTINUOUS
 10
9.1820086348
 20
2.1123437958
 40
0.191
100
AcDbArc
 50
352.9912953658
 51
62.0327098819
  0
ARC
  5
466
100
AcDbEntity
  8
0
100
AcDbCircle
 62
7
  6
CONTINUOUS
 10
9.0818954538
 20
2.3034039411
 40
0.191
100
AcDbArc
 50
353.2752682598
 51
55.6154381125
  0
ARC
  5
467
100
AcDbEntity
  8
0
100
AcDbCircle
 62
7
  6
CONTINUOUS
 10
9.1541827702
 20
2.4090379502
 40
0.063
100
AcDbArc
 50
55.6154381244
 51
72.8077190489
  0
ARC
  5
468
100
AcDbEntity
  8
0
100
AcDbCircle
 62
7
  6
CONTINUOUS
 10
10.0320842367
 20
5.1173323979
 40
5.994638692
100
AcDbArc
 50
188.086894424
 51
188.2945057992
  0
ARC
  5
469
100
AcDbEntity
  8
0
100
AcDbCircle
 62
7
  6
CONTINUOUS
 10
9.6040334214
 20
4.1403556477
 40
5.5621772541
100
AcDbArc
 50
171.6974232585
 51
171.9211765183
  0
ARC
  5
46A
100
AcDbEntity
  8
0
100
AcDbCircle
 62
7
  6
CONTINUOUS
 10
8.6168414225
 20
3.9230415186
 40
3.6825750519
100
AcDbArc
 50
15.7402459876
 51
15.8585093323
  0
ARC
  5
46B
100
AcDbEntity
  8
0
100
AcDbCircle
 62
7
  6
CONTINUOUS
 10
8.8839549311
 20
5.1975595012
 40
3.4050033533
100
AcDbArc
 50
343.9499141227
 51
344.2628339623
  0
ARC
  5
46C
100
AcDbEntity
  8
0
100
AcDbCircle
 62
7
  6
CONTINUOUS
 10
8.0722615873
 20
3.5993481732
 40
3.3059154206
100
AcDbArc
 50
85.2690000082
 51
87.1979231803
  0
ARC
  5
46D
100
AcDbEntity
  8
0
100
AcDbCircle
 62
7
  6
CONTINUOUS
 10
8.046632458
 20
3.6054160174
 40
3.280441371
100
AcDbArc
 50
90.3648282108
 51
90.5187349699
  0
ARC
  5
46E
100
AcDbEntity
  8
0
100
AcDbCircle
 62
7
  6
CONTINUOUS
 10
8.0466097897
 20
3.6130227037
 40
3.2728342756
100
AcDbArc
 50
88.8278234096
 51
89.4814398536
  0
ARC
  5
46F
100
AcDbEntity
  8
0
100
AcDbCircle
 62
7
  6
CONTINUOUS
 10
8.0472443595
 20
3.6465606802
 40
3.2392903366
100
AcDbArc
 50
88.694654707
 51
88.826909899
  0
ARC
  5
470
100
AcDbEntity
  8
0
100
AcDbCircle
 62
7
  6
CONTINUOUS
 10
8.0492648594
 20
3.7286993922
 40
3.1571269158
100
AcDbArc
 50
87.5740233715
 51
88.697355254
  0
ARC
  5
471
100
AcDbEntity
  8
0
100
AcDbCircle
 62
7
  6
CONTINUOUS
 10
8.0555172861
 20
3.8889418212
 40
2.9967634967
100
AcDbArc
 50
87.3308796727
 51
87.5637750968
  0
ARC
  5
472
100
AcDbEntity
  8
0
100
AcDbCircle
 62
7
  6
CONTINUOUS
 10
8.0840933928
 20
3.9316727367
 40
2.9679952739
100
AcDbArc
 50
84.8267015153
 51
87.1131644635
  0
ARC
  5
473
100
AcDbEntity
  8
0
100
AcDbCircle
 62
7
  6
CONTINUOUS
 10
8.059813861
 20
3.979730455
 40
2.9058732752
100
AcDbArc
 50
86.5839790778
 51
87.3321427656
  0
ARC
  5
474
100
AcDbEntity
  8
0
100
AcDbCircle
 62
7
  6
CONTINUOUS
 10
9.3902953334
 20
4.1432398476
 40
2.8783872728
100
AcDbArc
 50
15.8493258867
 51
16.1430803762
  0
ARC
  5
475
100
AcDbEntity
  8
0
100
AcDbCircle
 62
7
  6
CONTINUOUS
 10
8.1083773281
 20
4.065007318
 40
2.8388651013
100
AcDbArc
 50
84.6451853941
 51
85.2202828002
  0
ARC
  5
476
100
AcDbEntity
  8
0
100
AcDbCircle
 62
7
  6
CONTINUOUS
 10
8.1200982076
 20
4.1923776437
 40
2.7109568153
100
AcDbArc
 50
84.4846408841
 51
84.6406018292
  0
ARC
  5
477
100
AcDbEntity
  8
0
100
AcDbCircle
 62
7
  6
CONTINUOUS
 10
8.0776830368
 20
4.2736297715
 40
2.6114314338
100
AcDbArc
 50
84.8479046827
 51
86.5911160408
  0
ARC
  5
478
100
AcDbEntity
  8
0
100
AcDbCircle
 62
7
  6
CONTINUOUS
 10
8.1188175773
 20
4.3262747591
 40
2.5718698192
100
AcDbArc
 50
84.336977052
 51
84.8044699879
  0
ARC
  5
479
100
AcDbEntity
  8
0
100
AcDbCircle
 62
7
  6
CONTINUOUS
 10
8.0466276106
 20
4.3488839146
 40
2.5208587391
100
AcDbArc
 50
90.4683939991
 51
90.6691395509
  0
ARC
  5
47A
100
AcDbEntity
  8
0
100
AcDbCircle
 62
7
  6
CONTINUOUS
 10
8.0465922408
 20
4.3545606851
 40
2.5151818692
100
AcDbArc
 50
90.0002466963
 51
90.4686454563
  0
ARC
  5
47B
100
AcDbEntity
  8
0
100
AcDbCircle
 62
7
  6
CONTINUOUS
 10
8.0467491103
 20
4.3650600244
 40
2.504681234
100
AcDbArc
 50
88.4766950353
 51
89.3314297764
  0
ARC
  5
47C
100
AcDbEntity
  8
0
100
AcDbCircle
 62
7
  6
CONTINUOUS
 10
8.0480116511
 20
4.4166133685
 40
2.4531125488
100
AcDbArc
 50
88.3000877202
 51
88.474163754
  0
ARC
  5
47D
100
AcDbEntity
  8
0
100
AcDbCircle
 62
7
  6
CONTINUOUS
 10
8.04960247
 20
4.4687407515
 40
2.400960916
100
AcDbArc
 50
87.6294720544
 51
88.3011323496
  0
ARC
  5
47E
100
AcDbEntity
  8
0
100
AcDbCircle
 62
7
  6
CONTINUOUS
 10
8.0527314307
 20
4.5481137147
 40
2.3215264633
100
AcDbArc
 50
87.5055360027
 51
87.6256041996
  0
ARC
  5
47F
100
AcDbEntity
  8
0
100
AcDbCircle
 62
7
  6
CONTINUOUS
 10
8.0539744359
 20
4.5765531158
 40
2.2930599112
100
AcDbArc
 50
87.3406382453
 51
87.5056375333
  0
ARC
  5
480
100
AcDbEntity
  8
0
100
AcDbCircle
 62
7
  6
CONTINUOUS
 10
8.0555288305
 20
4.6100220425
 40
2.2595549087
100
AcDbArc
 50
87.070199244
 51
87.3406339551
  0
ARC
  5
481
100
AcDbEntity
  8
0
100
AcDbCircle
 62
7
  6
CONTINUOUS
 10
10.0859997479
 20
3.8432078894
 40
2.2566414317
100
AcDbArc
 50
28.5593538499
 51
29.1827168175
  0
ARC
  5
482
100
AcDbEntity
  8
0
100
AcDbCircle
 62
7
  6
CONTINUOUS
 10
8.1107133006
 20
4.6580515003
 40
2.2255973134
100
AcDbArc
 50
84.0233600969
 51
84.8060908839
  0
ARC
  5
483
100
AcDbEntity
  8
0
100
AcDbCircle
 62
7
  6
CONTINUOUS
 10
10.4551536434
 20
3.7613458915
 40
2.1024040768
100
AcDbArc
 50
33.7492409062
 51
33.9845025893
  0
ARC
  5
484
100
AcDbEntity
  8
0
100
AcDbCircle
 62
7
  6
CONTINUOUS
 10
10.2233253697
 20
5.2771507472
 40
2.099827375
100
AcDbArc
 50
330.7940067094
 51
331.4639226232
  0
ARC
  5
485
100
AcDbEntity
  8
0
100
AcDbCircle
 62
7
  6
CONTINUOUS
 10
8.2510247434
 20
4.8579077805
 40
2.0536464195
100
AcDbArc
 50
81.2717515263
 51
82.1271083793
  0
ARC
  5
486
100
AcDbEntity
  8
0
100
AcDbCircle
 62
7
  6
CONTINUOUS
 10
8.1326270058
 20
4.8692521772
 40
2.0132629219
100
AcDbArc
 50
83.1812703355
 51
84.0177749427
  0
ARC
  5
487
100
AcDbEntity
  8
0
100
AcDbCircle
 62
7
  6
CONTINUOUS
 10
8.2690448815
 20
4.9761935945
 40
1.9339959332
100
AcDbArc
 50
81.1325471593
 51
81.2676571503
  0
ARC
  5
488
100
AcDbEntity
  8
0
100
AcDbCircle
 62
7
  6
CONTINUOUS
 10
8.2771495572
 20
5.0280121015
 40
1.8815474535
100
AcDbArc
 50
80.9173075626
 51
81.1331569991
  0
ARC
  5
489
100
AcDbEntity
  8
0
100
AcDbCircle
 62
7
  6
CONTINUOUS
 10
8.2234085117
 20
5.0600649191
 40
1.8370578708
100
AcDbArc
 50
81.174980285
 51
82.1192188931
  0
ARC
  5
48A
100
AcDbEntity
  8
0
100
AcDbCircle
 62
7
  6
CONTINUOUS
 10
8.287708867
 20
5.093787844
 40
1.8149295146
100
AcDbArc
 50
80.6792527218
 51
80.8641502732
  0
ARC
  5
48B
100
AcDbEntity
  8
0
100
AcDbCircle
 62
7
  6
CONTINUOUS
 10
8.293726174
 20
5.1304492534
 40
1.7777775709
100
AcDbArc
 50
80.547197416
 51
80.6792571347
  0
ARC
  5
48C
100
AcDbEntity
  8
0
100
AcDbCircle
 62
7
  6
CONTINUOUS
 10
8.2994005512
 20
5.1645263844
 40
1.7432312338
100
AcDbArc
 50
80.4086930015
 51
80.5472192804
  0
ARC
  5
48D
100
AcDbEntity
  8
0
100
AcDbCircle
 62
7
  6
CONTINUOUS
 10
8.1710588239
 20
5.1886204012
 40
1.6915907324
100
AcDbArc
 50
81.3345494251
 51
83.1894620887
  0
ARC
  5
48E
100
AcDbEntity
  8
0
100
AcDbCircle
 62
7
  6
CONTINUOUS
 10
8.3139768785
 20
5.2499222538
 40
1.6566002145
100
AcDbArc
 50
80.0030229176
 51
80.3042817663
  0
ARC
  5
48F
100
AcDbEntity
  8
0
100
AcDbCircle
 62
7
  6
CONTINUOUS
 10
10.5900250496
 20
3.1593007677
 40
2.4039425226
100
AcDbArc
 50
47.4175249123
 51
47.6706187708
  0
ARC
  5
490
100
AcDbEntity
  8
0
100
AcDbCircle
 62
7
  6
CONTINUOUS
 10
10.7554259285
 20
3.340788252
 40
2.1583918093
100
AcDbArc
 50
47.6723805222
 51
47.8320871726
  0
ARC
  5
491
100
AcDbEntity
  8
0
100
AcDbCircle
 62
7
  6
CONTINUOUS
 10
10.7693569151
 20
3.4316010949
 40
2.0601907304
100
AcDbArc
 50
46.925708567
 51
47.2128292355
  0
ARC
  5
492
100
AcDbEntity
  8
0
100
AcDbCircle
 62
7
  6
CONTINUOUS
 10
12.0626100317
 20
2.0417304556
 40
2.0284272382
100
AcDbArc
 50
95.4171900844
 51
96.1530210239
  0
ARC
  5
493
100
AcDbEntity
  8
0
100
AcDbCircle
 62
7
  6
CONTINUOUS
 10
11.9320702429
 20
2.3539264577
 40
1.7081663098
100
AcDbArc
 50
92.9381615903
 51
93.6135809378
  0
ARC
  5
494
100
AcDbEntity
  8
0
100
AcDbCircle
 62
6
  6
CONTINUOUS
 10
11.3453203866
 20
2.6656637132
 40
1.52
100
AcDbArc
 50
357.7540595742
 51
11.5898335017
  0
ARC
  5
495
100
AcDbEntity
  8
0
100
AcDbCircle
 62
6
  6
CONTINUOUS
 10
12.7478424359
 20
2.6656637132
 40
1.52
100
AcDbArc
 50
168.4101664983
 51
182.2459404257
  0
ARC
  5
496
100
AcDbEntity
  8
0
100
AcDbCircle
 62
7
  6
CONTINUOUS
 10
11.8526130877
 20
2.5888615971
 40
1.4478167952
100
AcDbArc
 50
92.272660733
 51
92.4778287074
  0
ARC
  5
497
100
AcDbEntity
  8
0
100
AcDbCircle
 62
7
  6
CONTINUOUS
 10
11.8800086037
 20
2.5995015082
 40
1.3396583374
100
AcDbArc
 50
92.9981298453
 51
93.7684281808
  0
ARC
  5
498
100
AcDbEntity
  8
0
100
AcDbCircle
 62
6
  6
CONTINUOUS
 10
11.6587958789
 20
2.7299530263
 40
1.2
100
AcDbArc
 50
11.5898335019
 51
40.5151811264
  0
ARC
  5
499
100
AcDbEntity
  8
0
100
AcDbCircle
 62
6
  6
CONTINUOUS
 10
12.4343669436
 20
2.7299530263
 40
1.2
100
AcDbArc
 50
139.4848188736
 51
168.4101664981
  0
ARC
  5
49A
100
AcDbEntity
  8
0
100
AcDbCircle
 62
7
  6
CONTINUOUS
 10
11.7191854145
 20
2.092941646
 40
0.7079509617
100
AcDbArc
 50
133.581594869
 51
134.0769568698
  0
ARC
  5
49B
100
AcDbEntity
  8
0
100
AcDbCircle
 62
6
  6
CONTINUOUS
 10
10.8888483919
 20
2.5435566103
 40
0.343
100
AcDbArc
 50
309.0112542963
 51
344.4151025565
  0
ARC
  5
49C
100
AcDbEntity
  8
0
100
AcDbCircle
 62
6
  6
CONTINUOUS
 10
11.0015814113
 20
1.9110379502
 40
0.125
100
AcDbArc
 50
118.357636576
 51
180.0
  0
ARC
  5
49D
100
AcDbEntity
  8
0
100
AcDbCircle
 62
6
  6
CONTINUOUS
 10
11.0525303531
 20
2.0675592405
 40
0.078
100
AcDbArc
 50
126.7734275145
 51
176.7083028377
  0
ARC
  5
49E
100
AcDbEntity
  8
0
100
AcDbCircle
 62
6
  6
CONTINUOUS
 10
11.1073458205
 20
2.1601398857
 40
0.078
100
AcDbArc
 50
120.9443106113
 51
171.9684266529
  0
ARC
  5
49F
100
AcDbEntity
  8
0
100
AcDbCircle
 62
6
  6
CONTINUOUS
 10
12.985817002
 20
2.1601398857
 40
0.078
100
AcDbArc
 50
8.0315733471
 51
59.0556893887
  0
ARC
  5
4A0
100
AcDbEntity
  8
0
100
AcDbCircle
 62
6
  6
CONTINUOUS
 10
10.9127613325
 20
2.0755979502
 40
0.062
100
AcDbArc
 50
298.3576365766
 51
356.7083028349
  0
ARC
  5
4A1
100
AcDbEntity
  8
0
100
AcDbCircle
 62
6
  6
CONTINUOUS
 10
10.9687190489
 20
2.1797005143
 40
0.062
100
AcDbArc
 50
306.7734275174
 51
351.9684266557
  0
ARC
  5
4A2
100
AcDbEntity
  8
0
100
AcDbCircle
 62
6
  6
CONTINUOUS
 10
11.035357163
 20
2.2802133348
 40
0.062
100
AcDbArc
 50
300.9443106182
 51
342.9532818479
  0
ARC
  5
4A3
100
AcDbEntity
  8
0
100
AcDbCircle
 62
6
  6
CONTINUOUS
 10
11.1242713049
 20
2.2529502579
 40
0.031
100
AcDbArc
 50
129.0112543126
 51
162.9532818608
  0
ARC
  5
4A4
100
AcDbEntity
  8
0
100
AcDbCircle
 62
6
  6
CONTINUOUS
 10
12.9688915176
 20
2.2529502579
 40
0.031
100
AcDbArc
 50
17.0467181392
 51
50.9887456874
  0
ARC
  5
4A5
100
AcDbEntity
  8
0
100
AcDbCircle
 62
7
  6
CONTINUOUS
 10
10.8383530532
 20
3.6150194139
 40
1.9094037738
100
AcDbArc
 50
43.8736718177
 51
44.0891374858
  0
ARC
  5
4A6
100
AcDbEntity
  8
0
100
AcDbCircle
 62
7
  6
CONTINUOUS
 10
10.689433604
 20
3.9192949845
 40
1.8198531687
100
AcDbArc
 50
33.9840471504
 51
34.2507859516
  0
ARC
  5
4A7
100
AcDbEntity
  8
0
100
AcDbCircle
 62
6
  6
CONTINUOUS
 10
11.2179927665
 20
3.7693922314
 40
0.4
100
AcDbArc
 50
319.4848188737
 51
349.9999999998
  0
ARC
  5
4A8
100
AcDbEntity
  8
0
100
AcDbCircle
 62
6
  6
CONTINUOUS
 10
12.8751700561
 20
3.7693922314
 40
0.4
100
AcDbArc
 50
190.0000000002
 51
220.5151811263
  0
ARC
  5
4A9
100
AcDbEntity
  8
0
100
AcDbCircle
 62
7
  6
CONTINUOUS
 10
11.8313980993
 20
3.8639296066
 40
0.1911669067
100
AcDbArc
 50
100.8653536697
 51
101.7126428326
  0
ARC
  5
4AA
100
AcDbEntity
  8
0
100
AcDbCircle
 62
7
  6
CONTINUOUS
 10
11.8264411148
 20
3.8879367917
 40
0.1666533148
100
AcDbArc
 50
101.7194394587
 51
101.9981116542
  0
ARC
  5
4AB
100
AcDbEntity
  8
0
100
AcDbCircle
 62
7
  6
CONTINUOUS
 10
11.8187875511
 20
3.9232628566
 40
0.1305080267
100
AcDbArc
 50
101.9354175088
 51
103.4359817724
  0
ARC
  5
4AC
100
AcDbEntity
  8
0
100
AcDbCircle
 62
6
  6
CONTINUOUS
 10
12.37963164
 20
3.8270379502
 40
0.078
100
AcDbArc
 50
9.9999999996
 51
90.0
  0
ARC
  5
4AD
100
AcDbEntity
  8
0
100
AcDbCircle
 62
6
  6
CONTINUOUS
 10
11.7135311825
 20
3.8270379502
 40
0.078
100
AcDbArc
 50
90.0
 51
170.0000000003
  0
ARC
  5
4AE
100
AcDbEntity
  8
0
100
AcDbCircle
 62
7
  6
CONTINUOUS
 10
8.2193110506
 20
5.5153307694
 40
1.3613407324
100
AcDbArc
 50
80.4505665349
 51
81.2704789706
  0
ARC
  5
4AF
100
AcDbEntity
  8
0
100
AcDbCircle
 62
7
  6
CONTINUOUS
 10
8.2440872364
 20
5.6636564454
 40
1.2109601105
100
AcDbArc
 50
79.6271023601
 51
80.4423268675
  0
ARC
  5
4B0
100
AcDbEntity
  8
0
100
AcDbCircle
 62
7
  6
CONTINUOUS
 10
8.3383133699
 20
5.7276842137
 40
1.1595442402
100
AcDbArc
 50
78.1859461281
 51
78.8242307947
  0
ARC
  5
4B1
100
AcDbEntity
  8
0
100
AcDbCircle
 62
7
  6
CONTINUOUS
 10
8.356803651
 20
5.8166898836
 40
1.0686383379
100
AcDbArc
 50
77.7621623015
 51
78.1792938742
  0
ARC
  5
4B2
100
AcDbEntity
  8
0
100
AcDbCircle
 62
7
  6
CONTINUOUS
 10
8.1829664265
 20
5.8387794837
 40
1.0236100084
100
AcDbArc
 50
80.1730969267
 51
81.2011975152
  0
ARC
  5
4B3
100
AcDbEntity
  8
0
100
AcDbCircle
 62
7
  6
CONTINUOUS
 10
8.2778906695
 20
5.8479369541
 40
1.0236049075
100
AcDbArc
 50
77.9759264833
 51
79.6310517162
  0
ARC
  5
4B4
100
AcDbEntity
  8
0
100
AcDbCircle
 62
7
  6
CONTINUOUS
 10
8.4577369327
 20
5.9490322515
 40
0.9427276484
100
AcDbArc
 50
76.0783999958
 51
76.365467554
  0
ARC
  5
4B5
100
AcDbEntity
  8
0
100
AcDbCircle
 62
7
  6
CONTINUOUS
 10
8.2020772042
 20
5.950971895
 40
0.9098020765
100
AcDbArc
 50
79.7498028023
 51
80.153086831
  0
ARC
  5
4B6
100
AcDbEntity
  8
0
100
AcDbCircle
 62
7
  6
CONTINUOUS
 10
8.3752710459
 20
6.0033466887
 40
0.8741601036
100
AcDbArc
 50
76.3300342876
 51
77.6725963387
  0
ARC
  5
4B7
100
AcDbEntity
  8
0
100
AcDbCircle
 62
7
  6
CONTINUOUS
 10
8.4766384178
 20
6.0244681215
 40
0.864960082
100
AcDbArc
 50
75.1816785283
 51
76.0914397996
  0
ARC
  5
4B8
100
AcDbEntity
  8
0
100
AcDbCircle
 62
7
  6
CONTINUOUS
 10
8.3128418941
 20
6.0156531614
 40
0.8522875696
100
AcDbArc
 50
77.3238323428
 51
77.9251921147
  0
ARC
  5
4B9
100
AcDbEntity
  8
0
100
AcDbCircle
 62
7
  6
CONTINUOUS
 10
8.4940029528
 20
6.0902169056
 40
0.7969569291
100
AcDbArc
 50
74.7801266923
 51
75.1796256312
  0
ARC
  5
4BA
100
AcDbEntity
  8
0
100
AcDbCircle
 62
7
  6
CONTINUOUS
 10
8.3978147933
 20
6.0964786501
 40
0.7783385482
100
AcDbArc
 50
75.8926224596
 51
76.3223333599
  0
ARC
  5
4BB
100
AcDbEntity
  8
0
100
AcDbCircle
 62
7
  6
CONTINUOUS
 10
8.4048425135
 20
6.1244796271
 40
0.749469127
100
AcDbArc
 50
75.7041134451
 51
75.8919201722
  0
ARC
  5
4BC
100
AcDbEntity
  8
0
100
AcDbCircle
 62
7
  6
CONTINUOUS
 10
8.3363492546
 20
6.1198801041
 40
0.7454426022
100
AcDbArc
 50
75.9287654207
 51
77.3286582312
  0
ARC
  5
4BD
100
AcDbEntity
  8
0
100
AcDbCircle
 62
7
  6
CONTINUOUS
 10
8.5076243339
 20
6.1400461577
 40
0.7452994781
100
AcDbArc
 50
74.1918617878
 51
74.7849121727
  0
ARC
  5
4BE
100
AcDbEntity
  8
0
100
AcDbCircle
 62
7
  6
CONTINUOUS
 10
8.517961902
 20
6.1765960992
 40
0.7073157523
100
AcDbArc
 50
73.9293509687
 51
74.1910332532
  0
ARC
  5
4BF
100
AcDbEntity
  8
0
100
AcDbCircle
 62
7
  6
CONTINUOUS
 10
8.5228888685
 20
6.1937007348
 40
0.6895156523
100
AcDbArc
 50
73.7547567811
 51
73.9293076829
  0
ARC
  5
4C0
100
AcDbEntity
  8
0
100
AcDbCircle
 62
7
  6
CONTINUOUS
 10
8.0475545527
 20
6.1716889008
 40
0.6778102153
100
AcDbArc
 50
87.6520574458
 51
88.3914348136
  0
ARC
  5
4C1
100
AcDbEntity
  8
0
100
AcDbCircle
 62
7
  6
CONTINUOUS
 10
8.067902818
 20
6.431453082
 40
0.4171856772
100
AcDbArc
 50
82.8693663886
 51
83.8939915433
  0
ARC
  5
4C2
100
AcDbEntity
  8
0
100
AcDbCircle
 62
7
  6
CONTINUOUS
 10
8.328460575
 20
6.5017533818
 40
0.3443751505
100
AcDbArc
 50
72.4578730128
 51
73.2662527403
  0
ARC
  5
4C3
100
AcDbEntity
  8
0
100
AcDbCircle
 62
7
  6
CONTINUOUS
 10
8.6445556002
 20
6.8802230979
 40
0.2746982674
100
AcDbArc
 50
52.2921129777
 51
54.731510185
  0
ARC
  5
4C4
100
AcDbEntity
  8
0
100
AcDbCircle
 62
7
  6
CONTINUOUS
 10
8.4990252704
 20
6.640730862
 40
0.1990295782
100
AcDbArc
 50
65.4162852425
 51
65.8315571914
  0
ARC
  5
4C5
100
AcDbEntity
  8
0
100
AcDbCircle
 62
7
  6
CONTINUOUS
 10
8.1154027239
 20
6.9506083565
 40
0.1393573312
100
AcDbArc
 50
283.5161279324
 51
285.619731167
  0
ARC
  5
4C6
100
AcDbEntity
  8
0
100
AcDbCircle
 62
7
  6
CONTINUOUS
 10
8.1170627425
 20
6.7113904629
 40
0.1327587529
100
AcDbArc
 50
74.3279842638
 51
76.5361566368
  0
ARC
  5
4C7
100
AcDbEntity
  8
0
100
AcDbCircle
 62
7
  6
CONTINUOUS
 10
8.616872529
 20
6.7159340375
 40
0.1192097273
100
AcDbArc
 50
57.3697857503
 51
58.833106155
  0
ARC
  5
4C8
100
AcDbEntity
  8
0
100
AcDbCircle
 62
7
  6
CONTINUOUS
 10
8.6234253915
 20
6.7261250956
 40
0.1070937437
100
AcDbArc
 50
55.9013613181
 51
57.3823268821
  0
ARC
  5
4C9
100
AcDbEntity
  8
0
100
AcDbCircle
 62
7
  6
CONTINUOUS
 10
8.6326066371
 20
6.7394815261
 40
0.0908865243
100
AcDbArc
 50
52.8320226218
 51
55.9737794192
  0
ARC
  5
4CA
100
AcDbEntity
  8
0
100
AcDbCircle
 62
7
  6
CONTINUOUS
 10
8.646851237
 20
6.8152607463
 40
0.06781353
100
AcDbArc
 50
309.6652617858
 51
311.9197312547
  0
ARC
  5
4CB
100
AcDbEntity
  8
0
100
AcDbCircle
 62
7
  6
CONTINUOUS
 10
8.6520963653
 20
6.8093769037
 40
0.0599312664
100
AcDbArc
 50
311.9466209992
 51
314.0981228169
  0
ARC
  5
4CC
100
AcDbEntity
  8
0
100
AcDbCircle
 62
7
  6
CONTINUOUS
 10
8.694256897
 20
6.8048063362
 40
0.0214607563
100
AcDbArc
 50
16.2455938733
 51
20.774048815
  0
ARC
  5
4CD
100
AcDbEntity
  8
0
100
AcDbCircle
 62
7
  6
CONTINUOUS
 10
8.6914273234
 20
6.7924790329
 40
0.0196229675
100
AcDbArc
 50
9.540363041
 51
14.1437741811
  0
ARC
  5
4CE
100
AcDbEntity
  8
0
100
AcDbCircle
 62
7
  6
CONTINUOUS
 10
8.696244558
 20
6.805597139
 40
0.0194020449
100
AcDbArc
 50
345.3835561241
 51
352.5279188689
  0
ARC
  5
4CF
100
AcDbEntity
  8
0
100
AcDbCircle
 62
7
  6
CONTINUOUS
 10
8.6969963986
 20
6.8054949341
 40
0.0186432979
100
AcDbArc
 50
352.5388758406
 51
357.3262105629
  0
ARC
  5
4D0
100
AcDbEntity
  8
0
100
AcDbCircle
 62
7
  6
CONTINUOUS
 10
8.0690402933
 20
8.7772934084
 40
2.025110522
100
AcDbArc
 50
273.5899149683
 51
274.6381914055
  0
ARC
  5
4D1
100
AcDbEntity
  8
0
100
AcDbCircle
 62
7
  6
CONTINUOUS
 10
8.198826155
 20
8.1032425155
 40
1.3976375273
100
AcDbArc
 50
278.5104208336
 51
278.7425364773
  0
ARC
  5
4D2
100
AcDbEntity
  8
0
100
AcDbCircle
 62
7
  6
CONTINUOUS
 10
8.1934402362
 20
7.7131336416
 40
0.9533108803
100
AcDbArc
 50
278.9883548524
 51
280.7137973808
  0
ARC
  5
4D3
100
AcDbEntity
  8
0
100
AcDbCircle
 62
7
  6
CONTINUOUS
 10
8.0473943471
 20
7.4885605145
 40
0.6824510457
100
AcDbArc
 50
271.6110791924
 51
272.3454285481
  0
ARC
  5
4D4
100
AcDbEntity
  8
0
100
AcDbCircle
 62
7
  6
CONTINUOUS
 10
8.0667951765
 20
7.2337045022
 40
0.4267956748
100
AcDbArc
 50
276.1175443034
 51
277.1190977648
  0
ARC
  5
4D5
100
AcDbEntity
  8
0
100
AcDbCircle
 62
7
  6
CONTINUOUS
 10
10.3574560108
 20
6.2898765013
 40
2.7476701186
100
AcDbArc
 50
312.582064143
 51
312.80641619
  0
ARC
  5
4D6
100
AcDbEntity
  8
0
100
AcDbCircle
 62
7
  6
CONTINUOUS
 10
10.3280474984
 20
6.2343548621
 40
2.7048172077
100
AcDbArc
 50
313.3270265804
 51
313.5519255534
  0
ARC
  5
4D7
100
AcDbEntity
  8
0
100
AcDbCircle
 62
7
  6
CONTINUOUS
 10
10.4310347801
 20
5.9707136306
 40
2.4730898871
100
AcDbArc
 50
316.3312341275
 51
316.681366561
  0
ARC
  5
4D8
100
AcDbEntity
  8
0
100
AcDbCircle
 62
7
  6
CONTINUOUS
 10
10.5900250498
 20
6.0367751324
 40
2.4039425223
100
AcDbArc
 50
312.3293812292
 51
312.5824750878
  0
ARC
  5
4D9
100
AcDbEntity
  8
0
100
AcDbCircle
 62
7
  6
CONTINUOUS
 10
10.5888434348
 20
5.9576542327
 40
2.3245832475
100
AcDbArc
 50
313.0725249333
 51
313.263686391
  0
ARC
  5
4DA
100
AcDbEntity
  8
0
100
AcDbCircle
 62
7
  6
CONTINUOUS
 10
10.2847017645
 20
5.5490016912
 40
2.3076152115
100
AcDbArc
 50
326.0285191613
 51
326.4611181993
  0
ARC
  5
4DB
100
AcDbEntity
  8
0
100
AcDbCircle
 62
7
  6
CONTINUOUS
 10
10.7985299462
 20
5.8078415521
 40
2.0942896913
100
AcDbArc
 50
312.0431962198
 51
312.3298531346
  0
ARC
  5
4DC
100
AcDbEntity
  8
0
100
AcDbCircle
 62
7
  6
CONTINUOUS
 10
10.5562485544
 20
5.6377744441
 40
2.0875187152
100
AcDbArc
 50
318.4264908645
 51
319.2105590379
  0
ARC
  5
4DD
100
AcDbEntity
  8
0
100
AcDbCircle
 62
7
  6
CONTINUOUS
 10
10.7693569148
 20
5.7644748059
 40
2.0601907308
100
AcDbArc
 50
312.7871707645
 51
313.0742914328
  0
ARC
  5
4DE
100
AcDbEntity
  8
0
100
AcDbCircle
 62
7
  6
CONTINUOUS
 10
10.813011609
 20
5.6055323544
 40
1.9446352121
100
AcDbArc
 50
315.9123943632
 51
316.1992149575
  0
ARC
  5
4DF
100
AcDbEntity
  8
0
100
AcDbCircle
 62
7
  6
CONTINUOUS
 10
18.0320842394
 20
5.1173323983
 40
5.9946386948
100
AcDbArc
 50
188.0868944241
 51
188.2945057991
  0
ARC
  5
4E0
100
AcDbEntity
  8
0
100
AcDbCircle
 62
7
  6
CONTINUOUS
 10
17.6040334224
 20
4.1403556475
 40
5.5621772551
100
AcDbArc
 50
171.6974232585
 51
171.9211765183
  0
ARC
  5
4E1
100
AcDbEntity
  8
0
100
AcDbCircle
 62
7
  6
CONTINUOUS
 10
15.4763129362
 20
5.273031957
 40
3.6825662477
100
AcDbArc
 50
195.7402453989
 51
195.8585090294
  0
ARC
  5
4E2
100
AcDbEntity
  8
0
100
AcDbCircle
 62
7
  6
CONTINUOUS
 10
15.2091894275
 20
3.9985216499
 40
3.4049841574
100
AcDbArc
 50
163.9499131309
 51
164.2628347363
  0
ARC
  5
4E3
100
AcDbEntity
  8
0
100
AcDbCircle
 62
7
  6
CONTINUOUS
 10
14.7028865286
 20
5.052841523
 40
2.8784070825
100
AcDbArc
 50
195.8493271316
 51
196.1430795956
  0
ARC
  5
4E4
100
AcDbEntity
  8
0
100
AcDbCircle
 62
7
  6
CONTINUOUS
 10
13.7357089652
 20
2.9061970357
 40
2.7476733158
100
AcDbArc
 50
132.582063863
 51
132.8064156465
  0
ARC
  5
4E5
100
AcDbEntity
  8
0
100
AcDbCircle
 62
7
  6
CONTINUOUS
 10
13.7651179229
 20
2.9617182597
 40
2.7048210122
100
AcDbArc
 50
133.327026241
 51
133.551924895
  0
ARC
  5
4E6
100
AcDbEntity
  8
0
100
AcDbCircle
 62
7
  6
CONTINUOUS
 10
13.6624010907
 20
3.2251037422
 40
2.4734659074
100
AcDbArc
 50
136.3317958048
 51
136.6813488297
  0
ARC
  5
4E7
100
AcDbEntity
  8
0
100
AcDbCircle
 62
7
  6
CONTINUOUS
 10
13.503137655
 20
3.1593009484
 40
2.4039423097
100
AcDbArc
 50
132.3293820471
 51
132.5824759345
  0
ARC
  5
4E8
100
AcDbEntity
  8
0
100
AcDbCircle
 62
7
  6
CONTINUOUS
 10
13.5043120465
 20
3.2384295594
 40
2.3245724693
100
AcDbArc
 50
133.0725255873
 51
133.2636868836
  0
ARC
  5
4E9
100
AcDbEntity
  8
0
100
AcDbCircle
 62
7
  6
CONTINUOUS
 10
13.8084433728
 20
3.6470860066
 40
2.3075939526
100
AcDbArc
 50
146.0285167283
 51
146.4611197424
  0
ARC
  5
4EA
100
AcDbEntity
  8
0
100
AcDbCircle
 62
7
  6
CONTINUOUS
 10
13.8698323063
 20
3.9189279909
 40
2.0998214981
100
AcDbArc
 50
150.7940057719
 51
151.4639235607
  0
ARC
  5
4EB
100
AcDbEntity
  8
0
100
AcDbCircle
 62
7
  6
CONTINUOUS
 10
13.2946316931
 20
3.3882356309
 40
2.0942879465
100
AcDbArc
 50
132.0431956804
 51
132.32985283
  0
ARC
  5
4EC
100
AcDbEntity
  8
0
100
AcDbCircle
 62
7
  6
CONTINUOUS
 10
13.5369104136
 20
3.5583048285
 40
2.0875135938
100
AcDbArc
 50
138.4264899027
 51
139.2105599997
  0
ARC
  5
4ED
100
AcDbEntity
  8
0
100
AcDbCircle
 62
7
  6
CONTINUOUS
 10
13.3238044812
 20
3.4316026012
 40
2.0601886561
100
AcDbArc
 50
132.7871701114
 51
133.0742910637
  0
ARC
  5
4EE
100
AcDbEntity
  8
0
100
AcDbCircle
 62
7
  6
CONTINUOUS
 10
13.2548017265
 20
3.6150272434
 40
1.9093925494
100
AcDbArc
 50
135.9108633397
 51
136.1263302791
  0
ARC
  5
4EF
100
AcDbEntity
  8
0
100
AcDbCircle
 62
7
  6
CONTINUOUS
 10
13.4037321996
 20
5.2767829
 40
1.8198567495
100
AcDbArc
 50
213.9840464758
 51
214.250784764
  0
ARC
  5
4F0
100
AcDbEntity
  8
0
100
AcDbCircle
 62
6
  6
CONTINUOUS
 10
13.2043144306
 20
2.5435566103
 40
0.343
100
AcDbArc
 50
195.6076000919
 51
230.9887457037
  0
ARC
  5
4F1
100
AcDbEntity
  8
0
100
AcDbCircle
 62
6
  6
CONTINUOUS
 10
13.0915814113
 20
1.9110379502
 40
0.125
100
AcDbArc
 50
0.0
 51
61.642363424
  0
ARC
  5
4F2
100
AcDbEntity
  8
0
100
AcDbCircle
 62
6
  6
CONTINUOUS
 10
13.0406324694
 20
2.0675592405
 40
0.078
100
AcDbArc
 50
3.2916971623
 51
53.2265724855
  0
ARC
  5
4F3
100
AcDbEntity
  8
0
100
AcDbCircle
 62
6
  6
CONTINUOUS
 10
13.1804014901
 20
2.0755979502
 40
0.062
100
AcDbArc
 50
183.2916971651
 51
241.6423634234
  0
ARC
  5
4F4
100
AcDbEntity
  8
0
100
AcDbCircle
 62
6
  6
CONTINUOUS
 10
13.1244437736
 20
2.1797005143
 40
0.062
100
AcDbArc
 50
188.0315733443
 51
233.2265724826
  0
ARC
  5
4F5
100
AcDbEntity
  8
0
100
AcDbCircle
 62
6
  6
CONTINUOUS
 10
13.0578056595
 20
2.2802133348
 40
0.062
100
AcDbArc
 50
197.0467181521
 51
239.0556893818
  0
ARC
  5
4F6
100
AcDbEntity
  8
0
100
AcDbCircle
 62
7
  6
CONTINUOUS
 10
13.7357089656
 20
6.2898788651
 40
2.7476733165
100
AcDbArc
 50
227.1935843535
 51
227.417936137
  0
ARC
  5
4F7
100
AcDbEntity
  8
0
100
AcDbCircle
 62
7
  6
CONTINUOUS
 10
13.641497769
 20
6.1038001178
 40
2.5250237126
100
AcDbArc
 50
226.4398627059
 51
226.9183771293
  0
ARC
  5
4F8
100
AcDbEntity
  8
0
100
AcDbCircle
 62
7
  6
CONTINUOUS
 10
13.9001620276
 20
5.6099109569
 40
2.4177015241
100
AcDbArc
 50
213.5413348307
 51
213.7496554696
  0
ARC
  5
4F9
100
AcDbEntity
  8
0
100
AcDbCircle
 62
7
  6
CONTINUOUS
 10
13.5031376554
 20
6.0367749524
 40
2.4039423102
100
AcDbArc
 50
227.4175240656
 51
227.6706179528
  0
ARC
  5
4FA
100
AcDbEntity
  8
0
100
AcDbCircle
 62
7
  6
CONTINUOUS
 10
14.0071689685
 20
5.3528712607
 40
2.256648162
100
AcDbArc
 50
208.5593547795
 51
209.1827158879
  0
ARC
  5
4FB
100
AcDbEntity
  8
0
100
AcDbCircle
 62
7
  6
CONTINUOUS
 10
13.6497334218
 20
5.7364757332
 40
2.2374157612
100
AcDbArc
 50
220.8157058966
 51
221.5472442009
  0
ARC
  5
4FC
100
AcDbEntity
  8
0
100
AcDbCircle
 62
7
  6
CONTINUOUS
 10
13.6380095131
 20
5.4347303139
 40
2.1024045241
100
AcDbArc
 50
213.7492427662
 51
213.9845043841
  0
ARC
  5
4FD
100
AcDbEntity
  8
0
100
AcDbCircle
 62
7
  6
CONTINUOUS
 10
13.3238044808
 20
5.7644732988
 40
2.0601886555
100
AcDbArc
 50
226.9257089361
 51
227.2128298886
  0
ARC
  5
4FE
100
AcDbEntity
  8
0
100
AcDbCircle
 62
7
  6
CONTINUOUS
 10
13.2582009877
 20
5.7675506046
 40
2.0399699211
100
AcDbArc
 50
227.7769382412
 51
227.9588628314
  0
ARC
  5
4FF
100
AcDbEntity
  8
0
100
AcDbCircle
 62
7
  6
CONTINUOUS
 10
13.2801545024
 20
5.6055354687
 40
1.9446397413
100
AcDbArc
 50
223.8007841822
 51
224.0876041209
  0
SPLINE
  5
500
100
AcDbEntity
  8
0
100
AcDbSpline
 62
7
  6
CONTINUOUS
 70
0
 71
3
 72
9
 73
5
 74
3
 42
0.0000001
 43
0.0000001
 44
0.0000000001
 12
0.0040626613
 22
0.0116202233
 32
0.0
 13
-0.0019009046
 23
0.0121622929
 33
0.0
 40
0.0
 40
0.0
 40
0.0
 40
0.0
 40
0.5057973285
 40
1.0
 40
1.0
 40
1.0
 40
1.0
 10
8.850110998
 20
7.0636328564
 30
0.0
 10
8.8507959591
 20
7.0655920157
 30
0.0
 10
8.8517289215
 20
7.069634432
 30
0.0
 10
8.8516011275
 20
7.0737868266
 30
0.0
 10
8.8512879835
 20
7.0757903724
 30
0.0
 11
8.850110998
 21
7.0636328564
 31
0.0
 11
8.8514683646
 21
7.0697094383
 31
0.0
 11
8.8512879835
 21
7.0757903724
 31
0.0
  0
SPLINE
  5
501
100
AcDbEntity
  8
0
100
AcDbSpline
 62
7
  6
CONTINUOUS
 70
0
 71
3
 72
11
 73
7
 74
5
 42
0.0000001
 43
0.0000001
 44
0.0000000001
 12
0.365292859
 22
-0.0000000009
 32
0.0
 13
0.362871019
 23
0.0419940043
 33
0.0
 40
0.0
 40
0.0
 40
0.0
 40
0.0
 40
0.2634339146
 40
0.5216779456
 40
0.768848374
 40
1.0
 40
1.0
 40
1.0
 40
1.0
 10
8.0465814113
 20
6.672270025
 30
0.0
 10
8.0786582539
 20
6.6722700249
 30
0.0
 10
8.1421829159
 20
6.6730783421
 30
0.0
 10
8.2357428395
 20
6.6766742016
 30
0.0
 10
8.3252468025
 20
6.6825850805
 30
0.0
 10
8.3832311267
 20
6.6881989924
 30
0.0
 10
8.4111905354
 20
6.6914346532
 30
0.0
 11
8.0465814113
 21
6.672270025
 31
0.0
 11
8.1428040472
 21
6.6735024247
 31
0.0
 11
8.2370675132
 21
6.6771677605
 31
0.0
 11
8.3271561955
 21
6.6831877115
 31
0.0
 11
8.4111905354
 21
6.6914346532
 31
0.0
  0
SPLINE
  5
502
100
AcDbEntity
  8
0
100
AcDbSpline
 62
7
  6
CONTINUOUS
 70
0
 71
3
 72
15
 73
11
 74
9
 42
0.0000001
 43
0.0000001
 44
0.0000000001
 12
0.2551064315
 22
0.029522723
 32
0.0
 13
0.2335192321
 23
0.1068627663
 33
0.0
 40
0.0
 40
0.0
 40
0.0
 40
0.0
 40
0.1620459529
 40
0.3149635481
 40
0.4578886174
 40
0.5900997002
 40
0.7109155405
 40
0.8197447765
 40
0.9161963324
 40
1.0
 40
1.0
 40
1.0
 40
1.0
 10
8.4111905354
 20
6.6914346532
 30
0.0
 10
8.4249701903
 20
6.6930293325
 30
0.0
 10
8.4517254729
 20
6.6963772629
 30
0.0
 10
8.4905100378
 20
6.7020681682
 30
0.0
 10
8.5266296721
 20
6.7082613443
 30
0.0
 10
8.5598706798
 20
6.714911794
 30
0.0
 10
8.5900364969
 20
6.7219780134
 30
0.0
 10
8.616950554
 20
6.7294216793
 30
0.0
 10
8.6404579367
 20
6.7371877068
 30
0.0
 10
8.6547900229
 20
6.7429531378
 30
0.0
 10
8.661313279
 20
6.7459383018
 30
0.0
 11
8.4111905354
 21
6.6914346532
 31
0.0
 11
8.4524805441
 21
6.6966242783
 31
0.0
 11
8.4913309853
 21
6.702353577
 31
0.0
 11
8.5275018818
 21
6.7085891909
 31
0.0
 11
8.5607867136
 21
6.7152918959
 31
0.0
 11
8.5909829864
 21
6.7224217632
 31
0.0
 11
8.6179018986
 21
6.729937174
 31
0.0
 11
8.6413931778
 21
6.7377917548
 31
0.0
 11
8.661313279
 21
6.7459383018
 31
0.0
  0
SPLINE
  5
503
100
AcDbEntity
  8
0
100
AcDbSpline
 62
7
  6
CONTINUOUS
 70
0
 71
3
 72
10
 73
6
 74
4
 42
0.0000001
 43
0.0000001
 44
0.0000000001
 12
0.0305570874
 22
0.0139834945
 32
0.0
 13
0.0258639073
 23
0.0214553491
 33
0.0
 40
0.0
 40
0.0
 40
0.0
 40
0.0
 40
0.5475321475
 40
0.785290469
 40
1.0
 40
1.0
 40
1.0
 40
1.0
 10
8.661313279
 20
6.7459383018
 30
0.0
 10
8.6668902749
 20
6.7484904393
 30
0.0
 10
8.6747608401
 20
6.7524715223
 30
0.0
 10
8.6842224526
 20
6.7584807478
 30
0.0
 10
8.6882856199
 20
6.7615232371
 30
0.0
 10
8.6901366957
 20
6.7630587931
 30
0.0
 11
8.661313279
 21
6.7459383018
 31
0.0
 11
8.6776514254
 21
6.7544006642
 31
0.0
 11
8.6843803628
 21
6.7587085798
 31
0.0
 11
8.6901366957
 21
6.7630587931
 31
0.0
  0
SPLINE
  5
504
100
AcDbEntity
  8
0
100
AcDbSpline
 62
7
  6
CONTINUOUS
 70
0
 71
3
 72
11
 73
7
 74
5
 42
0.0000001
 43
0.0000001
 44
0.0000000001
 12
0.064298897
 22
-0.0161602942
 32
0.0
 13
0.0604865614
 23
-0.0271455183
 33
0.0
 40
0.0
 40
0.0
 40
0.0
 40
0.0
 40
0.2861820302
 40
0.5485383925
 40
0.7865924174
 40
1.0
 40
1.0
 40
1.0
 40
1.0
 10
8.517587265
 20
6.8429551048
 30
0.0
 10
8.5237209946
 20
6.8414135096
 30
0.0
 10
8.5354368233
 20
6.8382910017
 30
0.0
 10
8.5520723394
 20
6.8332328034
 30
0.0
 10
8.5669661523
 20
6.8280194419
 30
0.0
 10
8.5762093155
 20
6.8242456724
 30
0.0
 10
8.5805120791
 20
6.8223146526
 30
0.0
 11
8.517587265
 21
6.8429551048
 31
0.0
 11
8.5359144295
 21
6.8380451724
 31
0.0
 11
8.5525472641
 21
6.8329564509
 31
0.0
 11
8.5674313027
 21
6.8277069433
 31
0.0
 11
8.5805120791
 21
6.8223146526
 31
0.0
  0
SPLINE
  5
505
100
AcDbEntity
  8
0
100
AcDbSpline
 62
7
  6
CONTINUOUS
 70
0
 71
3
 72
11
 73
7
 74
5
 42
0.0000001
 43
0.0000001
 44
0.0000000001
 12
0.0284437202
 22
-0.013013633
 32
0.0
 13
0.0233847603
 23
-0.0207738501
 33
0.0
 40
0.0
 40
0.0
 40
0.0
 40
0.0
 40
0.2895592871
 40
0.5522168655
 40
0.7886649895
 40
1.0
 40
1.0
 40
1.0
 40
1.0
 10
8.5818260217
 20
6.8217192831
 30
0.0
 10
8.5845714028
 20
6.8204632104
 30
0.0
 10
8.5897533922
 20
6.8179467633
 30
0.0
 10
8.596935291
 20
6.8139305252
 30
0.0
 10
8.603135346
 20
6.8098651151
 30
0.0
 10
8.6068082172
 20
6.8069677878
 30
0.0
 10
8.6084555567
 20
6.8055043739
 30
0.0
 11
8.5818260217
 21
6.8217192831
 31
0.0
 11
8.5899636922
 21
6.817742872
 31
0.0
 11
8.5971215297
 21
6.8137099831
 31
0.0
 11
8.603288997
 21
6.8096280169
 31
0.0
 11
8.6084555567
 21
6.8055043739
 31
0.0
  0
SPLINE
  5
506
100
AcDbEntity
  8
0
100
AcDbSpline
 62
7
  6
CONTINUOUS
 70
0
 71
3
 72
11
 73
7
 74
5
 42
0.0000001
 43
0.0000001
 44
0.0000000001
 12
0.0167821342
 22
-0.0149084076
 32
0.0
 13
0.0000000203
 23
-0.0224477314
 33
0.0
 40
0.0
 40
0.0
 40
0.0
 40
0.0
 40
0.2951074025
 40
0.5536538007
 40
0.7844373664
 40
1.0
 40
1.0
 40
1.0
 40
1.0
 10
8.6084555567
 20
6.8055043739
 30
0.0
 10
8.6101064007
 20
6.8040378467
 30
0.0
 10
8.6130501908
 20
6.8011001442
 30
0.0
 10
8.6164874509
 20
6.7962999646
 30
0.0
 10
8.6185939
 20
6.7914118604
 30
0.0
 10
8.6190759957
 20
6.7880567041
 30
0.0
 10
8.6190759971
 20
6.78644374
 30
0.0
 11
8.6084555567
 21
6.8055043739
 31
0.0
 11
8.6130974807
 21
6.8007782304
 31
0.0
 11
8.6164187411
 21
6.7960187039
 31
0.0
 11
8.6184116818
 21
6.7912368144
 31
0.0
 11
8.6190759971
 21
6.78644374
 31
0.0
  0
SPLINE
  5
507
100
AcDbEntity
  8
0
100
AcDbSpline
 62
7
  6
CONTINUOUS
 70
0
 71
3
 72
12
 73
8
 74
6
 42
0.0000001
 43
0.0000001
 44
0.0000000001
 12
0.3601181491
 22
0.0
 32
0.0
 13
0.356152559
 23
0.0532957412
 33
0.0
 40
0.0
 40
0.0
 40
0.0
 40
0.0
 40
0.2701376929
 40
0.5322090143
 40
0.7778852227
 40
0.8923191421
 40
1.0
 40
1.0
 40
1.0
 40
1.0
 10
8.0465814113
 20
6.6978308584
 30
0.0
 10
8.0790085732
 20
6.6978308584
 30
0.0
 10
8.1428994242
 20
6.6988070288
 30
0.0
 10
8.236189404
 20
6.7031607237
 30
0.0
 10
8.3106508485
 20
6.7092055536
 30
0.0
 10
8.366454755
 20
6.7154926045
 30
0.0
 10
8.3928779342
 20
6.7190814487
 30
0.0
 10
8.4056615386
 20
6.7209944257
 30
0.0
 11
8.0465814113
 21
6.6978308584
 31
0.0
 11
8.1438512257
 21
6.6993377433
 31
0.0
 11
8.2381218598
 21
6.7038096087
 31
0.0
 11
8.3262930323
 21
6.7111048655
 31
0.0
 11
8.3672408546
 21
6.7157435933
 31
0.0
 11
8.4056615386
 21
6.7209944257
 31
0.0
  0
SPLINE
  5
508
100
AcDbEntity
  8
0
100
AcDbSpline
 62
7
  6
CONTINUOUS
 70
0
 71
3
 72
20
 73
16
 74
14
 42
0.0000001
 43
0.0000001
 44
0.0000000001
 12
0.2037962857
 22
0.0313438372
 32
0.0
 13
0.0000000303
 23
0.2061925368
 33
0.0
 40
0.0
 40
0.0
 40
0.0
 40
0.0
 40
0.2037667544
 40
0.3865989644
 40
0.546760697
 40
0.6179500795
 40
0.6830644023
 40
0.7420314524
 40
0.794831204
 40
0.8415603175
 40
0.882434543
 40
0.9178327208
 40
0.9484043736
 40
0.9752417993
 40
1.0
 40
1.0
 40
1.0
 40
1.0
 10
8.4112595649
 20
6.721843694
 30
0.0
 10
8.4251018674
 20
6.723972638
 30
0.0
 10
8.4513066322
 20
6.7284097875
 30
0.0
 10
8.4881014576
 20
6.7360952193
 30
0.0
 10
8.5156715643
 20
6.7432559111
 30
0.0
 10
8.5351134289
 20
6.7493694558
 30
0.0
 10
8.5477540948
 20
6.7538914367
 30
0.0
 10
8.5590021061
 20
6.7585185827
 30
0.0
 10
8.5688267815
 20
6.7632418026
 30
0.0
 10
8.5772071526
 20
6.7680477608
 30
0.0
 10
8.5841303113
 20
6.7729270444
 30
0.0
 10
8.589586566
 20
6.7778777943
 30
0.0
 10
8.5935612195
 20
6.7829176907
 30
0.0
 10
8.5960107013
 20
6.7880709293
 30
0.0
 10
8.5965763638
 20
6.7916356992
 30
0.0
 10
8.5965763641
 20
6.7933373513
 30
0.0
 11
8.4112595649
 21
6.721843694
 31
0.0
 11
8.4526733541
 21
6.7289270368
 31
0.0
 11
8.4895558441
 21
6.7367289068
 31
0.0
 11
8.5214846675
 21
6.7451636555
 31
0.0
 11
8.5354804133
 21
6.7495890255
 31
0.0
 11
8.5481129676
 21
6.7541363758
 31
0.0
 11
8.5593443926
 21
6.7587931784
 31
0.0
 11
8.5691386867
 21
6.7635467787
 31
0.0
 11
8.5774718005
 21
6.7683837392
 31
0.0
 11
8.584324241
 21
6.7732903238
 31
0.0
 11
8.5896765244
 21
6.7782527959
 31
0.0
 11
8.5935092424
 21
6.7832574172
 31
0.0
 11
8.5958095834
 21
6.7882903101
 31
0.0
 11
8.5965763641
 21
6.7933373513
 31
0.0
  0
SPLINE
  5
509
100
AcDbEntity
  8
0
100
AcDbSpline
 62
7
  6
CONTINUOUS
 70
0
 71
3
 72
11
 73
7
 74
5
 42
0.0000001
 43
0.0000001
 44
0.0000000001
 12
0.1691528835
 22
-0.0086589465
 32
0.0
 13
0.1673781189
 23
-0.0259276044
 33
0.0
 40
0.0
 40
0.0
 40
0.0
 40
0.0
 40
0.2707775859
 40
0.5296182469
 40
0.7736056428
 40
1.0
 40
1.0
 40
1.0
 40
1.0
 10
8.1710200787
 20
6.8666235042
 30
0.0
 10
8.1862876818
 20
6.8658419547
 30
0.0
 10
8.2161353122
 20
6.8640083205
 30
0.0
 10
8.2596631292
 20
6.8603620898
 30
0.0
 10
8.3005966133
 20
6.8559103041
 30
0.0
 10
8.3269119636
 20
6.8522998395
 30
0.0
 10
8.3395431175
 20
6.8503432184
 30
0.0
 11
8.1710200787
 21
6.8666235042
 31
0.0
 11
8.2167954808
 21
6.8637937883
 31
0.0
 11
8.2604811307
 21
6.8601066679
 31
0.0
 11
8.3015603222
 21
6.8556041109
 31
0.0
 11
8.3395431175
 21
6.8503432184
 31
0.0
  0
SPLINE
  5
50A
100
AcDbEntity
  8
0
100
AcDbSpline
 62
7
  6
CONTINUOUS
 70
0
 71
3
 72
9
 73
5
 74
3
 42
0.0000001
 43
0.0000001
 44
0.0000000001
 12
0.0642999837
 22
-0.0116309078
 32
0.0
 13
0.0625752664
 23
-0.0188175971
 33
0.0
 40
0.0
 40
0.0
 40
0.0
 40
0.0
 40
0.5369398971
 40
1.0
 40
1.0
 40
1.0
 40
1.0
 10
8.3639736927
 20
6.8462536079
 30
0.0
 10
8.3754821016
 20
6.8441719084
 30
0.0
 10
8.3968427895
 20
6.8398759081
 30
0.0
 10
8.4179559591
 20
6.8344498624
 30
0.0
 10
8.4276146622
 20
6.8315453029
 30
0.0
 11
8.3639736927
 21
6.8462536079
 31
0.0
 11
8.3983495521
 21
6.8392327234
 31
0.0
 11
8.4276146622
 21
6.8315453029
 31
0.0
  0
SPLINE
  5
50B
100
AcDbEntity
  8
0
100
AcDbSpline
 62
7
  6
CONTINUOUS
 70
0
 71
3
 72
11
 73
7
 74
5
 42
0.0000001
 43
0.0000001
 44
0.0000000001
 12
0.0409543705
 22
-0.0129539901
 32
0.0
 13
0.0360480982
 23
-0.0233581022
 33
0.0
 40
0.0
 40
0.0
 40
0.0
 40
0.0
 40
0.2955349709
 40
0.560704581
 40
0.7954268043
 40
1.0
 40
1.0
 40
1.0
 40
1.0
 10
8.4322576364
 20
6.8301135717
 30
0.0
 10
8.4362921193
 20
6.8288374527
 30
0.0
 10
8.4439012772
 20
6.826268235
 30
0.0
 10
8.4545040234
 20
6.8220937936
 30
0.0
 10
8.4636490705
 20
6.8178221657
 30
0.0
 10
8.4691268537
 20
6.814707719
 30
0.0
 10
8.4715850119
 20
6.8131149051
 30
0.0
 11
8.4322576364
 21
6.8301135717
 31
0.0
 11
8.4442758042
 21
6.8260253655
 31
0.0
 11
8.4548609144
 21
6.8218192822
 31
0.0
 11
8.4639762295
 21
6.817510677
 31
0.0
 11
8.4715850119
 21
6.8131149051
 31
0.0
  0
SPLINE
  5
50C
100
AcDbEntity
  8
0
100
AcDbSpline
 62
7
  6
CONTINUOUS
 70
0
 71
3
 72
12
 73
8
 74
6
 42
0.0000001
 43
0.0000001
 44
0.0000000001
 12
0.0212541228
 22
-0.0137720434
 32
0.0
 13
0.0008927126
 23
-0.0253102742
 33
0.0
 40
0.0
 40
0.0
 40
0.0
 40
0.0
 40
0.3150102021
 40
0.5791891212
 40
0.8019228531
 40
0.9028056155
 40
1.0
 40
1.0
 40
1.0
 40
1.0
 10
8.4715850119
 20
6.8131149051
 30
0.0
 10
8.4738167671
 20
6.8116687938
 30
0.0
 10
8.4777896783
 20
6.8087885385
 30
0.0
 10
8.4825986747
 20
6.8039742916
 30
0.0
 10
8.4852481879
 20
6.799693348
 30
0.0
 10
8.4863273788
 20
6.7962920526
 30
0.0
 10
8.4865441211
 20
6.7946228228
 30
0.0
 10
8.4865730433
 20
6.7938028173
 30
0.0
 11
8.4715850119
 21
6.8131149051
 31
0.0
 11
8.4779905637
 21
6.8083592107
 31
0.0
 11
8.4826337508
 21
6.8035420617
 31
0.0
 11
8.4854995763
 21
6.7986833125
 31
0.0
 11
8.4862612919
 21
6.7962445423
 31
0.0
 11
8.4865730433
 21
6.7938028173
 31
0.0
  0
LINE
  5
50D
100
AcDbEntity
  8
0
100
AcDbLine
 62
7
  6
CONTINUOUS
 10
8.1682322306
 20
6.8228147053
 11
8.1699710381
 21
6.8243326639
  0
LINE
  5
50E
100
AcDbEntity
  8
0
100
AcDbLine
 62
7
  6
CONTINUOUS
 10
7.9231917845
 20
6.8243326639
 11
7.9242817466
 21
6.8233182703
  0
SPLINE
  5
50F
100
AcDbEntity
  8
0
100
AcDbSpline
 62
7
  6
CONTINUOUS
 70
0
 71
3
 72
9
 73
5
 74
3
 42
0.0000001
 43
0.0000001
 44
0.0000000001
 12
0.0295484043
 22
0.0
 32
0.0
 13
0.0294733017
 23
-0.0021053937
 33
0.0
 40
0.0
 40
0.0
 40
0.0
 40
0.0
 40
0.5083511729
 40
1.0
 40
1.0
 40
1.0
 40
1.0
 10
8.0465814113
 20
6.8412633612
 30
0.0
 10
8.0515883999
 20
6.8412633612
 30
0.0
 10
8.0614384741
 20
6.8410955131
 30
0.0
 10
8.0712776502
 20
6.8405932179
 30
0.0
 10
8.0761078216
 20
6.8402481798
 30
0.0
 11
8.0465814113
 21
6.8412633612
 31
0.0
 11
8.0616001772
 21
6.8410062815
 31
0.0
 11
8.0761078216
 21
6.8402481798
 31
0.0
  0
SPLINE
  5
510
100
AcDbEntity
  8
0
100
AcDbSpline
 62
7
  6
CONTINUOUS
 70
0
 71
3
 72
12
 73
8
 74
6
 42
0.0000001
 43
0.0000001
 44
0.0000000001
 12
0.0427122405
 22
-0.0030511031
 32
0.0
 13
0.0395011214
 23
-0.0165319729
 33
0.0
 40
0.0
 40
0.0
 40
0.0
 40
0.0
 40
0.315169301
 40
0.5928419143
 40
0.8234151482
 40
0.918813294
 40
1.0
 40
1.0
 40
1.0
 40
1.0
 10
8.0761078216
 20
6.8402481798
 30
0.0
 10
8.0805950172
 20
6.8399276418
 30
0.0
 10
8.089026054
 20
6.839165475
 30
0.0
 10
8.1006726527
 20
6.8375580699
 30
0.0
 10
8.1091291885
 20
6.8358483918
 30
0.0
 10
8.1147219701
 20
6.834259497
 30
0.0
 10
8.1170984154
 20
6.8334090851
 30
0.0
 10
8.118167404
 20
6.8329616929
 30
0.0
 11
8.0761078216
 21
6.8402481798
 31
0.0
 11
8.0895463858
 21
6.8390055947
 31
0.0
 11
8.1013183411
 21
6.8373326066
 31
0.0
 11
8.1109783509
 21
6.8352910069
 31
0.0
 11
8.1149028358
 21
6.8341569595
 31
0.0
 11
8.118167404
 21
6.8329616929
 31
0.0
  0
SPLINE
  5
511
100
AcDbEntity
  8
0
100
AcDbSpline
 62
7
  6
CONTINUOUS
 70
0
 71
3
 72
13
 73
9
 74
7
 42
0.0000001
 43
0.0000001
 44
0.0000000001
 12
0.0075801427
 22
-0.0031724343
 32
0.0
 13
-0.000000095
 23
-0.0082172321
 33
0.0
 40
0.0
 40
0.0
 40
0.0
 40
0.0
 40
0.3470923548
 40
0.621101884
 40
0.7333190542
 40
0.8314350023
 40
0.9187332611
 40
1.0
 40
1.0
 40
1.0
 40
1.0
 10
8.118167404
 20
6.8329616929
 30
0.0
 10
8.1190444072
 20
6.8325946504
 30
0.0
 10
8.1205864379
 20
6.8318697766
 30
0.0
 10
8.1222771822
 20
6.830758122
 30
0.0
 10
8.1232289685
 20
6.8298276656
 30
0.0
 10
8.1237134128
 20
6.829165969
 30
0.0
 10
8.1240123305
 20
6.8284920637
 30
0.0
 10
8.1240814138
 20
6.8280281741
 30
0.0
 10
8.1240814112
 20
6.8278055782
 30
0.0
 11
8.118167404
 21
6.8329616929
 31
0.0
 11
8.1207335261
 21
6.831716819
 31
0.0
 11
8.1225840202
 21
6.8304340978
 31
0.0
 11
8.1232364761
 21
6.8297824871
 31
0.0
 11
8.1237047081
 21
6.8291261456
 31
0.0
 11
8.1239869439
 21
6.8284666503
 31
0.0
 11
8.1240814112
 21
6.8278055782
 31
0.0
  0
SPLINE
  5
512
100
AcDbEntity
  8
0
100
AcDbSpline
 62
7
  6
CONTINUOUS
 70
0
 71
3
 72
9
 73
5
 74
3
 42
0.0000001
 43
0.0000001
 44
0.0000000001
 12
-0.0030844211
 22
-0.0118846506
 32
0.0
 13
-0.0079195008
 23
-0.0093829676
 33
0.0
 40
0.0
 40
0.0
 40
0.0
 40
0.0
 40
0.4704247107
 40
1.0
 40
1.0
 40
1.0
 40
1.0
 10
8.7150186903
 20
6.8007010896
 30
0.0
 10
8.7145350277
 20
6.7988374785
 30
0.0
 10
8.7129335594
 20
6.7950164141
 30
0.0
 10
8.7105319042
 20
6.7916684908
 30
0.0
 10
8.7091339136
 20
6.7900121616
 30
0.0
 11
8.7150186903
 21
6.8007010896
 31
0.0
 11
8.7128512063
 21
6.7953471381
 31
0.0
 11
8.7091339136
 21
6.7900121616
 31
0.0
  0
SPLINE
  5
513
100
AcDbEntity
  8
0
100
AcDbSpline
 62
7
  6
CONTINUOUS
 70
0
 71
3
 72
9
 73
5
 74
3
 42
0.0000001
 43
0.0000001
 44
0.0000000001
 12
0.0002905122
 22
0.0062459553
 32
0.0
 13
-0.0017477153
 23
0.0060034862
 33
0.0
 40
0.0
 40
0.0
 40
0.0
 40
0.0
 40
0.4946943269
 40
1.0
 40
1.0
 40
1.0
 40
1.0
 10
8.7156193999
 20
6.8046252338
 30
0.0
 10
8.7156673048
 20
6.80565518
 30
0.0
 10
8.7155857366
 20
6.8077492413
 30
0.0
 10
8.7151551316
 20
6.8097988955
 30
0.0
 10
8.7148607548
 20
6.8108100941
 30
0.0
 11
8.7156193999
 21
6.8046252338
 31
0.0
 11
8.715501185
 21
6.8077161531
 31
0.0
 11
8.7148607548
 21
6.8108100941
 31
0.0
  0
SPLINE
  5
514
100
AcDbEntity
  8
0
100
AcDbSpline
 62
7
  6
CONTINUOUS
 70
0
 71
3
 72
9
 73
5
 74
3
 42
0.0000001
 43
0.0000001
 44
0.0000000001
 12
-0.0016217079
 22
0.0042851225
 32
0.0
 13
-0.0023633492
 23
0.0039251486
 33
0.0
 40
0.0
 40
0.0
 40
0.0
 40
0.0
 40
0.2422919907
 40
1.0
 40
1.0
 40
1.0
 40
1.0
 10
8.7143224128
 20
6.8124181127
 30
0.0
 10
8.7141914371
 20
6.8127641963
 30
0.0
 10
8.7136156963
 20
6.8141791732
 30
0.0
 10
8.712904245
 20
6.8155375838
 30
0.0
 10
8.7123073355
 20
6.8165289559
 30
0.0
 11
8.7143224128
 21
6.8124181127
 31
0.0
 11
8.7139044754
 21
6.8134465507
 31
0.0
 11
8.7123073355
 21
6.8165289559
 31
0.0
  0
LINE
  5
515
100
AcDbEntity
  8
0
100
AcDbLine
 62
7
  6
CONTINUOUS
 10
12.2199286829
 20
4.2630742676
 11
12.2165535213
 21
4.2595471358
  0
LINE
  5
516
100
AcDbEntity
  8
0
100
AcDbLine
 62
7
  6
CONTINUOUS
 10
11.876609301
 20
4.2595471363
 11
11.8732341574
 21
4.263074249
  0
LINE
  5
517
100
AcDbEntity
  8
0
100
AcDbLine
 62
7
  6
CONTINUOUS
 10
11.8732341574
 20
4.263074249
 11
11.8697655838
 21
4.2667151232
  0
LINE
  5
518
100
AcDbEntity
  8
0
100
AcDbLine
 62
7
  6
CONTINUOUS
 10
11.8697655838
 20
4.2667151232
 11
11.8655559372
 21
4.2711544173
  0
LINE
  5
519
100
AcDbEntity
  8
0
100
AcDbLine
 62
7
  6
CONTINUOUS
 10
11.8655559372
 20
4.2711544173
 11
11.8628322843
 21
4.2740379502
  0
LINE
  5
51A
100
AcDbEntity
  8
0
100
AcDbLine
 62
7
  6
CONTINUOUS
 10
12.156232536
 20
4.2561525155
 11
12.1551888646
 21
4.2525379502
  0
LINE
  5
51B
100
AcDbEntity
  8
0
100
AcDbLine
 62
7
  6
CONTINUOUS
 10
12.1984435426
 20
4.2595520524
 11
12.1960111158
 21
4.2559529351
  0
LINE
  5
51C
100
AcDbEntity
  8
0
100
AcDbLine
 62
7
  6
CONTINUOUS
 10
12.1960111158
 20
4.2559529351
 11
12.1936915283
 21
4.2525379502
  0
LINE
  5
51D
100
AcDbEntity
  8
0
100
AcDbLine
 62
7
  6
CONTINUOUS
 10
12.2147843082
 20
4.9383711326
 11
12.2165535213
 21
4.9365287646
  0
LINE
  5
51E
100
AcDbEntity
  8
0
100
AcDbLine
 62
7
  6
CONTINUOUS
 10
12.2165535213
 20
4.9365287646
 11
12.219944369
 21
4.9329852035
  0
LINE
  5
51F
100
AcDbEntity
  8
0
100
AcDbLine
 62
7
  6
CONTINUOUS
 10
12.219944369
 20
4.9329852035
 11
12.2233972387
 21
4.929360777
  0
LINE
  5
520
100
AcDbEntity
  8
0
100
AcDbLine
 62
7
  6
CONTINUOUS
 10
12.2233972387
 20
4.929360777
 11
12.2276068852
 21
4.9249214831
  0
LINE
  5
521
100
AcDbEntity
  8
0
100
AcDbLine
 62
7
  6
CONTINUOUS
 10
12.2276068852
 20
4.9249214831
 11
12.2303305382
 21
4.9220379502
  0
LINE
  5
522
100
AcDbEntity
  8
0
100
AcDbLine
 62
7
  6
CONTINUOUS
 10
11.9369302866
 20
4.939923385
 11
11.9379739579
 21
4.9435379502
  0
LINE
  5
523
100
AcDbEntity
  8
0
100
AcDbLine
 62
7
  6
CONTINUOUS
 10
11.8947192798
 20
4.9365238476
 11
11.8971517068
 21
4.9401229653
  0
LINE
  5
524
100
AcDbEntity
  8
0
100
AcDbLine
 62
7
  6
CONTINUOUS
 10
11.8971517068
 20
4.9401229653
 11
11.8994712942
 21
4.9435379502
  0
LINE
  5
525
100
AcDbEntity
  8
0
100
AcDbLine
 62
7
  6
CONTINUOUS
 10
11.8732184534
 20
4.9329852034
 11
11.876609301
 21
4.9365287641
  0
LINE
  5
526
100
AcDbEntity
  8
0
100
AcDbLine
 62
7
  6
CONTINUOUS
 10
11.876609301
 20
4.9365287641
 11
11.8783785143
 21
4.9383711324
  0
LINE
  5
527
100
AcDbEntity
  8
0
100
AcDbLine
 62
7
  6
CONTINUOUS
 10
4.1984435426
 20
4.2595520524
 11
4.1960111158
 21
4.2559529351
  0
LINE
  5
528
100
AcDbEntity
  8
0
100
AcDbLine
 62
7
  6
CONTINUOUS
 10
4.1960111158
 20
4.2559529351
 11
4.1936915283
 21
4.2525379502
  0
LINE
  5
529
100
AcDbEntity
  8
0
100
AcDbLine
 62
7
  6
CONTINUOUS
 10
4.219928665
 20
4.2630742489
 11
4.2165535213
 21
4.2595471358
  0
LINE
  5
52A
100
AcDbEntity
  8
0
100
AcDbLine
 62
7
  6
CONTINUOUS
 10
3.876609301
 20
4.2595471363
 11
3.8732341431
 21
4.263074264
  0
LINE
  5
52B
100
AcDbEntity
  8
0
100
AcDbLine
 62
7
  6
CONTINUOUS
 10
3.8732341431
 20
4.263074264
 11
3.8697655838
 21
4.2667151232
  0
LINE
  5
52C
100
AcDbEntity
  8
0
100
AcDbLine
 62
7
  6
CONTINUOUS
 10
3.8697655838
 20
4.2667151232
 11
3.8655559372
 21
4.2711544173
  0
LINE
  5
52D
100
AcDbEntity
  8
0
100
AcDbLine
 62
7
  6
CONTINUOUS
 10
3.8655559372
 20
4.2711544173
 11
3.8628322843
 21
4.2740379502
  0
LINE
  5
52E
100
AcDbEntity
  8
0
100
AcDbLine
 62
7
  6
CONTINUOUS
 10
4.156232536
 20
4.2561525155
 11
4.1551888646
 21
4.2525379502
  0
LINE
  5
52F
100
AcDbEntity
  8
0
100
AcDbLine
 62
7
  6
CONTINUOUS
 10
3.9369302866
 20
4.939923385
 11
3.9379739579
 21
4.9435379502
  0
LINE
  5
530
100
AcDbEntity
  8
0
100
AcDbLine
 62
7
  6
CONTINUOUS
 10
3.8947192798
 20
4.9365238476
 11
3.8971517068
 21
4.9401229653
  0
LINE
  5
531
100
AcDbEntity
  8
0
100
AcDbLine
 62
7
  6
CONTINUOUS
 10
3.8971517068
 20
4.9401229653
 11
3.8994712942
 21
4.9435379502
  0
LINE
  5
532
100
AcDbEntity
  8
0
100
AcDbLine
 62
7
  6
CONTINUOUS
 10
3.8732184596
 20
4.9329852099
 11
3.876609301
 21
4.9365287641
  0
LINE
  5
533
100
AcDbEntity
  8
0
100
AcDbLine
 62
7
  6
CONTINUOUS
 10
3.876609301
 20
4.9365287641
 11
3.8783785143
 21
4.9383711324
  0
LINE
  5
534
100
AcDbEntity
  8
0
100
AcDbLine
 62
7
  6
CONTINUOUS
 10
4.2147843082
 20
4.9383711326
 11
4.2165535213
 21
4.9365287646
  0
LINE
  5
535
100
AcDbEntity
  8
0
100
AcDbLine
 62
7
  6
CONTINUOUS
 10
4.2165535213
 20
4.9365287646
 11
4.2199443546
 21
4.9329852186
  0
LINE
  5
536
100
AcDbEntity
  8
0
100
AcDbLine
 62
7
  6
CONTINUOUS
 10
4.2199443546
 20
4.9329852186
 11
4.2233972387
 21
4.929360777
  0
LINE
  5
537
100
AcDbEntity
  8
0
100
AcDbLine
 62
7
  6
CONTINUOUS
 10
4.2233972387
 20
4.929360777
 11
4.2276068852
 21
4.9249214831
  0
LINE
  5
538
100
AcDbEntity
  8
0
100
AcDbLine
 62
7
  6
CONTINUOUS
 10
4.2276068852
 20
4.9249214831
 11
4.2303305382
 21
4.9220379502
  0
SPLINE
  5
539
100
AcDbEntity
  8
0
100
AcDbSpline
 62
7
  6
CONTINUOUS
 70
0
 71
3
 72
9
 73
5
 74
3
 42
0.0000001
 43
0.0000001
 44
0.0000000001
 12
-0.0017056463
 22
-0.0109128638
 32
0.0
 13
0.0031673201
 23
-0.010581489
 33
0.0
 40
0.0
 40
0.0
 40
0.0
 40
0.0
 40
0.4961083604
 40
1.0
 40
1.0
 40
1.0
 40
1.0
 10
7.2418748463
 20
7.0757904189
 30
0.0
 10
7.2415927845
 20
7.0739857646
 30
0.0
 10
7.241430775
 20
7.0702706647
 30
0.0
 10
7.24212703
 20
7.0666207427
 30
0.0
 10
7.2426590254
 20
7.0648434348
 30
0.0
 11
7.2418748463
 21
7.0757904189
 31
0.0
 11
7.2416432751
 21
7.0703156222
 31
0.0
 11
7.2426590254
 21
7.0648434348
 31
0.0
  0
SPLINE
  5
53A
100
AcDbEntity
  8
0
100
AcDbSpline
 62
7
  6
CONTINUOUS
 70
0
 71
3
 72
14
 73
10
 74
8
 42
0.0000001
 43
0.0000001
 44
0.0000000001
 12
0.0804935158
 22
-0.0780840991
 32
0.0
 13
0.1086058474
 23
-0.0279482112
 33
0.0
 40
0.0
 40
0.0
 40
0.0
 40
0.0
 40
0.0805597523
 40
0.1731192772
 40
0.2783434328
 40
0.3966077242
 40
0.5280350465
 40
0.6725396818
 40
1.0
 40
1.0
 40
1.0
 40
1.0
 10
7.3993609102
 20
6.7663373266
 30
0.0
 10
7.4015224227
 20
6.7642405147
 30
0.0
 10
7.4065253236
 20
6.7601009765
 30
0.0
 10
7.4152345377
 20
6.7543832734
 30
0.0
 10
7.4256330196
 20
6.748750863
 30
0.0
 10
7.4377008362
 20
6.7432203057
 30
0.0
 10
7.4514110858
 20
6.7378036539
 30
0.0
 10
7.4727364254
 20
6.7304402938
 30
0.0
 10
7.4897265029
 20
6.7256262035
 30
0.0
 10
7.5015812047
 20
6.7225755601
 30
0.0
 11
7.3993609102
 21
6.7663373266
 31
0.0
 11
7.4062681762
 21
6.7605142272
 31
0.0
 11
7.4149081003
 21
6.7547612721
 31
0.0
 11
7.4252584909
 21
6.7490941638
 31
0.0
 11
7.4372968669
 21
6.7435285859
 31
0.0
 11
7.4509914435
 21
6.7380796101
 31
0.0
 11
7.4662993621
 21
6.7327615799
 31
0.0
 11
7.5015812047
 21
6.7225755601
 31
0.0
  0
SPLINE
  5
53B
100
AcDbEntity
  8
0
100
AcDbSpline
 62
7
  6
CONTINUOUS
 70
0
 71
3
 72
12
 73
8
 74
6
 42
0.0000001
 43
0.0000001
 44
0.0000000001
 12
0.2315895556
 22
-0.0582076692
 32
0.0
 13
0.2378102423
 23
-0.0216366279
 33
0.0
 40
0.0
 40
0.0
 40
0.0
 40
0.0
 40
0.1014061818
 40
0.2103051359
 40
0.4491816396
 40
0.7136366335
 40
1.0
 40
1.0
 40
1.0
 40
1.0
 10
7.505635875
 20
6.7215443988
 30
0.0
 10
7.5134640792
 20
6.7195768596
 30
0.0
 10
7.5297640207
 20
6.7157528862
 30
0.0
 10
7.5647768461
 20
6.7084971614
 30
0.0
 10
7.6128258833
 20
6.7002746031
 30
0.0
 10
7.6751337996
 20
6.6919052288
 30
0.0
 10
7.7187498223
 20
6.6873747515
 30
0.0
 10
7.7414498695
 20
6.6853094389
 30
0.0
 11
7.505635875
 21
6.7215443988
 31
0.0
 11
7.5292048913
 21
6.7159883759
 31
0.0
 11
7.5546635579
 21
6.7106895591
 31
0.0
 11
7.6108659702
 21
6.7009392239
 31
0.0
 11
7.673441106
 21
6.6924387457
 31
0.0
 11
7.7414498695
 21
6.6853094389
 31
0.0
  0
LINE
  5
53C
100
AcDbEntity
  8
0
100
AcDbLine
 62
7
  6
CONTINUOUS
 10
7.7414498695
 20
6.6853094389
 11
7.7452328557
 21
6.6849679745
  0
LINE
  5
53D
100
AcDbEntity
  8
0
100
AcDbLine
 62
7
  6
CONTINUOUS
 10
8.6824915281
 20
6.8243748102
 11
8.6889842516
 21
6.8206255659
  0
SPLINE
  5
53E
100
AcDbEntity
  8
0
100
AcDbSpline
 62
7
  6
CONTINUOUS
 70
0
 71
3
 72
11
 73
7
 74
5
 42
0.0000001
 43
0.0000001
 44
0.0000000001
 12
0.0215746919
 22
-0.0133629347
 32
0.0
 13
0.0132615498
 23
-0.021637159
 33
0.0
 40
0.0
 40
0.0
 40
0.0
 40
0.0
 40
0.293312742
 40
0.5561015281
 40
0.7905446749
 40
1.0
 40
1.0
 40
1.0
 40
1.0
 10
8.6889842516
 20
6.8206255659
 30
0.0
 10
8.691093629
 20
6.8193190595
 30
0.0
 10
8.695012914
 20
6.8167075686
 30
0.0
 10
8.7002405872
 20
6.8125196615
 30
0.0
 10
8.7044747816
 20
6.8082801159
 30
0.0
 10
8.7067390741
 20
6.8052602924
 30
0.0
 10
8.7076649748
 20
6.8037496196
 30
0.0
 11
8.6889842516
 21
6.8206255659
 31
0.0
 11
8.6951607372
 21
6.8164711815
 31
0.0
 11
8.7003417631
 21
6.812272047
 31
0.0
 11
8.704514214
 21
6.8080306855
 31
0.0
 11
8.7076649748
 21
6.8037496196
 31
0.0
  0
SPLINE
  5
53F
100
AcDbEntity
  8
0
100
AcDbSpline
 62
7
  6
CONTINUOUS
 70
0
 71
3
 72
9
 73
5
 74
3
 42
0.0000001
 43
0.0000001
 44
0.0000000001
 12
0.0036925045
 22
-0.0060245831
 32
0.0
 13
0.0017247718
 23
-0.0068523976
 33
0.0
 40
0.0
 40
0.0
 40
0.0
 40
0.0
 40
0.2623648108
 40
1.0
 40
1.0
 40
1.0
 40
1.0
 10
8.7076649748
 20
6.8037496196
 30
0.0
 10
8.7079879025
 20
6.8032227401
 30
0.0
 10
8.7091526403
 20
6.8011757154
 30
0.0
 10
8.7100313485
 20
6.7989588779
 30
0.0
 10
8.7104554327
 20
6.7972740213
 30
0.0
 11
8.7076649748
 21
6.8037496196
 31
0.0
 11
8.708579386
 21
6.8021369165
 31
0.0
 11
8.7104554327
 21
6.7972740213
 31
0.0
  0
SPLINE
  5
540
100
AcDbEntity
  8
0
100
AcDbSpline
 62
7
  6
CONTINUOUS
 70
0
 71
3
 72
11
 73
7
 74
5
 42
0.0000001
 43
0.0000001
 44
0.0000000001
 12
0.0032868573
 22
-0.0195935978
 32
0.0
 13
-0.0126145624
 23
-0.0153487889
 33
0.0
 40
0.0
 40
0.0
 40
0.0
 40
0.0
 40
0.2315531492
 40
0.4676510197
 40
0.7205289636
 40
1.0
 40
1.0
 40
1.0
 40
1.0
 10
8.7107788874
 20
6.7957313901
 30
0.0
 10
8.7110325814
 20
6.7942190703
 30
0.0
 10
8.7111725307
 20
6.7910873125
 30
0.0
 10
8.7101877001
 20
6.7863732878
 30
0.0
 10
8.7080474603
 20
6.7817171136
 30
0.0
 10
8.705994884
 20
6.7788276836
 30
0.0
 10
8.704819749
 20
6.7773978363
 30
0.0
 11
8.7107788874
 21
6.7957313901
 31
0.0
 11
8.7109801526
 21
6.7911354421
 31
0.0
 11
8.7100489483
 21
6.7865381599
 31
0.0
 11
8.707992929
 21
6.7819541044
 31
0.0
 11
8.704819749
 21
6.7773978363
 31
0.0
  0
LINE
  5
541
100
AcDbEntity
  8
0
100
AcDbLine
 62
7
  6
CONTINUOUS
 10
8.704819749
 20
6.7773978363
 11
8.7013657981
 21
6.7736686504
  0
SPLINE
  5
542
100
AcDbEntity
  8
0
100
AcDbSpline
 62
7
  6
CONTINUOUS
 70
0
 71
3
 72
11
 73
7
 74
5
 42
0.0000001
 43
0.0000001
 44
0.0000000001
 12
-0.0000000203
 22
0.0224548683
 32
0.0
 13
0.0167893735
 23
0.0149110043
 33
0.0
 40
0.0
 40
0.0
 40
0.0
 40
0.0
 40
0.2155498471
 40
0.4463267993
 40
0.7048767033
 40
1.0
 40
1.0
 40
1.0
 40
1.0
 10
7.4740868254
 20
6.7864436636
 30
0.0
 10
7.4740868239
 20
6.7880570448
 30
0.0
 10
7.4745691782
 20
6.7914131284
 30
0.0
 10
7.4766767184
 20
6.7963024918
 30
0.0
 10
7.4801157073
 20
6.8011038675
 30
0.0
 10
7.4830609198
 20
6.8040422238
 30
0.0
 10
7.4847125649
 20
6.8055090854
 30
0.0
 11
7.4740868254
 21
6.7864436636
 31
0.0
 11
7.4747514681
 21
6.7912379559
 31
0.0
 11
7.4767454016
 21
6.7960210551
 31
0.0
 11
7.4800683145
 21
6.8007817746
 31
0.0
 11
7.4847125649
 21
6.8055090854
 31
0.0
  0
SPLINE
  5
543
100
AcDbEntity
  8
0
100
AcDbSpline
 62
7
  6
CONTINUOUS
 70
0
 71
3
 72
11
 73
7
 74
5
 42
0.0000001
 43
0.0000001
 44
0.0000000001
 12
0.0234081581
 22
0.0207892894
 32
0.0
 13
0.0284712656
 23
0.0130201172
 33
0.0
 40
0.0
 40
0.0
 40
0.0
 40
0.0
 40
0.2113171866
 40
0.4477594688
 40
0.7104231141
 40
1.0
 40
1.0
 40
1.0
 40
1.0
 10
7.4847125649
 20
6.8055090854
 30
0.0
 10
7.4863614136
 20
6.8069734634
 30
0.0
 10
7.4900377887
 20
6.8098726586
 30
0.0
 10
7.4962438797
 20
6.8139405246
 30
0.0
 10
7.5034330244
 20
6.8179591434
 30
0.0
 10
7.5086202831
 20
6.820477003
 30
0.0
 10
7.5113684899
 20
6.821733778
 30
0.0
 11
7.4847125649
 21
6.8055090854
 31
0.0
 11
7.4898838711
 21
6.8096352868
 31
0.0
 11
7.4960573366
 21
6.8137197456
 31
0.0
 11
7.5032223976
 21
6.8177550474
 31
0.0
 11
7.5113684899
 21
6.821733778
 31
0.0
  0
SPLINE
  5
544
100
AcDbEntity
  8
0
100
AcDbSpline
 62
7
  6
CONTINUOUS
 70
0
 71
3
 72
11
 73
7
 74
5
 42
0.0000001
 43
0.0000001
 44
0.0000000001
 12
0.0605323972
 22
0.0271652926
 32
0.0
 13
0.0643485798
 23
0.0161673903
 33
0.0
 40
0.0
 40
0.0
 40
0.0
 40
0.0
 40
0.2133905608
 40
0.4514394459
 40
0.7138017894
 40
1.0
 40
1.0
 40
1.0
 40
1.0
 10
7.5126529164
 20
6.8223156289
 30
0.0
 10
7.5169585972
 20
6.8242479013
 30
0.0
 10
7.5262083916
 20
6.8280240357
 30
0.0
 10
7.5411133625
 20
6.8332404054
 30
0.0
 10
7.5577621065
 20
6.8383014011
 30
0.0
 10
7.5694874683
 20
6.8414254935
 30
0.0
 10
7.5756262844
 20
6.8429678529
 30
0.0
 11
7.5126529164
 21
6.8223156289
 31
0.0
 11
7.5257426479
 21
6.8277111822
 31
0.0
 11
7.5406378415
 21
6.8329637606
 31
0.0
 11
7.5572839145
 21
6.8380553291
 31
0.0
 11
7.5756262844
 21
6.8429678529
 31
0.0
  0
SPLINE
  5
545
100
AcDbEntity
  8
0
100
AcDbSpline
 62
7
  6
CONTINUOUS
 70
0
 71
3
 72
15
 73
11
 74
9
 42
0.0000001
 43
0.0000001
 44
0.0000000001
 12
-0.0000000076
 22
-0.0515769604
 32
0.0
 13
0.0468964114
 23
-0.0214688015
 33
0.0
 40
0.0
 40
0.0
 40
0.0
 40
0.0
 40
0.0845973298
 40
0.1744989988
 40
0.2741661301
 40
0.386848862
 40
0.5146629362
 40
0.6589521076
 40
0.8205585466
 40
1.0
 40
1.0
 40
1.0
 40
1.0
 10
7.4965864585
 20
6.7933373609
 30
0.0
 10
7.4965864583
 20
6.7918829365
 30
0.0
 10
7.4969914027
 20
6.788870354
 30
0.0
 10
7.4987691353
 20
6.7844625515
 30
0.0
 10
7.5016804846
 20
6.7801223298
 30
0.0
 10
7.5056973476
 20
6.775845121
 30
0.0
 10
7.5108040856
 20
6.7716190082
 30
0.0
 10
7.5169927342
 20
6.7674431475
 30
0.0
 10
7.5242550057
 20
6.7633212422
 30
0.0
 10
7.5295283277
 20
6.7607494664
 30
0.0
 10
7.5323333811
 20
6.7594653354
 30
0.0
 11
7.4965864585
 21
6.7933373609
 31
0.0
 11
7.4971498519
 21
6.7890106138
 31
0.0
 11
7.498840033
 21
6.7846927775
 31
0.0
 11
7.5016569258
 21
6.7803927612
 31
0.0
 11
7.5055959101
 21
6.7761193781
 31
0.0
 11
7.51064532
 21
6.7718812925
 31
0.0
 11
7.5167928834
 21
6.7676871558
 31
0.0
 11
7.5240263278
 21
6.7635456196
 31
0.0
 11
7.5323333811
 21
6.7594653354
 31
0.0
  0
SPLINE
  5
546
100
AcDbEntity
  8
0
100
AcDbSpline
 62
7
  6
CONTINUOUS
 70
0
 71
3
 72
14
 73
10
 74
8
 42
0.0000001
 43
0.0000001
 44
0.0000000001
 12
0.199073753
 22
-0.0911343695
 32
0.0
 13
0.2175452273
 23
-0.024696285
 33
0.0
 40
0.0
 40
0.0
 40
0.0
 40
0.0
 40
0.0834882705
 40
0.1797450706
 40
0.2884929201
 40
0.4093260058
 40
0.5416298551
 40
0.684703679
 40
1.0
 40
1.0
 40
1.0
 40
1.0
 10
7.5323333811
 20
6.7594653354
 30
0.0
 10
7.5378734888
 20
6.7569291184
 30
0.0
 10
7.5500608644
 20
6.7520344678
 30
0.0
 10
7.5700691241
 20
6.7454511255
 30
0.0
 10
7.5930066115
 20
6.7391463046
 30
0.0
 10
7.6187373796
 20
6.7331680766
 30
0.0
 10
7.6471065217
 20
6.7275488797
 30
0.0
 10
7.6896133946
 20
6.7203515925
 30
0.0
 10
7.7227944452
 20
6.7159910068
 30
0.0
 10
7.7456581818
 20
6.7133954575
 30
0.0
 11
7.5323333811
 21
6.7594653354
 31
0.0
 11
7.5492552474
 21
6.7525532333
 31
0.0
 11
7.5692498639
 21
6.7458930071
 31
0.0
 11
7.5921922678
 21
6.7395259202
 31
0.0
 11
7.6179505683
 21
6.7334923861
 31
0.0
 11
7.6463584023
 21
6.7278285919
 31
0.0
 11
7.6772387072
 21
6.7225694126
 31
0.0
 11
7.7456581818
 21
6.7133954575
 31
0.0
  0
SPLINE
  5
547
100
AcDbEntity
  8
0
100
AcDbSpline
 62
7
  6
CONTINUOUS
 70
0
 71
3
 72
11
 73
7
 74
5
 42
0.0000001
 43
0.0000001
 44
0.0000000001
 12
0.299545125
 22
-0.0340051211
 32
0.0
 13
0.3014691197
 23
-0.0
 33
0.0
 40
0.0
 40
0.0
 40
0.0
 40
0.0
 40
0.2317237466
 40
0.4789828197
 40
0.7369865493
 40
1.0
 40
1.0
 40
1.0
 40
1.0
 10
7.7456581818
 20
6.7133954575
 30
0.0
 10
7.7687954213
 20
6.7107688595
 30
0.0
 10
7.8167220905
 20
6.7062099556
 30
0.0
 10
7.8906348454
 20
6.7014057731
 30
0.0
 10
7.9677920723
 20
6.6984865857
 30
0.0
 10
8.0201512668
 20
6.6978308584
 30
0.0
 10
8.0465814113
 20
6.6978308584
 30
0.0
 11
7.7456581818
 21
6.7133954575
 31
0.0
 11
7.8151935603
 21
6.7066940416
 31
0.0
 11
7.8895740178
 21
6.7018048176
 31
0.0
 11
7.9672972766
 21
6.6988302764
 31
0.0
 11
8.0465814113
 21
6.6978308584
 31
0.0
  0
SPLINE
  5
548
100
AcDbEntity
  8
0
100
AcDbSpline
 62
7
  6
CONTINUOUS
 70
0
 71
3
 72
12
 73
8
 74
6
 42
0.0000001
 43
0.0000001
 44
0.0000000001
 12
0.0008928785
 22
0.0253143578
 32
0.0
 13
0.0212583155
 23
0.0137730884
 33
0.0
 40
0.0
 40
0.0
 40
0.0
 40
0.0
 40
0.0971902632
 40
0.1980695504
 40
0.4207998253
 40
0.6849812349
 40
1.0
 40
1.0
 40
1.0
 40
1.0
 10
7.6065897796
 20
6.7938028401
 30
0.0
 10
7.6066187059
 20
6.7946229432
 30
0.0
 10
7.6068354961
 20
6.7962923781
 30
0.0
 10
7.6079149453
 20
6.799694101
 30
0.0
 10
7.610565107
 20
6.8039755649
 30
0.0
 10
7.6153752171
 20
6.8087903401
 30
0.0
 10
7.6193490114
 20
6.8116708846
 30
0.0
 10
7.6215812675
 20
6.8131171451
 30
0.0
 11
7.6065897796
 21
6.7938028401
 31
0.0
 11
7.606901597
 21
6.7962448519
 31
0.0
 11
7.6076634854
 21
6.7986839079
 31
0.0
 11
7.6105299724
 21
6.803543222
 31
0.0
 11
7.615174235
 21
6.8083609215
 31
0.0
 11
7.6215812675
 21
6.8131171451
 31
0.0
  0
SPLINE
  5
549
100
AcDbEntity
  8
0
100
AcDbSpline
 62
7
  6
CONTINUOUS
 70
0
 71
3
 72
11
 73
7
 74
5
 42
0.0000001
 43
0.0000001
 44
0.0000000001
 12
0.0360437682
 22
0.0233524619
 32
0.0
 13
0.0409478777
 23
0.0129522979
 33
0.0
 40
0.0
 40
0.0
 40
0.0
 40
0.0
 40
0.2045817824
 40
0.4393070199
 40
0.7044737845
 40
1.0
 40
1.0
 40
1.0
 40
1.0
 10
7.6215812675
 20
6.8131171451
 30
0.0
 10
7.6240392336
 20
6.8147096412
 30
0.0
 10
7.6295164129
 20
6.8178234841
 30
0.0
 10
7.6386602106
 20
6.8220943559
 30
0.0
 10
7.6492611977
 20
6.826268071
 30
0.0
 10
7.6568689962
 20
6.8288368766
 30
0.0
 10
7.6609027199
 20
6.8301127911
 30
0.0
 11
7.6215812675
 21
6.8131171451
 31
0.0
 11
7.6291893556
 21
6.8175121158
 31
0.0
 11
7.6383034409
 21
6.821819945
 31
0.0
 11
7.6488868027
 21
6.8260252857
 31
0.0
 11
7.6609027199
 21
6.8301127911
 31
0.0
  0
SPLINE
  5
54A
100
AcDbEntity
  8
0
100
AcDbSpline
 62
7
  6
CONTINUOUS
 70
0
 71
3
 72
9
 73
5
 74
3
 42
0.0000001
 43
0.0000001
 44
0.0000000001
 12
0.0237049072
 22
0.0071280259
 32
0.0
 13
0.0240631049
 23
0.0058050292
 33
0.0
 40
0.0
 40
0.0
 40
0.0
 40
0.0
 40
0.2368038134
 40
1.0
 40
1.0
 40
1.0
 40
1.0
 10
7.6655548387
 20
6.8315473111
 30
0.0
 10
7.6674259762
 20
6.832109959
 30
0.0
 10
7.6753470341
 20
6.8344212921
 30
0.0
 10
7.6833373664
 20
6.8364917719
 30
0.0
 10
7.6894589897
 20
6.8379685639
 30
0.0
 11
7.6655548387
 21
6.8315473111
 31
0.0
 11
7.6711813343
 21
6.8331911179
 31
0.0
 11
7.6894589897
 21
6.8379685639
 31
0.0
  0
SPLINE
  5
54B
100
AcDbEntity
  8
0
100
AcDbSpline
 62
7
  6
CONTINUOUS
 70
0
 71
3
 72
9
 73
5
 74
3
 42
0.0000001
 43
0.0000001
 44
0.0000000001
 12
0.039454573
 22
0.0095180962
 32
0.0
 13
0.0399382862
 23
0.0072243189
 33
0.0
 40
0.0
 40
0.0
 40
0.0
 40
0.0
 40
0.2351312505
 40
1.0
 40
1.0
 40
1.0
 40
1.0
 10
7.6894589897
 20
6.8379685639
 30
0.0
 10
7.6925513241
 20
6.8387145645
 30
0.0
 10
7.7057303367
 20
6.8417731491
 30
0.0
 10
7.7190050028
 20
6.8444114309
 30
0.0
 10
7.7291875185
 20
6.8462533162
 30
0.0
 11
7.6894589897
 21
6.8379685639
 31
0.0
 11
7.6987542079
 21
6.840129665
 31
0.0
 11
7.7291875185
 21
6.8462533162
 31
0.0
  0
SPLINE
  5
54C
100
AcDbEntity
  8
0
100
AcDbSpline
 62
7
  6
CONTINUOUS
 70
0
 71
3
 72
11
 73
7
 74
5
 42
0.0000001
 43
0.0000001
 44
0.0000000001
 12
0.1673776171
 22
0.0259274756
 32
0.0
 13
0.1691523674
 23
0.0086589422
 33
0.0
 40
0.0
 40
0.0
 40
0.0
 40
0.0
 40
0.2263944586
 40
0.4703819071
 40
0.7292225668
 40
1.0
 40
1.0
 40
1.0
 40
1.0
 10
7.7536200324
 20
6.8503432699
 30
0.0
 10
7.766251154
 20
6.8522998822
 30
0.0
 10
7.7925664338
 20
6.8559103301
 30
0.0
 10
7.8334998022
 20
6.8603620992
 30
0.0
 10
7.8770274811
 20
6.8640083163
 30
0.0
 10
7.9068750118
 20
6.8658419459
 30
0.0
 10
7.9221425598
 20
6.8666234947
 30
0.0
 11
7.7536200324
 21
6.8503432699
 31
0.0
 11
7.7916027304
 21
6.8556041393
 31
0.0
 11
7.8326818062
 21
6.8601066787
 31
0.0
 11
7.876367323
 21
6.8637937862
 31
0.0
 11
7.9221425598
 21
6.8666234947
 31
0.0
  0
SPLINE
  5
54D
100
AcDbEntity
  8
0
100
AcDbSpline
 62
7
  6
CONTINUOUS
 70
0
 71
3
 72
13
 73
9
 74
7
 42
0.0000001
 43
0.0000001
 44
0.0000000001
 12
0.0000001092
 22
0.0094402706
 32
0.0
 13
0.0088296996
 23
0.0033399274
 33
0.0
 40
0.0
 40
0.0
 40
0.0
 40
0.0
 40
0.077484086
 40
0.1617632389
 40
0.2580365452
 40
0.3696896481
 40
0.6462005772
 40
1.0
 40
1.0
 40
1.0
 40
1.0
 10
7.9690814113
 20
6.8278056767
 30
0.0
 10
7.9690814141
 20
6.8280495002
 30
0.0
 10
7.9691653843
 20
6.8285612226
 30
0.0
 10
7.9695250374
 20
6.8292986097
 30
0.0
 10
7.9701044128
 20
6.8300199152
 30
0.0
 10
7.9712461811
 20
6.8310374401
 30
0.0
 10
7.9732650018
 20
6.8322427171
 30
0.0
 10
7.9750924511
 20
6.8330203161
 30
0.0
 10
7.9761337653
 20
6.8334142043
 30
0.0
 11
7.9690814113
 21
6.8278056767
 31
0.0
 11
7.9691943217
 21
6.8285283804
 31
0.0
 11
7.9695314897
 21
6.829249023
 31
0.0
 11
7.9700905955
 21
6.8299655437
 31
0.0
 11
7.9708693194
 21
6.8306758815
 31
0.0
 11
7.9730763428
 21
6.8320697654
 31
0.0
 11
7.9761337653
 21
6.8334142043
 31
0.0
  0
SPLINE
  5
54E
100
AcDbEntity
  8
0
100
AcDbSpline
 62
7
  6
CONTINUOUS
 70
0
 71
3
 72
12
 73
8
 74
6
 42
0.0000001
 43
0.0000001
 44
0.0000000001
 12
0.0398516283
 22
0.0150743007
 32
0.0
 13
0.0425075481
 23
0.0029146485
 33
0.0
 40
0.0
 40
0.0
 40
0.0
 40
0.0
 40
0.0842828334
 40
0.1818344829
 40
0.4139645604
 40
0.6897002549
 40
1.0
 40
1.0
 40
1.0
 40
1.0
 10
7.9761337653
 20
6.8334142043
 30
0.0
 10
7.977253368
 20
6.8338377058
 30
0.0
 10
7.97970918
 20
6.8346450269
 30
0.0
 10
7.9853941848
 20
6.8361519803
 30
0.0
 10
7.993847776
 20
6.837774106
 30
0.0
 10
8.0053711988
 20
6.8392962651
 30
0.0
 10
8.0136660445
 20
6.8400172478
 30
0.0
 10
8.0180627383
 20
6.8403187194
 30
0.0
 11
7.9761337653
 21
6.8334142043
 31
0.0
 11
7.9795388551
 21
6.8345548788
 31
0.0
 11
7.9835526537
 21
6.8356343372
 31
0.0
 11
7.9932517615
 21
6.8375703866
 31
0.0
 11
8.0048934262
 21
6.8391502027
 31
0.0
 11
8.0180627383
 21
6.8403187194
 31
0.0
  0
SPLINE
  5
54F
100
AcDbEntity
  8
0
100
AcDbSpline
 62
7
  6
CONTINUOUS
 70
0
 71
3
 72
15
 73
11
 74
9
 42
0.0000001
 43
0.0000001
 44
0.0000000001
 12
0.0
 22
-0.1703947837
 32
0.0
 13
-0.1235145807
 23
-0.1173819861
 33
0.0
 40
0.0
 40
0.0
 40
0.0
 40
0.0
 40
0.1346287987
 40
0.2660879782
 40
0.3952732745
 40
0.5228113163
 40
0.6482487913
 40
0.7704261921
 40
0.8879063033
 40
1.0
 40
1.0
 40
1.0
 40
1.0
 10
8.8990814113
 20
6.9293519981
 30
0.0
 10
8.8990814113
 20
6.9217053164
 30
0.0
 10
8.8982381206
 20
6.9065771543
 30
0.0
 10
8.8944508628
 20
6.8844020392
 30
0.0
 10
8.8883098853
 20
6.8631771669
 30
0.0
 10
8.8799815344
 20
6.84308733
 30
0.0
 10
8.8698474635
 20
6.8243053167
 30
0.0
 10
8.858313392
 20
6.8070369303
 30
0.0
 10
8.8457435826
 20
6.7914739546
 30
0.0
 10
8.8366622807
 20
6.782090487
 30
0.0
 10
8.832047212
 20
6.7777045601
 30
0.0
 11
8.8990814113
 21
6.9293519981
 31
0.0
 11
8.8977913039
 21
6.9064482585
 31
0.0
 11
8.8940154475
 21
6.8843688326
 31
0.0
 11
8.8878955404
 21
6.8632241661
 31
0.0
 11
8.8796000943
 21
6.8431379159
 31
0.0
 11
8.869468441
 21
6.8243179043
 31
0.0
 11
8.8579069462
 21
6.8070049821
 31
0.0
 11
8.8453213107
 21
6.791438286
 31
0.0
 11
8.832047212
 21
6.7777045601
 31
0.0
  0
SPLINE
  5
550
100
AcDbEntity
  8
0
100
AcDbSpline
 62
7
  6
CONTINUOUS
 70
0
 71
3
 72
9
 73
5
 74
3
 42
0.0000001
 43
0.0000001
 44
0.0000000001
 12
-0.0274029611
 22
-0.0260423828
 32
0.0
 13
-0.0309979602
 23
-0.0216391876
 33
0.0
 40
0.0
 40
0.0
 40
0.0
 40
0.0
 40
0.5103059134
 40
1.0
 40
1.0
 40
1.0
 40
1.0
 10
8.832047212
 20
6.7777045601
 30
0.0
 10
8.8273859144
 20
6.7732746995
 30
0.0
 10
8.8178803775
 20
6.7649772512
 30
0.0
 10
8.8077772072
 20
6.7574280354
 30
0.0
 10
8.8027173679
 20
6.7538958413
 30
0.0
 11
8.832047212
 21
6.7777045601
 31
0.0
 11
8.81752882
 21
6.7650010745
 31
0.0
 11
8.8027173679
 21
6.7538958413
 31
0.0
  0
SPLINE
  5
551
100
AcDbEntity
  8
0
100
AcDbSpline
 62
7
  6
CONTINUOUS
 70
0
 71
3
 72
15
 73
11
 74
9
 42
0.0000001
 43
0.0000001
 44
0.0000000001
 12
-0.1231468245
 22
0.117098345
 32
0.0
 13
-0.0
 23
0.1699328184
 33
0.0
 40
0.0
 40
0.0
 40
0.0
 40
0.0
 40
0.1124620824
 40
0.2295894909
 40
0.3514737531
 40
0.4770202353
 40
0.6050169438
 40
0.7347229003
 40
0.8662522932
 40
1.0
 40
1.0
 40
1.0
 40
1.0
 10
7.2608233302
 20
6.7780798139
 30
0.0
 10
7.2562068807
 20
6.7824695218
 30
0.0
 10
7.2471360557
 20
6.7918129708
 30
0.0
 10
7.2345586909
 20
6.8072814125
 30
0.0
 10
7.2230998764
 20
6.8244993055
 30
0.0
 10
7.2130558851
 20
6.8432820003
 30
0.0
 10
7.2047929642
 20
6.8634009799
 30
0.0
 10
7.1986927418
 20
6.8846360585
 30
0.0
 10
7.1949292797
 20
6.9067354455
 30
0.0
 10
7.1940814113
 20
6.9217759565
 30
0.0
 10
7.1940814113
 20
6.9293519981
 30
0.0
 11
7.2608233302
 21
6.7780798139
 31
0.0
 11
7.2475255399
 21
6.7918056669
 31
0.0
 11
7.2349787437
 21
6.8072568413
 31
0.0
 11
7.2234958901
 21
6.8244944937
 31
0.0
 11
7.2134442871
 21
6.8433126971
 31
0.0
 11
7.2052041214
 21
6.8634422469
 31
0.0
 11
7.199117014
 21
6.8846263441
 31
0.0
 11
7.1953633559
 21
6.9066600552
 31
0.0
 11
7.1940814113
 21
6.9293519981
 31
0.0
  0
SPLINE
  5
552
100
AcDbEntity
  8
0
100
AcDbSpline
 62
7
  6
CONTINUOUS
 70
0
 71
3
 72
15
 73
11
 74
9
 42
0.0000001
 43
0.0000001
 44
0.0000000001
 12
0.1761776168
 22
-0.1234749392
 32
0.0
 13
0.2119464177
 23
-0.0369232895
 33
0.0
 40
0.0
 40
0.0
 40
0.0
 40
0.0
 40
0.0783944349
 40
0.1701858634
 40
0.2756177458
 40
0.394680524
 40
0.5270927221
 40
0.6724495604
 40
0.8302863488
 40
1.0
 40
1.0
 40
1.0
 40
1.0
 10
7.2904518893
 20
6.7539056358
 30
0.0
 10
7.2950556709
 20
6.7506790531
 30
0.0
 10
7.3055566478
 20
6.7443961086
 30
0.0
 10
7.3234135346
 20
6.7358822695
 30
0.0
 10
7.3445394402
 20
6.7275836692
 30
0.0
 10
7.3688490273
 20
6.7195442689
 30
0.0
 10
7.3962392838
 20
6.7117950554
 30
0.0
 10
7.4265893182
 20
6.7043739944
 30
0.0
 10
7.459765947
 20
6.6973220027
 30
0.0
 10
7.4828640792
 20
6.693036891
 30
0.0
 10
7.494854146
 20
6.6909480956
 30
0.0
 11
7.2904518893
 21
6.7539056358
 31
0.0
 11
7.3048414394
 21
6.7451083854
 31
0.0
 11
7.322615448
 21
6.7365023801
 31
0.0
 11
7.3436942532
 21
6.7281251334
 31
0.0
 11
7.3679910983
 21
6.7200139402
 31
0.0
 11
7.3953868955
 21
6.712205101
 31
0.0
 11
7.4257533518
 21
6.7047346331
 31
0.0
 11
7.4589603519
 21
6.6976382717
 31
0.0
 11
7.494854146
 21
6.6909480956
 31
0.0
  0
SPLINE
  5
553
100
AcDbEntity
  8
0
100
AcDbSpline
 62
7
  6
CONTINUOUS
 70
0
 71
3
 72
11
 73
7
 74
5
 42
0.0000001
 43
0.0000001
 44
0.0000000001
 12
0.3747165642
 22
-0.0652795566
 32
0.0
 13
0.3800618156
 23
-0.0150645397
 33
0.0
 40
0.0
 40
0.0
 40
0.0
 40
0.0
 40
0.2194754132
 40
0.4623864026
 40
0.7242076468
 40
1.0
 40
1.0
 40
1.0
 40
1.0
 10
7.494854146
 20
6.6909480956
 30
0.0
 10
7.5222678369
 20
6.686172343
 30
0.0
 10
7.5802740326
 20
6.6775382829
 30
0.0
 10
7.6715457595
 20
6.6673796208
 30
0.0
 10
7.7702059637
 20
6.6595017879
 30
0.0
 10
7.8382847479
 20
6.6559487573
 30
0.0
 10
7.8732241287
 20
6.6545638624
 30
0.0
 11
7.494854146
 21
6.6909480956
 31
0.0
 11
7.5773944873
 21
6.6784598447
 31
0.0
 11
7.6692060695
 21
6.6681048174
 31
0.0
 11
7.7684691824
 21
6.6600870517
 31
0.0
 11
7.8732241287
 21
6.6545638624
 31
0.0
  0
SPLINE
  5
554
100
AcDbEntity
  8
0
100
AcDbSpline
 62
7
  6
CONTINUOUS
 70
0
 71
3
 72
23
 73
19
 74
17
 42
0.0000001
 43
0.0000001
 44
0.0000000001
 12
0.9415764904
 22
-0.0373213404
 32
0.0
 13
0.7715705826
 23
0.5409602626
 33
0.0
 40
0.0
 40
0.0
 40
0.0
 40
0.0
 40
0.1589075413
 40
0.3187279008
 40
0.4736460542
 40
0.5475045232
 40
0.6180582315
 40
0.6846865905
 40
0.7467922001
 40
0.8038492911
 40
0.8553801403
 40
0.9009857437
 40
0.9214743443
 40
0.9403764029
 40
0.9576727612
 40
0.9733634909
 40
0.9874619777
 40
1.0
 40
1.0
 40
1.0
 40
1.0
 10
7.8732241287
 20
6.6545638624
 30
0.0
 10
7.9230986637
 20
6.6525869815
 30
0.0
 10
8.0232122824
 20
6.6504012823
 30
0.0
 10
8.1720020597
 20
6.6520963236
 30
0.0
 10
8.2939661581
 20
6.6576360454
 30
0.0
 10
8.3877346809
 20
6.6645979334
 30
0.0
 10
8.4537311908
 20
6.670873645
 30
0.0
 10
8.5159028516
 20
6.6782132324
 30
0.0
 10
8.5736689864
 20
6.6865548793
 30
0.0
 10
8.6264901962
 20
6.6958086873
 30
0.0
 10
8.673874965
 20
6.7058862095
 30
0.0
 10
8.7096511268
 20
6.7151880555
 30
0.0
 10
8.7351616026
 20
6.7230757216
 30
0.0
 10
8.7519840666
 20
6.7289237259
 30
0.0
 10
8.7671515276
 20
6.7349042399
 30
0.0
 10
8.7806339133
 20
6.7410024439
 30
0.0
 10
8.7924038847
 20
6.7472040438
 30
0.0
 10
8.799502516
 20
6.7516561621
 30
0.0
 10
8.8027271724
 20
6.7539170194
 30
0.0
 11
7.8732241287
 21
6.6545638624
 31
0.0
 11
8.0229282041
 21
6.651234369
 31
0.0
 11
8.1735193413
 21
6.6529803564
 31
0.0
 11
8.3193447727
 21
6.6597360094
 31
0.0
 11
8.3887494817
 21
6.664919528
 31
0.0
 11
8.4549315035
 21
6.6712477194
 31
0.0
 11
8.5172776183
 21
6.6786580536
 31
0.0
 11
8.5751911106
 21
6.6870830591
 31
0.0
 11
8.6281360333
 21
6.6964423629
 31
0.0
 11
8.6756096461
 21
6.7066486405
 31
0.0
 11
8.7171641363
 21
6.7176060546
 31
0.0
 11
8.7356018039
 21
6.7233333891
 31
0.0
 11
8.7524165993
 21
6.7292087315
 31
0.0
 11
8.7675667441
 21
6.7352186018
 31
0.0
 11
8.7810215079
 21
6.7413491799
 31
0.0
 11
8.7927514607
 21
6.7475866058
 31
0.0
 11
8.8027271724
 21
6.7539170194
 31
0.0
  0
SPLINE
  5
555
100
AcDbEntity
  8
0
100
AcDbSpline
 62
7
  6
CONTINUOUS
 70
0
 71
3
 72
14
 73
10
 74
8
 42
0.0000001
 43
0.0000001
 44
0.0000000001
 12
-0.0
 22
0.1456093939
 32
0.0
 13
0.0937386134
 23
0.1114233726
 33
0.0
 40
0.0
 40
0.0
 40
0.0
 40
0.0
 40
0.13247036
 40
0.262203173
 40
0.3898400811
 40
0.515941168
 40
0.6407013805
 40
0.7635748017
 40
1.0
 40
1.0
 40
1.0
 40
1.0
 10
7.1940814113
 20
6.9293519981
 30
0.0
 10
7.1940814113
 20
6.935781641
 30
0.0
 10
7.1946778829
 20
6.9485167574
 30
0.0
 10
7.1973585291
 20
6.9672746548
 30
0.0
 10
7.2017271413
 20
6.9853959521
 30
0.0
 10
7.2076997593
 20
7.0027966071
 30
0.0
 10
7.215138019
 20
7.0193686222
 30
0.0
 10
7.2265278315
 20
7.0399376378
 30
0.0
 10
7.2367405023
 20
7.0541848437
 30
0.0
 10
7.2441278924
 20
7.0629659414
 30
0.0
 11
7.1940814113
 21
6.9293519981
 31
0.0
 11
7.1949920687
 21
6.9486194182
 31
0.0
 11
7.1976682648
 21
6.967319205
 31
0.0
 11
7.2020263351
 21
6.9853861467
 31
0.0
 11
7.207982248
 21
7.002754851
 31
0.0
 11
7.2154035662
 21
7.0193360753
 31
0.0
 11
7.2240616317
 21
7.0349931678
 31
0.0
 11
7.2441278924
 21
7.0629659414
 31
0.0
  0
SPLINE
  5
556
100
AcDbEntity
  8
0
100
AcDbSpline
 62
7
  6
CONTINUOUS
 70
0
 71
3
 72
9
 73
5
 74
3
 42
0.0000001
 43
0.0000001
 44
0.0000000001
 12
0.0365228158
 22
0.0405601299
 32
0.0
 13
0.0446881684
 23
0.031337004
 33
0.0
 40
0.0
 40
0.0
 40
0.0
 40
0.0
 40
0.5151331665
 40
1.0
 40
1.0
 40
1.0
 40
1.0
 10
7.248974971
 20
7.0685342946
 30
0.0
 10
7.2552463422
 20
7.0754989173
 30
0.0
 10
7.2683046496
 20
7.0882468197
 30
0.0
 10
7.2827251306
 20
7.0993951628
 30
0.0
 10
7.2899477342
 20
7.1044599208
 30
0.0
 11
7.248974971
 21
7.0685342946
 31
0.0
 11
7.2690613461
 21
7.0882081894
 31
0.0
 11
7.2899477342
 21
7.1044599208
 31
0.0
  0
SPLINE
  5
557
100
AcDbEntity
  8
0
100
AcDbSpline
 62
7
  6
CONTINUOUS
 70
0
 71
3
 72
9
 73
5
 74
3
 42
0.0000001
 43
0.0000001
 44
0.0000000001
 12
0.0511432026
 22
-0.0395405047
 32
0.0
 13
0.0384754776
 23
-0.0519491704
 33
0.0
 40
0.0
 40
0.0
 40
0.0
 40
0.0
 40
0.4824182657
 40
1.0
 40
1.0
 40
1.0
 40
1.0
 10
8.8125709359
 20
7.0975477055
 30
0.0
 10
8.8207950743
 20
7.0911893516
 30
0.0
 10
8.8371093411
 20
7.0770229345
 30
0.0
 10
8.8513296742
 20
7.0607024209
 30
0.0
 10
8.8579677424
 20
7.0517397737
 30
0.0
 11
8.8125709359
 21
7.0975477055
 31
0.0
 11
8.8360483592
 21
7.0770197576
 31
0.0
 11
8.8579677424
 21
7.0517397737
 31
0.0
  0
SPLINE
  5
558
100
AcDbEntity
  8
0
100
AcDbSpline
 62
7
  6
CONTINUOUS
 70
0
 71
3
 72
11
 73
7
 74
5
 42
0.0000001
 43
0.0000001
 44
0.0000000001
 12
0.0780890924
 22
-0.1054350415
 32
0.0
 13
-0.0
 23
-0.1312038655
 33
0.0
 40
0.0
 40
0.0
 40
0.0
 40
0.0
 40
0.2391501833
 40
0.487267739
 40
0.7406827981
 40
1.0
 40
1.0
 40
1.0
 40
1.0
 10
8.8579677424
 20
7.0517397737
 30
0.0
 10
8.8641927493
 20
7.0433348372
 30
0.0
 10
8.8756376916
 20
7.0252578052
 30
0.0
 10
8.8888256789
 20
6.9955291752
 30
0.0
 10
8.8971829248
 20
6.9631638282
 30
0.0
 10
8.8990814113
 20
6.9406931379
 30
0.0
 10
8.8990814113
 20
6.9293519981
 30
0.0
 11
8.8579677424
 21
7.0517397737
 31
0.0
 11
8.8747600479
 21
7.0252338971
 31
0.0
 11
8.8878940792
 21
6.9954470041
 31
0.0
 11
8.8962061062
 21
6.9632537042
 31
0.0
 11
8.8990814113
 21
6.9293519981
 31
0.0
  0
LINE
  5
559
100
AcDbEntity
  8
0
100
AcDbLine
 62
7
  6
CONTINUOUS
 10
7.3727448007
 20
6.8101240152
 11
7.3762895263
 21
6.8129869505
  0
SPLINE
  5
55A
100
AcDbEntity
  8
0
100
AcDbSpline
 62
7
  6
CONTINUOUS
 70
0
 71
3
 72
11
 73
7
 74
5
 42
0.0000001
 43
0.0000001
 44
0.0000000001
 12
0.0301137712
 22
0.0229435999
 32
0.0
 13
0.0347941375
 23
0.0149203213
 33
0.0
 40
0.0
 40
0.0
 40
0.0
 40
0.0
 40
0.2149092371
 40
0.4528541067
 40
0.7144370012
 40
1.0
 40
1.0
 40
1.0
 40
1.0
 10
7.3762895263
 20
6.8129869505
 30
0.0
 10
7.3784467688
 20
6.8146305477
 30
0.0
 10
7.3831555911
 20
6.8178818025
 30
0.0
 10
7.3909270477
 20
6.8224632616
 30
0.0
 10
7.3997466467
 20
6.8269871267
 30
0.0
 10
7.4060395927
 20
6.8298349025
 30
0.0
 10
7.4093515654
 20
6.8312551331
 30
0.0
 11
7.3762895263
 21
6.8129869505
 31
0.0
 11
7.3829649816
 21
6.8176382148
 31
0.0
 11
7.3907102835
 21
6.822237953
 31
0.0
 11
7.3995107165
 21
6.8267792356
 31
0.0
 11
7.4093515654
 21
6.8312551331
 31
0.0
  0
SPLINE
  5
55B
100
AcDbEntity
  8
0
100
AcDbSpline
 62
7
  6
CONTINUOUS
 70
0
 71
3
 72
9
 73
5
 74
3
 42
0.0000001
 43
0.0000001
 44
0.0000000001
 12
0.0176939489
 22
0.007587468
 32
0.0
 13
0.018113033
 23
0.0065240735
 33
0.0
 40
0.0
 40
0.0
 40
0.0
 40
0.0
 40
0.238543538
 40
1.0
 40
1.0
 40
1.0
 40
1.0
 10
7.4093515654
 20
6.8312551331
 30
0.0
 10
7.4107584911
 20
6.8318584469
 30
0.0
 10
7.4166780089
 20
6.8343373107
 30
0.0
 10
7.4226766599
 20
6.8366252907
 30
0.0
 10
7.4272740885
 20
6.8382812234
 30
0.0
 11
7.4093515654
 21
6.8312551331
 31
0.0
 11
7.4135871195
 21
6.8330302189
 31
0.0
 11
7.4272740885
 21
6.8382812234
 31
0.0
  0
SPLINE
  5
55C
100
AcDbEntity
  8
0
100
AcDbSpline
 62
7
  6
CONTINUOUS
 70
0
 71
3
 72
10
 73
6
 74
4
 42
0.0000001
 43
0.0000001
 44
0.0000000001
 12
0.080779348
 22
0.0290956466
 32
0.0
 13
0.083910298
 23
0.0181912508
 33
0.0
 40
0.0
 40
0.0
 40
0.0
 40
0.0
 40
0.2194598842
 40
0.4596374871
 40
1.0
 40
1.0
 40
1.0
 40
1.0
 10
7.4272740885
 20
6.8382812234
 30
0.0
 10
7.433183364
 20
6.8404096658
 30
0.0
 10
7.4456675114
 20
6.844571182
 30
0.0
 10
7.473144512
 20
6.8525935038
 30
0.0
 10
7.4948840753
 20
6.8578023482
 30
0.0
 10
7.5099980685
 20
6.8610789715
 30
0.0
 11
7.4272740885
 21
6.8382812234
 31
0.0
 11
7.4451379274
 21
6.8442755118
 31
0.0
 11
7.4649240413
 21
6.8500856316
 31
0.0
 11
7.5099980685
 21
6.8610789715
 31
0.0
  0
SPLINE
  5
55D
100
AcDbEntity
  8
0
100
AcDbSpline
 62
7
  6
CONTINUOUS
 70
0
 71
3
 72
9
 73
5
 74
3
 42
0.0000001
 43
0.0000001
 44
0.0000000001
 12
0.0479048216
 22
0.0100342112
 32
0.0
 13
0.0482507187
 23
0.0082113016
 33
0.0
 40
0.0
 40
0.0
 40
0.0
 40
0.0
 40
0.2400760973
 40
1.0
 40
1.0
 40
1.0
 40
1.0
 10
7.5172907209
 20
6.8626329538
 30
0.0
 10
7.5211243218
 20
6.8634359452
 30
0.0
 10
7.5371105315
 20
6.8666948716
 30
0.0
 10
7.5531623866
 20
6.8696284173
 30
0.0
 10
7.5653846781
 20
6.8717084054
 30
0.0
 11
7.5172907209
 21
6.8626329538
 31
0.0
 11
7.5288039191
 21
6.864981972
 31
0.0
 11
7.5653846781
 21
6.8717084054
 31
0.0
  0
SPLINE
  5
55E
100
AcDbEntity
  8
0
100
AcDbSpline
 62
7
  6
CONTINUOUS
 70
0
 71
3
 72
9
 73
5
 74
3
 42
0.0000001
 43
0.0000001
 44
0.0000000001
 12
0.1535482549
 22
0.0261308237
 32
0.0
 13
0.155074921
 23
0.0145483819
 33
0.0
 40
0.0
 40
0.0
 40
0.0
 40
0.0
 40
0.475331809
 40
1.0
 40
1.0
 40
1.0
 40
1.0
 10
7.5653846781
 20
6.8717084054
 30
0.0
 10
7.5897134681
 20
6.8758486759
 30
0.0
 10
7.6411080147
 20
6.8833271947
 30
0.0
 10
7.6927322467
 20
6.888938848
 30
0.0
 10
7.7198532062
 20
6.8914832057
 30
0.0
 11
7.5653846781
 21
6.8717084054
 31
0.0
 11
7.6386242889
 21
6.8825364314
 31
0.0
 11
7.7198532062
 21
6.8914832057
 31
0.0
  0
LINE
  5
55F
100
AcDbEntity
  8
0
100
AcDbLine
 62
7
  6
CONTINUOUS
 10
7.8935839687
 20
6.9028330506
 11
7.89716532
 21
6.9029732542
  0
LINE
  5
560
100
AcDbEntity
  8
0
100
AcDbLine
 62
7
  6
CONTINUOUS
 10
8.195997899
 20
6.9029732388
 11
8.19959547
 21
6.9028323919
  0
SPLINE
  5
561
100
AcDbEntity
  8
0
100
AcDbSpline
 62
7
  6
CONTINUOUS
 70
0
 71
3
 72
9
 73
5
 74
3
 42
0.0000001
 43
0.0000001
 44
0.0000000001
 12
0.0948374335
 22
-0.0091580709
 32
0.0
 13
0.094377571
 23
-0.0130722284
 33
0.0
 40
0.0
 40
0.0
 40
0.0
 40
0.0
 40
0.2597672753
 40
1.0
 40
1.0
 40
1.0
 40
1.0
 10
8.3806552671
 20
6.8907840017
 30
0.0
 10
8.3888671543
 20
6.8899910127
 30
0.0
 10
8.4204650916
 20
6.8867918964
 30
0.0
 10
8.4520045988
 20
6.882998214
 30
0.0
 10
8.475291721
 20
6.8797727169
 30
0.0
 11
8.3806552671
 21
6.8907840017
 31
0.0
 11
8.4052794317
 21
6.8882888405
 31
0.0
 11
8.475291721
 21
6.8797727169
 31
0.0
  0
SPLINE
  5
562
100
AcDbEntity
  8
0
100
AcDbSpline
 62
7
  6
CONTINUOUS
 70
0
 71
3
 72
9
 73
5
 74
3
 42
0.0000001
 43
0.0000001
 44
0.0000000001
 12
0.0579969696
 22
-0.0090210303
 32
0.0
 13
0.0575808528
 23
-0.0113786142
 33
0.0
 40
0.0
 40
0.0
 40
0.0
 40
0.0
 40
0.2605368702
 40
1.0
 40
1.0
 40
1.0
 40
1.0
 10
8.5052450761
 20
6.8753747471
 30
0.0
 10
8.5102818591
 20
6.8745913101
 30
0.0
 10
8.529600347
 20
6.8714969264
 30
0.0
 10
8.5488626601
 20
6.8680449493
 30
0.0
 10
8.5630556327
 20
6.8652402608
 30
0.0
 11
8.5052450761
 21
6.8753747471
 31
0.0
 11
8.5203444027
 21
6.8729546348
 31
0.0
 11
8.5630556327
 21
6.8652402608
 31
0.0
  0
SPLINE
  5
563
100
AcDbEntity
  8
0
100
AcDbSpline
 62
7
  6
CONTINUOUS
 70
0
 71
3
 72
10
 73
6
 74
4
 42
0.0000001
 43
0.0000001
 44
0.0000000001
 12
0.0839179525
 22
-0.0182067166
 32
0.0
 13
0.0807764784
 23
-0.0291353364
 33
0.0
 40
0.0
 40
0.0
 40
0.0
 40
0.0
 40
0.540428963
 40
0.7805902725
 40
1.0
 40
1.0
 40
1.0
 40
1.0
 10
8.5833231636
 20
6.8610446163
 30
0.0
 10
8.5984403942
 20
6.857764804
 30
0.0
 10
8.6201831619
 20
6.8525508885
 30
0.0
 10
8.6476613064
 20
6.8445196226
 30
0.0
 10
8.6601436619
 20
6.8403534589
 30
0.0
 10
8.666051377
 20
6.8382226001
 30
0.0
 11
8.5833231636
 21
6.8610446163
 31
0.0
 11
8.6284061686
 21
6.8500394743
 31
0.0
 11
8.6481917043
 21
6.844223183
 31
0.0
 11
8.666051377
 21
6.8382226001
 31
0.0
  0
SPLINE
  5
564
100
AcDbEntity
  8
0
100
AcDbSpline
 62
7
  6
CONTINUOUS
 70
0
 71
3
 72
11
 73
7
 74
5
 42
0.0000001
 43
0.0000001
 44
0.0000000001
 12
0.0535584452
 22
-0.0193180409
 32
0.0
 13
0.0452868035
 23
-0.0345079583
 33
0.0
 40
0.0
 40
0.0
 40
0.0
 40
0.0
 40
0.2966395788
 40
0.5618999678
 40
0.7960851983
 40
1.0
 40
1.0
 40
1.0
 40
1.0
 10
8.666051377
 20
6.8382226001
 30
0.0
 10
8.6713472285
 20
6.8363124349
 30
0.0
 10
8.6813031975
 20
6.8324773147
 30
0.0
 10
8.695086433
 20
6.8262646527
 30
0.0
 10
8.7068512222
 20
6.8199323485
 30
0.0
 10
8.713798997
 20
6.8153295287
 30
0.0
 10
8.7168772135
 20
6.8129839675
 30
0.0
 11
8.666051377
 21
6.8382226001
 31
0.0
 11
8.6817958201
 21
6.8321098692
 31
0.0
 11
8.6955417315
 21
6.825853236
 31
0.0
 11
8.7072489247
 21
6.8194716267
 31
0.0
 11
8.7168772135
 21
6.8129839675
 31
0.0
  0
SPLINE
  5
565
100
AcDbEntity
  8
0
100
AcDbSpline
 62
7
  6
CONTINUOUS
 70
0
 71
3
 72
9
 73
5
 74
3
 42
0.0000001
 43
0.0000001
 44
0.0000000001
 12
0.0066773848
 22
-0.0050880808
 32
0.0
 13
0.0060304437
 23
-0.0058403582
 33
0.0
 40
0.0
 40
0.0
 40
0.0
 40
0.0
 40
0.2621767056
 40
1.0
 40
1.0
 40
1.0
 40
1.0
 10
8.7168772135
 20
6.8129839675
 30
0.0
 10
8.7174607651
 20
6.8125393088
 30
0.0
 10
8.7196645496
 20
6.810814892
 30
0.0
 10
8.7217774828
 20
6.8089720799
 30
0.0
 10
8.7232606167
 20
6.8075356958
 30
0.0
 11
8.7168772135
 21
6.8129839675
 31
0.0
 11
8.7186100822
 21
6.8116269669
 31
0.0
 11
8.7232606167
 21
6.8075356958
 31
0.0
  0
LINE
  5
566
100
AcDbEntity
  8
0
100
AcDbLine
 62
7
  6
CONTINUOUS
 10
7.3632895191
 20
6.796580198
 11
7.3621668434
 21
6.7927747075
  0
LINE
  5
567
100
AcDbEntity
  8
0
100
AcDbLine
 62
7
  6
CONTINUOUS
 10
3.8843428136
 20
4.2595743753
 11
3.8873030299
 21
4.2568831798
  0
LINE
  5
568
100
AcDbEntity
  8
0
100
AcDbLine
 62
7
  6
CONTINUOUS
 10
4.1820127394
 20
4.2648757944
 11
4.1839891177
 21
4.2667378178
  0
LINE
  5
569
100
AcDbEntity
  8
0
100
AcDbLine
 62
7
  6
CONTINUOUS
 10
3.9111500835
 20
4.9312001064
 11
3.9091737048
 21
4.9293380825
  0
LINE
  5
56A
100
AcDbEntity
  8
0
100
AcDbLine
 62
7
  6
CONTINUOUS
 10
4.2043664664
 20
4.9405465213
 11
4.2010562444
 21
4.9435379502
  0
SPLINE
  5
56B
100
AcDbEntity
  8
0
100
AcDbSpline
 62
7
  6
CONTINUOUS
 70
0
 71
3
 72
16
 73
12
 74
10
 42
0.0000001
 43
0.0000001
 44
0.0000000001
 12
0.4539363649
 22
0.0196561029
 32
0.0
 13
0.4536775277
 23
0.0249256211
 33
0.0
 40
0.0
 40
0.0
 40
0.0
 40
0.0
 40
0.1077935224
 40
0.2354817451
 40
0.3761756919
 40
0.5220106478
 40
0.6648500489
 40
0.7968944115
 40
0.9106396755
 40
0.9586999628
 40
1.0
 40
1.0
 40
1.0
 40
1.0
 10
3.8336772181
 20
3.9197046451
 30
0.0
 10
3.8499876847
 20
3.920410912
 30
0.0
 10
3.8856282556
 20
3.9217349279
 30
0.0
 10
3.9425725525
 20
3.9235523996
 30
0.0
 10
4.0052809338
 20
3.9253753887
 30
0.0
 10
4.0702847299
 20
3.9272031523
 30
0.0
 10
4.1339780719
 20
3.9290299802
 30
0.0
 10
4.1928094266
 20
3.930846898
 30
0.0
 10
4.2372867263
 20
3.9324216485
 30
0.0
 10
4.2680201287
 20
3.9337302943
 30
0.0
 10
4.2815378946
 20
3.9343965876
 30
0.0
 10
4.2877835276
 20
3.9347397307
 30
0.0
 11
3.8336772181
 21
3.9197046451
 31
0.0
 11
3.8826183982
 21
3.9215840308
 31
0.0
 11
3.9406045922
 21
3.9234634165
 31
0.0
 11
4.0045029055
 21
3.9253428022
 31
0.0
 11
4.0707380711
 21
3.9272221879
 31
0.0
 11
4.135611612
 21
3.9291015736
 31
0.0
 11
4.1955780742
 21
3.9309809593
 31
0.0
 11
4.2472253866
 21
3.932860345
 31
0.0
 11
4.269041914
 21
3.9338000378
 31
0.0
 11
4.2877835276
 21
3.9347397307
 31
0.0
  0
SPLINE
  5
56C
100
AcDbEntity
  8
0
100
AcDbSpline
 62
7
  6
CONTINUOUS
 70
0
 71
3
 72
17
 73
13
 74
11
 42
0.0000001
 43
0.0000001
 44
0.0000000001
 12
0.03997282
 22
0.0021961576
 32
0.0
 13
0.0339446559
 23
0.02122286
 33
0.0
 40
0.0
 40
0.0
 40
0.0
 40
0.0
 40
0.2127936879
 40
0.4013369678
 40
0.5649871582
 40
0.7034132059
 40
0.8163079646
 40
0.9034009442
 40
0.9372156351
 40
0.9645369953
 40
0.9854101319
 40
1.0
 40
1.0
 40
1.0
 40
1.0
 10
4.2877835276
 20
3.9347397307
 30
0.0
 10
4.2906188488
 20
3.9348955068
 30
0.0
 10
4.2959656179
 20
3.935203384
 30
0.0
 10
4.3034892897
 20
3.9356916009
 30
0.0
 10
4.3100182349
 20
3.9361788346
 30
0.0
 10
4.3155348698
 20
3.9366632334
 30
0.0
 10
4.320025129
 20
3.9371447871
 30
0.0
 10
4.3231177952
 20
3.9375663603
 30
0.0
 10
4.3250640547
 20
3.9379198787
 30
0.0
 10
4.3261327928
 20
3.9381600312
 30
0.0
 10
4.3269357864
 20
3.9383974526
 30
0.0
 10
4.3273758588
 20
3.938582115
 30
0.0
 10
4.3275409414
 20
3.9386853279
 30
0.0
 11
4.2877835276
 21
3.9347397307
 31
0.0
 11
4.2962880305
 21
3.9352329303
 31
0.0
 11
4.3038198727
 21
3.93572613
 31
0.0
 11
4.3103527072
 21
3.9362193296
 31
0.0
 11
4.3158723408
 21
3.9367125293
 31
0.0
 11
4.3203648773
 21
3.9372057289
 31
0.0
 11
4.3238164205
 21
3.9376989286
 31
0.0
 11
4.3251474769
 21
3.9379455284
 31
0.0
 11
4.3262130739
 21
3.9381921283
 31
0.0
 11
4.3270114744
 21
3.9384387281
 31
0.0
 11
4.3275409414
 21
3.9386853279
 31
0.0
  0
LINE
  5
56D
100
AcDbEntity
  8
0
100
AcDbLine
 62
7
  6
CONTINUOUS
 10
3.8336772195
 20
3.9634508134
 11
3.796426381
 21
3.9615614459
  0
SPLINE
  5
56E
100
AcDbEntity
  8
0
100
AcDbSpline
 62
7
  6
CONTINUOUS
 70
0
 71
3
 72
10
 73
6
 74
4
 42
0.0000001
 43
0.0000001
 44
0.0000000001
 12
-0.0232456461
 22
-0.0014356191
 32
0.0
 13
-0.0231201101
 23
-0.0028074143
 33
0.0
 40
0.0
 40
0.0
 40
0.0
 40
0.0
 40
0.5794039024
 40
0.8099234173
 40
1.0
 40
1.0
 40
1.0
 40
1.0
 10
3.796426381
 20
3.9615614459
 30
0.0
 10
3.7919368417
 20
3.9612841781
 30
0.0
 10
3.7856626276
 20
3.9608637198
 30
0.0
 10
3.7779282227
 20
3.9601922763
 30
0.0
 10
3.7746805421
 20
3.9598506078
 30
0.0
 10
3.7732156783
 20
3.9596727332
 30
0.0
 11
3.796426381
 21
3.9615614459
 31
0.0
 11
3.7829650196
 21
3.9606194705
 31
0.0
 11
3.7776170368
 21
3.9601473194
 31
0.0
 11
3.7732156783
 21
3.9596727332
 31
0.0
  0
SPLINE
  5
56F
100
AcDbEntity
  8
0
100
AcDbSpline
 62
7
  6
CONTINUOUS
 70
0
 71
3
 72
11
 73
7
 74
5
 42
0.0000001
 43
0.0000001
 44
0.0000000001
 12
-0.007571428
 22
-0.0009193786
 32
0.0
 13
-0.0067868289
 23
-0.0034800478
 33
0.0
 40
0.0
 40
0.0
 40
0.0
 40
0.0
 40
0.3617442381
 40
0.648770937
 40
0.8611824699
 40
1.0
 40
1.0
 40
1.0
 40
1.0
 10
3.7732156783
 20
3.9596727332
 30
0.0
 10
3.7723027048
 20
3.9595618732
 30
0.0
 10
3.7706677106
 20
3.9593461066
 30
0.0
 10
3.7685052366
 20
3.9589906198
 30
0.0
 10
3.7669231962
 20
3.9586396333
 30
0.0
 10
3.7660643022
 20
3.9583696465
 30
0.0
 10
3.7657502586
 20
3.9582086159
 30
0.0
 11
3.7732156783
 21
3.9596727332
 31
0.0
 11
3.7704812452
 21
3.9593050783
 31
0.0
 11
3.7683232117
 21
3.9589372
 31
0.0
 11
3.7667450566
 21
3.958571059
 31
0.0
 11
3.7657502586
 21
3.9582086159
 31
0.0
  0
SPLINE
  5
570
100
AcDbEntity
  8
0
100
AcDbSpline
 62
7
  6
CONTINUOUS
 70
0
 71
3
 72
15
 73
11
 74
9
 42
0.0000001
 43
0.0000001
 44
0.0000000001
 12
-0.0604146849
 22
-0.0028945489
 32
0.0
 13
-0.0580967827
 23
-0.0168248746
 33
0.0
 40
0.0
 40
0.0
 40
0.0
 40
0.0
 40
0.3761533469
 40
0.5344960307
 40
0.6720332388
 40
0.7880366512
 40
0.8817930001
 40
0.9526248171
 40
0.9792626365
 40
1.0
 40
1.0
 40
1.0
 40
1.0
 10
3.8541608381
 20
3.9353277152
 30
0.0
 10
3.8465857761
 20
3.9349647837
 30
0.0
 10
3.8358235807
 20
3.9344108014
 30
0.0
 10
3.8223004194
 20
3.933570566
 30
0.0
 10
3.8140173057
 20
3.9329790689
 30
0.0
 10
3.8070395398
 20
3.9323920184
 30
0.0
 10
3.8014125378
 20
3.9318089292
 30
0.0
 10
3.7975891269
 20
3.9312991686
 30
0.0
 10
3.795245152
 20
3.9308667335
 30
0.0
 10
3.7943146398
 20
3.9306469346
 30
0.0
 10
3.7939130485
 20
3.9305306335
 30
0.0
 11
3.8541608381
 21
3.9353277152
 31
0.0
 11
3.8314412144
 21
3.9341284447
 31
0.0
 11
3.821882808
 21
3.9335288095
 31
0.0
 11
3.813585649
 21
3.9329291743
 31
0.0
 11
3.8065949703
 21
3.9323295391
 31
0.0
 11
3.800956005
 21
3.9317299039
 31
0.0
 11
3.7967139858
 21
3.9311302687
 31
0.0
 11
3.7951309662
 21
3.9308304511
 31
0.0
 11
3.7939130485
 21
3.9305306335
 31
0.0
  0
LINE
  5
571
100
AcDbEntity
  8
0
100
AcDbLine
 62
7
  6
CONTINUOUS
 10
3.7939130485
 20
3.9305306335
 11
3.7928083866
 21
3.9301041342
  0
SPLINE
  5
572
100
AcDbEntity
  8
0
100
AcDbSpline
 62
7
  6
CONTINUOUS
 70
0
 71
3
 72
19
 73
15
 74
13
 42
0.0000001
 43
0.0000001
 44
0.0000000001
 12
-0.1034430768
 22
-0.0277720767
 32
0.0
 13
-0.0000000158
 23
-0.1071062948
 33
0.0
 40
0.0
 40
0.0
 40
0.0
 40
0.0
 40
0.1967289595
 40
0.3720745742
 40
0.5256418944
 40
0.6573839525
 40
0.7152812532
 40
0.7680482109
 40
0.8159211785
 40
0.8592414679
 40
0.8984973432
 40
0.93438381
 40
0.967835171
 40
1.0
 40
1.0
 40
1.0
 40
1.0
 10
7.5847931977
 20
6.8452144207
 30
0.0
 10
7.5780097814
 20
6.8433932301
 30
0.0
 10
7.5652416434
 20
6.839711246
 30
0.0
 10
7.5474707971
 20
6.833650915
 30
0.0
 10
7.5322474243
 20
6.8273973172
 30
0.0
 10
7.5213069576
 20
6.8218299288
 30
0.0
 10
7.5139650222
 20
6.8172376972
 30
0.0
 10
7.5093789685
 20
6.8139112555
 30
0.0
 10
7.5054765338
 20
6.8105556876
 30
0.0
 10
7.50226282
 20
6.807171524
 30
0.0
 10
7.4997445483
 20
6.8037573273
 30
0.0
 10
7.4979311286
 20
6.8003104197
 30
0.0
 10
7.4968334847
 20
6.7968349458
 30
0.0
 10
7.4965864586
 20
6.7944857128
 30
0.0
 10
7.4965864585
 20
6.7933373609
 30
0.0
 11
7.5847931977
 21
6.8452144207
 31
0.0
 11
7.5645607103
 21
6.8393297204
 31
0.0
 11
7.5468056239
 21
6.8332085635
 31
0.0
 11
7.5316228719
 21
6.826882299
 31
0.0
 11
7.5190984639
 21
6.8203828609
 31
0.0
 11
7.513850844
 21
6.8170787819
 31
0.0
 11
7.5092877397
 21
6.813744192
 31
0.0
 11
7.5054152453
 21
6.8103833879
 31
0.0
 11
7.5022394553
 21
6.8070006664
 31
0.0
 11
7.4997664141
 21
6.8036003253
 31
0.0
 11
7.4979997723
 21
6.8001867131
 31
0.0
 11
7.4969397871
 21
6.7967642498
 31
0.0
 11
7.4965864585
 21
6.7933373609
 31
0.0
  0
SPLINE
  5
573
100
AcDbEntity
  8
0
100
AcDbSpline
 62
7
  6
CONTINUOUS
 70
0
 71
3
 72
26
 73
22
 74
20
 42
0.0000001
 43
0.0000001
 44
0.0000000001
 12
-0.4580479199
 22
-0.0
 32
0.0
 13
0.0161460526
 23
0.4577632597
 33
0.0
 40
0.0
 40
0.0
 40
0.0
 40
0.0
 40
0.1880881879
 40
0.3692609244
 40
0.4550112854
 40
0.5365026293
 40
0.6130072106
 40
0.6838273918
 40
0.7483129743
 40
0.8059538169
 40
0.856303713
 40
0.8786434444
 40
0.8990666415
 40
0.9175686774
 40
0.9341600364
 40
0.9488749496
 40
0.9617946454
 40
0.9730676128
 40
0.982928139
 40
0.9917354888
 40
1.0
 40
1.0
 40
1.0
 40
1.0
 10
8.0465814113
 20
6.7169321579
 30
0.0
 10
8.0178636102
 20
6.7169321579
 30
0.0
 10
7.9614796163
 20
6.7178854829
 30
0.0
 10
7.8920830359
 20
6.7214766956
 30
0.0
 10
7.8390606275
 20
6.7258240103
 30
0.0
 10
7.8020410324
 20
6.7296728823
 30
0.0
 10
7.7673861038
 20
6.734127976
 30
0.0
 10
7.7354323646
 20
6.7391408501
 30
0.0
 10
7.7064891867
 20
6.7446689182
 30
0.0
 10
7.6808346137
 20
6.7506466407
 30
0.0
 10
7.6616961365
 20
6.7561468402
 30
0.0
 10
7.6482616174
 20
6.7608075258
 30
0.0
 10
7.6395561181
 20
6.7642387584
 30
0.0
 10
7.6318308715
 20
6.7677376155
 30
0.0
 10
7.62510332
 20
6.7712962016
 30
0.0
 10
7.6193886198
 20
6.7749091372
 30
0.0
 10
7.6146969532
 20
6.778573304
 30
0.0
 10
7.6110322291
 20
6.782287539
 30
0.0
 10
7.6084030706
 20
6.7860628613
 30
0.0
 10
7.6068394183
 20
6.7899098776
 30
0.0
 10
7.6065452998
 20
6.7925417769
 30
0.0
 10
7.6065897796
 20
6.7938028401
 30
0.0
 11
8.0465814113
 21
6.7169321579
 31
0.0
 11
7.960440721
 21
6.7184121461
 31
0.0
 11
7.877570673
 21
6.7227936231
 31
0.0
 11
7.8384258665
 21
6.7260228174
 31
0.0
 11
7.8013014928
 21
6.7299062901
 31
0.0
 11
7.7665487438
 21
6.7344053763
 31
0.0
 11
7.7345083818
 21
6.7394755147
 31
0.0
 11
7.7055054581
 21
6.7450695784
 31
0.0
 11
7.6798084974
 21
6.7511314238
 31
0.0
 11
7.6576723705
 21
6.7576027767
 31
0.0
 11
7.6480106105
 21
6.7609729221
 31
0.0
 11
7.6393146742
 21
6.7644215491
 31
0.0
 11
7.631604827
 21
6.7679401874
 31
0.0
 11
7.6249013348
 21
6.7715203663
 31
0.0
 11
7.6192242768
 21
6.775153607
 31
0.0
 11
7.6145878509
 21
6.7788311582
 31
0.0
 11
7.6109993221
 21
6.7825439476
 31
0.0
 11
7.608465557
 21
6.7862828848
 31
0.0
 11
7.606993422
 21
6.7900388792
 31
0.0
 11
7.6065897796
 21
6.7938028401
 31
0.0
  0
LINE
  5
574
100
AcDbEntity
  8
0
100
AcDbLine
 62
7
  6
CONTINUOUS
 10
8.2333792166
 20
6.7904568444
 11
8.2327974639
 21
6.75881472
  0
LINE
  5
575
100
AcDbEntity
  8
0
100
AcDbLine
 62
7
  6
CONTINUOUS
 10
8.3706349844
 20
6.8007380862
 11
8.3706638106
 21
6.7764408216
  0
LINE
  5
576
100
AcDbEntity
  8
0
100
AcDbLine
 62
7
  6
CONTINUOUS
 10
8.4588506859
 20
6.8184532612
 11
8.4591915498
 21
6.8018867491
  0
SPLINE
  5
577
100
AcDbEntity
  8
0
100
AcDbSpline
 62
7
  6
CONTINUOUS
 70
0
 71
3
 72
9
 73
5
 74
3
 42
0.0000001
 43
0.0000001
 44
0.0000000001
 12
0.0155671514
 22
0.0057674507
 32
0.0
 13
0.0149662126
 23
0.0071841611
 33
0.0
 40
0.0
 40
0.0
 40
0.0
 40
0.0
 40
0.267049375
 40
1.0
 40
1.0
 40
1.0
 40
1.0
 10
8.4438842125
 20
6.7954695493
 30
0.0
 10
8.4452699452
 20
6.7959829473
 30
0.0
 10
8.4504402311
 20
6.7979547399
 30
0.0
 10
8.4555350515
 20
6.8001315374
 30
0.0
 10
8.4591915498
 20
6.8018867491
 30
0.0
 11
8.4438842125
 21
6.7954695493
 31
0.0
 11
8.4480260066
 21
6.7970506993
 31
0.0
 11
8.4591915498
 21
6.8018867491
 31
0.0
  0
SPLINE
  5
578
100
AcDbEntity
  8
0
100
AcDbSpline
 62
7
  6
CONTINUOUS
 70
0
 71
3
 72
9
 73
5
 74
3
 42
0.0000001
 43
0.0000001
 44
0.0000000001
 12
0.0149664833
 22
-0.0071842911
 32
0.0
 13
0.015567433
 23
-0.005767555
 33
0.0
 40
0.0
 40
0.0
 40
0.0
 40
0.0
 40
0.2330183394
 40
1.0
 40
1.0
 40
1.0
 40
1.0
 10
7.6339712727
 20
6.8018867491
 30
0.0
 10
7.6351337611
 20
6.8013287253
 30
0.0
 10
7.6401567918
 20
6.7990052557
 30
0.0
 10
7.6452986315
 20
6.7969440856
 30
0.0
 10
7.64927861
 20
6.7954695493
 30
0.0
 11
7.6339712727
 21
6.8018867491
 31
0.0
 11
7.6374811287
 21
6.8002601455
 31
0.0
 11
7.64927861
 21
6.7954695493
 31
0.0
  0
LINE
  5
579
100
AcDbEntity
  8
0
100
AcDbLine
 62
7
  6
CONTINUOUS
 10
7.9249305919
 20
6.8327965496
 11
7.9231917845
 21
6.831278591
  0
LINE
  5
57A
100
AcDbEntity
  8
0
100
AcDbLine
 62
7
  6
CONTINUOUS
 10
11.8843428136
 20
4.2595743753
 11
11.8873030299
 21
4.2568831798
  0
SPLINE
  5
57B
100
AcDbEntity
  8
0
100
AcDbSpline
 62
7
  6
CONTINUOUS
 70
0
 71
3
 72
10
 73
6
 74
4
 42
0.0000001
 43
0.0000001
 44
0.0000000001
 12
0.1168201767
 22
0.0036537222
 32
0.0
 13
0.1167172357
 23
0.0061147573
 33
0.0
 40
0.0
 40
0.0
 40
0.0
 40
0.0
 40
0.5615381137
 40
0.7985026006
 40
1.0
 40
1.0
 40
1.0
 40
1.0
 10
12.1662924695
 20
3.9050367782
 30
0.0
 10
12.1881587968
 20
3.9057206796
 30
0.0
 10
12.2192512784
 20
3.9067425883
 30
0.0
 10
12.2581799062
 20
3.9082860523
 30
0.0
 10
12.2752439591
 20
3.9090768056
 30
0.0
 10
12.2830833656
 20
3.9094875082
 30
0.0
 11
12.1662924695
 21
3.9050367782
 31
0.0
 11
12.2318857911
 21
3.9072620987
 31
0.0
 11
12.2595592282
 21
3.9083740926
 31
0.0
 11
12.2830833656
 21
3.9094875082
 31
0.0
  0
LINE
  5
57C
100
AcDbEntity
  8
0
100
AcDbLine
 62
7
  6
CONTINUOUS
 10
12.2830833656
 20
3.9094875082
 11
12.3011885789
 21
3.9105494166
  0
LINE
  5
57D
100
AcDbEntity
  8
0
100
AcDbLine
 62
7
  6
CONTINUOUS
 10
12.3011885789
 20
3.9105494166
 11
12.3164113747
 21
3.9117627947
  0
SPLINE
  5
57E
100
AcDbEntity
  8
0
100
AcDbSpline
 62
7
  6
CONTINUOUS
 70
0
 71
3
 72
15
 73
11
 74
9
 42
0.0000001
 43
0.0000001
 44
0.0000000001
 12
0.0117493042
 22
0.0011698479
 32
0.0
 13
0.0
 23
0.0118074
 33
0.0
 40
0.0
 40
0.0
 40
0.0
 40
0.0
 40
0.4239754133
 40
0.5918383781
 40
0.7302180008
 40
0.8391787721
 40
0.9190324103
 40
0.9483609769
 40
0.971021909
 40
1.0
 40
1.0
 40
1.0
 40
1.0
 10
12.3164113747
 20
3.9117627947
 30
0.0
 10
12.3180718467
 20
3.9119281236
 30
0.0
 10
12.3203881761
 20
3.9121792098
 30
0.0
 10
12.3232342144
 20
3.9125814259
 30
0.0
 10
12.3248451622
 20
3.9128569091
 30
0.0
 10
12.3261041194
 20
3.9131332978
 30
0.0
 10
12.3269281426
 20
3.9133739075
 30
0.0
 10
12.3274065675
 20
3.9135869028
 30
0.0
 10
12.3276743767
 20
3.9137443954
 30
0.0
 10
12.3278314113
 20
3.9139239037
 30
0.0
 10
12.3278314113
 20
3.9140379557
 30
0.0
 11
12.3164113747
 21
3.9117627947
 31
0.0
 11
12.3213856046
 21
3.9123263068
 31
0.0
 11
12.3233475052
 21
3.9126080331
 31
0.0
 11
12.3249568145
 21
3.9128904592
 31
0.0
 11
12.3262116961
 21
3.9131741248
 31
0.0
 11
12.3271103136
 21
3.9134595696
 31
0.0
 11
12.3274254495
 21
3.9136031279
 31
0.0
 11
12.3276508308
 21
3.9137473333
 31
0.0
 11
12.3278314113
 21
3.9140379557
 31
0.0
  0
LINE
  5
57F
100
AcDbEntity
  8
0
100
AcDbLine
 62
7
  6
CONTINUOUS
 10
12.1820127394
 20
4.2648757944
 11
12.1839891177
 21
4.2667378178
  0
LINE
  5
580
100
AcDbEntity
  8
0
100
AcDbLine
 62
7
  6
CONTINUOUS
 10
12.2043664664
 20
4.9405465213
 11
12.2010562444
 21
4.9435379502
  0
LINE
  5
581
100
AcDbEntity
  8
0
100
AcDbLine
 62
7
  6
CONTINUOUS
 10
11.9111501143
 20
4.9312001353
 11
11.9091737048
 21
4.9293380825
  0
SPLINE
  5
582
100
AcDbEntity
  8
0
100
AcDbSpline
 62
7
  6
CONTINUOUS
 70
0
 71
3
 72
13
 73
9
 74
7
 42
0.0000001
 43
0.0000001
 44
0.0000000001
 12
0.0097323489
 22
0.0056257164
 32
0.0
 13
0.0111848235
 23
0.0011256209
 33
0.0
 40
0.0
 40
0.0
 40
0.0
 40
0.0
 40
0.0516169922
 40
0.1238873147
 40
0.2172407411
 40
0.3317651738
 40
0.6240879197
 40
1.0
 40
1.0
 40
1.0
 40
1.0
 10
11.7656665539
 20
3.9394263533
 30
0.0
 10
11.7658340055
 20
3.9395231475
 30
0.0
 10
11.7662671677
 20
3.9396984153
 30
0.0
 10
11.7670487635
 20
3.9399252364
 30
0.0
 10
11.7680739935
 20
3.9401544345
 30
0.0
 10
11.769918085
 20
3.9404903557
 30
0.0
 10
11.7728246944
 20
3.9408919745
 30
0.0
 10
11.7753138529
 20
3.9411642853
 30
0.0
 10
11.7767153563
 20
3.9413053301
 30
0.0
 11
11.7656665539
 21
3.9394263533
 31
0.0
 11
11.7661971359
 21
3.9396612254
 31
0.0
 11
11.7669748579
 21
3.9398960975
 31
0.0
 11
11.7679976524
 21
3.9401309696
 31
0.0
 11
11.7692634522
 21
3.9403658417
 31
0.0
 11
11.772515798
 21
3.9408355859
 31
0.0
 11
11.7767153563
 21
3.9413053301
 31
0.0
  0
SPLINE
  5
583
100
AcDbEntity
  8
0
100
AcDbSpline
 62
7
  6
CONTINUOUS
 70
0
 71
3
 72
10
 73
6
 74
4
 42
0.0000001
 43
0.0000001
 44
0.0000000001
 12
0.0328643654
 22
0.0033074117
 32
0.0
 13
0.032984995
 23
0.0017307759
 33
0.0
 40
0.0
 40
0.0
 40
0.0
 40
0.0
 40
0.191122921
 40
0.4220599112
 40
1.0
 40
1.0
 40
1.0
 40
1.0
 10
11.7767153563
 20
3.9413053301
 30
0.0
 10
11.7788090675
 20
3.9415160375
 30
0.0
 10
11.7834384888
 20
3.9419230261
 30
0.0
 10
11.7944194202
 20
3.9427266733
 30
0.0
 10
11.8033114025
 20
3.9432335035
 30
0.0
 10
11.8096658528
 20
3.9435669317
 30
0.0
 11
11.7767153563
 21
3.9413053301
 31
0.0
 11
11.783002847
 21
3.9418707305
 31
0.0
 11
11.7906097984
 21
3.9424361309
 31
0.0
 11
11.8096658528
 21
3.9435669317
 31
0.0
  0
SPLINE
  5
584
100
AcDbEntity
  8
0
100
AcDbSpline
 62
7
  6
CONTINUOUS
 70
0
 71
3
 72
18
 73
14
 74
12
 42
0.0000001
 43
0.0000001
 44
0.0000000001
 12
0.4730519677
 22
0.0248218005
 32
0.0
 13
0.4730544114
 23
0.0247751841
 33
0.0
 40
0.0
 40
0.0
 40
0.0
 40
0.0
 40
0.0439080809
 40
0.0949066451
 40
0.1521725265
 40
0.214879889
 40
0.3170445031
 40
0.4255970869
 40
0.6466673443
 40
0.751469505
 40
0.8473995829
 40
0.931254342
 40
1.0
 40
1.0
 40
1.0
 40
1.0
 10
11.8096658528
 20
3.9435669317
 30
0.0
 10
11.8165894542
 20
3.9439302243
 30
0.0
 10
11.8315589378
 20
3.94463473
 30
0.0
 10
11.8555672338
 20
3.9456138816
 30
0.0
 10
11.882546006
 20
3.9465968461
 30
0.0
 10
11.9176023487
 20
3.9477651893
 30
0.0
 10
11.9607562421
 20
3.9490839764
 30
0.0
 10
12.0289075052
 20
3.9510507485
 30
0.0
 10
12.0974770697
 20
3.9529598239
 30
0.0
 10
12.1640504835
 20
3.9549455615
 30
0.0
 10
12.2089634504
 20
3.9564051302
 30
0.0
 10
12.2481799426
 20
3.9578542013
 30
0.0
 10
12.2722527071
 20
3.9589205
 30
0.0
 10
12.2830928527
 20
3.9594882288
 30
0.0
 11
11.8096658528
 21
3.9435669317
 31
0.0
 11
11.8304414142
 21
3.9445620128
 31
0.0
 11
11.8545790712
 21
3.9455570939
 31
0.0
 11
11.8816878191
 21
3.9465521749
 31
0.0
 11
11.9113757966
 21
3.947547256
 31
0.0
 11
11.959748431
 21
3.9490398776
 31
0.0
 11
12.0111484196
 21
3.9505324992
 31
0.0
 11
12.1158274483
 21
3.9535177424
 31
0.0
 11
12.1654500754
 21
3.955010364
 31
0.0
 11
12.2108678959
 21
3.9565029856
 31
0.0
 11
12.2505620714
 21
3.9579956072
 31
0.0
 11
12.2830928527
 21
3.9594882288
 31
0.0
  0
LINE
  5
585
100
AcDbEntity
  8
0
100
AcDbLine
 62
7
  6
CONTINUOUS
 10
12.2830928527
 20
3.9594882288
 11
12.3011652019
 21
3.9605473172
  0
LINE
  5
586
100
AcDbEntity
  8
0
100
AcDbLine
 62
7
  6
CONTINUOUS
 10
12.3011652019
 20
3.9605473172
 11
12.3163842734
 21
3.9617626751
  0
SPLINE
  5
587
100
AcDbEntity
  8
0
100
AcDbSpline
 62
7
  6
CONTINUOUS
 70
0
 71
3
 72
15
 73
11
 74
9
 42
0.0000001
 43
0.0000001
 44
0.0000000001
 12
0.0117472257
 22
0.0011749804
 32
0.0
 13
-0.0003961901
 23
0.0117991917
 33
0.0
 40
0.0
 40
0.0
 40
0.0
 40
0.0
 40
0.4258153749
 40
0.5944690061
 40
0.7332062445
 40
0.8418899772
 40
0.9209704808
 40
0.9498078563
 40
0.9719519116
 40
1.0
 40
1.0
 40
1.0
 40
1.0
 10
12.3163842734
 20
3.9617626751
 30
0.0
 10
12.3180516565
 20
3.96192945
 30
0.0
 10
12.3203778223
 20
3.9621831011
 30
0.0
 10
12.3232348318
 20
3.9625890029
 30
0.0
 10
12.3248487606
 20
3.962866126
 30
0.0
 10
12.3261045719
 20
3.9631434296
 30
0.0
 10
12.3269223257
 20
3.9633833776
 30
0.0
 10
12.3273935898
 20
3.9635953014
 30
0.0
 10
12.3276541927
 20
3.9637496143
 30
0.0
 10
12.3278051424
 20
3.9639278116
 30
0.0
 10
12.3278014382
 20
3.9640381265
 30
0.0
 11
12.3163842734
 21
3.9617626751
 31
0.0
 11
12.3213790925
 21
3.9623315379
 31
0.0
 11
12.3233497701
 21
3.9626159694
 31
0.0
 11
12.3249627944
 21
3.9629004008
 31
0.0
 11
12.3262139746
 21
3.9631848322
 31
0.0
 11
12.3271032045
 21
3.9634692636
 31
0.0
 11
12.3274125272
 21
3.9636114793
 31
0.0
 11
12.3276318898
 21
3.9637536951
 31
0.0
 11
12.3278014382
 21
3.9640381265
 31
0.0
  0
SPLINE
  5
588
100
AcDbEntity
  8
0
100
AcDbSpline
 62
7
  6
CONTINUOUS
 70
0
 71
3
 72
13
 73
9
 74
7
 42
0.0000001
 43
0.0000001
 44
0.0000000001
 12
0.0096337553
 22
0.0055702596
 32
0.0
 13
0.0110724106
 23
0.0011129938
 33
0.0
 40
0.0
 40
0.0
 40
0.0
 40
0.0
 40
0.051511444
 40
0.1233451204
 40
0.2161486131
 40
0.3302383502
 40
0.6227285801
 40
1.0
 40
1.0
 40
1.0
 40
1.0
 10
11.7657091963
 20
3.9894352266
 30
0.0
 10
11.7658746125
 20
3.9895308706
 30
0.0
 10
11.7663008409
 20
3.9897050704
 30
0.0
 10
11.767070143
 20
3.9899306132
 30
0.0
 10
11.7680794326
 20
3.990158414
 30
0.0
 10
11.7699016171
 20
3.9904925936
 30
0.0
 10
11.772782989
 20
3.9908910224
 30
0.0
 10
11.7752527558
 20
3.9911609266
 30
0.0
 10
11.7766451905
 20
3.9913008935
 30
0.0
 11
11.7657091963
 21
3.9894352266
 31
0.0
 11
11.7662328437
 21
3.989668435
 31
0.0
 11
11.7669974498
 21
3.9899016433
 31
0.0
 11
11.7680035108
 21
3.9901348517
 31
0.0
 11
11.7692515231
 21
3.99036806
 31
0.0
 11
11.7724728241
 21
3.9908344768
 31
0.0
 11
11.7766451905
 21
3.9913008935
 31
0.0
  0
SPLINE
  5
589
100
AcDbEntity
  8
0
100
AcDbSpline
 62
7
  6
CONTINUOUS
 70
0
 71
3
 72
10
 73
6
 74
4
 42
0.0000001
 43
0.0000001
 44
0.0000000001
 12
0.0328828676
 22
0.0033053714
 32
0.0
 13
0.0330028978
 23
0.0017370087
 33
0.0
 40
0.0
 40
0.0
 40
0.0
 40
0.0
 40
0.1914383811
 40
0.4227409353
 40
1.0
 40
1.0
 40
1.0
 40
1.0
 10
11.7766451905
 20
3.9913008935
 30
0.0
 10
11.7787435381
 20
3.9915118185
 30
0.0
 10
11.7833830737
 20
3.9919187057
 30
0.0
 10
11.7943701644
 20
3.9927212381
 30
0.0
 10
11.8032635152
 20
3.9932289595
 30
0.0
 10
11.8096139225
 20
3.9935631942
 30
0.0
 11
11.7766451905
 21
3.9913008935
 31
0.0
 11
11.7829466264
 21
3.9918664687
 31
0.0
 11
11.7905698953
 21
3.9924320438
 31
0.0
 11
11.8096139225
 21
3.9935631942
 31
0.0
  0
SPLINE
  5
58A
100
AcDbEntity
  8
0
100
AcDbSpline
 62
7
  6
CONTINUOUS
 70
0
 71
3
 72
17
 73
13
 74
11
 42
0.0000001
 43
0.0000001
 44
0.0000000001
 12
0.4730768822
 22
0.0248989857
 32
0.0
 13
0.473087268
 23
0.0247008657
 33
0.0
 40
0.0
 40
0.0
 40
0.0
 40
0.0
 40
0.0437932386
 40
0.0947909218
 40
0.2148037743
 40
0.3525632798
 40
0.4995577179
 40
0.6465587103
 40
0.7845475341
 40
0.904788227
 40
0.955919908
 40
1.0
 40
1.0
 40
1.0
 40
1.0
 10
11.8096139225
 20
3.9935631942
 30
0.0
 10
11.8165197788
 20
3.9939266633
 30
0.0
 10
11.8314718109
 20
3.994632837
 30
0.0
 10
11.8653636233
 20
3.9960129121
 30
0.0
 10
11.9140937408
 20
3.9976750726
 30
0.0
 10
11.9779817826
 20
3.9995974671
 30
0.0
 10
12.0461332136
 20
4.0015248621
 30
0.0
 10
12.1143208034
 20
4.0034546135
 30
0.0
 10
12.1782821521
 20
4.0053752294
 30
0.0
 10
12.2271056873
 20
4.0070371636
 30
0.0
 10
12.2610999248
 20
4.0084194215
 30
0.0
 10
12.2761185523
 20
4.0091239862
 30
0.0
 10
12.2830697958
 20
4.009486925
 30
0.0
 11
11.8096139225
 21
3.9935631942
 31
0.0
 11
11.8303362813
 21
3.9945584274
 31
0.0
 11
11.8544749911
 21
3.9955536605
 31
0.0
 11
11.9112940262
 21
3.9975441269
 31
0.0
 11
11.9765247052
 21
3.9995345932
 31
0.0
 11
12.0461321725
 21
4.0015250596
 31
0.0
 11
12.115742746
 21
4.0035155259
 31
0.0
 11
12.1810821108
 21
4.0055059923
 31
0.0
 11
12.2380091472
 21
4.0074964586
 31
0.0
 11
12.2622113898
 21
4.0084916918
 31
0.0
 11
12.2830697958
 21
4.009486925
 31
0.0
  0
LINE
  5
58B
100
AcDbEntity
  8
0
100
AcDbLine
 62
7
  6
CONTINUOUS
 10
12.2830697958
 20
4.009486925
 11
12.3012157121
 21
4.0105486369
  0
LINE
  5
58C
100
AcDbEntity
  8
0
100
AcDbLine
 62
7
  6
CONTINUOUS
 10
12.3012157121
 20
4.0105486369
 11
12.3163682819
 21
4.0117624857
  0
SPLINE
  5
58D
100
AcDbEntity
  8
0
100
AcDbSpline
 62
7
  6
CONTINUOUS
 70
0
 71
3
 72
14
 73
10
 74
8
 42
0.0000001
 43
0.0000001
 44
0.0000000001
 12
0.0117826897
 22
0.0011834012
 32
0.0
 13
-0.0000062838
 23
0.0118419667
 33
0.0
 40
0.0
 40
0.0
 40
0.0
 40
0.0
 40
0.4230366317
 40
0.7296898694
 40
0.8390841186
 40
0.9193242896
 40
0.9487697456
 40
0.9714531354
 40
1.0
 40
1.0
 40
1.0
 40
1.0
 10
12.3163682819
 20
4.0117624857
 30
0.0
 10
12.318029785
 20
4.0119293597
 30
0.0
 10
12.3208925519
 20
4.0122476127
 30
0.0
 10
12.3241718749
 20
4.0127264175
 30
0.0
 10
12.3260877646
 20
4.0131440916
 30
0.0
 10
12.3269179808
 20
4.0133841223
 30
0.0
 10
12.3274015605
 20
4.0135952645
 30
0.0
 10
12.3276699898
 20
4.0137494635
 30
0.0
 10
12.3278314701
 20
4.0139252788
 30
0.0
 10
12.3278314103
 20
4.0140379625
 30
0.0
 11
12.3163682819
 21
4.0117624857
 31
0.0
 11
12.3213454642
 21
4.0123313549
 31
0.0
 11
12.3249320076
 21
4.0129002241
 31
0.0
 11
12.3261958391
 21
4.0131846587
 31
0.0
 11
12.3271024702
 21
4.0134690933
 31
0.0
 11
12.3274208418
 21
4.0136113106
 31
0.0
 11
12.3276487207
 21
4.0137535279
 31
0.0
 11
12.3278314103
 21
4.0140379625
 31
0.0
  0
LINE
  5
58E
100
AcDbEntity
  8
0
100
AcDbLine
 62
7
  6
CONTINUOUS
 10
8.1699710381
 20
6.831278591
 11
8.1682322306
 21
6.8327965496
  0
SPLINE
  5
58F
100
AcDbEntity
  8
0
100
AcDbSpline
 62
7
  6
CONTINUOUS
 70
0
 71
3
 72
10
 73
6
 74
4
 42
0.0000001
 43
0.0000001
 44
0.0000000001
 12
0.0091394319
 22
0.0052879402
 32
0.0
 13
0.0102689499
 23
0.0024576808
 33
0.0
 40
0.0
 40
0.0
 40
0.0
 40
0.0
 40
0.1802731363
 40
0.4063751957
 40
1.0
 40
1.0
 40
1.0
 40
1.0
 10
11.7784828827
 20
4.0468317103
 30
0.0
 10
11.7790320808
 20
4.0471494682
 30
0.0
 10
11.7803292581
 20
4.0477622153
 30
0.0
 10
11.7836349543
 20
4.0489757692
 30
0.0
 10
11.7864308999
 20
4.0497125845
 30
0.0
 10
11.7884628677
 20
4.050198898
 30
0.0
 11
11.7784828827
 21
4.0468317103
 31
0.0
 11
11.780192056
 21
4.0476695786
 31
0.0
 11
11.7824265922
 21
4.0485101343
 31
0.0
 11
11.7884628677
 21
4.050198898
 31
0.0
  0
SPLINE
  5
590
100
AcDbEntity
  8
0
100
AcDbSpline
 62
7
  6
CONTINUOUS
 70
0
 71
3
 72
9
 73
5
 74
3
 42
0.0000001
 43
0.0000001
 44
0.0000000001
 12
0.0255525984
 22
0.0049157856
 32
0.0
 13
0.0258050414
 23
0.0033466509
 33
0.0
 40
0.0
 40
0.0
 40
0.0
 40
0.0
 40
0.4506887552
 40
1.0
 40
1.0
 40
1.0
 40
1.0
 10
11.7953628267
 20
4.0516694407
 30
0.0
 10
11.7992015829
 20
4.0524079372
 30
0.0
 10
11.8077599031
 20
4.0538328181
 30
0.0
 10
11.8163521105
 20
4.0550227846
 30
0.0
 10
11.8210771103
 20
4.0556355689
 30
0.0
 11
11.7953628267
 21
4.0516694407
 31
0.0
 11
11.8069227435
 21
4.0536445769
 31
0.0
 11
11.8210771103
 21
4.0556355689
 31
0.0
  0
LINE
  5
591
100
AcDbEntity
  8
0
100
AcDbLine
 62
7
  6
CONTINUOUS
 10
11.8210771103
 20
4.0556355689
 11
11.8451947265
 21
4.0584722948
  0
SPLINE
  5
592
100
AcDbEntity
  8
0
100
AcDbSpline
 62
7
  6
CONTINUOUS
 70
0
 71
3
 72
21
 73
17
 74
15
 42
0.0000001
 43
0.0000001
 44
0.0000000001
 12
-0.0805887547
 22
0.0
 32
0.0
 13
0.0000009319
 23
0.0805887547
 33
0.0
 40
0.0
 40
0.0
 40
0.0
 40
0.0
 40
0.1872443971
 40
0.3682700275
 40
0.5353113792
 40
0.6824549969
 40
0.7469330048
 40
0.8046552897
 40
0.8552052336
 40
0.8982272587
 40
0.9335422563
 40
0.961425507
 40
0.972847007
 40
0.9828351697
 40
0.9917239952
 40
1.0
 40
1.0
 40
1.0
 40
1.0
 10
8.0465814113
 20
6.8143478937
 30
0.0
 10
8.0415514803
 20
6.8143478937
 30
0.0
 10
8.0316579454
 20
6.8145173321
 30
0.0
 10
8.0172935632
 20
6.8152536454
 30
0.0
 10
8.0040419373
 20
6.8164580726
 30
0.0
 10
7.9939593341
 20
6.8178489898
 30
0.0
 10
7.9868494953
 20
6.8191987482
 30
0.0
 10
7.9823269342
 20
6.8202457948
 30
0.0
 10
7.9784164491
 20
6.8213598677
 30
0.0
 10
7.9751530619
 20
6.8225292662
 30
0.0
 10
7.9725678138
 20
6.823746402
 30
0.0
 10
7.9708811149
 20
6.8248568086
 30
0.0
 10
7.9699317199
 20
6.8257861142
 30
0.0
 10
7.9694484669
 20
6.8264470223
 30
0.0
 10
7.9691503083
 20
6.8271200912
 30
0.0
 10
7.9690814087
 20
6.827583359
 30
0.0
 10
7.9690814113
 20
6.8278056767
 30
0.0
 11
8.0465814113
 21
6.8143478937
 31
0.0
 11
8.0314938491
 21
6.8146073416
 31
0.0
 11
8.0169252915
 21
6.815372365
 31
0.0
 11
8.0035212696
 21
6.8166166875
 31
0.0
 11
7.9917817379
 21
6.8182895372
 31
0.0
 11
7.9866785517
 21
6.8192683172
 31
0.0
 11
7.9821494078
 21
6.8203293508
 31
0.0
 11
7.9782362707
 21
6.8214619824
 31
0.0
 11
7.974981105
 21
6.8226555566
 31
0.0
 11
7.972421167
 21
6.8238990942
 31
0.0
 11
7.9705751545
 21
6.8251803398
 31
0.0
 11
7.9699242848
 21
6.8258311751
 31
0.0
 11
7.9694571938
 21
6.8264867239
 31
0.0
 11
7.9691756474
 21
6.8271454148
 31
0.0
 11
7.9690814113
 21
6.8278056767
 31
0.0
  0
SPLINE
  5
593
100
AcDbEntity
  8
0
100
AcDbSpline
 62
7
  6
CONTINUOUS
 70
0
 71
3
 72
13
 73
9
 74
7
 42
0.0000001
 43
0.0000001
 44
0.0000000001
 12
-0.0097079205
 22
-0.0056150981
 32
0.0
 13
-0.0111581825
 23
-0.0011260592
 33
0.0
 40
0.0
 40
0.0
 40
0.0
 40
0.0
 40
0.0517476733
 40
0.123866089
 40
0.2169026484
 40
0.3310705435
 40
0.6230647766
 40
1.0
 40
1.0
 40
1.0
 40
1.0
 10
12.3274246898
 20
3.9073993526
 30
0.0
 10
12.3272572357
 20
3.9073024965
 30
0.0
 10
12.3268258473
 20
3.9071262507
 30
0.0
 10
12.3260479187
 20
3.9068979747
 30
0.0
 10
12.3250287151
 20
3.9066673869
 30
0.0
 10
12.3231932865
 20
3.9063293251
 30
0.0
 10
12.3202927012
 20
3.9059251118
 30
0.0
 10
12.317806941
 20
3.9056519682
 30
0.0
 10
12.3164049704
 20
3.9055104844
 30
0.0
 11
12.3274246898
 21
3.9073993526
 31
0.0
 11
12.3268945477
 21
3.9071632441
 31
0.0
 11
12.3261209802
 21
3.9069271356
 31
0.0
 11
12.3251046539
 21
3.906691027
 31
0.0
 11
12.3238462353
 21
3.9064549185
 31
0.0
 11
12.3206057877
 21
3.9059827015
 31
0.0
 11
12.3164049704
 21
3.9055104844
 31
0.0
  0
SPLINE
  5
594
100
AcDbEntity
  8
0
100
AcDbSpline
 62
7
  6
CONTINUOUS
 70
0
 71
3
 72
13
 73
9
 74
7
 42
0.0000001
 43
0.0000001
 44
0.0000000001
 12
-0.0097576153
 22
-0.005655435
 32
0.0
 13
-0.0112206751
 23
-0.0011364202
 33
0.0
 40
0.0
 40
0.0
 40
0.0
 40
0.0
 40
0.0510232174
 40
0.1227186012
 40
0.2155802815
 40
0.3297741373
 40
0.6222552724
 40
1.0
 40
1.0
 40
1.0
 40
1.0
 10
12.3275079315
 20
3.9574128052
 30
0.0
 10
12.3273419766
 20
3.957316619
 30
0.0
 10
12.326911843
 20
3.9571416829
 30
0.0
 10
12.3261342851
 20
3.956913814
 30
0.0
 10
12.3251114802
 20
3.9566821422
 30
0.0
 10
12.3232647275
 20
3.9563405724
 30
0.0
 10
12.3203432717
 20
3.9559304598
 30
0.0
 10
12.3178388282
 20
3.9556535473
 30
0.0
 10
12.316425978
 20
3.955510455
 30
0.0
 11
12.3275079315
 21
3.9574128052
 31
0.0
 11
12.3269821407
 21
3.9571789687
 31
0.0
 11
12.3262086779
 21
3.9569432431
 31
0.0
 11
12.3251886
 21
3.9567060076
 31
0.0
 11
12.323922964
 21
3.9564676414
 31
0.0
 11
12.3206592455
 21
3.9559890341
 31
0.0
 11
12.316425978
 21
3.955510455
 31
0.0
  0
LINE
  5
595
100
AcDbEntity
  8
0
100
AcDbLine
 62
7
  6
CONTINUOUS
 10
12.316425978
 20
3.955510455
 11
12.3016355268
 21
3.9543197902
  0
SPLINE
  5
596
100
AcDbEntity
  8
0
100
AcDbSpline
 62
7
  6
CONTINUOUS
 70
0
 71
3
 72
18
 73
14
 74
12
 42
0.0000001
 43
0.0000001
 44
0.0000000001
 12
-0.490901494
 22
-0.0329003194
 32
0.0
 13
-0.4913198381
 23
-0.0259137912
 33
0.0
 40
0.0
 40
0.0
 40
0.0
 40
0.0
 40
0.036723728
 40
0.082022463
 40
0.1350652267
 40
0.1949358763
 40
0.3307646851
 40
0.4798998963
 40
0.6317858927
 40
0.7756713886
 40
0.9013726957
 40
0.954549928
 40
1.0
 40
1.0
 40
1.0
 40
1.0
 10
12.3016355268
 20
3.9543197902
 30
0.0
 10
12.2956262825
 20
3.9539170494
 30
0.0
 10
12.2821955993
 20
3.9531541481
 30
0.0
 10
12.2600689375
 20
3.9521175965
 30
0.0
 10
12.234142882
 20
3.9510727644
 30
0.0
 10
12.1933749284
 20
3.9496144366
 30
0.0
 10
12.1368488794
 20
3.9478550214
 30
0.0
 10
12.0652344129
 20
3.9458058773
 30
0.0
 10
11.99229806
 20
3.9437565738
 30
0.0
 10
11.9232063916
 20
3.9417122915
 30
0.0
 10
11.8703018192
 20
3.9399461685
 30
0.0
 10
11.8335410677
 20
3.9384740966
 30
0.0
 10
11.817383478
 20
3.9377187728
 30
0.0
 10
11.8099399706
 20
3.9373261782
 30
0.0
 11
12.3016355268
 21
3.9543197902
 31
0.0
 11
12.2835984211
 21
3.9532606515
 31
0.0
 11
12.2613366019
 21
3.9521993637
 31
0.0
 11
12.235261076
 21
3.9511363243
 31
0.0
 11
12.2058237247
 21
3.9500736963
 31
0.0
 11
12.1390293437
 21
3.9479495534
 31
0.0
 11
12.0656851729
 21
3.9458250301
 31
0.0
 11
11.990987046
 21
3.9437006763
 31
0.0
 11
11.9202268663
 21
3.9415763607
 31
0.0
 11
11.8584179384
 21
3.9394530213
 31
0.0
 11
11.8322761184
 21
3.9383919589
 31
0.0
 11
11.8099399706
 21
3.9373261782
 31
0.0
  0
LINE
  5
597
100
AcDbEntity
  8
0
100
AcDbLine
 62
7
  6
CONTINUOUS
 10
11.7919608059
 20
3.9362632844
 11
11.7768053224
 21
3.9350516281
  0
SPLINE
  5
598
100
AcDbEntity
  8
0
100
AcDbSpline
 62
7
  6
CONTINUOUS
 70
0
 71
3
 72
15
 73
11
 74
9
 42
0.0000001
 43
0.0000001
 44
0.0000000001
 12
-0.0118005503
 22
-0.001170226
 32
0.0
 13
-0.0000000029
 23
-0.0118584323
 33
0.0
 40
0.0
 40
0.0
 40
0.0
 40
0.0
 40
0.4240778244
 40
0.5919720537
 40
0.7303664231
 40
0.8393225959
 40
0.9191492285
 40
0.9484548544
 40
0.9710866416
 40
1.0
 40
1.0
 40
1.0
 40
1.0
 10
11.7768053224
 20
3.9350516281
 30
0.0
 10
11.7751372052
 20
3.9348862058
 30
0.0
 10
11.7728101809
 20
3.9346357054
 30
0.0
 10
11.7699507088
 20
3.9342356446
 30
0.0
 10
11.7683321506
 20
3.9339618688
 30
0.0
 10
11.7670672106
 20
3.9336870926
 30
0.0
 10
11.7662392162
 20
3.9334477217
 30
0.0
 10
11.7657583885
 20
3.933235294
 30
0.0
 10
11.7654893563
 20
3.933078224
 30
0.0
 10
11.7653314113
 20
3.9328984545
 30
0.0
 10
11.7653314113
 20
3.9327841654
 30
0.0
 11
11.7768053224
 21
3.9350516281
 31
0.0
 11
11.7718079461
 21
3.9344894472
 31
0.0
 11
11.7698368035
 21
3.934209219
 31
0.0
 11
11.7682198534
 21
3.9339284812
 31
0.0
 11
11.7669589675
 21
3.9336464203
 31
0.0
 11
11.7660560174
 21
3.933362223
 31
0.0
 11
11.7657393532
 21
3.9332190689
 31
0.0
 11
11.7655128748
 21
3.9330750758
 31
0.0
 11
11.7653314113
 21
3.9327841654
 31
0.0
  0
SPLINE
  5
599
100
AcDbEntity
  8
0
100
AcDbSpline
 62
7
  6
CONTINUOUS
 70
0
 71
3
 72
11
 73
7
 74
5
 42
0.0000001
 43
0.0000001
 44
0.0000000001
 12
-0.0040114465
 22
-0.002319849
 32
0.0
 13
-0.0045742972
 23
-0.000741086
 33
0.0
 40
0.0
 40
0.0
 40
0.0
 40
0.0
 40
0.1524800842
 40
0.3691281793
 40
0.6514782894
 40
1.0
 40
1.0
 40
1.0
 40
1.0
 10
12.3003506899
 20
3.9417388384
 30
0.0
 10
12.3001468013
 20
3.9416209281
 30
0.0
 10
12.2996128792
 20
3.9414095362
 30
0.0
 10
12.2986446335
 20
3.9411368589
 30
0.0
 10
12.2973637636
 20
3.9408612989
 30
0.0
 10
12.296403813
 20
3.940693547
 30
0.0
 10
12.295872399
 20
3.9406074522
 30
0.0
 11
12.3003506899
 21
3.9417388384
 31
0.0
 11
12.2997031883
 21
3.9414559918
 31
0.0
 11
12.298739922
 21
3.9411731453
 31
0.0
 11
12.2974624669
 21
3.9408902987
 31
0.0
 11
12.295872399
 21
3.9406074522
 31
0.0
  0
SPLINE
  5
59A
100
AcDbEntity
  8
0
100
AcDbSpline
 62
7
  6
CONTINUOUS
 70
0
 71
3
 72
37
 73
33
 74
31
 42
0.0000001
 43
0.0000001
 44
0.0000000001
 12
-0.4978966728
 22
-0.0806646839
 32
0.0
 13
0.0
 23
-0.504388628
 33
0.0
 40
0.0
 40
0.0
 40
0.0
 40
0.0
 40
0.0111284351
 40
0.0263191892
 40
0.0455234005
 40
0.0685831165
 40
0.0952457527
 40
0.1252542463
 40
0.1942775125
 40
0.2735328622
 40
0.3603208465
 40
0.4515964971
 40
0.5443085481
 40
0.6353899581
 40
0.7217624266
 40
0.7622209349
 40
0.8003729672
 40
0.8359359568
 40
0.8686423718
 40
0.8982249188
 40
0.924416702
 40
0.94695154
 40
0.9655917663
 40
0.980235142
 40
0.9860406337
 40
0.9908275825
 40
0.994593057
 40
0.9960936314
 40
0.9973412788
 40
0.9983398896
 40
0.9990982993
 40
1.0
 40
1.0
 40
1.0
 40
1.0
 10
12.295872399
 20
3.9406074522
 30
0.0
 10
12.2940254621
 20
3.9403082283
 30
0.0
 10
12.2896312874
 20
3.9397677406
 30
0.0
 10
12.2820105125
 20
3.9390574198
 30
0.0
 10
12.2723765312
 20
3.9383429123
 30
0.0
 10
12.2608102557
 20
3.9376228266
 30
0.0
 10
12.2474245511
 20
3.9368992274
 30
0.0
 10
12.226315966
 20
3.9358833703
 30
0.0
 10
12.1963659688
 20
3.934644234
 30
0.0
 10
12.1568702457
 20
3.9332114357
 30
0.0
 10
12.113631153
 20
3.9317743569
 30
0.0
 10
12.0681285792
 20
3.930333066
 30
0.0
 10
12.0219038234
 20
3.928890985
 30
0.0
 10
11.9765038077
 20
3.9274500532
 30
0.0
 10
11.9398866537
 20
3.9262276335
 30
0.0
 10
11.912165913
 20
3.9252342471
 30
0.0
 10
11.8929837972
 20
3.9245052846
 30
0.0
 10
11.8751060059
 20
3.9237770733
 30
0.0
 10
11.858670238
 20
3.9230499502
 30
0.0
 10
11.8438116321
 20
3.9223245293
 30
0.0
 10
11.8306653365
 20
3.9216013649
 30
0.0
 10
11.8193615422
 20
3.9208825906
 30
0.0
 10
11.8100040136
 20
3.9201660898
 30
0.0
 10
11.8034609862
 20
3.9195387065
 30
0.0
 10
11.7992500975
 20
3.9190164639
 30
0.0
 10
11.7968625033
 20
3.9186572014
 30
0.0
 10
11.7952013494
 20
3.9183435023
 30
0.0
 10
11.7941366474
 20
3.918081483
 30
0.0
 10
11.7935344807
 20
3.9179031359
 30
0.0
 10
11.7930562443
 20
3.9177198603
 30
0.0
 10
11.7926722089
 20
3.9175273269
 30
0.0
 10
11.7924213386
 20
3.917300521
 30
0.0
 10
11.7924213386
 20
3.9171489184
 30
0.0
 11
12.295872399
 21
3.9406074522
 31
0.0
 11
12.2903074198
 21
3.939874373
 31
0.0
 11
12.2826805261
 21
3.9391412938
 31
0.0
 11
12.2730219204
 21
3.9384082147
 31
0.0
 11
12.261413987
 21
3.9376751355
 31
0.0
 11
12.2479856518
 21
3.9369420563
 31
0.0
 11
12.2328674719
 21
3.9362089771
 31
0.0
 11
12.1980838075
 21
3.9347428188
 31
0.0
 11
12.1581352061
 21
3.9332766604
 31
0.0
 11
12.1143848939
 21
3.931810502
 31
0.0
 11
12.0683698456
 21
3.9303443437
 31
0.0
 11
12.0216299313
 21
3.9288781853
 31
0.0
 11
11.9757129055
 21
3.9274120269
 31
0.0
 11
11.9321722929
 21
3.9259458686
 31
0.0
 11
11.911778653
 21
3.9252127894
 31
0.0
 11
11.8925491701
 21
3.9244797102
 31
0.0
 11
11.8746265887
 21
3.923746631
 31
0.0
 11
11.8581461412
 21
3.9230135519
 31
0.0
 11
11.84324306
 21
3.9222804727
 31
0.0
 11
11.8300525777
 21
3.9215473935
 31
0.0
 11
11.8187099265
 21
3.9208143143
 31
0.0
 11
11.8093366315
 21
3.9200812351
 31
0.0
 11
11.8019871496
 21
3.919348156
 31
0.0
 11
11.7990819569
 21
3.9189816164
 31
0.0
 11
11.7966954585
 21
3.9186150768
 31
0.0
 11
11.7948319009
 21
3.9182485372
 31
0.0
 11
11.7940975519
 21
3.9180652674
 31
0.0
 11
11.7934955306
 21
3.9178819976
 31
0.0
 11
11.7930263679
 21
3.9176987278
 31
0.0
 11
11.7926905944
 21
3.917515458
 31
0.0
 11
11.7924213386
 21
3.9171489184
 31
0.0
  0
LINE
  5
59B
100
AcDbEntity
  8
0
100
AcDbLine
 62
7
  6
CONTINUOUS
 10
7.6339712727
 20
6.8018867491
 11
7.6343121436
 21
6.818453597
  0
LINE
  5
59C
100
AcDbEntity
  8
0
100
AcDbLine
 62
7
  6
CONTINUOUS
 10
7.7224990119
 20
6.7764408216
 11
7.7225278381
 21
6.8007380862
  0
LINE
  5
59D
100
AcDbEntity
  8
0
100
AcDbLine
 62
7
  6
CONTINUOUS
 10
7.8603653586
 20
6.75881472
 11
7.859783606
 21
6.7904568444
  0
LINE
  5
59E
100
AcDbEntity
  8
0
100
AcDbLine
 62
7
  6
CONTINUOUS
 10
8.017839836
 20
6.8489300705
 11
8.0182651248
 21
6.8690961587
  0
LINE
  5
59F
100
AcDbEntity
  8
0
100
AcDbLine
 62
7
  6
CONTINUOUS
 10
7.9734739051
 20
6.8454121248
 11
7.9734886289
 21
6.8493724285
  0
LINE
  5
5A0
100
AcDbEntity
  8
0
100
AcDbLine
 62
9
  6
CONTINUOUS
 10
8.0465814113
 20
3.4040379502
 11
7.5927274564
 21
3.4036606277
  0
LINE
  5
5A1
100
AcDbEntity
  8
0
100
AcDbLine
 62
9
  6
CONTINUOUS
 10
7.5927274564
 20
3.4036606277
 11
7.5537037781
 21
3.4036433172
  0
LINE
  5
5A2
100
AcDbEntity
  8
0
100
AcDbLine
 62
9
  6
CONTINUOUS
 10
7.5537037781
 20
3.4036433172
 11
7.419679085
 21
3.4036035715
  0
LINE
  5
5A3
100
AcDbEntity
  8
0
100
AcDbLine
 62
9
  6
CONTINUOUS
 10
7.419679085
 20
3.4036035715
 11
6.9230394531
 21
3.4040379499
  0
LINE
  5
5A4
100
AcDbEntity
  8
0
100
AcDbLine
 62
7
  6
CONTINUOUS
 10
7.9402379292
 20
6.8392137495
 11
7.9402073904
 21
6.8413657223
  0
SPLINE
  5
5A5
100
AcDbEntity
  8
0
100
AcDbSpline
 62
7
  6
CONTINUOUS
 70
0
 71
3
 72
12
 73
8
 74
6
 42
0.0000001
 43
0.0000001
 44
0.0000000001
 12
0.0067063961
 22
0.0037782877
 32
0.0
 13
0.0076431838
 23
0.0009126603
 33
0.0
 40
0.0
 40
0.0
 40
0.0
 40
0.0
 40
0.0585216291
 40
0.1354924832
 40
0.346480484
 40
0.6345794576
 40
1.0
 40
1.0
 40
1.0
 40
1.0
 10
3.7656930009
 20
3.9144484189
 30
0.0
 10
3.765823824
 20
3.9145221227
 30
0.0
 10
3.7661444317
 20
3.9146604176
 30
0.0
 10
3.7669915867
 20
3.9149311447
 30
0.0
 10
3.7684386319
 20
3.9152450196
 30
0.0
 10
3.7706277269
 20
3.9156019537
 30
0.0
 10
3.7722912595
 20
3.915816159
 30
0.0
 10
3.7732222516
 20
3.9159273273
 30
0.0
 11
3.7656930009
 21
3.9144484189
 31
0.0
 11
3.766102768
 21
3.9146355376
 31
0.0
 11
3.7666652883
 21
3.9148215629
 31
0.0
 11
3.7682467332
 21
3.9151912314
 31
0.0
 11
3.7704336247
 21
3.9155592208
 31
0.0
 11
3.7732222516
 21
3.9159273273
 31
0.0
  0
SPLINE
  5
5A6
100
AcDbEntity
  8
0
100
AcDbSpline
 62
7
  6
CONTINUOUS
 70
0
 71
3
 72
9
 73
5
 74
3
 42
0.0000001
 43
0.0000001
 44
0.0000000001
 12
0.0231346591
 22
0.0027624724
 32
0.0
 13
0.0232543629
 23
0.0014416349
 33
0.0
 40
0.0
 40
0.0
 40
0.0
 40
0.0
 40
0.420585843
 40
1.0
 40
1.0
 40
1.0
 40
1.0
 10
3.7732222516
 20
3.9159273273
 30
0.0
 10
3.7764656217
 20
3.9163146129
 30
0.0
 10
3.7842031605
 20
3.9170088535
 30
0.0
 10
3.7919513213
 20
3.91753782
 30
0.0
 10
3.7964426237
 20
3.9178162546
 30
0.0
 11
3.7732222516
 21
3.9159273273
 31
0.0
 11
3.7829760992
 21
3.9168693527
 31
0.0
 11
3.7964426237
 21
3.9178162546
 31
0.0
  0
LINE
  5
5A7
100
AcDbEntity
  8
0
100
AcDbLine
 62
7
  6
CONTINUOUS
 10
3.7964426237
 20
3.9178162546
 11
3.8336772195
 21
3.9197046169
  0
LINE
  5
5A8
100
AcDbEntity
  8
0
100
AcDbLine
 62
9
  6
CONTINUOUS
 10
8.0465814113
 20
3.4040379502
 11
8.5018575209
 21
3.403659953
  0
LINE
  5
5A9
100
AcDbEntity
  8
0
100
AcDbLine
 62
9
  6
CONTINUOUS
 10
8.5018575209
 20
3.403659953
 11
8.5145141152
 21
3.4036540939
  0
LINE
  5
5AA
100
AcDbEntity
  8
0
100
AcDbLine
 62
9
  6
CONTINUOUS
 10
8.5145141152
 20
3.4036540939
 11
8.6734837375
 21
3.4036035715
  0
LINE
  5
5AB
100
AcDbEntity
  8
0
100
AcDbLine
 62
9
  6
CONTINUOUS
 10
8.6734837375
 20
3.4036035715
 11
9.1701233695
 21
3.4040379499
  0
SPLINE
  5
5AC
100
AcDbEntity
  8
0
100
AcDbSpline
 62
9
  6
CONTINUOUS
 70
0
 71
3
 72
12
 73
8
 74
6
 42
0.0000001
 43
0.0000001
 44
0.0000000001
 12
0.1790669084
 22
0.3333634525
 32
0.0
 13
-0.0653991221
 23
0.3727185318
 33
0.0
 40
0.0
 40
0.0
 40
0.0
 40
0.0
 40
0.1275465704
 40
0.2539571464
 40
0.5039627224
 40
0.7519551569
 40
1.0
 40
1.0
 40
1.0
 40
1.0
 10
8.6786764913
 20
8.5264777903
 30
0.0
 10
8.6862896146
 20
8.540650912
 30
0.0
 10
8.7003443758
 20
8.5694844294
 30
0.0
 10
8.723486677
 20
8.6287479659
 30
0.0
 10
8.7430660802
 20
8.7054451942
 30
0.0
 10
8.7508242728
 20
8.7996584094
 30
0.0
 10
8.745145063
 20
8.8623314328
 30
0.0
 10
8.739737758
 20
8.8931484027
 30
0.0
 11
8.6786764913
 21
8.5264777903
 31
0.0
 11
8.699803661
 21
8.5698733653
 31
0.0
 11
8.7171928438
 21
8.6144361113
 31
0.0
 11
8.740498858
 21
8.7061257414
 31
0.0
 11
8.7481149095
 21
8.7996596624
 31
0.0
 11
8.739737758
 21
8.8931484027
 31
0.0
  0
LINE
  5
5AD
100
AcDbEntity
  8
0
100
AcDbLine
 62
7
  6
CONTINUOUS
 10
8.0748976805
 20
6.8690960853
 11
8.0753229865
 21
6.8489300705
  0
LINE
  5
5AE
100
AcDbEntity
  8
0
100
AcDbLine
 62
7
  6
CONTINUOUS
 10
8.1196741961
 20
6.8493724325
 11
8.1196889175
 21
6.8454121248
  0
LINE
  5
5AF
100
AcDbEntity
  8
0
100
AcDbLine
 62
7
  6
CONTINUOUS
 10
8.152955434
 20
6.8413657238
 11
8.1529248933
 21
6.8392137495
  0
SPLINE
  5
5B0
100
AcDbEntity
  8
0
100
AcDbSpline
 62
7
  6
CONTINUOUS
 70
0
 71
3
 72
13
 73
9
 74
7
 42
0.0000001
 43
0.0000001
 44
0.0000000001
 12
-0.0097257059
 22
-0.0056232914
 32
0.0
 13
-0.0111783985
 23
-0.0011198961
 33
0.0
 40
0.0
 40
0.0
 40
0.0
 40
0.0
 40
0.0515068667
 40
0.1233606245
 40
0.2161584478
 40
0.3301648049
 40
0.6222748453
 40
1.0
 40
1.0
 40
1.0
 40
1.0
 10
12.3274617155
 20
4.0073920625
 30
0.0
 10
12.3272947353
 20
4.0072955164
 30
0.0
 10
12.3268642889
 20
4.0071198382
 30
0.0
 10
12.3260875557
 20
4.0068923768
 30
0.0
 10
12.3250688541
 20
4.0066626188
 30
0.0
 10
12.3232310264
 20
4.0063255492
 30
0.0
 10
12.3203222791
 20
4.0059227757
 30
0.0
 10
12.3178285828
 20
4.0056510502
 30
0.0
 10
12.3164211287
 20
4.0055100459
 30
0.0
 11
12.3274617155
 21
4.0073920625
 31
0.0
 11
12.326933049
 21
4.0071568104
 31
0.0
 11
12.3261608587
 21
4.0069215583
 31
0.0
 11
12.3251452247
 21
4.0066863063
 31
0.0
 11
12.3238862273
 21
4.0064510542
 31
0.0
 11
12.3206384631
 21
4.0059805501
 31
0.0
 11
12.3164211287
 21
4.0055100459
 31
0.0
  0
LINE
  5
5B1
100
AcDbEntity
  8
0
100
AcDbLine
 62
7
  6
CONTINUOUS
 10
12.3164211287
 20
4.0055100459
 11
12.301625568
 21
4.0043234071
  0
SPLINE
  5
5B2
100
AcDbEntity
  8
0
100
AcDbSpline
 62
7
  6
CONTINUOUS
 70
0
 71
3
 72
18
 73
14
 74
12
 42
0.0000001
 43
0.0000001
 44
0.0000000001
 12
-0.4908661763
 22
-0.0329503184
 32
0.0
 13
-0.4912965133
 23
-0.02575
 33
0.0
 40
0.0
 40
0.0
 40
0.0
 40
0.0
 40
0.0367094311
 40
0.0819664418
 40
0.1350452609
 40
0.1949178671
 40
0.330726587
 40
0.479880054
 40
0.6317600642
 40
0.775671993
 40
0.9013638943
 40
0.954584617
 40
1.0
 40
1.0
 40
1.0
 40
1.0
 10
12.301625568
 20
4.0043234071
 30
0.0
 10
12.2956190953
 20
4.0039202113
 30
0.0
 10
12.2821986859
 20
4.003153959
 30
0.0
 10
12.2600767869
 20
4.0021159054
 30
0.0
 10
12.2341529088
 20
4.0010739796
 30
0.0
 10
12.1933846753
 20
3.9996153628
 30
0.0
 10
12.1368623012
 20
3.9978549717
 30
0.0
 10
12.0652537323
 20
3.9958069035
 30
0.0
 10
11.9923157926
 20
3.9937565657
 30
0.0
 10
11.9232267583
 20
3.9917134045
 30
0.0
 10
11.8703157595
 20
3.9899452838
 30
0.0
 10
11.8335575126
 20
3.9884725505
 30
0.0
 10
11.8173995266
 20
3.987717647
 30
0.0
 10
11.8099620535
 20
3.9873278316
 30
0.0
 11
12.301625568
 21
4.0043234071
 31
0.0
 11
12.2835968628
 21
4.0032611837
 31
0.0
 11
12.2613570851
 21
4.0021989602
 31
0.0
 11
12.2352654661
 21
4.0011367367
 31
0.0
 11
12.2058290477
 21
4.0000745133
 31
0.0
 11
12.1390488985
 21
3.9979500663
 31
0.0
 11
12.0657004987
 21
3.9958256194
 31
0.0
 11
11.9910101667
 21
3.9937011725
 31
0.0
 11
11.9202415718
 21
3.9915767255
 31
0.0
 11
11.8584413233
 21
3.9894522786
 31
0.0
 11
11.8322798343
 21
3.9883900551
 31
0.0
 11
11.8099620535
 21
3.9873278316
 31
0.0
  0
LINE
  5
5B3
100
AcDbEntity
  8
0
100
AcDbLine
 62
7
  6
CONTINUOUS
 10
11.8099620535
 20
3.9873278316
 11
11.7920114605
 21
3.9862765833
  0
LINE
  5
5B4
100
AcDbEntity
  8
0
100
AcDbLine
 62
7
  6
CONTINUOUS
 10
11.7920114605
 20
3.9862765833
 11
11.7767918575
 21
3.98506333
  0
SPLINE
  5
5B5
100
AcDbEntity
  8
0
100
AcDbSpline
 62
7
  6
CONTINUOUS
 70
0
 71
3
 72
14
 73
10
 74
8
 42
0.0000001
 43
0.0000001
 44
0.0000000001
 12
-0.0117551274
 22
-0.0011752713
 32
0.0
 13
-0.0000614191
 23
-0.0118135731
 33
0.0
 40
0.0
 40
0.0
 40
0.0
 40
0.0
 40
0.4255438412
 40
0.7317515973
 40
0.8403850873
 40
0.9198508722
 40
0.9489892602
 40
0.9714656365
 40
1.0
 40
1.0
 40
1.0
 40
1.0
 10
11.7767918575
 20
3.98506333
 30
0.0
 10
11.7751244168
 20
3.9848966202
 30
0.0
 10
11.7722603289
 20
3.9845793858
 30
0.0
 10
11.7689837668
 20
3.9840992124
 30
0.0
 10
11.7670811096
 20
3.9836799195
 30
0.0
 10
11.766260535
 20
3.9834391075
 30
0.0
 10
11.7657843355
 20
3.9832276001
 30
0.0
 10
11.7655190894
 20
3.9830722253
 30
0.0
 10
11.7653617613
 20
3.9828965241
 30
0.0
 10
11.7653611771
 20
3.9827841599
 30
0.0
 11
11.7767918575
 21
3.98506333
 31
0.0
 11
11.7717969909
 21
3.9844935375
 31
0.0
 11
11.7682246907
 21
3.9839237449
 31
0.0
 11
11.7669733454
 21
3.9836388487
 31
0.0
 11
11.7660788309
 21
3.9833539524
 31
0.0
 11
11.7657654542
 21
3.9832115043
 31
0.0
 11
11.7655413679
 21
3.9830690561
 31
0.0
 11
11.7653611771
 21
3.9827841599
 31
0.0
  0
LINE
  5
5B6
100
AcDbEntity
  8
0
100
AcDbLine
 62
7
  6
CONTINUOUS
 10
12.3003805511
 20
3.991727332
 11
12.2990008817
 21
3.9912215672
  0
SPLINE
  5
5B7
100
AcDbEntity
  8
0
100
AcDbSpline
 62
7
  6
CONTINUOUS
 70
0
 71
3
 72
40
 73
36
 74
34
 42
0.0000001
 43
0.0000001
 44
0.0000000001
 12
-0.4904518332
 22
-0.1308122824
 32
0.0
 13
-0.0000275099
 23
-0.5075971366
 33
0.0
 40
0.0
 40
0.0
 40
0.0
 40
0.0
 40
0.0034208978
 40
0.007939171
 40
0.0202162492
 40
0.0367009107
 40
0.0572427338
 40
0.081686164
 40
0.1098686951
 40
0.1415403398
 40
0.1763762519
 40
0.2542300796
 40
0.3407718704
 40
0.4329304035
 40
0.5273672554
 40
0.6207550601
 40
0.6660320467
 40
0.7098209229
 40
0.7517141241
 40
0.7913161154
 40
0.8283016206
 40
0.8623710292
 40
0.8932250059
 40
0.9205646149
 40
0.9440996509
 40
0.9636420783
 40
0.9790753418
 40
0.9852168811
 40
0.9902916269
 40
0.9942898359
 40
0.9958839613
 40
0.9972087775
 40
0.9982672795
 40
0.9990674507
 40
1.0
 40
1.0
 40
1.0
 40
1.0
 10
12.2990008817
 20
3.9912215672
 30
0.0
 10
12.2984416198
 20
3.991072402
 30
0.0
 10
12.2971256186
 20
3.990795809
 30
0.0
 10
12.2937483849
 20
3.9902514158
 30
0.0
 10
12.2881510756
 20
3.9896149505
 30
0.0
 10
12.2798410367
 20
3.988885448
 30
0.0
 10
12.2694657921
 20
3.9881509025
 30
0.0
 10
12.2571079907
 20
3.9874100421
 30
0.0
 10
12.242864103
 20
3.9866678701
 30
0.0
 10
12.2268598597
 20
3.9859239832
 30
0.0
 10
12.2024558357
 20
3.984891303
 30
0.0
 10
12.1687696248
 20
3.9836266363
 30
0.0
 10
12.1253858466
 20
3.9821543533
 30
0.0
 10
12.0791948242
 20
3.9806793754
 30
0.0
 10
12.0318449798
 20
3.9792020642
 30
0.0
 10
11.9924239927
 20
3.977958939
 30
0.0
 10
11.9615694561
 20
3.9769511458
 30
0.0
 10
11.9394239206
 20
3.9762034328
 30
0.0
 10
11.9182391379
 20
3.9754562323
 30
0.0
 10
11.898206232
 20
3.9747089676
 30
0.0
 10
11.8794980553
 20
3.9739623192
 30
0.0
 10
11.862271251
 20
3.9732168503
 30
0.0
 10
11.8466780959
 20
3.9724730642
 30
0.0
 10
11.8328694816
 20
3.9717318515
 30
0.0
 10
11.8209776242
 20
3.9709933899
 30
0.0
 10
11.8111048321
 20
3.9702581321
 30
0.0
 10
11.8041766014
 20
3.9696155086
 30
0.0
 10
11.7996991115
 20
3.9690807951
 30
0.0
 10
11.7971507944
 20
3.9687124636
 30
0.0
 10
11.795374616
 20
3.9683910288
 30
0.0
 10
11.7942339457
 20
3.9681224202
 30
0.0
 10
11.7935886404
 20
3.9679397531
 30
0.0
 10
11.7930753558
 20
3.9677517516
 30
0.0
 10
11.7926675374
 20
3.9675564689
 30
0.0
 10
11.7923950216
 20
3.9673239073
 30
0.0
 10
11.792395013
 20
3.9671661209
 30
0.0
 11
12.2990008817
 21
3.9912215672
 31
0.0
 11
12.2973056114
 21
3.9908457008
 31
0.0
 11
12.2950431581
 21
3.9904698345
 31
0.0
 11
12.2888568547
 21
3.9897181018
 31
0.0
 11
12.2805231235
 21
3.9889663691
 31
0.0
 11
12.2701232863
 21
3.9882146364
 31
0.0
 11
12.2577386648
 21
3.9874629037
 31
0.0
 11
12.2434530577
 21
3.986711171
 31
0.0
 11
12.2273942066
 21
3.9859594383
 31
0.0
 11
12.2097275836
 21
3.9852077056
 31
0.0
 11
12.1702378134
 21
3.9837042402
 31
0.0
 11
12.126335184
 21
3.9822007748
 31
0.0
 11
12.0795799429
 21
3.9806973094
 31
0.0
 11
12.0316676505
 21
3.979193844
 31
0.0
 11
11.9842881164
 21
3.9776903786
 31
0.0
 11
11.9613179451
 21
3.9769386459
 31
0.0
 11
11.9391035525
 21
3.9761869132
 31
0.0
 11
11.9178519749
 21
3.9754351805
 31
0.0
 11
11.8977641783
 21
3.9746834478
 31
0.0
 11
11.8790054982
 21
3.9739317151
 31
0.0
 11
11.8617283102
 21
3.9731799824
 31
0.0
 11
11.8460849715
 21
3.9724282497
 31
0.0
 11
11.8322278396
 21
3.971676517
 31
0.0
 11
11.8203051979
 21
3.9709247843
 31
0.0
 11
11.8104140426
 21
3.9701730516
 31
0.0
 11
11.8026163135
 21
3.969421319
 31
0.0
 11
11.7995216276
 21
3.9690454526
 31
0.0
 11
11.796973271
 21
3.9686695863
 31
0.0
 11
11.7949789011
 21
3.9682937199
 31
0.0
 11
11.7941918541
 21
3.9681057867
 31
0.0
 11
11.7935461755
 21
3.9679178536
 31
0.0
 11
11.7930428223
 21
3.9677299204
 31
0.0
 11
11.7926827517
 21
3.9675419872
 31
0.0
 11
11.792395013
 21
3.9671661209
 31
0.0
  0
SPLINE
  5
5B8
100
AcDbEntity
  8
0
100
AcDbSpline
 62
9
  6
CONTINUOUS
 70
0
 71
3
 72
12
 73
8
 74
6
 42
0.0000001
 43
0.0000001
 44
0.0000000001
 12
-0.1790917539
 22
0.3333794706
 32
0.0
 13
0.0654053777
 23
0.3727436979
 33
0.0
 40
0.0
 40
0.0
 40
0.0
 40
0.0
 40
0.1275469451
 40
0.2539577431
 40
0.5039633653
 40
0.7519555189
 40
1.0
 40
1.0
 40
1.0
 40
1.0
 10
7.4144973296
 20
8.5264573159
 30
0.0
 10
7.4068831276
 20
8.5406311602
 30
0.0
 10
7.392826332
 20
8.5694662146
 30
0.0
 10
7.369680585
 20
8.6287331692
 30
0.0
 10
7.3500980574
 20
8.7054352347
 30
0.0
 10
7.3423381692
 20
8.7996547752
 30
0.0
 10
7.3480177166
 20
8.8623320546
 30
0.0
 10
7.3534255309
 20
8.8931510603
 30
0.0
 11
7.4144973296
 21
8.5264573159
 31
0.0
 11
7.3933671021
 21
8.5698552295
 31
0.0
 11
7.375975325
 21
8.6144205636
 31
0.0
 11
7.3526656033
 21
8.7061159422
 31
0.0
 11
7.3450478982
 21
8.7996560584
 31
0.0
 11
7.3534255309
 21
8.8931510603
 31
0.0
  0
SPLINE
  5
5B9
100
AcDbEntity
  8
0
100
AcDbSpline
 62
7
  6
CONTINUOUS
 70
0
 71
3
 72
14
 73
10
 74
8
 42
0.0000001
 43
0.0000001
 44
0.0000000001
 12
-0.0101526612
 22
-0.0057645794
 32
0.0
 13
-0.0116509127
 23
-0.0007504261
 33
0.0
 40
0.0
 40
0.0
 40
0.0
 40
0.0
 40
0.0401312165
 40
0.1041774076
 40
0.1925757835
 40
0.30540468
 40
0.4426381566
 40
0.6042092149
 40
1.0
 40
1.0
 40
1.0
 40
1.0
 10
12.3126773476
 20
4.0488344671
 30
0.0
 10
12.3125415347
 20
4.0487573539
 30
0.0
 10
12.3121498525
 20
4.0486347619
 30
0.0
 10
12.3114194838
 20
4.0484756959
 30
0.0
 10
12.3103981607
 20
4.0483155596
 30
0.0
 10
12.3090915143
 20
4.0481518699
 30
0.0
 10
12.307497773
 20
4.0479874414
 30
0.0
 10
12.3048050165
 20
4.0477507674
 30
0.0
 10
12.3026410427
 20
4.0475991186
 30
0.0
 10
12.3011039347
 20
4.0475001147
 30
0.0
 11
12.3126773476
 21
4.0488344671
 31
0.0
 11
12.312239259
 21
4.0486683268
 31
0.0
 11
12.3115102969
 21
4.0485017929
 31
0.0
 11
12.3104918131
 21
4.0483349688
 31
0.0
 11
12.3091851597
 21
4.048167958
 31
0.0
 11
12.3075916882
 21
4.0480008639
 31
0.0
 11
12.3057127507
 21
4.0478337901
 31
0.0
 11
12.3011039347
 21
4.0475001147
 31
0.0
  0
LINE
  5
5BA
100
AcDbEntity
  8
0
100
AcDbLine
 62
7
  6
CONTINUOUS
 10
12.3011039347
 20
4.0475001147
 11
12.300462133
 21
4.047459325
  0
LINE
  5
5BB
100
AcDbEntity
  8
0
100
AcDbLine
 62
7
  6
CONTINUOUS
 10
12.300462133
 20
4.047459325
 11
12.2997069987
 21
4.0474126567
  0
SPLINE
  5
5BC
100
AcDbEntity
  8
0
100
AcDbSpline
 62
7
  6
CONTINUOUS
 70
0
 71
3
 72
19
 73
15
 74
13
 42
0.0000001
 43
0.0000001
 44
0.0000000001
 12
-0.5037249771
 22
-0.0306800105
 32
0.0
 13
-0.5042606919
 23
-0.020031732
 33
0.0
 40
0.0
 40
0.0
 40
0.0
 40
0.0
 40
0.030349896
 40
0.0713617978
 40
0.1221219992
 40
0.1814495057
 40
0.2480369776
 40
0.3203782486
 40
0.4758945608
 40
0.6345076388
 40
0.7826705476
 40
0.9079494547
 40
0.958653065
 40
1.0
 40
1.0
 40
1.0
 40
1.0
 10
12.2997069987
 20
4.0474126567
 30
0.0
 10
12.2946109985
 20
4.0471022784
 30
0.0
 10
12.2826183901
 20
4.0465496277
 30
0.0
 10
12.2620880463
 20
4.045821935
 30
0.0
 10
12.2366805068
 20
4.0450889825
 30
0.0
 10
12.2069694563
 20
4.0443508358
 30
0.0
 10
12.1736270173
 20
4.0436130912
 30
0.0
 10
12.1241058805
 20
4.0426046398
 30
0.0
 10
12.0591052904
 20
4.0413913133
 30
0.0
 10
11.9813515166
 20
4.0399799336
 30
0.0
 10
11.9086851834
 20
4.0385700024
 30
0.0
 10
11.8541707403
 20
4.0373586598
 30
0.0
 10
11.8176258612
 20
4.0363386034
 30
0.0
 10
11.8021497731
 20
4.0358156676
 30
0.0
 10
11.7951998951
 20
4.035539584
 30
0.0
 11
12.2997069987
 21
4.0474126567
 31
0.0
 11
12.2844094072
 21
4.0466552461
 31
0.0
 11
12.2637261781
 21
4.0459003287
 31
0.0
 11
12.2381207156
 21
4.0451462876
 31
0.0
 11
12.2081900444
 21
4.0443939375
 31
0.0
 11
12.1745944866
 21
4.0436439566
 31
0.0
 11
12.1380945169
 21
4.0428960631
 31
0.0
 11
12.0596260155
 21
4.0414076956
 31
0.0
 11
11.9795942174
 21
4.0399307819
 31
0.0
 11
11.9048370787
 21
4.0384572939
 31
0.0
 11
11.841630945
 21
4.0369946596
 31
0.0
 11
11.8160532868
 21
4.036267111
 31
0.0
 11
11.7951998951
 21
4.035539584
 31
0.0
  0
LINE
  5
5BD
100
AcDbEntity
  8
0
100
AcDbLine
 62
7
  6
CONTINUOUS
 10
11.7900199277
 20
4.035324721
 11
11.775153402
 21
4.0345483082
  0
LINE
  5
5BE
100
AcDbEntity
  8
0
100
AcDbLine
 62
7
  6
CONTINUOUS
 10
11.775153402
 20
4.0345483082
 11
11.7688198643
 21
4.0340425922
  0
SPLINE
  5
5BF
100
AcDbEntity
  8
0
100
AcDbSpline
 62
7
  6
CONTINUOUS
 70
0
 71
3
 72
13
 73
9
 74
7
 42
0.0000001
 43
0.0000001
 44
0.0000000001
 12
-0.0114742233
 22
-0.0065548922
 32
0.0
 13
-0.013151382
 23
-0.0012905669
 33
0.0
 40
0.0
 40
0.0
 40
0.0
 40
0.0
 40
0.0511302858
 40
0.1230716939
 40
0.2162409126
 40
0.3307165218
 40
0.6233237069
 40
1.0
 40
1.0
 40
1.0
 40
1.0
 10
12.3003941527
 20
4.0417308578
 30
0.0
 10
12.3001985926
 20
4.04161914
 30
0.0
 10
12.2996914282
 20
4.0414176765
 30
0.0
 10
12.2987755102
 20
4.0411571769
 30
0.0
 10
12.2975714909
 20
4.0408939079
 30
0.0
 10
12.2954019234
 20
4.0405077197
 30
0.0
 10
12.291979248
 20
4.0400462244
 30
0.0
 10
12.289047729
 20
4.0397334469
 30
0.0
 10
12.2873964577
 20
4.0395714049
 30
0.0
 11
12.3003941527
 21
4.0417308578
 31
0.0
 11
12.2997747509
 21
4.0414609262
 31
0.0
 11
12.2988632044
 21
4.0411909946
 31
0.0
 11
12.2976619697
 21
4.040921063
 31
0.0
 11
12.2961735036
 21
4.0406511314
 31
0.0
 11
12.2923447036
 21
4.0401112681
 31
0.0
 11
12.2873964577
 21
4.0395714049
 31
0.0
  0
SPLINE
  5
5C0
100
AcDbEntity
  8
0
100
AcDbSpline
 62
7
  6
CONTINUOUS
 70
0
 71
3
 72
29
 73
25
 74
23
 42
0.0000001
 43
0.0000001
 44
0.0000000001
 12
-0.4920242315
 22
-0.0482831524
 32
0.0
 13
-0.4701138466
 23
-0.1530100601
 33
0.0
 40
0.0
 40
0.0
 40
0.0
 40
0.0
 40
0.01572756
 40
0.0348556388
 40
0.0828278134
 40
0.1423908629
 40
0.2118296193
 40
0.2892753374
 40
0.3724076303
 40
0.4588214699
 40
0.5460810393
 40
0.6316808041
 40
0.7131075889
 40
0.7880147517
 40
0.8543498115
 40
0.8836712776
 40
0.9101010375
 40
0.9334708751
 40
0.9536510136
 40
0.9705130815
 40
0.983931063
 40
0.9937849357
 40
0.9973456038
 40
1.0
 40
1.0
 40
1.0
 40
1.0
 10
12.2873964577
 20
4.0395714049
 30
0.0
 10
12.2848170108
 20
4.0393182795
 30
0.0
 10
12.2790932474
 20
4.0388306511
 30
0.0
 10
12.2654771143
 20
4.0378709623
 30
0.0
 10
12.2446338356
 20
4.036728329
 30
0.0
 10
12.2154988543
 20
4.0354131288
 30
0.0
 10
12.1815026865
 20
4.0340900925
 30
0.0
 10
12.1436200741
 20
4.0327631593
 30
0.0
 10
12.1029385804
 20
4.0314321457
 30
0.0
 10
12.0606390595
 20
4.0300991329
 30
0.0
 10
12.0179327081
 20
4.0287661808
 30
0.0
 10
11.9760485699
 20
4.027434389
 30
0.0
 10
11.9362010413
 20
4.026104554
 30
0.0
 10
11.8995300918
 20
4.0247766048
 30
0.0
 10
11.8714448762
 20
4.023635644
 30
0.0
 10
11.8513471143
 20
4.0227031504
 30
0.0
 10
11.8383254533
 20
4.0220332544
 30
0.0
 10
11.8268123068
 20
4.0213649818
 30
0.0
 10
11.8168789016
 20
4.0206990151
 30
0.0
 10
11.8085888068
 20
4.0200393525
 30
0.0
 10
11.8020076999
 20
4.0193841354
 30
0.0
 10
11.7976198798
 20
4.0188132745
 30
0.0
 10
11.7950177204
 20
4.0183207774
 30
0.0
 10
11.7940226405
 20
4.0180707927
 30
0.0
 10
11.7936066844
 20
4.0179354095
 30
0.0
 11
12.2873964577
 21
4.0395714049
 31
0.0
 11
12.2796503992
 21
4.03889528
 31
0.0
 11
12.2702179155
 21
4.0382191552
 31
0.0
 11
12.2465396484
 21
4.0368669055
 31
0.0
 11
12.2171234796
 21
4.0355146558
 31
0.0
 11
12.1828204619
 21
4.034162406
 31
0.0
 11
12.1445561452
 21
4.0328101563
 31
0.0
 11
12.1034788214
 21
4.0314579066
 31
0.0
 11
12.0607782962
 21
4.0301056569
 31
0.0
 11
12.0176594452
 21
4.0287534072
 31
0.0
 11
11.9753615922
 21
4.0274011575
 31
0.0
 11
11.9351279168
 21
4.0260489078
 31
0.0
 11
11.8981194404
 21
4.0246966581
 31
0.0
 11
11.8653520995
 21
4.0233444084
 31
0.0
 11
11.8508717063
 21
4.0226682835
 31
0.0
 11
11.8378226652
 21
4.0219921587
 31
0.0
 11
11.8262887075
 21
4.0213160338
 31
0.0
 11
11.8163348338
 21
4.020639909
 31
0.0
 11
11.8080259002
 21
4.0199637841
 31
0.0
 11
11.8014267627
 21
4.0192876593
 31
0.0
 11
11.7966022773
 21
4.0186115344
 31
0.0
 11
11.7948746933
 21
4.018273472
 31
0.0
 11
11.7936066844
 21
4.0179354095
 31
0.0
  0
SPLINE
  5
5C1
100
AcDbEntity
  8
0
100
AcDbSpline
 62
7
  6
CONTINUOUS
 70
0
 71
3
 72
10
 73
6
 74
4
 42
0.0000001
 43
0.0000001
 44
0.0000000001
 12
-0.0013806976
 22
-0.0004493818
 32
0.0
 13
0.0000043163
 23
-0.0014519818
 33
0.0
 40
0.0
 40
0.0
 40
0.0
 40
0.0
 40
0.379934385
 40
0.6664362472
 40
1.0
 40
1.0
 40
1.0
 40
1.0
 10
11.7936066844
 20
4.0179354095
 30
0.0
 10
11.7934318262
 20
4.0178784977
 30
0.0
 10
11.7931230199
 20
4.0177653209
 30
0.0
 10
11.7927055588
 20
4.0175656574
 30
0.0
 10
11.7924263015
 20
4.0173271764
 30
0.0
 10
11.7924267814
 20
4.0171657335
 30
0.0
 11
11.7936066844
 21
4.0179354095
 31
0.0
 11
11.7930896699
 21
4.0177429905
 31
0.0
 11
11.7927208492
 21
4.0175505715
 31
0.0
 11
11.7924267814
 21
4.0171657335
 31
0.0
  0
SPLINE
  5
5C2
100
AcDbEntity
  8
0
100
AcDbSpline
 62
7
  6
CONTINUOUS
 70
0
 71
3
 72
11
 73
7
 74
5
 42
0.0000001
 43
0.0000001
 44
0.0000000001
 12
-0.0273649468
 22
-0.0017623225
 32
0.0
 13
-0.0270578709
 23
-0.0044517091
 33
0.0
 40
0.0
 40
0.0
 40
0.0
 40
0.0
 40
0.3299917087
 40
0.6079750267
 40
0.8316822107
 40
1.0
 40
1.0
 40
1.0
 40
1.0
 10
11.8244095046
 20
4.0586966204
 30
0.0
 10
11.8213994361
 20
4.0585027698
 30
0.0
 10
11.8158551337
 20
4.0581230685
 30
0.0
 10
11.8082773607
 20
4.0575109567
 30
0.0
 10
11.8021832362
 20
4.0569030771
 30
0.0
 10
11.7986280748
 20
4.0564424028
 30
0.0
 10
11.7971099678
 20
4.0561926355
 30
0.0
 11
11.8244095046
 21
4.0586966204
 31
0.0
 11
11.8153822712
 21
4.0580706242
 31
0.0
 11
11.8077852615
 21
4.057444628
 31
0.0
 11
11.8016828686
 21
4.0568186318
 31
0.0
 11
11.7971099678
 21
4.0561926355
 31
0.0
  0
LINE
  5
5C3
100
AcDbEntity
  8
0
100
AcDbLine
 62
7
  6
CONTINUOUS
 10
11.7971099678
 20
4.0561926355
 11
11.7933564495
 21
4.0553391578
  0
LINE
  5
5C4
100
AcDbEntity
  8
0
100
AcDbLine
 62
7
  6
CONTINUOUS
 10
11.7933564495
 20
4.0553391578
 11
11.792804547
 21
4.0550907243
  0
SPLINE
  5
5C5
100
AcDbEntity
  8
0
100
AcDbSpline
 62
7
  6
CONTINUOUS
 70
0
 71
3
 72
12
 73
8
 74
6
 42
0.0000001
 43
0.0000001
 44
0.0000000001
 12
-0.005346121
 22
0.0342053407
 32
0.0
 13
-0.0275478912
 23
0.0209690256
 33
0.0
 40
0.0
 40
0.0
 40
0.0
 40
0.0
 40
0.1022067132
 40
0.2083679417
 40
0.564134618
 40
0.7709343468
 40
1.0
 40
1.0
 40
1.0
 40
1.0
 10
8.8512879835
 20
7.0757903724
 30
0.0
 10
8.851105847
 20
7.0769557109
 30
0.0
 10
8.850564445
 20
7.0793078
 30
0.0
 10
8.8482741582
 20
7.0854186745
 30
0.0
 10
8.8437721081
 20
7.0918684279
 30
0.0
 10
8.8373303404
 20
7.0983447413
 30
0.0
 10
8.833439696
 20
7.1015507392
 30
0.0
 10
8.8313362708
 20
7.1031518338
 30
0.0
 11
8.8512879835
 21
7.0757903724
 31
0.0
 11
8.8505014486
 21
7.0792403073
 31
0.0
 11
8.8492223095
 21
7.0826859013
 31
0.0
 11
8.8424531031
 21
7.0929758398
 31
0.0
 11
8.8374341178
 21
7.0980815897
 31
0.0
 11
8.8313362708
 21
7.1031518338
 31
0.0
  0
SPLINE
  5
5C6
100
AcDbEntity
  8
0
100
AcDbSpline
 62
7
  6
CONTINUOUS
 70
0
 71
3
 72
23
 73
19
 74
17
 42
0.0000001
 43
0.0000001
 44
0.0000000001
 12
-0.6355956391
 22
0.483805497
 32
0.0
 13
-0.7987800544
 23
0.0000000008
 33
0.0
 40
0.0
 40
0.0
 40
0.0
 40
0.0
 40
0.0125278708
 40
0.0264562559
 40
0.0418300759
 40
0.0586784541
 40
0.0770155425
 40
0.0968310137
 40
0.1408054722
 40
0.1903931635
 40
0.2453381112
 40
0.305360029
 40
0.3701049325
 40
0.4391157302
 40
0.5119194633
 40
0.6669806556
 40
0.8311848466
 40
1.0
 40
1.0
 40
1.0
 40
1.0
 10
8.8313362708
 20
7.1031518338
 30
0.0
 10
8.8286820508
 20
7.1051721847
 30
0.0
 10
8.8228686226
 20
7.1091676652
 30
0.0
 10
8.8132426868
 20
7.1147847714
 30
0.0
 10
8.8022685374
 20
7.1203275848
 30
0.0
 10
8.7899574977
 20
7.125785378
 30
0.0
 10
8.7763256464
 20
7.1311469315
 30
0.0
 10
8.755697047
 20
7.1384132239
 30
0.0
 10
8.7267646272
 20
7.1470872938
 30
0.0
 10
8.6883917804
 20
7.1566714602
 30
0.0
 10
8.6455051008
 20
7.1656828712
 30
0.0
 10
8.5983842462
 20
7.1740426921
 30
0.0
 10
8.5473527598
 20
7.1816849957
 30
0.0
 10
8.4927825671
 20
7.1885707748
 30
0.0
 10
8.4141666463
 20
7.1968500866
 30
0.0
 10
8.3100542212
 20
7.2048117164
 30
0.0
 10
8.180205547
 20
7.2105287723
 30
0.0
 10
8.0915301414
 20
7.2118247332
 30
0.0
 10
8.0465814156
 20
7.2118247332
 30
0.0
 11
8.8313362708
 21
7.1031518338
 31
0.0
 11
8.8231147748
 21
7.1088568596
 31
0.0
 11
8.8135245293
 21
7.1144967843
 31
0.0
 11
8.8025773106
 21
7.120061332
 31
0.0
 11
8.7902848954
 21
7.1255402269
 31
0.0
 11
8.7766626978
 21
7.1309234548
 31
0.0
 11
8.7617406168
 21
7.1362020449
 31
0.0
 11
8.7281308202
 21
7.1464104658
 31
0.0
 11
8.6897235369
 21
7.1560957976
 31
0.0
 11
8.6467867981
 21
7.1651883489
 31
0.0
 11
8.5995894647
 21
7.1736185712
 31
0.0
 11
8.548449998
 21
7.1813254889
 31
0.0
 11
8.4937636373
 21
7.1882613962
 31
0.0
 11
8.4359322142
 21
7.1943797265
 31
0.0
 11
8.312444955
 21
7.2039788841
 31
0.0
 11
8.1814130077
 21
7.2098414683
 31
0.0
 11
8.0465814156
 21
7.2118247332
 31
0.0
  0
SPLINE
  5
5C7
100
AcDbEntity
  8
0
100
AcDbSpline
 62
7
  6
CONTINUOUS
 70
0
 71
3
 72
10
 73
6
 74
4
 42
0.0000001
 43
0.0000001
 44
0.0000000001
 12
0.0
 22
-0.0015402721
 32
0.0
 13
-0.0014699187
 23
-0.0004601926
 33
0.0
 40
0.0
 40
0.0
 40
0.0
 40
0.0
 40
0.3297081958
 40
0.6172864847
 40
1.0
 40
1.0
 40
1.0
 40
1.0
 10
12.3007444362
 20
3.9796536321
 30
0.0
 10
12.3007444362
 20
3.979484352
 30
0.0
 10
12.3004405192
 20
3.9792390537
 30
0.0
 10
12.2999963048
 20
3.9790342634
 30
0.0
 10
12.2996649071
 20
3.978917532
 30
0.0
 10
12.2994773878
 20
3.9788588247
 30
0.0
 11
12.3007444362
 21
3.9796536321
 31
0.0
 11
12.3004282526
 21
3.9792562284
 31
0.0
 11
12.3000323723
 21
3.9790575266
 31
0.0
 11
12.2994773878
 21
3.9788588247
 31
0.0
  0
SPLINE
  5
5C8
100
AcDbEntity
  8
0
100
AcDbSpline
 62
7
  6
CONTINUOUS
 70
0
 71
3
 72
29
 73
25
 74
23
 42
0.0000001
 43
0.0000001
 44
0.0000000001
 12
-0.473352265
 22
-0.148194065
 32
0.0
 13
-0.4933115111
 23
-0.0516488202
 33
0.0
 40
0.0
 40
0.0
 40
0.0
 40
0.0
 40
0.0027509385
 40
0.0064228506
 40
0.0165065599
 40
0.0301647243
 40
0.0472863172
 40
0.0677546476
 40
0.0914507664
 40
0.1182442316
 40
0.1479240485
 40
0.2149485338
 40
0.2905331145
 40
0.3725918618
 40
0.4586748274
 40
0.5462427106
 40
0.6327705405
 40
0.7157740373
 40
0.7927777183
 40
0.8615054871
 40
0.9200876535
 40
0.9667147534
 40
0.9850756075
 40
1.0
 40
1.0
 40
1.0
 40
1.0
 10
12.2994773878
 20
3.9788588247
 30
0.0
 10
12.2990433335
 20
3.9787229338
 30
0.0
 10
12.2980098438
 20
3.9784716573
 30
0.0
 10
12.2953255725
 20
3.9779774718
 30
0.0
 10
12.2908270783
 20
3.9774017118
 30
0.0
 10
12.2841033831
 20
3.9767416909
 30
0.0
 10
12.2756557082
 20
3.9760770914
 30
0.0
 10
12.2655450746
 20
3.9754064878
 30
0.0
 10
12.2538323382
 20
3.9747336809
 30
0.0
 10
12.2405945328
 20
3.9740598829
 30
0.0
 10
12.2201974182
 20
3.9731215354
 30
0.0
 10
12.1917348527
 20
3.9719728321
 30
0.0
 10
12.1546131914
 20
3.9706360302
 30
0.0
 10
12.1143386542
 20
3.9692979976
 30
0.0
 10
12.072081922
 20
3.9679572333
 30
0.0
 10
12.029085958
 20
3.9666154771
 30
0.0
 10
11.9865993836
 20
3.9652739627
 30
0.0
 10
11.9458602446
 20
3.9639350719
 30
0.0
 10
11.9080656896
 20
3.9625994349
 30
0.0
 10
11.8743113004
 20
3.9612684485
 30
0.0
 10
11.8455835328
 20
3.9599479027
 30
0.0
 10
11.8251841958
 20
3.9587974827
 30
0.0
 10
11.8120071899
 20
3.9578278038
 30
0.0
 10
11.8065254733
 20
3.9573355174
 30
0.0
 10
11.8040713485
 20
3.957078575
 30
0.0
 11
12.2994773878
 21
3.9788588247
 31
0.0
 11
12.298156021
 21
3.9785185083
 31
0.0
 11
12.2963668008
 21
3.9781781919
 31
0.0
 11
12.2914117289
 21
3.9774975591
 31
0.0
 11
12.2846714492
 21
3.9768169263
 31
0.0
 11
12.2762063226
 21
3.9761362935
 31
0.0
 11
12.2660767097
 21
3.9754556607
 31
0.0
 11
12.2543429713
 21
3.9747750279
 31
0.0
 11
12.2410706412
 21
3.9740943951
 31
0.0
 11
12.2263649599
 21
3.9734137623
 31
0.0
 11
12.1931481665
 21
3.9720524967
 31
0.0
 11
12.1556823381
 21
3.9706912311
 31
0.0
 11
12.1150033204
 21
3.9693299654
 31
0.0
 11
12.0723271935
 21
3.9679686998
 31
0.0
 11
12.0289141674
 21
3.9666074342
 31
0.0
 11
11.9860172727
 21
3.9652461686
 31
0.0
 11
11.9448693924
 21
3.963884903
 31
0.0
 11
11.9066992232
 21
3.9625236374
 31
0.0
 11
11.8726368961
 21
3.9611623718
 31
0.0
 11
11.8436115817
 21
3.9598011062
 31
0.0
 11
11.8205242677
 21
3.9584398406
 31
0.0
 11
11.8114426084
 21
3.9577592078
 31
0.0
 11
11.8040713485
 21
3.957078575
 31
0.0
  0
SPLINE
  5
5C9
100
AcDbEntity
  8
0
100
AcDbSpline
 62
7
  6
CONTINUOUS
 70
0
 71
3
 72
13
 73
9
 74
7
 42
0.0000001
 43
0.0000001
 44
0.0000000001
 12
-0.0114563065
 22
-0.0011994545
 32
0.0
 13
-0.0099720568
 23
-0.0057657378
 33
0.0
 40
0.0
 40
0.0
 40
0.0
 40
0.0
 40
0.3737795614
 40
0.6654198135
 40
0.7801328502
 40
0.8740220668
 40
0.9471715521
 40
1.0
 40
1.0
 40
1.0
 40
1.0
 10
11.8040713485
 20
3.957078575
 30
0.0
 10
11.8026439707
 20
3.9569291311
 30
0.0
 10
11.8001052812
 20
3.9566404196
 30
0.0
 10
11.7971389649
 20
3.9562153082
 30
0.0
 10
11.7952511591
 20
3.9558601697
 30
0.0
 10
11.7941961368
 20
3.9556173469
 30
0.0
 10
11.7933869682
 20
3.9553769344
 30
0.0
 10
11.7929369094
 20
3.9551916731
 30
0.0
 10
11.7927613066
 20
3.9550901414
 30
0.0
 11
11.8040713485
 21
3.957078575
 31
0.0
 11
11.7997946033
 21
3.9565814666
 31
0.0
 11
11.7964722045
 21
3.9560843582
 31
0.0
 11
11.795174421
 21
3.955835804
 31
0.0
 11
11.7941218673
 21
3.9555872498
 31
0.0
 11
11.7933167577
 21
3.9553386956
 31
0.0
 11
11.7927613066
 21
3.9550901414
 31
0.0
  0
SPLINE
  5
5CA
100
AcDbEntity
  8
0
100
AcDbSpline
 62
7
  6
CONTINUOUS
 70
0
 71
3
 72
23
 73
19
 74
17
 42
0.0000001
 43
0.0000001
 44
0.0000000001
 12
-0.7987998441
 22
0.0000000008
 32
0.0
 13
-0.6355173202
 23
-0.4839410364
 33
0.0
 40
0.0
 40
0.0
 40
0.0
 40
0.0
 40
0.168821904
 40
0.3330320582
 40
0.4880976756
 40
0.560902851
 40
0.6299144716
 40
0.6946595005
 40
0.754680795
 40
0.8096243884
 40
0.859209964
 40
0.9031815244
 40
0.9229952555
 40
0.9413304157
 40
0.9581767112
 40
0.973548336
 40
0.9874744434
 40
1.0
 40
1.0
 40
1.0
 40
1.0
 10
8.0465814156
 20
7.2118247332
 30
0.0
 10
8.0016297787
 20
7.2118247332
 30
0.0
 10
7.91294879
 20
7.2105286084
 30
0.0
 10
7.783092353
 20
7.2048108355
 30
0.0
 10
7.6789742462
 20
7.196848197
 30
0.0
 10
7.6003546732
 20
7.1885678463
 30
0.0
 10
7.5457825687
 20
7.1816812402
 30
0.0
 10
7.4947498351
 20
7.1740380379
 30
0.0
 10
7.4476284469
 20
7.1656772491
 30
0.0
 10
7.4047419776
 20
7.1566648421
 30
0.0
 10
7.3663701182
 20
7.1470796606
 30
0.0
 10
7.3374390639
 20
7.1384046624
 30
0.0
 10
7.3168120167
 20
7.1311375884
 30
0.0
 10
7.3031816257
 20
7.1257755077
 30
0.0
 10
7.2908722578
 20
7.1203171907
 30
0.0
 10
7.2798999765
 20
7.1147738649
 30
0.0
 10
7.2702761017
 20
7.109156254
 30
0.0
 10
7.2644642023
 20
7.1051603846
 30
0.0
 10
7.2618107996
 20
7.103139841
 30
0.0
 11
8.0465814156
 21
7.2118247332
 31
0.0
 11
7.9117410932
 21
7.2098412106
 31
0.0
 11
7.7807011587
 21
7.2039778703
 31
0.0
 11
7.657207371
 21
7.194377494
 31
0.0
 11
7.5993734205
 21
7.1882584068
 31
0.0
 11
7.5446851275
 21
7.1813216571
 31
0.0
 11
7.4935444023
 21
7.1736138205
 31
0.0
 11
7.4463465435
 21
7.1651826153
 31
0.0
 11
7.403410016
 21
7.1560890395
 31
0.0
 11
7.3650037289
 21
7.1464026556
 31
0.0
 11
7.331395766
 21
7.136193169
 31
0.0
 11
7.3164749322
 21
7.1309140451
 31
0.0
 11
7.302854211
 21
7.1255302851
 31
0.0
 11
7.2905634872
 21
7.1200508631
 31
0.0
 11
7.2796181581
 21
7.1144857965
 31
0.0
 11
7.2700300027
 21
7.1088453632
 31
0.0
 11
7.2618107996
 21
7.103139841
 31
0.0
  0
SPLINE
  5
5CB
100
AcDbEntity
  8
0
100
AcDbSpline
 62
7
  6
CONTINUOUS
 70
0
 71
3
 72
13
 73
9
 74
7
 42
0.0000001
 43
0.0000001
 44
0.0000000001
 12
-0.0275523381
 22
-0.0209808712
 32
0.0
 13
-0.0053478401
 23
-0.0342159159
 33
0.0
 40
0.0
 40
0.0
 40
0.0
 40
0.0
 40
0.1551496649
 40
0.3001479327
 40
0.4998049385
 40
0.6804311686
 40
0.8455756171
 40
1.0
 40
1.0
 40
1.0
 40
1.0
 10
7.2618107996
 20
7.103139841
 30
0.0
 10
7.2603858876
 20
7.1020547826
 30
0.0
 10
7.2576834234
 20
7.0998825308
 30
0.0
 10
7.2534171956
 20
7.0959933188
 30
0.0
 10
7.2492989598
 20
7.091523148
 30
0.0
 10
7.245660831
 20
7.0863571391
 30
0.0
 10
7.2431176519
 20
7.0811425109
 30
0.0
 10
7.2421501253
 20
7.0775516762
 30
0.0
 10
7.2418748463
 20
7.0757904189
 30
0.0
 11
7.2618107996
 21
7.103139841
 31
0.0
 11
7.2576295545
 21
7.0997654192
 31
0.0
 11
7.2539261915
 21
7.0963741986
 31
0.0
 11
7.2492723834
 21
7.0912604135
 31
0.0
 11
7.2457072004
 21
7.0861205149
 31
0.0
 11
7.2432386766
 21
7.0809615133
 31
0.0
 11
7.2418748463
 21
7.0757904189
 31
0.0
  0
SPLINE
  5
5CC
100
AcDbEntity
  8
0
100
AcDbSpline
 62
7
  6
CONTINUOUS
 70
0
 71
3
 72
15
 73
11
 74
9
 42
0.0000001
 43
0.0000001
 44
0.0000000001
 12
0.0
 22
-0.0121441767
 32
0.0
 13
-0.0120782688
 23
-0.0012635071
 33
0.0
 40
0.0
 40
0.0
 40
0.0
 40
0.0
 40
0.0293213464
 40
0.0522357183
 40
0.0818423969
 40
0.1622544617
 40
0.2716656497
 40
0.4102572064
 40
0.577963677
 40
1.0
 40
1.0
 40
1.0
 40
1.0
 10
12.3007714094
 20
4.0296609443
 30
0.0
 10
12.3007714094
 20
4.0295422498
 30
0.0
 10
12.3006085139
 20
4.0293554884
 30
0.0
 10
12.3003313025
 20
4.0291897613
 30
0.0
 10
12.2998367673
 20
4.0289653029
 30
0.0
 10
12.2989863012
 20
4.0287095246
 30
0.0
 10
12.297688795
 20
4.0284142619
 30
0.0
 10
12.296031968
 20
4.0281186032
 30
0.0
 10
12.2931150865
 20
4.0276866418
 30
0.0
 10
12.2907425676
 20
4.0274159312
 30
0.0
 10
12.2890434115
 20
4.0272381825
 30
0.0
 11
12.3007714094
 21
4.0296609443
 31
0.0
 11
12.300584112
 21
4.0293580991
 31
0.0
 11
12.3003506408
 21
4.0292066765
 31
0.0
 11
12.3000245327
 21
4.0290552539
 31
0.0
 11
12.2990961406
 21
4.0287524087
 31
0.0
 11
12.297802405
 21
4.0284495634
 31
0.0
 11
12.296146795
 21
4.0281467182
 31
0.0
 11
12.29413278
 21
4.027843873
 31
0.0
 11
12.2890434115
 21
4.0272381825
 31
0.0
  0
SPLINE
  5
5CD
100
AcDbEntity
  8
0
100
AcDbSpline
 62
7
  6
CONTINUOUS
 70
0
 71
3
 72
29
 73
25
 74
23
 42
0.0000001
 43
0.0000001
 44
0.0000000001
 12
-0.4932763183
 22
-0.0516016093
 32
0.0
 13
-0.4729133692
 23
-0.1494563397
 33
0.0
 40
0.0
 40
0.0
 40
0.0
 40
0.0
 40
0.0149402575
 40
0.0333332008
 40
0.0800430558
 40
0.1386510513
 40
0.2074140486
 40
0.2844688414
 40
0.3674865346
 40
0.4540217628
 40
0.5416031719
 40
0.6276861627
 40
0.7097142793
 40
0.7852812341
 40
0.8522918577
 40
0.8819463522
 40
0.908697926
 40
0.9323686898
 40
0.9528262388
 40
0.9699399437
 40
0.983581473
 40
0.993628305
 40
0.9972724727
 40
1.0
 40
1.0
 40
1.0
 40
1.0
 10
12.2890434115
 20
4.0272381825
 30
0.0
 10
12.2865868531
 20
4.0269812021
 30
0.0
 10
12.2810976387
 20
4.0264887029
 30
0.0
 10
12.2679000035
 20
4.0255193663
 30
0.0
 10
12.2474789714
 20
4.024369988
 30
0.0
 10
12.2187297841
 20
4.0230481254
 30
0.0
 10
12.1849595457
 20
4.0217173295
 30
0.0
 10
12.1471513882
 20
4.0203822033
 30
0.0
 10
12.1064035167
 20
4.0190429537
 30
0.0
 10
12.0639145572
 20
4.0177013858
 30
0.0
 10
12.0209185863
 20
4.0163597976
 30
0.0
 10
11.9786680753
 20
4.0150192749
 30
0.0
 10
11.9384047741
 20
4.0136808346
 30
0.0
 10
11.9012963786
 20
4.0123440998
 30
0.0
 10
11.8728454901
 20
4.0111958033
 30
0.0
 10
11.8524634357
 20
4.0102574665
 30
0.0
 10
11.8392420474
 20
4.0095831758
 30
0.0
 10
11.8275431755
 20
4.0089103935
 30
0.0
 10
11.8174406517
 20
4.0082399245
 30
0.0
 10
11.8089994711
 20
4.0075756676
 30
0.0
 10
11.8022865328
 20
4.0069159026
 30
0.0
 10
11.7978017643
 20
4.0063409134
 30
0.0
 10
11.7951326955
 20
4.0058456461
 30
0.0
 10
11.7941080274
 20
4.0055941826
 30
0.0
 10
11.793678066
 20
4.0054583005
 30
0.0
 11
12.2890434115
 21
4.0272381825
 31
0.0
 11
12.2816648468
 21
4.0265575612
 31
0.0
 11
12.2725679617
 21
4.0258769399
 31
0.0
 11
12.2494413957
 21
4.0245156973
 31
0.0
 11
12.2204055967
 21
4.0231544547
 31
0.0
 11
12.1863285281
 21
4.021793212
 31
0.0
 11
12.1481360678
 21
4.0204319694
 31
0.0
 11
12.1069844568
 21
4.0190707268
 31
0.0
 11
12.0640873457
 21
4.0177094842
 31
0.0
 11
12.0206711043
 21
4.0163482415
 31
0.0
 11
11.977998402
 21
4.0149869989
 31
0.0
 11
11.9373378611
 21
4.0136257563
 31
0.0
 11
11.8998837985
 21
4.0122645137
 31
0.0
 11
11.8666765624
 21
4.010903271
 31
0.0
 11
11.8519846391
 21
4.0102226497
 31
0.0
 11
11.8387341835
 21
4.0095420284
 31
0.0
 11
11.8270139883
 21
4.0088614071
 31
0.0
 11
11.8168905528
 21
4.0081807858
 31
0.0
 11
11.8084300356
 21
4.0075001645
 31
0.0
 11
11.8016985953
 21
4.0068195431
 31
0.0
 11
11.7967623905
 21
4.0061389218
 31
0.0
 11
11.7949873273
 21
4.0057986112
 31
0.0
 11
11.793678066
 21
4.0054583005
 31
0.0
  0
LINE
  5
5CE
100
AcDbEntity
  8
0
100
AcDbLine
 62
7
  6
CONTINUOUS
 10
11.793678066
 20
4.0054583005
 11
11.7928012906
 21
4.0050999015
  0
SPLINE
  5
5CF
100
AcDbEntity
  8
0
100
AcDbSpline
 62
7
  6
CONTINUOUS
 70
0
 71
3
 72
9
 73
5
 74
3
 42
0.0000001
 43
0.0000001
 44
0.0000000001
 12
-0.0107207385
 22
0.0103964438
 32
0.0
 13
-0.0064510317
 23
0.0134686475
 33
0.0
 40
0.0
 40
0.0
 40
0.0
 40
0.0
 40
0.274735739
 40
1.0
 40
1.0
 40
1.0
 40
1.0
 10
7.3823417555
 20
6.7828332971
 30
0.0
 10
7.3813599655
 20
6.7837853887
 30
0.0
 10
7.3779049604
 20
6.7873629547
 30
0.0
 10
7.3749432903
 20
6.7914750025
 30
0.0
 10
7.3733837227
 20
6.7947311121
 30
0.0
 11
7.3823417555
 21
6.7828332971
 31
0.0
 11
7.3794987756
 21
6.7857915017
 31
0.0
 11
7.3733837227
 21
6.7947311121
 31
0.0
  0
SPLINE
  5
5D0
100
AcDbEntity
  8
0
100
AcDbSpline
 62
7
  6
CONTINUOUS
 70
0
 71
3
 72
10
 73
6
 74
4
 42
0.0000001
 43
0.0000001
 44
0.0000000001
 12
-0.0064054033
 22
0.0133733833
 32
0.0
 13
0.0025500672
 23
0.0146073177
 33
0.0
 40
0.0
 40
0.0
 40
0.0
 40
0.0
 40
0.5106483037
 40
0.7551314425
 40
1.0
 40
1.0
 40
1.0
 40
1.0
 10
7.3733837227
 20
6.7947311121
 30
0.0
 10
7.3722934199
 20
6.7970074773
 30
0.0
 10
7.3711030861
 20
6.8006229806
 30
0.0
 10
7.3707508969
 20
6.8055705871
 30
0.0
 10
7.3709775634
 20
6.807991916
 30
0.0
 10
7.3711857072
 20
6.8091842069
 30
0.0
 11
7.3733837227
 21
6.7947311121
 31
0.0
 11
7.3711062415
 21
6.8019525016
 31
0.0
 11
7.3708506283
 21
6.8055687324
 31
0.0
 11
7.3711857072
 21
6.8091842069
 31
0.0
  0
SPLINE
  5
5D1
100
AcDbEntity
  8
0
100
AcDbSpline
 62
7
  6
CONTINUOUS
 70
0
 71
3
 72
13
 73
9
 74
7
 42
0.0000001
 43
0.0000001
 44
0.0000000001
 12
0.0
 22
-0.0052133966
 32
0.0
 13
-0.0051462953
 23
-0.0008337559
 33
0.0
 40
0.0
 40
0.0
 40
0.0
 40
0.0
 40
0.0952374395
 40
0.1774070072
 40
0.2862429948
 40
0.4226315547
 40
0.5869609087
 40
1.0
 40
1.0
 40
1.0
 40
1.0
 10
12.3007266357
 20
3.9296731131
 30
0.0
 10
12.3007266357
 20
3.9295076096
 30
0.0
 10
12.3004354607
 20
3.9292661619
 30
0.0
 10
12.3000056581
 20
3.9290631464
 30
0.0
 10
12.2994621503
 20
3.9288673518
 30
0.0
 10
12.2987790053
 20
3.9286771379
 30
0.0
 10
12.2975689712
 20
3.9283971041
 30
0.0
 10
12.2965809394
 20
3.9282222435
 30
0.0
 10
12.295872399
 20
3.9281074522
 30
0.0
 11
12.3007266357
 21
3.9296731131
 31
0.0
 11
12.3004211577
 21
3.9292816978
 31
0.0
 11
12.3000400932
 21
3.9290859902
 31
0.0
 11
12.2995075078
 21
3.9288902826
 31
0.0
 11
12.2988239237
 21
3.928694575
 31
0.0
 11
12.2979898628
 21
3.9284988674
 31
0.0
 11
12.295872399
 21
3.9281074522
 31
0.0
  0
SPLINE
  5
5D2
100
AcDbEntity
  8
0
100
AcDbSpline
 62
7
  6
CONTINUOUS
 70
0
 71
3
 72
31
 73
27
 74
25
 42
0.0000001
 43
0.0000001
 44
0.0000000001
 12
-0.495663606
 22
-0.0803029027
 32
0.0
 13
-0.4866884142
 23
-0.123553041
 33
0.0
 40
0.0
 40
0.0
 40
0.0
 40
0.0
 40
0.0106237625
 40
0.0249922659
 40
0.0430652132
 40
0.064718139
 40
0.0897309101
 40
0.1178768097
 40
0.1826582029
 40
0.2572216941
 40
0.3393062383
 40
0.4262380678
 40
0.5153253046
 40
0.6038672208
 40
0.6891482528
 40
0.7684517874
 40
0.8392357898
 40
0.8708025983
 40
0.8995046489
 40
0.92510636
 40
0.9473727151
 40
0.9660816819
 40
0.9811206875
 40
0.9924385127
 40
0.9966898478
 40
1.0
 40
1.0
 40
1.0
 40
1.0
 10
12.295872399
 20
3.9281074522
 30
0.0
 10
12.2941171282
 20
3.9278230792
 30
0.0
 10
12.2899641234
 20
3.9273057828
 30
0.0
 10
12.2827882834
 20
3.9266245877
 30
0.0
 10
12.273759637
 20
3.9259391891
 30
0.0
 10
12.2629458774
 20
3.9252491894
 30
0.0
 10
12.2504433292
 20
3.9245558856
 30
0.0
 10
12.2307269934
 20
3.9235824755
 30
0.0
 10
12.2027180408
 20
3.9223944264
 30
0.0
 10
12.1656816087
 20
3.9210199574
 30
0.0
 10
12.1249355339
 20
3.9196426044
 30
0.0
 10
12.0817574156
 20
3.918260838
 30
0.0
 10
12.037497997
 20
3.9168777821
 30
0.0
 10
11.993515004
 20
3.9154951616
 30
0.0
 10
11.951170297
 20
3.9141150895
 30
0.0
 10
11.9117993669
 20
3.912738947
 30
0.0
 10
11.8814178098
 20
3.9115541114
 30
0.0
 10
11.8595040245
 20
3.9105875894
 30
0.0
 10
11.8451481892
 20
3.9098919686
 30
0.0
 10
11.8323508914
 20
3.9091984487
 30
0.0
 10
11.8212288604
 20
3.9085078411
 30
0.0
 10
11.8118781367
 20
3.9078210819
 30
0.0
 10
11.804366196
 20
3.9071377586
 30
0.0
 10
11.7992761493
 20
3.9065399985
 30
0.0
 10
11.796156823
 20
3.9060330426
 30
0.0
 10
11.7949165794
 20
3.9057759516
 30
0.0
 10
11.7943795752
 20
3.9056396252
 30
0.0
 11
12.295872399
 21
3.9281074522
 31
0.0
 11
12.2905843351
 21
3.9274053326
 31
0.0
 11
12.2834037747
 21
3.926703213
 31
0.0
 11
12.274356072
 21
3.9260010934
 31
0.0
 11
12.2635062596
 21
3.9252989738
 31
0.0
 11
12.2509663265
 21
3.9245968542
 31
0.0
 11
12.2368509775
 21
3.9238947346
 31
0.0
 11
12.2043528511
 21
3.9224904954
 31
0.0
 11
12.1669388934
 21
3.9210862562
 31
0.0
 11
12.1257460009
 21
3.9196820171
 31
0.0
 11
12.0821178234
 21
3.9182777779
 31
0.0
 11
12.037406812
 21
3.9168735387
 31
0.0
 11
11.9929697563
 21
3.9154692995
 31
0.0
 11
11.9501709254
 21
3.9140650603
 31
0.0
 11
11.910375291
 21
3.9126608211
 31
0.0
 11
11.8748605222
 21
3.9112565819
 31
0.0
 11
11.8590255511
 21
3.9105544623
 31
0.0
 11
11.8446306054
 21
3.9098523427
 31
0.0
 11
11.8317944974
 21
3.9091502231
 31
0.0
 11
11.8206360395
 21
3.9084481035
 31
0.0
 11
11.8112680472
 21
3.9077459839
 31
0.0
 11
11.8037492763
 21
3.9070438644
 31
0.0
 11
11.7981098365
 21
3.9063417448
 31
0.0
 11
11.7960041931
 21
3.905990685
 31
0.0
 11
11.7943795752
 21
3.9056396252
 31
0.0
  0
SPLINE
  5
5D3
100
AcDbEntity
  8
0
100
AcDbSpline
 62
7
  6
CONTINUOUS
 70
0
 71
3
 72
9
 73
5
 74
3
 42
0.0000001
 43
0.0000001
 44
0.0000000001
 12
0.0
 22
0.0109385922
 32
0.0
 13
-0.005644085
 23
0.0093700108
 33
0.0
 40
0.0
 40
0.0
 40
0.0
 40
0.0
 40
0.4803374121
 40
1.0
 40
1.0
 40
1.0
 40
1.0
 10
8.7069611734
 20
6.8080388475
 30
0.0
 10
8.7069611734
 20
6.8097902525
 30
0.0
 10
8.7063906596
 20
6.8134536304
 30
0.0
 10
8.7048267573
 20
6.8167949103
 30
0.0
 10
8.703849084
 20
6.8184179917
 30
0.0
 11
8.7069611734
 21
6.8080388475
 31
0.0
 11
8.7061838966
 21
6.8132352517
 31
0.0
 11
8.703849084
 21
6.8184179917
 31
0.0
  0
SPLINE
  5
5D4
100
AcDbEntity
  8
0
100
AcDbSpline
 62
7
  6
CONTINUOUS
 70
0
 71
3
 72
9
 73
5
 74
3
 42
0.0000001
 43
0.0000001
 44
0.0000000001
 12
-0.0041041215
 22
0.006813445
 32
0.0
 13
-0.0055577333
 23
0.0056902063
 33
0.0
 40
0.0
 40
0.0
 40
0.0
 40
0.0
 40
0.2343921966
 40
1.0
 40
1.0
 40
1.0
 40
1.0
 10
8.703849084
 20
6.8184179917
 30
0.0
 10
8.703528426
 20
6.8189503311
 30
0.0
 10
8.7020817454
 20
6.8211740932
 30
0.0
 10
8.7003492414
 20
6.8232039277
 30
0.0
 10
8.6989308934
 20
6.8246560831
 30
0.0
 11
8.703849084
 21
6.8184179917
 31
0.0
 11
8.7028345416
 21
6.8199821417
 31
0.0
 11
8.6989308934
 21
6.8246560831
 31
0.0
  0
SPLINE
  5
5D5
100
AcDbEntity
  8
0
100
AcDbSpline
 62
7
  6
CONTINUOUS
 70
0
 71
3
 72
9
 73
5
 74
3
 42
0.0000001
 43
0.0000001
 44
0.0000000001
 12
-0.1183780287
 22
-0.0150406042
 32
0.0
 13
-0.1170324696
 23
-0.0233018997
 33
0.0
 40
0.0
 40
0.0
 40
0.0
 40
0.0
 40
0.5226866327
 40
1.0
 40
1.0
 40
1.0
 40
1.0
 10
7.6866687435
 20
6.8873053423
 30
0.0
 10
7.6660438725
 20
6.8846848347
 30
0.0
 10
7.6266511247
 20
6.8791256811
 30
0.0
 10
7.5874644064
 20
6.8722340884
 30
0.0
 10
7.568844019
 20
6.8685266524
 30
0.0
 11
7.6866687435
 21
6.8873053423
 31
0.0
 11
7.6249200346
 21
6.87850942
 31
0.0
 11
7.568844019
 21
6.8685266524
 31
0.0
  0
SPLINE
  5
5D6
100
AcDbEntity
  8
0
100
AcDbSpline
 62
7
  6
CONTINUOUS
 70
0
 71
3
 72
14
 73
10
 74
8
 42
0.0000001
 43
0.0000001
 44
0.0000000001
 12
0.0272329568
 22
0.0264177914
 32
0.0
 13
-0.0217568853
 23
0.0310833007
 33
0.0
 40
0.0
 40
0.0
 40
0.0
 40
0.0
 40
0.1504251563
 40
0.2863047181
 40
0.4103733065
 40
0.5262953377
 40
0.6385379762
 40
0.7520032853
 40
1.0
 40
1.0
 40
1.0
 40
1.0
 10
8.6938018904
 20
6.7663373188
 30
0.0
 10
8.6951673976
 20
6.7676619523
 30
0.0
 10
8.6976430115
 20
6.7703176885
 30
0.0
 10
8.700663476
 20
6.7745600669
 30
0.0
 10
8.7027750715
 20
6.7788463515
 30
0.0
 10
8.7039607598
 20
6.7831717807
 30
0.0
 10
8.7042005096
 20
6.7875204874
 30
0.0
 10
8.7032295971
 20
6.7934732814
 30
0.0
 10
8.7010744725
 20
6.7976511205
 30
0.0
 10
8.6992759271
 20
6.8002206393
 30
0.0
 11
8.6938018904
 21
6.7663373188
 31
0.0
 11
8.6976671076
 21
6.7705365415
 31
0.0
 11
8.7006266513
 21
6.7747578657
 31
0.0
 11
8.7026764149
 21
6.7789954631
 31
0.0
 11
8.7038162225
 21
6.7832434241
 31
0.0
 11
8.7040460759
 21
6.7874958354
 31
0.0
 11
8.7033659767
 21
6.7917467839
 31
0.0
 11
8.6992759271
 21
6.8002206393
 31
0.0
  0
SPLINE
  5
5D7
100
AcDbEntity
  8
0
100
AcDbSpline
 62
7
  6
CONTINUOUS
 70
0
 71
3
 72
9
 73
5
 74
3
 42
0.0000001
 43
0.0000001
 44
0.0000000001
 12
-0.0036319456
 22
0.0051888336
 32
0.0
 13
-0.0043728191
 23
0.0045818638
 33
0.0
 40
0.0
 40
0.0
 40
0.0
 40
0.0
 40
0.239139337
 40
1.0
 40
1.0
 40
1.0
 40
1.0
 10
8.6992759271
 20
6.8002206393
 30
0.0
 10
8.6989864134
 20
6.8006342574
 30
0.0
 10
8.6977384537
 20
6.8023376878
 30
0.0
 10
8.6963511672
 20
6.8039370372
 30
0.0
 10
8.6952421318
 20
6.8050990905
 30
0.0
 11
8.6992759271
 21
6.8002206393
 31
0.0
 11
8.6983815731
 21
6.8014430197
 31
0.0
 11
8.6952421318
 21
6.8050990905
 31
0.0
  0
SPLINE
  5
5D8
100
AcDbEntity
  8
0
100
AcDbSpline
 62
7
  6
CONTINUOUS
 70
0
 71
3
 72
9
 73
5
 74
3
 42
0.0000001
 43
0.0000001
 44
0.0000000001
 12
-0.0071135038
 22
0.0074535683
 32
0.0
 13
-0.0082073612
 23
0.0062287107
 33
0.0
 40
0.0
 40
0.0
 40
0.0
 40
0.0
 40
0.2345273094
 40
1.0
 40
1.0
 40
1.0
 40
1.0
 10
8.6952421318
 20
6.8050990905
 30
0.0
 10
8.6946860282
 20
6.8056817789
 30
0.0
 10
8.6922550262
 20
6.808109155
 30
0.0
 10
8.68961025
 20
6.8103167594
 30
0.0
 10
8.6875160797
 20
6.8119060621
 30
0.0
 11
8.6952421318
 21
6.8050990905
 31
0.0
 11
8.6935339973
 21
6.8068082628
 31
0.0
 11
8.6875160797
 21
6.8119060621
 31
0.0
  0
SPLINE
  5
5D9
100
AcDbEntity
  8
0
100
AcDbSpline
 62
7
  6
CONTINUOUS
 70
0
 71
3
 72
11
 73
7
 74
5
 42
0.0000001
 43
0.0000001
 44
0.0000000001
 12
-0.057307309
 22
0.0346881981
 32
0.0
 13
-0.0641204083
 23
0.0193899972
 33
0.0
 40
0.0
 40
0.0
 40
0.0
 40
0.0
 40
0.2057093902
 40
0.4409056412
 40
0.7057758781
 40
1.0
 40
1.0
 40
1.0
 40
1.0
 10
8.6785674591
 20
6.8179374427
 30
0.0
 10
8.6746379086
 20
6.8203160054
 30
0.0
 10
8.6659438806
 20
6.824967905
 30
0.0
 10
8.6515230742
 20
6.8313481171
 30
0.0
 10
8.6349062576
 20
6.8375718695
 30
0.0
 10
8.6230203599
 20
6.8414038569
 30
0.0
 10
8.6167317696
 20
6.8433055252
 30
0.0
 11
8.6785674591
 21
6.8179374427
 31
0.0
 11
8.6664567934
 21
6.8245117965
 31
0.0
 11
8.6520754331
 21
6.8309466354
 31
0.0
 11
8.6354778278
 21
6.8372186792
 31
0.0
 11
8.6167317696
 21
6.8433055252
 31
0.0
  0
SPLINE
  5
5DA
100
AcDbEntity
  8
0
100
AcDbSpline
 62
7
  6
CONTINUOUS
 70
0
 71
3
 72
9
 73
5
 74
3
 42
0.0000001
 43
0.0000001
 44
0.0000000001
 12
-0.0266442601
 22
0.0080572183
 32
0.0
 13
-0.0269738376
 23
0.0068736779
 33
0.0
 40
0.0
 40
0.0
 40
0.0
 40
0.0
 40
0.2396217883
 40
1.0
 40
1.0
 40
1.0
 40
1.0
 10
8.6167317696
 20
6.8433055252
 30
0.0
 10
8.6146035879
 20
6.8439490868
 30
0.0
 10
8.6057054033
 20
6.846579293
 30
0.0
 10
8.5967452807
 20
6.8489980914
 30
0.0
 10
8.5899085079
 20
6.8507402898
 30
0.0
 11
8.6167317696
 21
6.8433055252
 31
0.0
 11
8.6103356337
 21
6.8451974575
 31
0.0
 11
8.5899085079
 21
6.8507402898
 31
0.0
  0
SPLINE
  5
5DB
100
AcDbEntity
  8
0
100
AcDbSpline
 62
7
  6
CONTINUOUS
 70
0
 71
3
 72
11
 73
7
 74
5
 42
0.0000001
 43
0.0000001
 44
0.0000000001
 12
-0.1870536861
 22
0.0409836199
 32
0.0
 13
-0.1905559014
 23
0.0188993917
 33
0.0
 40
0.0
 40
0.0
 40
0.0
 40
0.0
 40
0.2197510776
 40
0.4610054403
 40
0.7218512276
 40
1.0
 40
1.0
 40
1.0
 40
1.0
 10
8.5619021889
 20
6.8573517843
 30
0.0
 10
8.5482004392
 20
6.8603538492
 30
0.0
 10
8.5193210269
 20
6.8660411472
 30
0.0
 10
8.4738386319
 20
6.8734524847
 30
0.0
 10
8.4244729566
 20
6.8800839312
 30
0.0
 10
8.3902710169
 20
6.8838401861
 30
0.0
 10
8.3726033869
 20
6.885592467
 30
0.0
 11
8.5619021889
 21
6.8573517843
 31
0.0
 11
8.5206300019
 21
6.8655590754
 31
0.0
 11
8.475042776
 21
6.8730463916
 31
0.0
 11
8.4255442295
 21
6.8797437121
 31
0.0
 11
8.3726033869
 21
6.885592467
 31
0.0
  0
SPLINE
  5
5DC
100
AcDbEntity
  8
0
100
AcDbSpline
 62
7
  6
CONTINUOUS
 70
0
 71
3
 72
13
 73
9
 74
7
 42
0.0000001
 43
0.0000001
 44
0.0000000001
 12
0.009734149
 22
0.0056285295
 32
0.0
 13
0.0111877049
 23
0.0011266149
 33
0.0
 40
0.0
 40
0.0
 40
0.0
 40
0.0
 40
0.0516831264
 40
0.1237799346
 40
0.2168261625
 40
0.3310223751
 40
0.6230787782
 40
1.0
 40
1.0
 40
1.0
 40
1.0
 10
3.7657006515
 20
3.9644226708
 30
0.0
 10
3.7658683486
 20
3.9645196374
 30
0.0
 10
3.7663007026
 20
3.9646959374
 30
0.0
 10
3.767080531
 20
3.9649242374
 30
0.0
 10
3.768102603
 20
3.9651548623
 30
0.0
 10
3.7699433754
 20
3.9654929982
 30
0.0
 10
3.7728519955
 20
3.9658972758
 30
0.0
 10
3.775344524
 20
3.9661705384
 30
0.0
 10
3.7767501518
 20
3.9663120867
 30
0.0
 11
3.7657006515
 21
3.9644226708
 31
0.0
 11
3.7662316356
 21
3.9646588478
 31
0.0
 11
3.767007147
 21
3.9648950248
 31
0.0
 11
3.7680263798
 21
3.9651312017
 31
0.0
 11
3.7692885279
 21
3.9653673787
 31
0.0
 11
3.7725383457
 21
3.9658397327
 31
0.0
 11
3.7767501518
 21
3.9663120867
 31
0.0
  0
LINE
  5
5DD
100
AcDbEntity
  8
0
100
AcDbLine
 62
7
  6
CONTINUOUS
 10
3.7767501518
 20
3.9663120867
 11
3.7915226816
 21
3.9674988164
  0
SPLINE
  5
5DE
100
AcDbEntity
  8
0
100
AcDbSpline
 62
7
  6
CONTINUOUS
 70
0
 71
3
 72
18
 73
14
 74
12
 42
0.0000001
 43
0.0000001
 44
0.0000000001
 12
0.4908041057
 22
0.0328994384
 32
0.0
 13
0.4912335885
 23
0.0257022326
 33
0.0
 40
0.0
 40
0.0
 40
0.0
 40
0.0
 40
0.0367823794
 40
0.0820545413
 40
0.1350427095
 40
0.19491859
 40
0.3307540905
 40
0.4798559372
 40
0.631766444
 40
0.7756203395
 40
0.9014034913
 40
0.954568984
 40
1.0
 40
1.0
 40
1.0
 40
1.0
 10
3.7915226816
 20
3.9674988164
 30
0.0
 10
3.7975403292
 20
3.9679021896
 30
0.0
 10
3.8109735075
 20
3.9686669187
 30
0.0
 10
3.8330920399
 20
3.9697047377
 30
0.0
 10
3.859000529
 20
3.9707489282
 30
0.0
 10
3.8997534712
 20
3.9722056644
 30
0.0
 10
3.9562648091
 20
3.973965363
 30
0.0
 10
4.0278647513
 20
3.976014742
 30
0.0
 10
4.1007800924
 20
3.9780623789
 30
0.0
 10
4.1698702918
 20
3.9801087049
 30
0.0
 10
4.2227708081
 20
3.9818721685
 30
0.0
 10
4.2595325445
 20
3.9833474611
 30
0.0
 10
4.2756818887
 20
3.9841020206
 30
0.0
 10
4.283120969
 20
3.9844912468
 30
0.0
 11
3.7915226816
 21
3.9674988164
 31
0.0
 11
3.8095849415
 21
3.9685608433
 31
0.0
 11
3.8318292298
 21
3.9696228702
 31
0.0
 11
3.8578727572
 21
3.9706848971
 31
0.0
 11
3.88730688
 21
3.971746924
 31
0.0
 11
3.9540913441
 21
3.9738709778
 31
0.0
 11
4.027404603
 21
3.9759950316
 31
0.0
 11
4.1021000263
 21
3.9781190854
 31
0.0
 11
4.1728306663
 21
3.9802431392
 31
0.0
 11
4.2346676242
 21
3.982367193
 31
0.0
 11
4.2607984508
 21
3.9834292199
 31
0.0
 11
4.283120969
 21
3.9844912468
 31
0.0
  0
LINE
  5
5DF
100
AcDbEntity
  8
0
100
AcDbLine
 62
7
  6
CONTINUOUS
 10
4.283120969
 20
3.9844912468
 11
4.3012147234
 21
3.985549316
  0
LINE
  5
5E0
100
AcDbEntity
  8
0
100
AcDbLine
 62
7
  6
CONTINUOUS
 10
4.3012147234
 20
3.985549316
 11
4.3164307495
 21
3.98676473
  0
SPLINE
  5
5E1
100
AcDbEntity
  8
0
100
AcDbSpline
 62
7
  6
CONTINUOUS
 70
0
 71
3
 72
14
 73
10
 74
8
 42
0.0000001
 43
0.0000001
 44
0.0000000001
 12
0.0116821155
 22
0.001175465
 32
0.0
 13
0.0002902008
 23
0.0117375178
 33
0.0
 40
0.0
 40
0.0
 40
0.0
 40
0.0
 40
0.4243081798
 40
0.7303575342
 40
0.8392361604
 40
0.9190824125
 40
0.9484392476
 40
0.9711359896
 40
1.0
 40
1.0
 40
1.0
 40
1.0
 10
4.3164307495
 20
3.98676473
 30
0.0
 10
4.3180830219
 20
3.9869309831
 30
0.0
 10
4.3209238497
 20
3.9872479347
 30
0.0
 10
4.3241753979
 20
3.9877269867
 30
0.0
 10
4.3260680336
 20
3.9881446773
 30
0.0
 10
4.3268866655
 20
3.9883850034
 30
0.0
 10
4.3273632592
 20
3.9885955755
 30
0.0
 10
4.3276297801
 20
3.9887509852
 30
0.0
 10
4.3277894167
 20
3.988924839
 30
0.0
 10
4.3277922088
 20
3.9890377696
 30
0.0
 11
4.3164307495
 21
3.98676473
 31
0.0
 11
4.3213800806
 21
3.9873329899
 31
0.0
 11
4.3249282209
 21
3.9879012498
 31
0.0
 11
4.3261746007
 21
3.9881853797
 31
0.0
 11
4.3270679902
 21
3.9884695097
 31
0.0
 11
4.3273820332
 21
3.9886115746
 31
0.0
 11
4.3276074921
 21
3.9887536396
 31
0.0
 11
4.3277922088
 21
3.9890377696
 31
0.0
  0
SPLINE
  5
5E2
100
AcDbEntity
  8
0
100
AcDbSpline
 62
7
  6
CONTINUOUS
 70
0
 71
3
 72
12
 73
8
 74
6
 42
0.0000001
 43
0.0000001
 44
0.0000000001
 12
0.009339691
 22
0.0053988427
 32
0.0
 13
0.0107312765
 23
0.0011031937
 33
0.0
 40
0.0
 40
0.0
 40
0.0
 40
0.0
 40
0.0522875999
 40
0.1249792151
 40
0.3330152453
 40
0.6249057581
 40
1.0
 40
1.0
 40
1.0
 40
1.0
 10
3.7656642018
 20
4.0144218363
 30
0.0
 10
3.7658269851
 20
4.0145159338
 30
0.0
 10
3.7662454936
 20
4.0146873543
 30
0.0
 10
3.7673945025
 20
4.0150245868
 30
0.0
 10
3.769420934
 20
4.0154118396
 30
0.0
 10
3.7725352134
 20
4.0158563074
 30
0.0
 10
3.7749196601
 20
4.0161213447
 30
0.0
 10
3.7762614068
 20
4.0162592785
 30
0.0
 11
3.7656642018
 21
4.0144218363
 31
0.0
 11
3.7661793928
 21
4.0146515165
 31
0.0
 11
3.7669291881
 21
4.0148811968
 31
0.0
 11
3.7691259315
 21
4.0153405574
 31
0.0
 11
3.7722411112
 21
4.015799918
 31
0.0
 11
3.7762614068
 21
4.0162592785
 31
0.0
  0
SPLINE
  5
5E3
100
AcDbEntity
  8
0
100
AcDbSpline
 62
7
  6
CONTINUOUS
 70
0
 71
3
 72
10
 73
6
 74
4
 42
0.0000001
 43
0.0000001
 44
0.0000000001
 12
0.0316808972
 22
0.0032568507
 32
0.0
 13
0.031802624
 23
0.0016968875
 33
0.0
 40
0.0
 40
0.0
 40
0.0
 40
0.0
 40
0.1907044224
 40
0.4214359777
 40
1.0
 40
1.0
 40
1.0
 40
1.0
 10
3.7762614068
 20
4.0162592785
 30
0.0
 10
3.7782753025
 20
4.0164663105
 30
0.0
 10
3.7827316931
 20
4.0168661815
 30
0.0
 10
3.7933184106
 20
4.0176559409
 30
0.0
 10
3.8018960634
 20
4.0181528134
 30
0.0
 10
3.8080293481
 20
4.0184800661
 30
0.0
 11
3.7762614068
 21
4.0162592785
 31
0.0
 11
3.7823095057
 21
4.0168144754
 31
0.0
 11
3.7896368087
 21
4.0173696723
 31
0.0
 11
3.8080293481
 21
4.0184800661
 31
0.0
  0
SPLINE
  5
5E4
100
AcDbEntity
  8
0
100
AcDbSpline
 62
7
  6
CONTINUOUS
 70
0
 71
3
 72
16
 73
12
 74
10
 42
0.0000001
 43
0.0000001
 44
0.0000000001
 12
0.4656874313
 22
0.0248476089
 32
0.0
 13
0.4658091395
 23
0.0224506763
 33
0.0
 40
0.0
 40
0.0
 40
0.0
 40
0.0
 40
0.0428512865
 40
0.0926411043
 40
0.2100402043
 40
0.3454582805
 40
0.4906797421
 40
0.6371991524
 40
0.7762706561
 40
0.8996059008
 40
1.0
 40
1.0
 40
1.0
 40
1.0
 10
3.8080293481
 20
4.0184800661
 30
0.0
 10
3.8146811166
 20
4.0188349834
 30
0.0
 10
3.8290658915
 20
4.0195238505
 30
0.0
 10
3.861688746
 20
4.0208756774
 30
0.0
 10
3.9087012878
 20
4.0225022531
 30
0.0
 10
3.9705478803
 20
4.0243801147
 30
0.0
 10
4.036922924
 20
4.0262674855
 30
0.0
 10
4.1038660531
 20
4.0281548968
 30
0.0
 10
4.1674059327
 20
4.0300349216
 30
0.0
 10
4.2237722251
 20
4.0319060377
 30
0.0
 10
4.2585244314
 20
4.0332867265
 30
0.0
 10
4.2741125944
 20
4.0340380316
 30
0.0
 11
3.8080293481
 21
4.0184800661
 31
0.0
 11
3.8279893683
 21
4.0194524389
 31
0.0
 11
3.8511884734
 21
4.0204248117
 31
0.0
 11
3.9059029761
 21
4.0223695574
 31
0.0
 11
3.9690252253
 21
4.0243143031
 31
0.0
 11
4.0367213047
 21
4.0262590488
 31
0.0
 11
4.1050229298
 21
4.0282037945
 31
0.0
 11
4.1698497417
 21
4.0301485402
 31
0.0
 11
4.2273342284
 21
4.0320932859
 31
0.0
 11
4.2741125944
 21
4.0340380316
 31
0.0
  0
SPLINE
  5
5E5
100
AcDbEntity
  8
0
100
AcDbSpline
 62
7
  6
CONTINUOUS
 70
0
 71
3
 72
12
 73
8
 74
6
 42
0.0000001
 43
0.0000001
 44
0.0000000001
 12
-0.0097767312
 22
-0.0055450536
 32
0.0
 13
-0.0111844005
 23
-0.0011141264
 33
0.0
 40
0.0
 40
0.0
 40
0.0
 40
0.0
 40
0.0524253903
 40
0.1250906173
 40
0.3328248153
 40
0.6245074915
 40
1.0
 40
1.0
 40
1.0
 40
1.0
 10
4.3274731548
 20
3.9323753786
 30
0.0
 10
4.3273023052
 20
3.9322784781
 30
0.0
 10
4.3268648843
 20
3.932102361
 30
0.0
 10
4.3256664566
 20
3.9317578402
 30
0.0
 10
4.3235552005
 20
3.9313653305
 30
0.0
 10
4.3203088523
 20
3.9309166674
 30
0.0
 10
4.3178228626
 20
3.9306493707
 30
0.0
 10
4.3164229764
 20
3.930509922
 30
0.0
 11
4.3274731548
 21
3.9323753786
 31
0.0
 11
4.3269333758
 21
3.9321390473
 31
0.0
 11
4.3261511206
 21
3.9319042284
 31
0.0
 11
4.3238632806
 21
3.9314379023
 31
0.0
 11
4.3206178332
 21
3.9309739502
 31
0.0
 11
4.3164229764
 21
3.930509922
 31
0.0
  0
LINE
  5
5E6
100
AcDbEntity
  8
0
100
AcDbLine
 62
7
  6
CONTINUOUS
 10
4.3164229764
 20
3.930509922
 11
4.3016490968
 21
3.9293262022
  0
SPLINE
  5
5E7
100
AcDbEntity
  8
0
100
AcDbSpline
 62
7
  6
CONTINUOUS
 70
0
 71
3
 72
18
 73
14
 74
12
 42
0.0000001
 43
0.0000001
 44
0.0000000001
 12
-0.4908390887
 22
-0.0330189367
 32
0.0
 13
-0.491278909
 23
-0.0256572563
 33
0.0
 40
0.0
 40
0.0
 40
0.0
 40
0.0
 40
0.0367144834
 40
0.0820025648
 40
0.1350338471
 40
0.1948928969
 40
0.3307016743
 40
0.4798214149
 40
0.6316997759
 40
0.7755973088
 40
0.9013261995
 40
0.9545245716
 40
1.0
 40
1.0
 40
1.0
 40
1.0
 10
4.3016490968
 20
3.9293262022
 30
0.0
 10
4.2956421289
 20
3.9289221111
 30
0.0
 10
4.28221654
 20
3.9281532729
 30
0.0
 10
4.2600974415
 20
3.927116837
 30
0.0
 10
4.2341797066
 20
3.9260742896
 30
0.0
 10
4.1934233633
 20
3.9246151529
 30
0.0
 10
4.1369112413
 20
3.9228569881
 30
0.0
 10
4.0653115576
 20
3.9208151659
 30
0.0
 10
3.9923852696
 20
3.9187590744
 30
0.0
 10
3.9232960068
 20
3.9167144723
 30
0.0
 10
3.8703872535
 20
3.9149498088
 30
0.0
 10
3.8336185632
 20
3.9134736951
 30
0.0
 10
3.8174550803
 20
3.9127200286
 30
0.0
 10
3.8100080407
 20
3.9123311036
 30
0.0
 11
4.3016490968
 21
3.9293262022
 31
0.0
 11
4.2836188663
 21
3.9282616083
 31
0.0
 11
4.2613648256
 21
3.9271988907
 31
0.0
 11
4.2352977763
 21
3.9261373244
 31
0.0
 11
4.2058693851
 21
3.925074816
 31
0.0
 11
4.1390921913
 21
3.9229523652
 31
0.0
 11
4.0657636192
 21
3.92083197
 31
0.0
 11
3.9910775975
 21
3.9187043155
 31
0.0
 11
3.9203193408
 21
3.9165790652
 31
0.0
 11
3.8585036878
 21
3.9144551226
 31
0.0
 11
3.8323544142
 21
3.9133924921
 31
0.0
 11
3.8100080407
 21
3.9123311036
 31
0.0
  0
LINE
  5
5E8
100
AcDbEntity
  8
0
100
AcDbLine
 62
7
  6
CONTINUOUS
 10
3.8100080407
 20
3.9123311036
 11
3.7919672306
 21
3.911277431
  0
LINE
  5
5E9
100
AcDbEntity
  8
0
100
AcDbLine
 62
7
  6
CONTINUOUS
 10
3.7919672306
 20
3.911277431
 11
3.7767313111
 21
3.9100574581
  0
SPLINE
  5
5EA
100
AcDbEntity
  8
0
100
AcDbSpline
 62
7
  6
CONTINUOUS
 70
0
 71
3
 72
14
 73
10
 74
8
 42
0.0000001
 43
0.0000001
 44
0.0000000001
 12
-0.0117158329
 22
-0.0011846412
 32
0.0
 13
0.0
 23
-0.0117755728
 33
0.0
 40
0.0
 40
0.0
 40
0.0
 40
0.0
 40
0.424480458
 40
0.7311008934
 40
0.8401943985
 40
0.9200756024
 40
0.949342464
 40
0.9718516723
 40
1.0
 40
1.0
 40
1.0
 40
1.0
 10
3.7767313111
 20
3.9100574581
 30
0.0
 10
3.7750735971
 20
3.9098898391
 30
0.0
 10
3.7722216867
 20
3.9095694836
 30
0.0
 10
3.7689574484
 20
3.9090859989
 30
0.0
 10
3.7670558289
 20
3.9086668966
 30
0.0
 10
3.7662340424
 20
3.9084275031
 30
0.0
 10
3.7657557863
 20
3.9082183288
 30
0.0
 10
3.7654915948
 20
3.9080665614
 30
0.0
 10
3.7653314113
 20
3.9078946433
 30
0.0
 10
3.7653314113
 20
3.9077841557
 30
0.0
 11
3.7767313111
 21
3.9100574581
 31
0.0
 11
3.7717658136
 21
3.9094840106
 31
0.0
 11
3.7682009051
 21
3.9089112235
 31
0.0
 11
3.7669482464
 21
3.9086263687
 31
0.0
 11
3.7660512246
 21
3.9083432282
 31
0.0
 11
3.7657366493
 21
3.9082024622
 31
0.0
 11
3.7655116696
 21
3.9080623184
 31
0.0
 11
3.7653314113
 21
3.9077841557
 31
0.0
  0
LINE
  5
5EB
100
AcDbEntity
  8
0
100
AcDbLine
 62
7
  6
CONTINUOUS
 10
4.3003716753
 20
3.9167205745
 11
4.2998376101
 21
3.9164798269
  0
SPLINE
  5
5EC
100
AcDbEntity
  8
0
100
AcDbSpline
 62
7
  6
CONTINUOUS
 70
0
 71
3
 72
22
 73
18
 74
16
 42
0.0000001
 43
0.0000001
 44
0.0000000001
 12
-0.2267570078
 22
-0.0837289058
 32
0.0
 13
-0.241602901
 23
-0.0075702367
 33
0.0
 40
0.0
 40
0.0
 40
0.0
 40
0.0
 40
0.0052990725
 40
0.0126886063
 40
0.0221611363
 40
0.0336916579
 40
0.0627999221
 40
0.099742593
 40
0.1442320891
 40
0.1959752657
 40
0.2546733355
 40
0.3198912178
 40
0.3910082496
 40
0.4673898504
 40
0.6334067077
 40
0.8128315719
 40
1.0
 40
1.0
 40
1.0
 40
1.0
 10
4.2998376101
 20
3.9164798269
 30
0.0
 10
4.2994370762
 20
3.9163319317
 30
0.0
 10
4.2984466868
 20
3.9160666743
 30
0.0
 10
4.2966949661
 20
3.9157213608
 30
0.0
 10
4.2944332543
 20
3.9153724778
 30
0.0
 10
4.2904277525
 20
3.9148628564
 30
0.0
 10
4.2842055011
 20
3.9142523294
 30
0.0
 10
4.2753261903
 20
3.9135532262
 30
0.0
 10
4.2646185254
 20
3.912850073
 30
0.0
 10
4.2521551065
 20
3.912143141
 30
0.0
 10
4.2380192135
 20
3.9114351176
 30
0.0
 10
4.2223206046
 20
3.910726439
 30
0.0
 10
4.2051959066
 20
3.9100163717
 30
0.0
 10
4.1799535688
 20
3.9090412175
 30
0.0
 10
4.1459867615
 20
3.9078412438
 30
0.0
 10
4.1030953482
 20
3.9064352059
 30
0.0
 10
4.0735721188
 20
3.9055066656
 30
0.0
 10
4.0584986404
 20
3.9050343625
 30
0.0
 11
4.2998376101
 21
3.9164798269
 31
0.0
 11
4.2986076608
 21
3.9161221562
 31
0.0
 11
4.2968576282
 21
3.9157644854
 31
0.0
 11
4.2945960222
 21
3.9154068146
 31
0.0
 11
4.2918318923
 21
3.9150491439
 31
0.0
 11
4.2848322577
 21
3.9143338023
 31
0.0
 11
4.275931119
 21
3.9136184608
 31
0.0
 11
4.2652008704
 21
3.9129031193
 31
0.0
 11
4.2527139067
 21
3.9121877778
 31
0.0
 11
4.2385433669
 21
3.9114724362
 31
0.0
 11
4.2227950426
 21
3.9107570947
 31
0.0
 11
4.205619419
 21
3.9100417532
 31
0.0
 11
4.187170209
 21
3.9093264117
 31
0.0
 11
4.1470658808
 21
3.9078957286
 31
0.0
 11
4.1037186419
 21
3.9064650456
 31
0.0
 11
4.0584986404
 21
3.9050343625
 31
0.0
  0
SPLINE
  5
5ED
100
AcDbEntity
  8
0
100
AcDbSpline
 62
7
  6
CONTINUOUS
 70
0
 71
3
 72
11
 73
7
 74
5
 42
0.0000001
 43
0.0000001
 44
0.0000000001
 12
0.0000000144
 22
-0.0159533377
 32
0.0
 13
-0.0102962853
 23
-0.0121858727
 33
0.0
 40
0.0
 40
0.0
 40
0.0
 40
0.0
 40
0.2279962013
 40
0.4653651412
 40
0.7204494975
 40
1.0
 40
1.0
 40
1.0
 40
1.0
 10
8.6190759971
 20
6.78644374
 30
0.0
 10
8.6190759982
 20
6.7852313066
 30
0.0
 10
8.6188111794
 20
6.7827494719
 30
0.0
 10
8.6176349187
 20
6.7790795055
 30
0.0
 10
8.6156928571
 20
6.7754414362
 30
0.0
 10
8.6139830769
 20
6.7731570181
 30
0.0
 10
8.613023633
 20
6.7720214958
 30
0.0
 11
8.6190759971
 21
6.78644374
 31
0.0
 11
8.6186977044
 21
6.782826165
 31
0.0
 11
8.6175628213
 21
6.7792133963
 31
0.0
 11
8.6156713498
 21
6.7756102402
 31
0.0
 11
8.613023633
 21
6.7720214958
 31
0.0
  0
SPLINE
  5
5EE
100
AcDbEntity
  8
0
100
AcDbSpline
 62
7
  6
CONTINUOUS
 70
0
 71
3
 72
23
 73
19
 74
17
 42
0.0000001
 43
0.0000001
 44
0.0000000001
 12
-0.3739737847
 22
-0.4426059295
 32
0.0
 13
-0.5794449072
 23
0.0
 33
0.0
 40
0.0
 40
0.0
 40
0.0
 40
0.0
 40
0.0105289312
 40
0.0224401209
 40
0.0358418573
 40
0.050802337
 40
0.067363609
 40
0.0855463206
 40
0.1267467613
 40
0.174283368
 40
0.2279363562
 40
0.2873618824
 40
0.3521575865
 40
0.4218775634
 40
0.4959887383
 40
0.6551421749
 40
0.8249495139
 40
1.0
 40
1.0
 40
1.0
 40
1.0
 10
8.613023633
 20
6.7720214958
 30
0.0
 10
8.6117111182
 20
6.7704681067
 30
0.0
 10
8.6086457969
 20
6.7673813123
 30
0.0
 10
8.6032169249
 20
6.7630683873
 30
0.0
 10
8.5967001005
 20
6.7588044772
 30
0.0
 10
8.5891050605
 20
6.7545962305
 30
0.0
 10
8.5804410573
 20
6.7504498569
 30
0.0
 10
8.566908376
 20
6.7447779
 30
0.0
 10
8.5473771527
 20
6.7380090058
 30
0.0
 10
8.5208972309
 20
6.7305409065
 30
0.0
 10
8.4906747436
 20
6.7235006726
 30
0.0
 10
8.456944958
 20
6.7169383282
 30
0.0
 10
8.4199684841
 20
6.7109114556
 30
0.0
 10
8.380036831
 20
6.7054753111
 30
0.0
 10
8.3218812612
 20
6.6989091422
 30
0.0
 10
8.2442638813
 20
6.6925975494
 30
0.0
 10
8.1470058295
 20
6.6880506426
 30
0.0
 10
8.0803921155
 20
6.6870301201
 30
0.0
 10
8.0465814113
 20
6.6870301201
 30
0.0
 11
8.613023633
 21
6.7720214958
 31
0.0
 11
8.608761166
 21
6.7676565456
 31
0.0
 11
8.603384699
 21
6.7633287835
 31
0.0
 11
8.5969064068
 21
6.7590467542
 31
0.0
 11
8.5893384642
 21
6.7548190026
 31
0.0
 11
8.5806930494
 21
6.7506540734
 31
0.0
 11
8.5709850075
 21
6.7465603366
 31
0.0
 11
8.5484715464
 21
6.7386178805
 31
0.0
 11
8.5219855582
 21
6.731054092
 31
0.0
 11
8.4917237772
 21
6.7239303659
 31
0.0
 11
8.4579339805
 21
6.7173018297
 31
0.0
 11
8.420884112
 21
6.7112211331
 31
0.0
 11
8.3808590642
 21
6.705737931
 31
0.0
 11
8.3381898203
 21
6.7008937266
 31
0.0
 11
8.2462843812
 21
6.6932754436
 31
0.0
 11
8.1480012999
 21
6.6886048195
 31
0.0
 11
8.0465814113
 21
6.6870301201
 31
0.0
  0
SPLINE
  5
5EF
100
AcDbEntity
  8
0
100
AcDbSpline
 62
7
  6
CONTINUOUS
 70
0
 71
3
 72
9
 73
5
 74
3
 42
0.0000001
 43
0.0000001
 44
0.0000000001
 12
-0.0683601384
 22
-0.0124670146
 32
0.0
 13
-0.0676519101
 23
-0.0158667589
 33
0.0
 40
0.0
 40
0.0
 40
0.0
 40
0.0
 40
0.2619240919
 40
1.0
 40
1.0
 40
1.0
 40
1.0
 10
7.6368859928
 20
6.8826101511
 30
0.0
 10
7.6309176037
 20
6.8815216806
 30
0.0
 10
7.60815498
 20
6.877236201
 30
0.0
 10
7.5854886968
 20
6.8724298969
 30
0.0
 10
7.5688446151
 20
6.8685262727
 30
0.0
 11
7.6368859928
 21
6.8826101511
 31
0.0
 11
7.619000054
 21
6.8792410091
 31
0.0
 11
7.5688446151
 21
6.8685262727
 31
0.0
  0
SPLINE
  5
5F0
100
AcDbEntity
  8
0
100
AcDbSpline
 62
7
  6
CONTINUOUS
 70
0
 71
3
 72
14
 73
10
 74
8
 42
0.0000001
 43
0.0000001
 44
0.0000000001
 12
0.457572249
 22
0.0003797859
 32
0.0
 13
0.4514338958
 23
-0.0746990293
 33
0.0
 40
0.0
 40
0.0
 40
0.0
 40
0.0
 40
0.2733828982
 40
0.4070948776
 40
0.5371941334
 40
0.6625822204
 40
0.7822095155
 40
0.8950364862
 40
1.0
 40
1.0
 40
1.0
 40
1.0
 10
8.0465814112
 20
6.9040250052
 30
0.0
 10
8.0882788871
 20
6.9040596142
 30
0.0
 10
8.1503780893
 20
6.9030112938
 30
0.0
 10
8.2322434735
 20
6.8995731262
 30
0.0
 10
8.2915037989
 20
6.8960336639
 30
0.0
 10
8.3485441142
 20
6.8915321341
 30
0.0
 10
8.4028584773
 20
6.8861126002
 30
0.0
 10
8.453941485
 20
6.8798210799
 30
0.0
 10
8.4868002288
 20
6.8749114718
 30
0.0
 10
8.5025949248
 20
6.8722979143
 30
0.0
 11
8.0465814112
 21
6.9040250052
 31
0.0
 11
8.1716566605
 21
6.9019493754
 31
0.0
 11
8.2327850687
 21
6.8993674286
 31
0.0
 11
8.2922078071
 21
6.8957982866
 31
0.0
 11
8.3494022619
 21
6.8912612179
 31
0.0
 11
8.4038667026
 21
6.8857940722
 31
0.0
 11
8.4551015263
 21
6.8794466927
 31
0.0
 11
8.5025949248
 21
6.8722979143
 31
0.0
  0
SPLINE
  5
5F1
100
AcDbEntity
  8
0
100
AcDbSpline
 62
7
  6
CONTINUOUS
 70
0
 71
3
 72
15
 73
11
 74
9
 42
0.0000001
 43
0.0000001
 44
0.0000000001
 12
0.4718676342
 22
0.0858429478
 32
0.0
 13
0.4796122629
 23
0.000391334
 33
0.0
 40
0.0
 40
0.0
 40
0.0
 40
0.0
 40
0.1023360189
 40
0.2135373553
 40
0.3324225788
 40
0.4578322703
 40
0.5885910563
 40
0.7234590628
 40
0.8611173809
 40
1.0
 40
1.0
 40
1.0
 40
1.0
 10
7.5688446151
 20
6.8685262727
 30
0.0
 10
7.5849409668
 20
6.8714545479
 30
0.0
 10
7.6186430872
 20
6.87693998
 30
0.0
 10
7.6713305419
 20
6.8839406965
 30
0.0
 10
7.7278463437
 20
6.8899936704
 30
0.0
 10
7.78759818
 20
6.8950408974
 30
0.0
 10
7.8499904369
 20
6.899025854
 30
0.0
 10
7.9144038509
 20
6.9018979651
 30
0.0
 10
7.9801572831
 20
6.9036072101
 30
0.0
 10
8.0243687108
 20
6.9040022247
 30
0.0
 10
8.0465719799
 20
6.9040203412
 30
0.0
 11
7.5688446151
 21
6.8685262727
 31
0.0
 11
7.6172766388
 21
6.8764852354
 31
0.0
 11
7.6701385744
 21
6.8835621347
 31
0.0
 11
7.7268286689
 21
6.8896760667
 31
0.0
 11
7.7867607638
 21
6.8947683588
 31
0.0
 11
7.8493454498
 21
6.8987864348
 31
0.0
 11
7.9139650666
 21
6.9016800532
 31
0.0
 11
7.9799648983
 21
6.9034153123
 31
0.0
 11
8.0465719799
 21
6.9040203412
 31
0.0
  0
SPLINE
  5
5F2
100
AcDbEntity
  8
0
100
AcDbSpline
 62
7
  6
CONTINUOUS
 70
0
 71
3
 72
9
 73
5
 74
3
 42
0.0000001
 43
0.0000001
 44
0.0000000001
 12
0.0612284851
 22
-0.0091412343
 32
0.0
 13
0.0607156438
 23
-0.0120871894
 33
0.0
 40
0.0
 40
0.0
 40
0.0
 40
0.0
 40
0.5176518402
 40
1.0
 40
1.0
 40
1.0
 40
1.0
 10
8.5025488078
 20
6.8722900946
 30
0.0
 10
8.5131138205
 20
6.870712769
 30
0.0
 10
8.533493265
 20
6.8674593595
 30
0.0
 10
8.5537905122
 20
6.8637224568
 30
0.0
 10
8.5635525385
 20
6.8617790456
 30
0.0
 11
8.5025488078
 21
6.8722900946
 31
0.0
 11
8.5341907085
 21
6.8672149437
 31
0.0
 11
8.5635525385
 21
6.8617790456
 31
0.0
  0
SPLINE
  5
5F3
100
AcDbEntity
  8
0
100
AcDbSpline
 62
7
  6
CONTINUOUS
 70
0
 71
3
 72
12
 73
8
 74
6
 42
0.0000001
 43
0.0000001
 44
0.0000000001
 12
0.111293499
 22
-0.0221561613
 32
0.0
 13
0.1024648455
 23
-0.0487657036
 33
0.0
 40
0.0
 40
0.0
 40
0.0
 40
0.0
 40
0.3026523988
 40
0.5707531954
 40
0.8033583108
 40
0.9061899119
 40
1.0
 40
1.0
 40
1.0
 40
1.0
 10
8.5635525385
 20
6.8617790456
 30
0.0
 10
8.5747802867
 20
6.8595438405
 30
0.0
 10
8.5958882474
 20
6.8549787144
 30
0.0
 10
8.6252897055
 20
6.8472602528
 30
0.0
 10
8.6470360985
 20
6.8402504369
 30
0.0
 10
8.6621759252
 20
6.8343731015
 30
0.0
 10
8.6689845212
 20
6.8313689261
 30
0.0
 10
8.6721885999
 20
6.8298440211
 30
0.0
 11
8.5635525385
 21
6.8617790456
 31
0.0
 11
8.5971043571
 21
6.8544440809
 31
0.0
 11
8.6265074406
 21
6.8466311358
 31
0.0
 11
8.6515893129
 21
6.838408055
 31
0.0
 11
8.6624593654
 21
6.8341643333
 31
0.0
 11
8.6721885999
 21
6.8298440211
 31
0.0
  0
SPLINE
  5
5F4
100
AcDbEntity
  8
0
100
AcDbSpline
 62
7
  6
CONTINUOUS
 70
0
 71
3
 72
12
 73
8
 74
6
 42
0.0000001
 43
0.0000001
 44
0.0000000001
 12
-0.0086804435
 22
-0.0050188411
 32
0.0
 13
-0.0099712869
 23
-0.0010546584
 33
0.0
 40
0.0
 40
0.0
 40
0.0
 40
0.0
 40
0.0531836316
 40
0.1262115849
 40
0.3338612377
 40
0.6250750143
 40
1.0
 40
1.0
 40
1.0
 40
1.0
 10
4.3274622532
 20
3.9823904621
 30
0.0
 10
4.3273083674
 20
3.9823014887
 30
0.0
 10
4.326916953
 20
3.9821377252
 30
0.0
 10
4.3258485066
 20
3.9818153984
 30
0.0
 10
4.3239697525
 20
3.9814438788
 30
0.0
 10
4.3210809074
 20
3.981018909
 30
0.0
 10
4.3188682469
 20
3.9807658991
 30
0.0
 10
4.3176220854
 20
3.9806340932
 30
0.0
 11
4.3274622532
 21
3.9823904621
 31
0.0
 11
4.3269762763
 21
3.982170916
 31
0.0
 11
4.3262777196
 21
3.9819513699
 31
0.0
 11
4.3242424626
 21
3.9815122777
 31
0.0
 11
4.3213556922
 21
3.9810731854
 31
0.0
 11
4.3176220854
 21
3.9806340932
 31
0.0
  0
SPLINE
  5
5F5
100
AcDbEntity
  8
0
100
AcDbSpline
 62
7
  6
CONTINUOUS
 70
0
 71
3
 72
10
 73
6
 74
4
 42
0.0000001
 43
0.0000001
 44
0.0000000001
 12
-0.029774847
 22
-0.0031492717
 32
0.0
 13
-0.0298956204
 23
-0.0016466051
 33
0.0
 40
0.0
 40
0.0
 40
0.0
 40
0.0
 40
0.1910233302
 40
0.4221437325
 40
1.0
 40
1.0
 40
1.0
 40
1.0
 10
4.3176220854
 20
3.9806340932
 30
0.0
 10
4.3157261886
 20
3.9804335651
 30
0.0
 10
4.3115304941
 20
3.9800468495
 30
0.0
 10
4.3015792077
 20
3.9792840194
 30
0.0
 10
4.2935191886
 20
3.9788021992
 30
0.0
 10
4.2877607314
 20
3.9784850322
 30
0.0
 11
4.3176220854
 21
3.9806340932
 31
0.0
 11
4.3119279593
 21
3.980096828
 31
0.0
 11
4.3050288871
 21
3.9795595627
 31
0.0
 11
4.2877607314
 21
3.9784850322
 31
0.0
  0
SPLINE
  5
5F6
100
AcDbEntity
  8
0
100
AcDbSpline
 62
7
  6
CONTINUOUS
 70
0
 71
3
 72
16
 73
12
 74
10
 42
0.0000001
 43
0.0000001
 44
0.0000000001
 12
-0.4536513538
 22
-0.0249864239
 32
0.0
 13
-0.4539135915
 23
-0.019655117
 33
0.0
 40
0.0
 40
0.0
 40
0.0
 40
0.0
 40
0.0412202176
 40
0.089314186
 40
0.2031290918
 40
0.335130696
 40
0.478012374
 40
0.6238247309
 40
0.764531277
 40
0.8922309405
 40
1.0
 40
1.0
 40
1.0
 40
1.0
 10
4.2877607314
 20
3.9784850322
 30
0.0
 10
4.2815275289
 20
3.9781417169
 30
0.0
 10
4.2680174932
 20
3.9774742047
 30
0.0
 10
4.2372819775
 20
3.9761676748
 30
0.0
 10
4.1927977304
 20
3.9745933559
 30
0.0
 10
4.1339589002
 20
3.9727747303
 30
0.0
 10
4.0702722047
 20
3.9709495894
 30
0.0
 10
4.0052668085
 20
3.9691208924
 30
0.0
 10
3.9425613464
 20
3.9672983277
 30
0.0
 10
3.8856199518
 20
3.9654814536
 30
0.0
 10
3.849983165
 20
3.9641569141
 30
0.0
 10
3.8336772181
 20
3.963450843
 30
0.0
 11
4.2877607314
 21
3.9784850322
 31
0.0
 11
4.2690563684
 21
3.9775453953
 31
0.0
 11
4.2472256183
 21
3.9766057585
 31
0.0
 11
4.1955492344
 21
3.9747264849
 31
0.0
 11
4.1356052163
 21
3.9728472112
 31
0.0
 11
4.0707157135
 21
3.9709679376
 31
0.0
 11
4.0044941421
 21
3.9690886639
 31
0.0
 11
3.9405933071
 21
3.9672093903
 31
0.0
 11
3.8826048208
 21
3.9653301166
 31
0.0
 11
3.8336772181
 21
3.963450843
 31
0.0
  0
SPLINE
  5
5F7
100
AcDbEntity
  8
0
100
AcDbSpline
 62
7
  6
CONTINUOUS
 70
0
 71
3
 72
13
 73
9
 74
7
 42
0.0000001
 43
0.0000001
 44
0.0000000001
 12
-0.011452615
 22
-0.0064369098
 32
0.0
 13
-0.0130744694
 23
-0.0012862534
 33
0.0
 40
0.0
 40
0.0
 40
0.0
 40
0.0
 40
0.0516100161
 40
0.123849601
 40
0.2171475053
 40
0.3316082291
 40
0.623874124
 40
1.0
 40
1.0
 40
1.0
 40
1.0
 10
4.3003750016
 20
3.9667253938
 30
0.0
 10
4.3001779784
 20
3.9666146575
 30
0.0
 10
4.2996703501
 20
3.9664142507
 30
0.0
 10
4.2987557157
 20
3.9661547506
 30
0.0
 10
4.2975570048
 20
3.965892563
 30
0.0
 10
4.2954011397
 20
3.9655082279
 30
0.0
 10
4.2920025167
 20
3.9650487175
 30
0.0
 10
4.2890920334
 20
3.9647373634
 30
0.0
 10
4.287452818
 20
3.964576099
 30
0.0
 11
4.3003750016
 21
3.9667253938
 31
0.0
 11
4.2997524689
 21
3.966456732
 31
0.0
 11
4.298842236
 21
3.9661880701
 31
0.0
 11
4.2976463329
 21
3.9659194082
 31
0.0
 11
4.2961667897
 21
3.9656507464
 31
0.0
 11
4.2923649035
 21
3.9651134227
 31
0.0
 11
4.287452818
 21
3.964576099
 31
0.0
  0
SPLINE
  5
5F8
100
AcDbEntity
  8
0
100
AcDbSpline
 62
7
  6
CONTINUOUS
 70
0
 71
3
 72
18
 73
14
 74
12
 42
0.0000001
 43
0.0000001
 44
0.0000000001
 12
-0.4315560409
 22
-0.0424560586
 32
0.0
 13
-0.433142551
 23
-0.0207524427
 33
0.0
 40
0.0
 40
0.0
 40
0.0
 40
0.0
 40
0.029377345
 40
0.0679239919
 40
0.1148741082
 40
0.1693634417
 40
0.2305243609
 40
0.2973637146
 40
0.4431464432
 40
0.596669331
 40
0.7474372414
 40
0.8849571739
 40
1.0
 40
1.0
 40
1.0
 40
1.0
 10
4.287452818
 20
3.964576099
 30
0.0
 10
4.2832268278
 20
3.9641603502
 30
0.0
 10
4.2734370789
 20
3.9633947473
 30
0.0
 10
4.2568632444
 20
3.9623822663
 30
0.0
 10
4.2366542488
 20
3.961359636
 30
0.0
 10
4.2131734583
 20
3.9603294274
 30
0.0
 10
4.1868153918
 20
3.959296216
 30
0.0
 10
4.1472664771
 20
3.9578760003
 30
0.0
 10
4.0943695679
 20
3.9561499815
 30
0.0
 10
4.0293445536
 20
3.9541261761
 30
0.0
 10
3.9655141676
 20
3.9521085585
 30
0.0
 10
3.907248908
 20
3.9500965956
 30
0.0
 10
3.8707708191
 20
3.9486235217
 30
0.0
 10
3.8541608381
 20
3.9478277152
 30
0.0
 11
4.287452818
 21
3.964576099
 31
0.0
 11
4.274756723
 21
3.963529325
 31
0.0
 11
4.2580741865
 21
3.962482551
 31
0.0
 11
4.2377416936
 21
3.961435777
 31
0.0
 11
4.2141361694
 21
3.960389003
 31
0.0
 11
4.1876350501
 21
3.959342229
 31
0.0
 11
4.1586697811
 21
3.958295455
 31
0.0
 11
4.0954873207
 21
3.9562019071
 31
0.0
 11
4.0289466732
 21
3.9541083591
 31
0.0
 11
3.9636012944
 21
3.9520148111
 31
0.0
 11
3.9040039927
 21
3.9499212631
 31
0.0
 11
3.8541608381
 21
3.9478277152
 31
0.0
  0
SPLINE
  5
5F9
100
AcDbEntity
  8
0
100
AcDbSpline
 62
7
  6
CONTINUOUS
 70
0
 71
3
 72
12
 73
8
 74
6
 42
0.0000001
 43
0.0000001
 44
0.0000000001
 12
-0.0073654663
 22
-0.0042586388
 32
0.0
 13
-0.0084525126
 23
-0.0009701176
 33
0.0
 40
0.0
 40
0.0
 40
0.0
 40
0.0
 40
0.0559011544
 40
0.1309125961
 40
0.3401725772
 40
0.6297039315
 40
1.0
 40
1.0
 40
1.0
 40
1.0
 10
4.3274633395
 20
4.0323939155
 30
0.0
 10
4.3273260935
 20
4.0323145613
 30
0.0
 10
4.3269835802
 20
4.0321665154
 30
0.0
 10
4.3260635852
 20
4.0318751841
 30
0.0
 10
4.3244686901
 20
4.0315369226
 30
0.0
 10
4.3220347281
 20
4.0311505348
 30
0.0
 10
4.3201771972
 20
4.0309197597
 30
0.0
 10
4.3191338864
 20
4.0308000161
 30
0.0
 11
4.3274633395
 21
4.0323939155
 31
0.0
 11
4.3270314754
 21
4.0321946781
 31
0.0
 11
4.3264251747
 21
4.0319954407
 31
0.0
 11
4.3246899554
 21
4.0315969658
 31
0.0
 11
4.3222590648
 21
4.031198491
 31
0.0
 11
4.3191338864
 21
4.0308000161
 31
0.0
  0
SPLINE
  5
5FA
100
AcDbEntity
  8
0
100
AcDbSpline
 62
7
  6
CONTINUOUS
 70
0
 71
3
 72
9
 73
5
 74
3
 42
0.0000001
 43
0.0000001
 44
0.0000000001
 12
-0.0182886684
 22
-0.0020990397
 32
0.0
 13
-0.0183686359
 23
-0.0012143195
 33
0.0
 40
0.0
 40
0.0
 40
0.0
 40
0.0
 40
0.43348684
 40
1.0
 40
1.0
 40
1.0
 40
1.0
 10
4.3191338864
 20
4.0308000161
 30
0.0
 10
4.3164912541
 20
4.0304967141
 30
0.0
 10
4.3103794006
 20
4.0299367447
 30
0.0
 10
4.3042589013
 20
4.029496915
 30
0.0
 10
4.30079021
 20
4.0292676057
 30
0.0
 11
4.3191338864
 21
4.0308000161
 31
0.0
 11
4.3111908133
 21
4.0300338109
 31
0.0
 11
4.30079021
 21
4.0292676057
 31
0.0
  0
LINE
  5
5FB
100
AcDbEntity
  8
0
100
AcDbLine
 62
7
  6
CONTINUOUS
 10
4.30079021
 20
4.0292676057
 11
4.299772165
 21
4.02920089
  0
SPLINE
  5
5FC
100
AcDbEntity
  8
0
100
AcDbSpline
 62
7
  6
CONTINUOUS
 70
0
 71
3
 72
19
 73
15
 74
13
 42
0.0000001
 43
0.0000001
 44
0.0000000001
 12
-0.5074293524
 22
-0.0329670541
 32
0.0
 13
-0.5073593015
 23
-0.034028128
 33
0.0
 40
0.0
 40
0.0
 40
0.0
 40
0.0
 40
0.0388144089
 40
0.0867128232
 40
0.1428288399
 40
0.2059608807
 40
0.3482218645
 40
0.5023424256
 40
0.6561295755
 40
0.7974582678
 40
0.8598933888
 40
0.915203751
 40
0.9622053811
 40
1.0
 40
1.0
 40
1.0
 40
1.0
 10
4.299772165
 20
4.02920089
 30
0.0
 10
4.2932069748
 20
4.0287743577
 30
0.0
 10
4.2785308674
 20
4.0279653298
 30
0.0
 10
4.254346091
 20
4.0268698906
 30
0.0
 10
4.226035999
 20
4.0257702343
 30
0.0
 10
4.1817368485
 20
4.024234158
 30
0.0
 10
4.1208273061
 20
4.0223836498
 30
0.0
 10
4.0445543292
 20
4.0202276463
 30
0.0
 10
3.9684394521
 20
4.0180712592
 30
0.0
 10
3.9078627191
 20
4.0162204176
 30
0.0
 10
3.8639766037
 20
4.0146820402
 30
0.0
 10
3.8360734851
 20
4.0135827904
 30
0.0
 10
3.8123505218
 20
4.012489155
 30
0.0
 10
3.7979998169
 20
4.0116782372
 30
0.0
 10
3.7916079997
 20
4.0112495438
 30
0.0
 11
4.299772165
 21
4.02920089
 31
0.0
 11
4.2800669863
 21
4.0280789308
 31
0.0
 11
4.2557365387
 21
4.0269569717
 31
0.0
 11
4.2272236582
 21
4.0258350126
 31
0.0
 11
4.1951406815
 21
4.0247130534
 31
0.0
 11
4.1228359044
 21
4.0224691352
 31
0.0
 11
4.0444978627
 21
4.0202252169
 31
0.0
 11
3.9663294299
 21
4.0179812986
 31
0.0
 11
3.894498952
 21
4.0157373803
 31
0.0
 11
3.8627705775
 21
4.0146154212
 31
0.0
 11
3.8346676932
 21
4.0134934621
 31
0.0
 11
3.8107937535
 21
4.0123715029
 31
0.0
 11
3.7916079997
 21
4.0112495438
 31
0.0
  0
LINE
  5
5FD
100
AcDbEntity
  8
0
100
AcDbLine
 62
7
  6
CONTINUOUS
 10
3.7916079997
 20
4.0112495438
 11
3.777875931
 21
4.0101688255
  0
SPLINE
  5
5FE
100
AcDbEntity
  8
0
100
AcDbSpline
 62
7
  6
CONTINUOUS
 70
0
 71
3
 72
15
 73
11
 74
9
 42
0.0000001
 43
0.0000001
 44
0.0000000001
 12
-0.0128446646
 22
-0.0012283538
 32
0.0
 13
0.0000434613
 23
-0.0129031924
 33
0.0
 40
0.0
 40
0.0
 40
0.0
 40
0.0
 40
0.4264925272
 40
0.7334330586
 40
0.8420667581
 40
0.88532384
 40
0.9213236651
 40
0.9502390307
 40
0.9724073867
 40
1.0
 40
1.0
 40
1.0
 40
1.0
 10
3.777875931
 20
4.0101688255
 30
0.0
 10
3.7760498798
 20
4.0099941976
 30
0.0
 10
3.7729128026
 20
4.0096635067
 30
0.0
 10
3.769323717
 20
4.0091583617
 30
0.0
 10
3.7673908986
 20
4.0087557526
 30
0.0
 10
3.7666105317
 20
4.0085425101
 30
0.0
 10
3.7661695911
 20
4.0083971317
 30
0.0
 10
3.7658213351
 20
4.0082481835
 30
0.0
 10
3.7655348714
 20
4.0080876908
 30
0.0
 10
3.7653609786
 20
4.0079027952
 30
0.0
 10
3.7653613784
 20
4.0077841176
 30
0.0
 11
3.777875931
 21
4.0101688255
 31
0.0
 11
3.772405173
 21
4.0095726485
 31
0.0
 11
3.768489766
 21
4.0089764715
 31
0.0
 11
3.7671200986
 21
4.008678383
 31
0.0
 11
3.7665822085
 21
4.0085293388
 31
0.0
 11
3.7661422537
 21
4.0083802946
 31
0.0
 11
3.7658002136
 21
4.0082312503
 31
0.0
 11
3.765556068
 21
4.0080822061
 31
0.0
 11
3.7653613784
 21
4.0077841176
 31
0.0
  0
SPLINE
  5
5FF
100
AcDbEntity
  8
0
100
AcDbSpline
 62
7
  6
CONTINUOUS
 70
0
 71
3
 72
11
 73
7
 74
5
 42
0.0000001
 43
0.0000001
 44
0.0000000001
 12
-0.0044969936
 22
-0.0025858918
 32
0.0
 13
-0.0051276872
 23
-0.0007852466
 33
0.0
 40
0.0
 40
0.0
 40
0.0
 40
0.0
 40
0.1489641385
 40
0.3643428929
 40
0.6478228611
 40
1.0
 40
1.0
 40
1.0
 40
1.0
 10
4.3003553239
 20
4.0167289174
 30
0.0
 10
4.3001320269
 20
4.0166005157
 30
0.0
 10
4.2995391299
 20
4.0163734209
 30
0.0
 10
4.298458414
 20
4.0160813591
 30
0.0
 10
4.29701546
 20
4.0157861183
 30
0.0
 10
4.2959310694
 20
4.0156067137
 30
0.0
 10
4.295329118
 20
4.0155145318
 30
0.0
 11
4.3003553239
 21
4.0167289174
 31
0.0
 11
4.2996447144
 21
4.016425321
 31
0.0
 11
4.2985694838
 21
4.0161217246
 31
0.0
 11
4.2971306219
 21
4.0158181282
 31
0.0
 11
4.295329118
 21
4.0155145318
 31
0.0
  0
SPLINE
  5
600
100
AcDbEntity
  8
0
100
AcDbSpline
 62
7
  6
CONTINUOUS
 70
0
 71
3
 72
37
 73
33
 74
31
 42
0.0000001
 43
0.0000001
 44
0.0000000001
 12
-0.4980354301
 22
-0.0762684253
 32
0.0
 13
0.0000001259
 23
-0.503841406
 33
0.0
 40
0.0
 40
0.0
 40
0.0
 40
0.0
 40
0.0116228099
 40
0.0273289831
 40
0.0469697859
 40
0.0703402224
 40
0.0972328371
 40
0.1274391204
 40
0.1968924164
 40
0.2763298127
 40
0.3630171038
 40
0.4541431366
 40
0.5466262577
 40
0.6373230188
 40
0.7232171876
 40
0.7634822843
 40
0.8014931405
 40
0.8369006312
 40
0.8693975682
 40
0.8987535401
 40
0.9247467008
 40
0.9471558706
 40
0.9657611669
 40
0.9803665014
 40
0.986144119
 40
0.9909014064
 40
0.9946385474
 40
0.9961264377
 40
0.9973629198
 40
0.9983522916
 40
0.9991038039
 40
1.0
 40
1.0
 40
1.0
 40
1.0
 10
4.295329118
 20
4.0155145318
 30
0.0
 10
4.2933995943
 20
4.0152190473
 30
0.0
 10
4.288839424
 20
4.0146811392
 30
0.0
 10
4.2809826055
 20
4.0139751274
 30
0.0
 10
4.271146457
 20
4.0132625384
 30
0.0
 10
4.2594282323
 20
4.0125439363
 30
0.0
 10
4.2459327869
 20
4.0118224378
 30
0.0
 10
4.2247027558
 20
4.0108100766
 30
0.0
 10
4.1946488378
 20
4.0095794134
 30
0.0
 10
4.1551099045
 20
4.0081517898
 30
0.0
 10
4.111929127
 20
4.006718291
 30
0.0
 10
4.0665562901
 20
4.0052835311
 30
0.0
 10
4.0205097641
 20
4.0038481314
 30
0.0
 10
3.9753423377
 20
4.0024130145
 30
0.0
 10
3.9389423476
 20
4.0011941434
 30
0.0
 10
3.9113881849
 20
4.0002048433
 30
0.0
 10
3.8923091369
 20
3.9994796147
 30
0.0
 10
3.8745357034
 20
3.9987549997
 30
0.0
 10
3.8582171265
 20
3.9980305839
 30
0.0
 10
3.8434812753
 20
3.9973076911
 30
0.0
 10
3.830441806
 20
3.9965869589
 30
0.0
 10
3.8192106637
 20
3.9958701616
 30
0.0
 10
3.8098964549
 20
3.9951584444
 30
0.0
 10
3.8033772924
 20
3.9945341778
 30
0.0
 10
3.799186994
 20
3.9940136556
 30
0.0
 10
3.7968164149
 20
3.9936558742
 30
0.0
 10
3.7951689486
 20
3.9933433901
 30
0.0
 10
3.7941142808
 20
3.993082364
 30
0.0
 10
3.7935183384
 20
3.9929047325
 30
0.0
 10
3.7930455022
 20
3.9927222148
 30
0.0
 10
3.7926652673
 20
3.9925301639
 30
0.0
 10
3.7924183862
 20
3.9923041456
 30
0.0
 10
3.7924183863
 20
3.9921536321
 30
0.0
 11
4.295329118
 21
4.0155145318
 31
0.0
 11
4.2895187467
 21
4.0147845037
 31
0.0
 11
4.2816390715
 21
4.0140544755
 31
0.0
 11
4.2717701861
 21
4.0133244474
 31
0.0
 11
4.2600178445
 21
4.0125944193
 31
0.0
 11
4.2464879122
 21
4.0118643912
 31
0.0
 11
4.2312862549
 21
4.0111343631
 31
0.0
 11
4.1963232814
 21
4.0096743069
 31
0.0
 11
4.156326072
 21
4.0082142506
 31
0.0
 11
4.1126738361
 21
4.0067541944
 31
0.0
 11
4.0667839887
 21
4.0052941382
 31
0.0
 11
4.0202100431
 21
4.0038340819
 31
0.0
 11
3.9745365906
 21
4.0023740257
 31
0.0
 11
3.9312841881
 21
4.0009139695
 31
0.0
 11
3.9110101043
 21
4.0001839413
 31
0.0
 11
3.89187258
 21
3.9994539132
 31
0.0
 11
3.8740477633
 21
3.9987238851
 31
0.0
 11
3.8576907436
 21
3.997993857
 31
0.0
 11
3.8429180165
 21
3.9972638289
 31
0.0
 11
3.8298419485
 21
3.9965338008
 31
0.0
 11
3.8185749065
 21
3.9958037726
 31
0.0
 11
3.8092292573
 21
3.9950737445
 31
0.0
 11
3.8019067858
 21
3.9943437164
 31
0.0
 11
3.7990187583
 21
3.9939787024
 31
0.0
 11
3.796649796
 21
3.9936136883
 31
0.0
 11
3.7948025882
 21
3.9932486742
 31
0.0
 11
3.7940754828
 21
3.9930661672
 31
0.0
 11
3.7934798245
 21
3.9928836602
 31
0.0
 11
3.7930159495
 21
3.9927011532
 31
0.0
 11
3.792684194
 21
3.9925186461
 31
0.0
 11
3.7924183863
 21
3.9921536321
 31
0.0
  0
SPLINE
  5
601
100
AcDbEntity
  8
0
100
AcDbSpline
 62
7
  6
CONTINUOUS
 70
0
 71
3
 72
9
 73
5
 74
3
 42
0.0000001
 43
0.0000001
 44
0.0000000001
 12
0.0608683403
 22
-0.0093073796
 32
0.0
 13
0.0603213584
 23
-0.0123659165
 33
0.0
 40
0.0
 40
0.0
 40
0.0
 40
0.0
 40
0.2625444666
 40
1.0
 40
1.0
 40
1.0
 40
1.0
 10
8.5025949248
 20
6.8722979143
 30
0.0
 10
8.5079218068
 20
6.8714833806
 30
0.0
 10
8.5281931252
 20
6.8682648506
 30
0.0
 10
8.5483919403
 20
6.8645795954
 30
0.0
 10
8.5632200468
 20
6.8615398242
 30
0.0
 11
8.5025949248
 21
6.8722979143
 31
0.0
 11
8.5185610541
 21
6.869761195
 31
0.0
 11
8.5632200468
 21
6.8615398242
 31
0.0
  0
SPLINE
  5
602
100
AcDbEntity
  8
0
100
AcDbSpline
 62
7
  6
CONTINUOUS
 70
0
 71
3
 72
13
 73
9
 74
7
 42
0.0000001
 43
0.0000001
 44
0.0000000001
 12
0.1227423301
 22
-0.0251622551
 32
0.0
 13
0.1102219095
 23
-0.0595814513
 33
0.0
 40
0.0
 40
0.0
 40
0.0
 40
0.0
 40
0.3095436157
 40
0.5801992887
 40
0.7004754116
 40
0.810559227
 40
0.9103937943
 40
1.0
 40
1.0
 40
1.0
 40
1.0
 10
8.5632200468
 20
6.8615398242
 30
0.0
 10
8.5758847484
 20
6.8589435524
 30
0.0
 10
8.5995359154
 20
6.8536355189
 30
0.0
 10
8.6277627215
 20
6.8458821468
 30
0.0
 10
8.6476453732
 20
6.8393476425
 30
0.0
 10
8.6605767607
 20
6.8345440963
 30
0.0
 10
8.6720961406
 20
6.8296541659
 30
0.0
 10
8.679199339
 20
6.8261544328
 30
0.0
 10
8.6824915281
 20
6.8243748102
 30
0.0
 11
8.5632200468
 21
6.8615398242
 31
0.0
 11
8.601043978
 21
6.8529626531
 31
0.0
 11
8.6337078432
 21
6.8438477795
 31
0.0
 11
8.6480170862
 21
6.83912019
 31
0.0
 11
8.6609375064
 21
6.8342923506
 31
0.0
 11
8.6724388323
 21
6.8293741497
 31
0.0
 11
8.6824915281
 21
6.8243748102
 31
0.0
  0
SPLINE
  5
603
100
AcDbEntity
  8
0
100
AcDbSpline
 62
7
  6
CONTINUOUS
 70
0
 71
3
 72
15
 73
11
 74
9
 42
0.0000001
 43
0.0000001
 44
0.0000000001
 12
0.0
 22
-0.0118398701
 32
0.0
 13
-0.0117738677
 23
-0.0012484247
 33
0.0
 40
0.0
 40
0.0
 40
0.0
 40
0.0
 40
0.0295975589
 40
0.0525456596
 40
0.0821383028
 40
0.1624333361
 40
0.2716770392
 40
0.4101133131
 40
0.5777318535
 40
1.0
 40
1.0
 40
1.0
 40
1.0
 10
4.3007678095
 20
3.9546661075
 30
0.0
 10
4.3007678095
 20
3.9545492971
 30
0.0
 10
4.3006109804
 20
3.9543647267
 30
0.0
 10
4.3003407693
 20
3.9542000206
 30
0.0
 10
4.2998606564
 20
3.9539780699
 30
0.0
 10
4.2990336929
 20
3.9537248081
 30
0.0
 10
4.2977715106
 20
3.9534327045
 30
0.0
 10
4.2961585753
 20
3.9531401586
 30
0.0
 10
4.2933157867
 20
3.9527126369
 30
0.0
 10
4.2910025444
 20
3.9524449683
 30
0.0
 10
4.2893453013
 20
3.952269245
 30
0.0
 11
4.3007678095
 21
3.9546661075
 31
0.0
 11
4.3005860481
 21
3.9543664997
 31
0.0
 11
4.3003593742
 21
3.9542166958
 31
0.0
 11
4.3000426407
 21
3.9540668919
 31
0.0
 11
4.299140403
 21
3.9537672841
 31
0.0
 11
4.2978821505
 21
3.9534676763
 31
0.0
 11
4.2962706985
 21
3.9531680684
 31
0.0
 11
4.2943088626
 21
3.9528684606
 31
0.0
 11
4.2893453013
 21
3.952269245
 31
0.0
  0
SPLINE
  5
604
100
AcDbEntity
  8
0
100
AcDbSpline
 62
7
  6
CONTINUOUS
 70
0
 71
3
 72
18
 73
14
 74
12
 42
0.0000001
 43
0.0000001
 44
0.0000000001
 12
-0.4331136048
 22
-0.0459245641
 32
0.0
 13
-0.435042538
 23
-0.0208434736
 33
0.0
 40
0.0
 40
0.0
 40
0.0
 40
0.0
 40
0.0278890896
 40
0.0652096451
 40
0.1112324642
 40
0.1650678797
 40
0.225823097
 40
0.2925082455
 40
0.4386358473
 40
0.5931270597
 40
0.7451881677
 40
0.883991398
 40
1.0
 40
1.0
 40
1.0
 40
1.0
 10
4.2893453013
 20
3.952269245
 30
0.0
 10
4.28531892
 20
3.9518423136
 30
0.0
 10
4.2758817877
 20
3.9510655191
 30
0.0
 10
4.2597653358
 20
3.9500438509
 30
0.0
 10
4.2398759535
 20
3.9490118376
 30
0.0
 10
4.2165811943
 20
3.9479708322
 30
0.0
 10
4.1902841254
 20
3.9469262068
 30
0.0
 10
4.1505933893
 20
3.9454879936
 30
0.0
 10
4.0972964832
 20
3.943742072
 30
0.0
 10
4.0316080595
 20
3.9416964581
 30
0.0
 10
3.9669831902
 20
3.9396571271
 30
0.0
 10
3.9079482255
 20
3.9376234741
 30
0.0
 10
3.8709837303
 20
3.9361337226
 30
0.0
 10
3.8541608381
 20
3.9353277152
 30
0.0
 11
4.2893453013
 21
3.952269245
 31
0.0
 11
4.2772446814
 21
3.9512103994
 31
0.0
 11
4.2610245519
 21
3.9501515538
 31
0.0
 11
4.2410076866
 21
3.9490927082
 31
0.0
 11
4.217584045
 21
3.9480338625
 31
0.0
 11
4.1911438154
 21
3.9469750169
 31
0.0
 11
4.1621189683
 21
3.9459161713
 31
0.0
 11
4.0985095645
 21
3.9437984801
 31
0.0
 11
4.0312555517
 21
3.9416807888
 31
0.0
 11
3.9650604834
 21
3.9395630976
 31
0.0
 11
3.9046430085
 21
3.9374454064
 31
0.0
 11
3.8541608381
 21
3.9353277152
 31
0.0
  0
SPLINE
  5
605
100
AcDbEntity
  8
0
100
AcDbSpline
 62
7
  6
CONTINUOUS
 70
0
 71
3
 72
13
 73
9
 74
7
 42
0.0000001
 43
0.0000001
 44
0.0000000001
 12
0.0
 22
-0.0055466079
 32
0.0
 13
-0.0054800118
 23
-0.0008569302
 33
0.0
 40
0.0
 40
0.0
 40
0.0
 40
0.0
 40
0.0935560523
 40
0.1753379224
 40
0.2840330769
 40
0.4205302394
 40
0.5852408247
 40
1.0
 40
1.0
 40
1.0
 40
1.0
 10
4.3007360423
 20
4.0046664801
 30
0.0
 10
4.3007360423
 20
4.0044935071
 30
0.0
 10
4.3004225927
 20
4.0042445867
 30
0.0
 10
4.2999677523
 20
4.0040361094
 30
0.0
 10
4.2993876914
 20
4.0038337886
 30
0.0
 10
4.2986588145
 20
4.0036373842
 30
0.0
 10
4.2973652411
 20
4.0033478773
 30
0.0
 10
4.2963092261
 20
4.0031674313
 30
0.0
 10
4.2955515977
 20
4.0030489581
 30
0.0
 11
4.3007360423
 21
4.0046664801
 31
0.0
 11
4.3004108453
 21
4.0042620996
 31
0.0
 11
4.3000047875
 21
4.0040599093
 31
0.0
 11
4.2994368132
 21
4.0038577191
 31
0.0
 11
4.2987072149
 21
4.0036555288
 31
0.0
 11
4.2978162846
 21
4.0034533386
 31
0.0
 11
4.2955515977
 21
4.0030489581
 31
0.0
  0
SPLINE
  5
606
100
AcDbEntity
  8
0
100
AcDbSpline
 62
7
  6
CONTINUOUS
 70
0
 71
3
 72
30
 73
26
 74
24
 42
0.0000001
 43
0.0000001
 44
0.0000000001
 12
-0.4953864439
 22
-0.0774654505
 32
0.0
 13
-0.4884123268
 23
-0.1134108631
 33
0.0
 40
0.0
 40
0.0
 40
0.0
 40
0.0
 40
0.0108794068
 40
0.0255075241
 40
0.0437665675
 40
0.0654781185
 40
0.0904608842
 40
0.1185325467
 40
0.183187443
 40
0.2574910131
 40
0.3390627661
 40
0.4254837338
 40
0.5141230127
 40
0.6022290464
 40
0.6870850759
 40
0.7661736908
 40
0.8370464169
 40
0.8974403886
 40
0.923177938
 40
0.9456839779
 40
0.964765646
 40
0.9802354634
 40
0.9919867785
 40
0.9964607764
 40
1.0
 40
1.0
 40
1.0
 40
1.0
 10
4.2955515977
 20
4.0030489581
 30
0.0
 10
4.2937550942
 20
4.0027680321
 30
0.0
 10
4.2895210857
 20
4.0022544426
 30
0.0
 10
4.2822372835
 20
4.0015793828
 30
0.0
 10
4.2731368534
 20
4.00089851
 30
0.0
 10
4.2623024736
 20
4.0002120389
 30
0.0
 10
4.2498253181
 20
3.9995228735
 30
0.0
 10
4.2301756406
 20
3.9985552174
 30
0.0
 10
4.202283537
 20
3.9973774458
 30
0.0
 10
4.165450283
 20
3.9960134852
 30
0.0
 10
4.1249771011
 20
3.994643173
 30
0.0
 10
4.0821067154
 20
3.9932710733
 30
0.0
 10
4.0381437037
 20
3.9918982589
 30
0.0
 10
3.994442367
 20
3.9905256659
 30
0.0
 10
3.9523380759
 20
3.9891535405
 30
0.0
 10
3.9131155175
 20
3.9877858196
 30
0.0
 10
3.8779839203
 20
3.9864249241
 30
0.0
 10
3.8517691704
 20
3.9852433408
 30
0.0
 10
3.8336378593
 20
3.9842714089
 30
0.0
 10
3.8224063326
 20
3.9835841732
 30
0.0
 10
3.8128939953
 20
3.9829023689
 30
0.0
 10
3.8051848039
 20
3.9822243742
 30
0.0
 10
3.7999192406
 20
3.9816294971
 30
0.0
 10
3.796653939
 20
3.9811274815
 30
0.0
 10
3.7953382319
 20
3.9808730926
 30
0.0
 10
3.7947620317
 20
3.9807392971
 30
0.0
 11
4.2955515977
 21
4.0030489581
 31
0.0
 11
4.2901413256
 21
4.0023517812
 31
0.0
 11
4.2828398998
 21
4.0016546043
 31
0.0
 11
4.273711278
 21
4.0009574274
 31
0.0
 11
4.2628473092
 21
4.0002602505
 31
0.0
 11
4.2503402005
 21
3.9995630736
 31
0.0
 11
4.2362821592
 21
3.9988658967
 31
0.0
 11
4.2038937648
 21
3.9974715429
 31
0.0
 11
4.1666635626
 21
3.996077189
 31
0.0
 11
4.125786718
 21
3.9946828352
 31
0.0
 11
4.0824771103
 21
3.9932884814
 31
0.0
 11
4.0380546647
 21
3.9918941276
 31
0.0
 11
3.9938997242
 21
3.9904997738
 31
0.0
 11
3.951375201
 21
3.98910542
 31
0.0
 11
3.9117441653
 21
3.9877110662
 31
0.0
 11
3.8762354755
 21
3.9863167123
 31
0.0
 11
3.8459856558
 21
3.9849223585
 31
0.0
 11
3.8330995233
 21
3.9842251816
 31
0.0
 11
3.821836402
 21
3.9835280047
 31
0.0
 11
3.8122941615
 21
3.9828308278
 31
0.0
 11
3.8045688873
 21
3.9821336509
 31
0.0
 11
3.798718091
 21
3.981436474
 31
0.0
 11
3.796502048
 21
3.9810878855
 31
0.0
 11
3.7947620317
 21
3.9807392971
 31
0.0
  0
LINE
  5
607
100
AcDbEntity
  8
0
100
AcDbLine
 62
7
  6
CONTINUOUS
 10
3.7947620317
 20
3.9807392971
 11
3.7927940068
 21
3.980087612
  0
SPLINE
  5
608
100
AcDbEntity
  8
0
100
AcDbSpline
 62
7
  6
CONTINUOUS
 70
0
 71
3
 72
9
 73
5
 74
3
 42
0.0000001
 43
0.0000001
 44
0.0000000001
 12
-0.0648394423
 22
0.0627805306
 32
0.0
 13
-0.0747397288
 23
0.0505917112
 33
0.0
 40
0.0
 40
0.0
 40
0.0
 40
0.0
 40
0.5114570287
 40
1.0
 40
1.0
 40
1.0
 40
1.0
 10
11.6236985805
 20
2.6015379502
 30
0.0
 10
11.6126443844
 20
2.6122411314
 30
0.0
 10
11.5903655422
 20
2.6324979943
 30
0.0
 10
11.5664142528
 20
2.6507992086
 30
0.0
 10
11.5542430631
 20
2.6590379502
 30
0.0
 11
11.6236985805
 21
2.6015379502
 31
0.0
 11
11.5894175509
 21
2.6324505864
 31
0.0
 11
11.5542430631
 21
2.6590379502
 31
0.0
  0
SPLINE
  5
609
100
AcDbEntity
  8
0
100
AcDbSpline
 62
7
  6
CONTINUOUS
 70
0
 71
3
 72
10
 73
6
 74
4
 42
0.0000001
 43
0.0000001
 44
0.0000000001
 12
-0.1424875064
 22
-0.0482257696
 32
0.0
 13
-0.1353953127
 23
-0.0655478729
 33
0.0
 40
0.0
 40
0.0
 40
0.0
 40
0.0
 40
0.2500069186
 40
0.6250019167
 40
1.0
 40
1.0
 40
1.0
 40
1.0
 10
11.7885116533
 20
2.6590379502
 30
0.0
 10
11.7766373658
 20
2.6550190249
 30
0.0
 10
11.7471339779
 20
2.6444285494
 30
0.0
 10
11.7006915597
 20
2.6254727603
 30
0.0
 10
11.6665249459
 20
2.6097313924
 30
0.0
 10
11.6496006183
 20
2.6015379502
 30
0.0
 11
11.7885116533
 21
2.6590379502
 31
0.0
 11
11.7531103644
 21
2.6463453175
 31
0.0
 11
11.7008579212
 21
2.6250916576
 31
0.0
 11
11.6496006183
 21
2.6015379502
 31
0.0
  0
SPLINE
  5
60A
100
AcDbEntity
  8
0
100
AcDbSpline
 62
7
  6
CONTINUOUS
 70
0
 71
3
 72
11
 73
7
 74
5
 42
0.0000001
 43
0.0000001
 44
0.0000000001
 12
-0.1354027692
 22
0.0655433335
 32
0.0
 13
-0.1424920008
 23
0.0482272555
 33
0.0
 40
0.0
 40
0.0
 40
0.0
 40
0.0
 40
0.2499976345
 40
0.5000001654
 40
0.7500012957
 40
1.0
 40
1.0
 40
1.0
 40
1.0
 10
12.4435622042
 20
2.6015379502
 30
0.0
 10
12.4322787469
 20
2.606999843
 30
0.0
 10
12.4095668994
 20
2.6176278108
 30
0.0
 10
12.3750720826
 20
2.6326232846
 30
0.0
 10
12.3401295261
 20
2.6465472016
 30
0.0
 10
12.3165254411
 20
2.6550190331
 30
0.0
 10
12.3046511693
 20
2.6590379502
 30
0.0
 11
12.4435622042
 21
2.6015379502
 31
0.0
 11
12.409495957
 21
2.61746996
 31
0.0
 11
12.3749974024
 21
2.6324447145
 31
0.0
 11
12.3400521302
 21
2.6463445578
 31
0.0
 11
12.3046511693
 21
2.6590379502
 31
0.0
  0
SPLINE
  5
60B
100
AcDbEntity
  8
0
100
AcDbSpline
 62
7
  6
CONTINUOUS
 70
0
 71
3
 72
10
 73
6
 74
4
 42
0.0000001
 43
0.0000001
 44
0.0000000001
 12
-0.0747515235
 22
-0.0505996265
 32
0.0
 13
-0.0648442841
 23
-0.0627959496
 33
0.0
 40
0.0
 40
0.0
 40
0.0
 40
0.0
 40
0.2412993756
 40
0.4885622432
 40
1.0
 40
1.0
 40
1.0
 40
1.0
 10
12.5389197595
 20
2.6590379502
 30
0.0
 10
12.5329072608
 20
2.6549680641
 30
0.0
 10
12.520967041
 20
2.646378778
 30
0.0
 10
12.4974200096
 20
2.627633436
 30
0.0
 10
12.4805188471
 20
2.6122433567
 30
0.0
 10
12.469464242
 20
2.6015379502
 30
0.0
 11
12.5389197595
 21
2.6590379502
 31
0.0
 11
12.5212191483
 21
2.6463448269
 31
0.0
 11
12.5037429316
 21
2.6324614306
 31
0.0
 11
12.469464242
 21
2.6015379502
 31
0.0
  0
SPLINE
  5
60C
100
AcDbEntity
  8
0
100
AcDbSpline
 62
7
  6
CONTINUOUS
 70
0
 71
3
 72
10
 73
6
 74
4
 42
0.0000001
 43
0.0000001
 44
0.0000000001
 12
-0.0000000215
 22
-0.0016098383
 32
0.0
 13
-0.0015393162
 23
-0.0004712589
 33
0.0
 40
0.0
 40
0.0
 40
0.0
 40
0.0
 40
0.3274781255
 40
0.6157538498
 40
1.0
 40
1.0
 40
1.0
 40
1.0
 10
4.3007347747
 20
4.054655551
 30
0.0
 10
4.3007347724
 20
4.0544798221
 30
0.0
 10
4.3004120319
 20
4.0542282019
 30
0.0
 10
4.2999471606
 20
4.0540184644
 30
0.0
 10
4.299598468
 20
4.0538984558
 30
0.0
 10
4.2994013092
 20
4.053838096
 30
0.0
 11
4.3007347747
 21
4.054655551
 31
0.0
 11
4.3004018066
 21
4.0542468235
 31
0.0
 11
4.2999851495
 21
4.0540424597
 31
0.0
 11
4.2994013092
 21
4.053838096
 31
0.0
  0
SPLINE
  5
60D
100
AcDbEntity
  8
0
100
AcDbSpline
 62
7
  6
CONTINUOUS
 70
0
 71
3
 72
12
 73
8
 74
6
 42
0.0000001
 43
0.0000001
 44
0.0000000001
 12
-0.0186920993
 22
-0.0057225534
 32
0.0
 13
-0.0194875377
 23
-0.0015420989
 33
0.0
 40
0.0
 40
0.0
 40
0.0
 40
0.0
 40
0.0616610198
 40
0.1415572692
 40
0.3563808232
 40
0.6432371716
 40
1.0
 40
1.0
 40
1.0
 40
1.0
 10
4.2994013092
 20
4.053838096
 30
0.0
 10
4.2990171179
 20
4.0537204765
 30
0.0
 10
4.2981205515
 20
4.0534989758
 30
0.0
 10
4.2958393798
 20
4.0530624148
 30
0.0
 10
4.2920823012
 20
4.0525507034
 30
0.0
 10
4.2865193608
 20
4.0519649322
 30
0.0
 10
4.2823401273
 20
4.0516097944
 30
0.0
 10
4.2800226509
 20
4.0514264065
 30
0.0
 11
4.2994013092
 21
4.053838096
 31
0.0
 11
4.2982342373
 21
4.0535366348
 31
0.0
 11
4.2967017584
 21
4.0532351736
 31
0.0
 11
4.2925457957
 21
4.0526322512
 31
0.0
 11
4.2869707035
 21
4.0520293289
 31
0.0
 11
4.2800226509
 21
4.0514264065
 31
0.0
  0
SPLINE
  5
60E
100
AcDbEntity
  8
0
100
AcDbSpline
 62
7
  6
CONTINUOUS
 70
0
 71
3
 72
9
 73
5
 74
3
 42
0.0000001
 43
0.0000001
 44
0.0000000001
 12
-0.0405477424
 22
-0.003208647
 32
0.0
 13
-0.0406276586
 23
-0.0019514577
 33
0.0
 40
0.0
 40
0.0
 40
0.0
 40
0.0
 40
0.4394094217
 40
1.0
 40
1.0
 40
1.0
 40
1.0
 10
4.2800226509
 20
4.0514264065
 30
0.0
 10
4.2740836309
 20
4.0509564366
 30
0.0
 10
4.2605526926
 20
4.0500807029
 30
0.0
 10
4.247012624
 20
4.04937917
 30
0.0
 10
4.2394207964
 20
4.0490145137
 30
0.0
 11
4.2800226509
 21
4.0514264065
 31
0.0
 11
4.2621906245
 21
4.0502204601
 31
0.0
 11
4.2394207964
 21
4.0490145137
 31
0.0
  0
LINE
  5
60F
100
AcDbEntity
  8
0
100
AcDbLine
 62
7
  6
CONTINUOUS
 10
4.1936336929
 20
4.0470712118
 11
4.1807215787
 21
4.046585623
  0
LINE
  5
610
100
AcDbEntity
  8
0
100
AcDbLine
 62
7
  6
CONTINUOUS
 10
4.1807215787
 20
4.046585623
 11
4.1779322304
 21
4.0464831619
  0
SPLINE
  5
611
100
AcDbEntity
  8
0
100
AcDbSpline
 62
7
  6
CONTINUOUS
 70
0
 71
3
 72
17
 73
13
 74
11
 42
0.0000001
 43
0.0000001
 44
0.0000000001
 12
-0.3739127733
 22
-0.0136815742
 32
0.0
 13
-0.3721245055
 23
-0.0390038452
 33
0.0
 40
0.0
 40
0.0
 40
0.0
 40
0.0
 40
0.1394471408
 40
0.2897573861
 40
0.4431439125
 40
0.5918593795
 40
0.728376781
 40
0.8455794177
 40
0.8951402101
 40
0.9377840486
 40
0.9728678355
 40
1.0
 40
1.0
 40
1.0
 40
1.0
 10
4.1779322304
 20
4.0464831619
 30
0.0
 10
4.1605518747
 20
4.0458472097
 30
0.0
 10
4.1244338888
 20
4.0446170246
 30
0.0
 10
4.0691923306
 20
4.0428644863
 30
0.0
 10
4.0127943522
 20
4.0411087662
 30
0.0
 10
3.9581173458
 20
4.0393559693
 30
0.0
 10
3.9079554438
 20
4.0376124469
 30
0.0
 10
3.8701597206
 20
4.0360998325
 30
0.0
 10
3.8440722287
 20
4.0348461279
 30
0.0
 10
3.8282208203
 20
4.0339654562
 30
0.0
 10
3.8151717996
 20
4.0330897817
 30
0.0
 10
3.8074389443
 20
4.0324318933
 30
0.0
 10
3.8040734299
 20
4.0320791403
 30
0.0
 11
4.1779322304
 21
4.0464831619
 31
0.0
 11
4.1257873458
 21
4.0446826592
 31
0.0
 11
4.0695756424
 21
4.0428821565
 31
0.0
 11
4.01221233
 21
4.0410816538
 31
0.0
 11
3.956597643
 21
4.0392811511
 31
0.0
 11
3.9055496257
 21
4.0374806484
 31
0.0
 11
3.861733714
 21
4.0356801457
 31
0.0
 11
3.8432117647
 21
4.0347798944
 31
0.0
 11
3.8272814354
 21
4.033879643
 31
0.0
 11
3.8141852865
 21
4.0329793917
 31
0.0
 11
3.8040734299
 21
4.0320791403
 31
0.0
  0
SPLINE
  5
612
100
AcDbEntity
  8
0
100
AcDbSpline
 62
7
  6
CONTINUOUS
 70
0
 71
3
 72
12
 73
8
 74
6
 42
0.0000001
 43
0.0000001
 44
0.0000000001
 12
-0.0114601345
 22
-0.0012011821
 32
0.0
 13
-0.0099755238
 23
-0.0057677072
 33
0.0
 40
0.0
 40
0.0
 40
0.0
 40
0.0
 40
0.3739698155
 40
0.6655438504
 40
0.8739830933
 40
0.947120565
 40
1.0
 40
1.0
 40
1.0
 40
1.0
 10
3.8040734299
 20
4.0320791403
 30
0.0
 10
3.8026448484
 20
4.0319294051
 30
0.0
 10
3.8001040354
 20
4.0316415413
 30
0.0
 10
3.7967826032
 20
4.0311593257
 30
0.0
 10
3.7946173324
 20
4.0307389463
 30
0.0
 10
3.7933857481
 20
4.0303734736
 30
0.0
 10
3.7929356028
 20
4.0301876465
 30
0.0
 10
3.7927597695
 20
4.0300859822
 30
0.0
 11
3.8040734299
 21
4.0320791403
 31
0.0
 11
3.7997931146
 21
4.0315808508
 31
0.0
 11
3.7964704886
 21
4.0310825613
 31
0.0
 11
3.794120918
 21
4.0305842717
 31
0.0
 11
3.7933158306
 21
4.030335127
 31
0.0
 11
3.7927597695
 21
4.0300859822
 31
0.0
  0
SPLINE
  5
613
100
AcDbEntity
  8
0
100
AcDbSpline
 62
7
  6
CONTINUOUS
 70
0
 71
3
 72
9
 73
5
 74
3
 42
0.0000001
 43
0.0000001
 44
0.0000000001
 12
-0.004509421
 22
0.0092271878
 32
0.0
 13
-0.0000004546
 23
0.0102701447
 33
0.0
 40
0.0
 40
0.0
 40
0.0
 40
0.0
 40
0.5129666701
 40
1.0
 40
1.0
 40
1.0
 40
1.0
 10
7.3636821246
 20
6.7786504823
 30
0.0
 10
7.3629110638
 20
6.7802282289
 30
0.0
 10
7.3617071139
 20
6.783464567
 30
0.0
 10
7.3612741208
 20
6.7868983696
 30
0.0
 10
7.361274047
 20
6.7885656705
 30
0.0
 11
7.3636821246
 21
6.7786504823
 31
0.0
 11
7.361878757
 21
6.7836004558
 31
0.0
 11
7.361274047
 21
6.7885656705
 31
0.0
  0
SPLINE
  5
614
100
AcDbEntity
  8
0
100
AcDbSpline
 62
7
  6
CONTINUOUS
 70
0
 71
3
 72
9
 73
5
 74
3
 42
0.0000001
 43
0.0000001
 44
0.0000000001
 12
0.1088985618
 22
-0.0123400417
 32
0.0
 13
0.1092663658
 23
-0.008487325
 33
0.0
 40
0.0
 40
0.0
 40
0.0
 40
0.0
 40
0.2441073159
 40
1.0
 40
1.0
 40
1.0
 40
1.0
 10
7.7675981562
 20
6.6835911125
 30
0.0
 10
7.7764591347
 20
6.6825870144
 30
0.0
 10
7.8127805905
 20
6.6786675381
 30
0.0
 10
7.8491759199
 20
6.6754500742
 30
0.0
 10
7.8767071354
 20
6.6733115719
 30
0.0
 11
7.7675981562
 21
6.6835911125
 31
0.0
 11
7.7941962029
 21
6.6807153005
 31
0.0
 11
7.8767071354
 21
6.6733115719
 31
0.0
  0
SPLINE
  5
615
100
AcDbEntity
  8
0
100
AcDbSpline
 62
7
  6
CONTINUOUS
 70
0
 71
3
 72
9
 73
5
 74
3
 42
0.0000001
 43
0.0000001
 44
0.0000000001
 12
-0.0205113457
 22
0.0088163728
 32
0.0
 13
-0.0195809267
 23
0.0107252524
 33
0.0
 40
0.0
 40
0.0
 40
0.0
 40
0.0
 40
0.2656517563
 40
1.0
 40
1.0
 40
1.0
 40
1.0
 10
7.4178424013
 20
6.7484003163
 30
0.0
 10
7.4160261096
 20
6.7491810112
 30
0.0
 10
7.4092188612
 20
6.7521877393
 30
0.0
 10
7.4025328417
 20
6.7554768637
 30
0.0
 10
7.3977397687
 20
6.7581022205
 30
0.0
 11
7.4178424013
 21
6.7484003163
 31
0.0
 11
7.4124179498
 21
6.7507984254
 31
0.0
 11
7.3977397687
 21
6.7581022205
 31
0.0
  0
SPLINE
  5
616
100
AcDbEntity
  8
0
100
AcDbSpline
 62
7
  6
CONTINUOUS
 70
0
 71
3
 72
9
 73
5
 74
3
 42
0.0000001
 43
0.0000001
 44
0.0000000001
 12
-0.0273573069
 22
0.0149846852
 32
0.0
 13
-0.0219019225
 23
0.0222096561
 33
0.0
 40
0.0
 40
0.0
 40
0.0
 40
0.0
 40
0.5448819767
 40
1.0
 40
1.0
 40
1.0
 40
1.0
 10
7.3977397687
 20
6.7581022205
 30
0.0
 10
7.3927709342
 20
6.7608238488
 30
0.0
 10
7.3838669768
 20
6.7662315576
 30
0.0
 10
7.3757536617
 20
6.7728306232
 30
0.0
 10
7.3724310085
 20
6.7761999614
 30
0.0
 11
7.3977397687
 21
6.7581022205
 31
0.0
 11
7.3833024612
 21
6.7670706844
 31
0.0
 11
7.3724310085
 21
6.7761999614
 31
0.0
  0
SPLINE
  5
617
100
AcDbEntity
  8
0
100
AcDbSpline
 62
7
  6
CONTINUOUS
 70
0
 71
3
 72
9
 73
5
 74
3
 42
0.0000001
 43
0.0000001
 44
0.0000000001
 12
-0.0124544383
 22
0.0134761625
 32
0.0
 13
-0.0042943302
 23
0.0178403676
 33
0.0
 40
0.0
 40
0.0
 40
0.0
 40
0.0
 40
0.5349530185
 40
1.0
 40
1.0
 40
1.0
 40
1.0
 10
7.3710915413
 20
6.7776023401
 30
0.0
 10
7.3688706948
 20
6.780005378
 30
0.0
 10
7.365072601
 20
6.7848620264
 30
0.0
 10
7.3626096693
 20
6.7905729007
 30
0.0
 10
7.3619439808
 20
6.7933384371
 30
0.0
 11
7.3710915413
 21
6.7776023401
 31
0.0
 11
7.365189181
 21
6.7854459933
 31
0.0
 11
7.3619439808
 21
6.7933384371
 31
0.0
  0
SPLINE
  5
618
100
AcDbEntity
  8
0
100
AcDbSpline
 62
7
  6
CONTINUOUS
 70
0
 71
3
 72
11
 73
7
 74
5
 42
0.0000001
 43
0.0000001
 44
0.0000000001
 12
0.0158669734
 22
-0.0324670382
 32
0.0
 13
0.0312285861
 23
-0.0181836417
 33
0.0
 40
0.0
 40
0.0
 40
0.0
 40
0.0
 40
0.1999346813
 40
0.4300729245
 40
0.6956722565
 40
1.0
 40
1.0
 40
1.0
 40
1.0
 10
7.3636821246
 20
6.7786504823
 30
0.0
 10
7.3647395774
 20
6.7764867199
 30
0.0
 10
7.3676101455
 20
6.772118202
 30
0.0
 10
7.3734303257
 20
6.7660475885
 30
0.0
 10
7.3810021596
 20
6.7600484639
 30
0.0
 10
7.386807937
 20
6.7563644198
 30
0.0
 10
7.3899758454
 20
6.7545198242
 30
0.0
 11
7.3636821246
 21
6.7786504823
 31
0.0
 11
7.3675657828
 21
6.7725580392
 31
0.0
 11
7.3732509304
 21
6.766488224
 31
0.0
 11
7.3807251052
 21
6.7604668734
 31
0.0
 11
7.3899758454
 21
6.7545198242
 31
0.0
  0
SPLINE
  5
619
100
AcDbEntity
  8
0
100
AcDbSpline
 62
7
  6
CONTINUOUS
 70
0
 71
3
 72
19
 73
15
 74
13
 42
0.0000001
 43
0.0000001
 44
0.0000000001
 12
0.4314901831
 22
-0.2384629302
 32
0.0
 13
0.4925134508
 23
-0.0218825956
 33
0.0
 40
0.0
 40
0.0
 40
0.0
 40
0.0
 40
0.0325278015
 40
0.069667
 40
0.1114148374
 40
0.1577148834
 40
0.2084457832
 40
0.2634584054
 40
0.3225879707
 40
0.3856255023
 40
0.5224733372
 40
0.6720227462
 40
0.832098361
 40
1.0
 40
1.0
 40
1.0
 40
1.0
 10
7.3928783666
 20
6.7528737869
 30
0.0
 10
7.3975568423
 20
6.7502882286
 30
0.0
 10
7.4078543802
 20
6.7452498068
 30
0.0
 10
7.4248277716
 20
6.7383593766
 30
0.0
 10
7.4442882933
 20
6.7316616665
 30
0.0
 10
7.4661607689
 20
6.7251836379
 30
0.0
 10
7.4903610596
 20
6.7189497809
 30
0.0
 10
7.5167947018
 20
6.7129878822
 30
0.0
 10
7.5453586913
 20
6.7073275
 30
0.0
 10
7.587292759
 20
6.7000099374
 30
0.0
 10
7.6441537544
 20
6.6918881847
 30
0.0
 10
7.7170975819
 20
6.6838929888
 30
0.0
 10
7.7953230923
 20
6.6775470309
 30
0.0
 10
7.8491425302
 20
6.6745362798
 30
0.0
 10
7.8767071354
 20
6.6733115719
 30
0.0
 11
7.3928783666
 21
6.7528737869
 31
0.0
 11
7.4072416137
 21
6.7457424231
 31
0.0
 11
7.4241800054
 21
6.7387902759
 31
0.0
 11
7.4436233082
 21
6.7320402722
 31
0.0
 11
7.4654969023
 21
6.725515916
 31
0.0
 11
7.4897077936
 21
6.7192431295
 31
0.0
 11
7.516158177
 21
6.7132484682
 31
0.0
 11
7.54474823
 21
6.7075581132
 31
0.0
 11
7.5753593904
 21
6.7021947683
 31
0.0
 11
7.6421297617
 21
6.6925322591
 31
0.0
 11
7.7154093213
 21
6.684415074
 31
0.0
 11
7.7940630441
 21
6.677972097
 31
0.0
 11
7.8767071354
 21
6.6733115719
 31
0.0
  0
SPLINE
  5
61A
100
AcDbEntity
  8
0
100
AcDbSpline
 62
7
  6
CONTINUOUS
 70
0
 71
3
 72
19
 73
15
 74
13
 42
0.0000001
 43
0.0000001
 44
0.0000000001
 12
-0.0
 22
0.1359861098
 32
0.0
 13
-0.1305563854
 23
0.0380427692
 33
0.0
 40
0.0
 40
0.0
 40
0.0
 40
0.0
 40
0.033507371
 40
0.0682331042
 40
0.1052310981
 40
0.1453651712
 40
0.1893042608
 40
0.2375500531
 40
0.2904734411
 40
0.3483357384
 40
0.4794467291
 40
0.6316780848
 40
0.8052535604
 40
1.0
 40
1.0
 40
1.0
 40
1.0
 10
8.8255814113
 20
6.7864437018
 30
0.0
 10
8.8255814113
 20
6.7879625475
 30
0.0
 10
8.8252741895
 20
6.7910631786
 30
0.0
 10
8.8239119701
 20
6.7956600312
 30
0.0
 10
8.82166304
 20
6.8002280548
 30
0.0
 10
8.8185422535
 20
6.8047618028
 30
0.0
 10
8.8145587426
 20
6.8092621095
 30
0.0
 10
8.8097174031
 20
6.8137283289
 30
0.0
 10
8.8040215032
 20
6.8181582775
 30
0.0
 10
8.7949077842
 20
6.8242679013
 30
0.0
 10
8.7813082111
 20
6.8316964575
 30
0.0
 10
8.7623534469
 20
6.8400825188
 30
0.0
 10
8.7401982392
 20
6.8482386372
 30
0.0
 10
8.7242555257
 20
6.8532165882
 30
0.0
 10
8.7157803953
 20
6.8556861528
 30
0.0
 11
8.8255814113
 21
6.7864437018
 31
0.0
 11
8.8251407579
 21
6.7909788815
 31
0.0
 11
8.823821001
 21
6.7955129281
 31
0.0
 11
8.8216254456
 21
6.8000398082
 31
0.0
 11
8.8185573966
 21
6.8045534882
 31
0.0
 11
8.814620159
 21
6.8090479348
 31
0.0
 11
8.8098170377
 21
6.8135171144
 31
0.0
 11
8.804151374
 21
6.8179550015
 31
0.0
 11
8.7976288593
 21
6.8223560925
 31
0.0
 11
8.7820513421
 21
6.8310292669
 31
0.0
 11
8.7631622855
 21
6.8394997701
 31
0.0
 11
8.7410400844
 21
6.8477308169
 31
0.0
 11
8.7157803953
 21
6.8556861528
 31
0.0
  0
SPLINE
  5
61B
100
AcDbEntity
  8
0
100
AcDbSpline
 62
7
  6
CONTINUOUS
 70
0
 71
3
 72
9
 73
5
 74
3
 42
0.0000001
 43
0.0000001
 44
0.0000000001
 12
-0.0778122284
 22
0.0188763997
 32
0.0
 13
-0.0788532727
 23
0.0139004587
 33
0.0
 40
0.0
 40
0.0
 40
0.0
 40
0.0
 40
0.4783478826
 40
1.0
 40
1.0
 40
1.0
 40
1.0
 10
8.6799641189
 20
6.8651929889
 30
0.0
 10
8.667557014
 20
6.8682028175
 30
0.0
 10
8.6414949026
 20
6.8739853125
 30
0.0
 10
8.6152677379
 20
6.8789530958
 30
0.0
 10
8.6015564123
 20
6.8813701637
 30
0.0
 11
8.6799641189
 21
6.8651929889
 31
0.0
 11
8.6425857354
 21
6.8735484864
 31
0.0
 11
8.6015564123
 21
6.8813701637
 31
0.0
  0
LINE
  5
61C
100
AcDbEntity
  8
0
100
AcDbLine
 62
7
  6
CONTINUOUS
 10
8.5929743907
 20
6.8828596865
 11
8.5898562541
 21
6.8833895607
  0
LINE
  5
61D
100
AcDbEntity
  8
0
100
AcDbLine
 62
7
  6
CONTINUOUS
 10
8.5758758559
 20
6.885694351
 11
8.5741702394
 21
6.8859678421
  0
SPLINE
  5
61E
100
AcDbEntity
  8
0
100
AcDbSpline
 62
7
  6
CONTINUOUS
 70
0
 71
3
 72
12
 73
8
 74
6
 42
0.0000001
 43
0.0000001
 44
0.0000000001
 12
-0.4823850503
 22
0.0668094932
 32
0.0
 13
-0.4869895739
 23
-0.0000008672
 33
0.0
 40
0.0
 40
0.0
 40
0.0
 40
0.0
 40
0.1095301448
 40
0.2251153068
 40
0.4713270943
 40
0.7319912634
 40
1.0
 40
1.0
 40
1.0
 40
1.0
 10
8.5323247904
 20
6.8921973125
 30
0.0
 10
8.5147128889
 20
6.8946365304
 30
0.0
 10
8.4784540876
 20
6.8992136926
 30
0.0
 10
8.4023599508
 20
6.9072236297
 30
0.0
 10
8.3015864089
 20
6.9149237058
 30
0.0
 10
8.175904451
 20
6.9204755882
 30
0.0
 10
8.0900792419
 20
6.9217156807
 30
0.0
 10
8.0465734217
 20
6.9217156032
 30
0.0
 11
8.5323247904
 21
6.8921973125
 31
0.0
 11
8.4794091643
 21
6.8989126853
 31
0.0
 11
8.4234325986
 21
6.9048329534
 31
0.0
 11
8.3038904131
 21
6.9141223579
 31
0.0
 11
8.1770768767
 21
6.9198036063
 31
0.0
 11
8.0465734217
 21
6.9217156032
 31
0.0
  0
SPLINE
  5
61F
100
AcDbEntity
  8
0
100
AcDbSpline
 62
7
  6
CONTINUOUS
 70
0
 71
3
 72
13
 73
9
 74
7
 42
0.0000001
 43
0.0000001
 44
0.0000000001
 12
-0.5368629543
 22
-0.0000009561
 32
0.0
 13
-0.5297745297
 23
-0.0869527423
 33
0.0
 40
0.0
 40
0.0
 40
0.0
 40
0.0
 40
0.2730690393
 40
0.5366819493
 40
0.6620886128
 40
0.78177191
 40
0.8947302513
 40
1.0
 40
1.0
 40
1.0
 40
1.0
 10
8.0465734217
 20
6.9217156032
 30
0.0
 10
7.997706538
 20
6.9217155162
 30
0.0
 10
7.9016581352
 20
6.9201581017
 30
0.0
 10
7.7832942257
 20
6.914272654
 30
0.0
 10
7.6925323961
 20
6.9071633335
 30
0.0
 10
7.6287649152
 20
6.9008480223
 30
0.0
 10
7.5687332594
 20
6.8935305146
 30
0.0
 10
7.5300959965
 20
6.8878063146
 30
0.0
 10
7.5115062526
 20
6.8847551501
 30
0.0
 11
8.0465734217
 21
6.9217156032
 31
0.0
 11
7.8999926934
 21
6.9192987864
 31
0.0
 11
7.7586500876
 21
6.91213555
 31
0.0
 11
7.6915318243
 21
6.9068483164
 31
0.0
 11
7.6275944571
 21
6.9004820766
 31
0.0
 11
7.567402723
 21
6.893096507
 31
0.0
 11
7.5115062526
 21
6.8847551501
 31
0.0
  0
LINE
  5
620
100
AcDbEntity
  8
0
100
AcDbLine
 62
7
  6
CONTINUOUS
 10
7.5054097401
 20
6.8837436342
 11
7.5029122941
 21
6.8833228871
  0
LINE
  5
621
100
AcDbEntity
  8
0
100
AcDbLine
 62
7
  6
CONTINUOUS
 10
7.5029122941
 20
6.8833228871
 11
7.5001884989
 21
6.8828596979
  0
SPLINE
  5
622
100
AcDbEntity
  8
0
100
AcDbSpline
 62
7
  6
CONTINUOUS
 70
0
 71
3
 72
9
 73
5
 74
3
 42
0.0000001
 43
0.0000001
 44
0.0000000001
 12
-0.0543326164
 22
-0.0095775714
 32
0.0
 13
-0.0539063931
 23
-0.0117415444
 33
0.0
 40
0.0
 40
0.0
 40
0.0
 40
0.0
 40
0.260276017
 40
1.0
 40
1.0
 40
1.0
 40
1.0
 10
7.4916156571
 20
6.8813717935
 30
0.0
 10
7.4869018314
 20
6.8805408562
 30
0.0
 10
7.4688053111
 20
6.8772681655
 30
0.0
 10
7.4507672761
 20
6.8736666077
 30
0.0
 10
7.4374753255
 20
6.8707714404
 30
0.0
 11
7.4916156571
 21
6.8813717935
 31
0.0
 11
7.477485613
 21
6.8788149717
 31
0.0
 11
7.4374753255
 21
6.8707714404
 31
0.0
  0
SPLINE
  5
623
100
AcDbEntity
  8
0
100
AcDbSpline
 62
7
  6
CONTINUOUS
 70
0
 71
3
 72
19
 73
15
 74
13
 42
0.0000001
 43
0.0000001
 44
0.0000000001
 12
-0.1362594654
 22
-0.0385251786
 32
0.0
 13
-0.0
 23
-0.1416009579
 33
0.0
 40
0.0
 40
0.0
 40
0.0
 40
0.0
 40
0.1955225248
 40
0.3697655177
 40
0.5224752923
 40
0.6538301497
 40
0.7117110295
 40
0.7645747101
 40
0.812673478
 40
0.8563748423
 40
0.8961806504
 40
0.9327661935
 40
0.9670117126
 40
1.0
 40
1.0
 40
1.0
 40
1.0
 10
7.3827814164
 20
6.8572357379
 30
0.0
 10
7.3739008182
 20
6.8547248912
 30
0.0
 10
7.3571924644
 20
6.8496592981
 30
0.0
 10
7.3339611099
 20
6.8413460297
 30
0.0
 10
7.3140778495
 20
6.8327849557
 30
0.0
 10
7.2998018093
 20
6.8251904782
 30
0.0
 10
7.2902287849
 20
6.8189368982
 30
0.0
 10
7.2842479604
 20
6.8144035449
 30
0.0
 10
7.2791638884
 20
6.809831167
 30
0.0
 10
7.274980019
 20
6.8052223866
 30
0.0
 10
7.2717013644
 20
6.800577776
 30
0.0
 10
7.269337551
 20
6.7958960451
 30
0.0
 10
7.2679048168
 20
6.7911824875
 30
0.0
 10
7.2675814113
 20
6.7880007595
 30
0.0
 10
7.2675814113
 20
6.7864437018
 30
0.0
 11
7.3827814164
 21
6.8572357379
 31
0.0
 11
7.3563055992
 21
6.8491391036
 31
0.0
 11
7.3331039382
 21
6.8407463323
 31
0.0
 11
7.313285581
 21
6.8320962675
 31
0.0
 11
7.2969356084
 21
6.8232284934
 31
0.0
 11
7.2900875523
 21
6.8187253448
 31
0.0
 11
7.2841379783
 21
6.814182659
 31
0.0
 11
7.2790938502
 21
6.8096061757
 31
0.0
 11
7.2749588589
 21
6.805002361
 31
0.0
 11
7.2717365618
 21
6.8003777106
 31
0.0
 11
7.2694305165
 21
6.7957387202
 31
0.0
 11
7.2680442805
 21
6.7910918854
 31
0.0
 11
7.2675814113
 21
6.7864437018
 31
0.0
  0
SPLINE
  5
624
100
AcDbEntity
  8
0
100
AcDbSpline
 62
7
  6
CONTINUOUS
 70
0
 71
3
 72
9
 73
5
 74
3
 42
0.0000001
 43
0.0000001
 44
0.0000000001
 12
-0.0
 22
-0.011890003
 32
0.0
 13
-0.0057421017
 23
-0.0104115532
 33
0.0
 40
0.0
 40
0.0
 40
0.0
 40
0.0
 40
0.4829212665
 40
1.0
 40
1.0
 40
1.0
 40
1.0
 10
8.7340814113
 20
6.7864437018
 30
0.0
 10
8.7340814113
 20
6.7845297234
 30
0.0
 10
8.7335111004
 20
6.7805502727
 30
0.0
 10
8.7319367538
 20
6.7768687338
 30
0.0
 10
8.7309470476
 20
6.7750742029
 30
0.0
 11
8.7340814113
 21
6.7864437018
 31
0.0
 11
8.7332964266
 21
6.7807556775
 31
0.0
 11
8.7309470476
 21
6.7750742029
 31
0.0
  0
SPLINE
  5
625
100
AcDbEntity
  8
0
100
AcDbSpline
 62
7
  6
CONTINUOUS
 70
0
 71
3
 72
9
 73
5
 74
3
 42
0.0000001
 43
0.0000001
 44
0.0000000001
 12
-0.0100470604
 22
-0.018217285
 32
0.0
 13
-0.0165483452
 23
-0.0126081389
 33
0.0
 40
0.0
 40
0.0
 40
0.0
 40
0.0
 40
0.4556656511
 40
1.0
 40
1.0
 40
1.0
 40
1.0
 10
8.7309470476
 20
6.7750742029
 30
0.0
 10
8.7294210142
 20
6.7723072058
 30
0.0
 10
8.7251394825
 20
6.7667486073
 30
0.0
 10
8.7198759072
 20
6.7621881342
 30
0.0
 10
8.7168732963
 20
6.7599004531
 30
0.0
 11
8.7309470476
 21
6.7750742029
 31
0.0
 11
8.7253152174
 21
6.767448723
 31
0.0
 11
8.7168732963
 21
6.7599004531
 31
0.0
  0
LINE
  5
626
100
AcDbEntity
  8
0
100
AcDbLine
 62
7
  6
CONTINUOUS
 10
8.7168732963
 20
6.7599004531
 11
8.7119002762
 21
6.7563625225
  0
LINE
  5
627
100
AcDbEntity
  8
0
100
AcDbLine
 62
7
  6
CONTINUOUS
 10
8.7119002762
 20
6.7563625225
 11
8.7044640375
 21
6.7517802562
  0
SPLINE
  5
628
100
AcDbEntity
  8
0
100
AcDbSpline
 62
7
  6
CONTINUOUS
 70
0
 71
3
 72
9
 73
5
 74
3
 42
0.0000001
 43
0.0000001
 44
0.0000000001
 12
-0.0365397433
 22
-0.0209085572
 32
0.0
 13
-0.0396019245
 23
-0.0142831433
 33
0.0
 40
0.0
 40
0.0
 40
0.0
 40
0.0
 40
0.4601089192
 40
1.0
 40
1.0
 40
1.0
 40
1.0
 10
8.7044640375
 20
6.7517802562
 30
0.0
 10
8.6988599503
 20
6.7485735183
 30
0.0
 10
8.6862397883
 20
6.7423732059
 30
0.0
 10
8.6731708875
 20
6.737232582
 30
0.0
 10
8.6660439788
 20
6.7346621348
 30
0.0
 11
8.7044640375
 21
6.7517802562
 31
0.0
 11
8.687151654
 21
6.7430922165
 31
0.0
 11
8.6660439788
 21
6.7346621348
 31
0.0
  0
SPLINE
  5
629
100
AcDbEntity
  8
0
100
AcDbSpline
 62
7
  6
CONTINUOUS
 70
0
 71
3
 72
18
 73
14
 74
12
 42
0.0000001
 43
0.0000001
 44
0.0000000001
 12
-0.5881481474
 22
-0.2121261622
 32
0.0
 13
-0.6252325581
 23
-0.000016164
 33
0.0
 40
0.0
 40
0.0
 40
0.0
 40
0.0
 40
0.0377650068
 40
0.0798815953
 40
0.1262105192
 40
0.1765898354
 40
0.2308063339
 40
0.2886204749
 40
0.4140159583
 40
0.5504828446
 40
0.6954849033
 40
0.8462773985
 40
1.0
 40
1.0
 40
1.0
 40
1.0
 10
8.6660439788
 20
6.7346621348
 30
0.0
 10
8.6586401726
 20
6.7319918194
 30
0.0
 10
8.6428090639
 20
6.7268124349
 30
0.0
 10
8.6174645898
 20
6.7197511354
 30
0.0
 10
8.5893237218
 20
6.7130049721
 30
0.0
 10
8.5585211799
 20
6.7066145672
 30
0.0
 10
8.525206879
 20
6.7006083085
 30
0.0
 10
8.4763183302
 20
6.6929437836
 30
0.0
 10
8.4101924773
 20
6.6846736584
 30
0.0
 10
8.3257403383
 20
6.6769222267
 30
0.0
 10
8.2358182307
 20
6.6712706574
 30
0.0
 10
8.1421877951
 20
6.667830864
 30
0.0
 10
8.0787207576
 20
6.6670614421
 30
0.0
 10
8.0466832991
 20
6.6670606139
 30
0.0
 11
8.6660439788
 21
6.7346621348
 31
0.0
 11
8.6436245333
 21
6.7272532993
 31
0.0
 11
8.6182724357
 21
6.7201342926
 31
0.0
 11
8.5901140437
 21
6.7133405836
 31
0.0
 11
8.5592792599
 21
6.7069070931
 31
0.0
 11
8.5259242262
 21
6.7008646836
 31
0.0
 11
8.4902168604
 21
6.6952423961
 31
0.0
 11
8.4124396386
 21
6.6853695184
 31
0.0
 11
8.3274816078
 21
6.6774803138
 31
0.0
 11
8.2370040332
 21
6.6717317855
 31
0.0
 11
8.1427884871
 21
6.6682360096
 31
0.0
 11
8.0466832991
 21
6.6670606139
 31
0.0
  0
SPLINE
  5
62A
100
AcDbEntity
  8
0
100
AcDbSpline
 62
7
  6
CONTINUOUS
 70
0
 71
3
 72
18
 73
14
 74
12
 42
0.0000001
 43
0.0000001
 44
0.0000000001
 12
-0.6254441814
 22
-0.0000161694
 32
0.0
 13
-0.5883429114
 23
0.2122099028
 33
0.0
 40
0.0
 40
0.0
 40
0.0
 40
0.0
 40
0.1537173953
 40
0.3045093304
 40
0.4495137878
 40
0.5859844305
 40
0.7113834453
 40
0.7691988055
 40
0.8234159418
 40
0.8737951888
 40
0.9201231875
 40
0.9622378954
 40
1.0
 40
1.0
 40
1.0
 40
1.0
 10
8.0466832991
 20
6.6670606139
 30
0.0
 10
8.0146360823
 20
6.6670597854
 30
0.0
 10
7.9511487248
 20
6.6678264332
 30
0.0
 10
7.8574871494
 20
6.6712633618
 30
0.0
 10
7.7675332221
 20
6.6769134827
 30
0.0
 10
7.683050216
 20
6.6846647982
 30
0.0
 10
7.6168999633
 20
6.6929359153
 30
0.0
 10
7.5679935523
 20
6.7006019073
 30
0.0
 10
7.5346674683
 20
6.7066094932
 30
0.0
 10
7.5038544505
 20
6.71300146
 30
0.0
 10
7.4757045511
 20
6.7197494045
 30
0.0
 10
7.4503526133
 20
6.7268126709
 30
0.0
 10
7.4345171344
 20
6.7319936394
 30
0.0
 10
7.4271114456
 20
6.7346648035
 30
0.0
 11
8.0466832991
 21
6.6670606139
 31
0.0
 11
7.9505487817
 21
6.6682317343
 31
0.0
 11
7.8563015465
 21
6.67172464
 31
0.0
 11
7.76579163
 21
6.6774717348
 31
0.0
 11
7.6808022314
 21
6.6853608918
 31
0.0
 11
7.6029961934
 21
6.6952350277
 31
0.0
 11
7.56727584
 21
6.7008583935
 31
0.0
 11
7.5339089853
 21
6.7069021532
 31
0.0
 11
7.5030636878
 21
6.7133372402
 31
0.0
 11
7.4748962443
 21
6.7201327688
 31
0.0
 11
7.4495366766
 21
6.7272537898
 31
0.0
 11
7.4271114456
 21
6.7346648035
 31
0.0
  0
SPLINE
  5
62B
100
AcDbEntity
  8
0
100
AcDbSpline
 62
7
  6
CONTINUOUS
 70
0
 71
3
 72
11
 73
7
 74
5
 42
0.0000001
 43
0.0000001
 44
0.0000000001
 12
-0.0535584452
 22
0.0193180409
 32
0.0
 13
-0.0452868035
 23
0.0345079583
 33
0.0
 40
0.0
 40
0.0
 40
0.0
 40
0.0
 40
0.2966395788
 40
0.5618999678
 40
0.7960851983
 40
1.0
 40
1.0
 40
1.0
 40
1.0
 10
7.4271114456
 20
6.7346648035
 30
0.0
 10
7.421815594
 20
6.7365749687
 30
0.0
 10
7.411859625
 20
6.740410089
 30
0.0
 10
7.3980763895
 20
6.746622751
 30
0.0
 10
7.3863116003
 20
6.7529550552
 30
0.0
 10
7.3793638255
 20
6.757557875
 30
0.0
 10
7.376285609
 20
6.7599034361
 30
0.0
 11
7.4271114456
 21
6.7346648035
 31
0.0
 11
7.4113670024
 21
6.7407775345
 31
0.0
 11
7.3976210911
 21
6.7470341677
 31
0.0
 11
7.3859138979
 21
6.753415777
 31
0.0
 11
7.376285609
 21
6.7599034361
 31
0.0
  0
SPLINE
  5
62C
100
AcDbEntity
  8
0
100
AcDbSpline
 62
7
  6
CONTINUOUS
 70
0
 71
3
 72
12
 73
8
 74
6
 42
0.0000001
 43
0.0000001
 44
0.0000000001
 12
-0.0260152792
 22
0.0198233061
 32
0.0
 13
-0.0
 23
0.0327071585
 33
0.0
 40
0.0
 40
0.0
 40
0.0
 40
0.0
 40
0.3049280016
 40
0.5659205659
 40
0.7924934054
 40
0.8975626418
 40
1.0
 40
1.0
 40
1.0
 40
1.0
 10
7.376285609
 20
6.7599034361
 30
0.0
 10
7.3736413467
 20
6.7619183298
 30
0.0
 10
7.3689346888
 20
6.7659455621
 30
0.0
 10
7.3633555792
 20
6.7726064755
 30
0.0
 10
7.3604019279
 20
6.7784482718
 30
0.0
 10
7.3592679033
 20
6.7830604652
 30
0.0
 10
7.3590814113
 20
6.7853268902
 30
0.0
 10
7.3590814113
 20
6.7864437018
 30
0.0
 11
7.376285609
 21
6.7599034361
 31
0.0
 11
7.3687790767
 21
6.7664699613
 31
0.0
 11
7.3634005089
 21
6.7730986758
 31
0.0
 11
7.3601634417
 21
6.7797648368
 31
0.0
 11
7.3593522009
 21
6.7831042278
 31
0.0
 11
7.3590814113
 21
6.7864437018
 31
0.0
  0
SPLINE
  5
62D
100
AcDbEntity
  8
0
100
AcDbSpline
 62
7
  6
CONTINUOUS
 70
0
 71
3
 72
11
 73
7
 74
5
 42
0.0000001
 43
0.0000001
 44
0.0000000001
 12
0.0031616949
 22
0.0209851791
 32
0.0
 13
0.0152446695
 23
0.0147639463
 33
0.0
 40
0.0
 40
0.0
 40
0.0
 40
0.0
 40
0.219863992
 40
0.455400669
 40
0.7136800218
 40
1.0
 40
1.0
 40
1.0
 40
1.0
 10
7.3593153969
 20
6.7895478003
 30
0.0
 10
7.3595471112
 20
6.791085762
 30
0.0
 10
7.3603816828
 20
6.7942253455
 30
0.0
 10
7.3626081764
 20
6.7987845066
 30
0.0
 10
7.3658132637
 20
6.8033013748
 30
0.0
 10
7.3684475499
 20
6.8061269041
 30
0.0
 10
7.369902501
 20
6.8075359751
 30
0.0
 11
7.3593153969
 21
6.7895478003
 31
0.0
 11
7.3604895877
 21
6.7940635988
 31
0.0
 11
7.3626482928
 21
6.7985719944
 31
0.0
 11
7.365787326
 21
6.8030653366
 31
0.0
 11
7.369902501
 21
6.8075359751
 31
0.0
  0
SPLINE
  5
62E
100
AcDbEntity
  8
0
100
AcDbSpline
 62
7
  6
CONTINUOUS
 70
0
 71
3
 72
11
 73
7
 74
5
 42
0.0000001
 43
0.0000001
 44
0.0000000001
 12
-0.2167868447
 22
-0.0215008458
 32
0.0
 13
-0.2112763369
 23
-0.0531143285
 33
0.0
 40
0.0
 40
0.0
 40
0.0
 40
0.0
 40
0.2850258048
 40
0.5486798581
 40
0.7878555324
 40
1.0
 40
1.0
 40
1.0
 40
1.0
 10
7.7205621653
 20
6.885592746
 30
0.0
 10
7.6999655504
 20
6.8835499807
 30
0.0
 10
7.6603623595
 20
6.8791321514
 30
0.0
 10
7.6037006664
 20
6.8711498726
 30
0.0
 10
7.5525590563
 20
6.8621363551
 30
0.0
 10
7.5205359789
 20
6.8550888703
 30
0.0
 10
7.5055956102
 20
6.8513329
 30
0.0
 11
7.7205621653
 21
6.885592746
 31
0.0
 11
7.6588582875
 21
6.8786521119
 31
0.0
 11
7.6019940657
 21
6.8705596943
 31
0.0
 11
7.550698423
 21
6.861414251
 31
0.0
 11
7.5055956102
 21
6.8513329
 31
0.0
  0
SPLINE
  5
62F
100
AcDbEntity
  8
0
100
AcDbSpline
 62
7
  6
CONTINUOUS
 70
0
 71
3
 72
9
 73
5
 74
3
 42
0.0000001
 43
0.0000001
 44
0.0000000001
 12
-0.0269849248
 22
-0.006876129
 32
0.0
 13
-0.0266550903
 23
-0.0080606125
 33
0.0
 40
0.0
 40
0.0
 40
0.0
 40
0.0
 40
0.2603452221
 40
1.0
 40
1.0
 40
1.0
 40
1.0
 10
7.5032633363
 20
6.8507426062
 30
0.0
 10
7.5009215375
 20
6.8501458838
 30
0.0
 10
7.4919379418
 20
6.8478097117
 30
0.0
 10
7.4830008893
 20
6.8452922932
 30
0.0
 10
7.4764290343
 20
6.8433049363
 30
0.0
 11
7.5032633363
 21
6.8507426062
 31
0.0
 11
7.4962470197
 21
6.8489171765
 31
0.0
 11
7.4764290343
 21
6.8433049363
 31
0.0
  0
SPLINE
  5
630
100
AcDbEntity
  8
0
100
AcDbSpline
 62
7
  6
CONTINUOUS
 70
0
 71
3
 72
9
 73
5
 74
3
 42
0.0000001
 43
0.0000001
 44
0.0000000001
 12
-0.0454774865
 22
-0.0137525851
 32
0.0
 13
-0.0432026507
 23
-0.0197703402
 33
0.0
 40
0.0
 40
0.0
 40
0.0
 40
0.0
 40
0.5357639823
 40
1.0
 40
1.0
 40
1.0
 40
1.0
 10
7.4764290343
 20
6.8433049363
 30
0.0
 10
7.4683073012
 20
6.8408488898
 30
0.0
 10
7.453251697
 20
6.8359099515
 30
0.0
 10
7.4385349524
 20
6.8300084699
 30
0.0
 10
7.4318495435
 20
6.8269491019
 30
0.0
 11
7.4764290343
 21
6.8433049363
 31
0.0
 11
7.4522720676
 21
6.8352803879
 31
0.0
 11
7.4318495435
 21
6.8269491019
 31
0.0
  0
SPLINE
  5
631
100
AcDbEntity
  8
0
100
AcDbSpline
 62
7
  6
CONTINUOUS
 70
0
 71
3
 72
11
 73
7
 74
5
 42
0.0000001
 43
0.0000001
 44
0.0000000001
 12
-0.0338390316
 22
-0.0154853732
 32
0.0
 13
-0.0272906782
 23
-0.0253001132
 33
0.0
 40
0.0
 40
0.0
 40
0.0
 40
0.0
 40
0.291658484
 40
0.5549341814
 40
0.7906213972
 40
1.0
 40
1.0
 40
1.0
 40
1.0
 10
7.4318495435
 20
6.8269491019
 30
0.0
 10
7.42855973
 20
6.8254436217
 30
0.0
 10
7.4223671404
 20
6.8224282215
 30
0.0
 10
7.4138210428
 20
6.8176015372
 30
0.0
 10
7.4065084313
 20
6.8127137193
 30
0.0
 10
7.4022179163
 20
6.8092187089
 30
0.0
 10
7.4003132216
 20
6.8074529414
 30
0.0
 11
7.4318495435
 21
6.8269491019
 31
0.0
 11
7.4221040329
 21
6.8221711195
 31
0.0
 11
7.4135903115
 21
6.8173226114
 31
0.0
 11
7.4063221257
 21
6.8124133084
 31
0.0
 11
7.4003132216
 21
6.8074529414
 31
0.0
  0
LINE
  5
632
100
AcDbEntity
  8
0
100
AcDbLine
 62
7
  6
CONTINUOUS
 10
7.4003132216
 20
6.8074529414
 11
7.3965684235
 21
6.8036222072
  0
LINE
  5
633
100
AcDbEntity
  8
0
100
AcDbLine
 62
7
  6
CONTINUOUS
 10
7.3962562
 20
6.8032623154
 11
7.3938783828
 21
6.8002084638
  0
SPLINE
  5
634
100
AcDbEntity
  8
0
100
AcDbSpline
 62
7
  6
CONTINUOUS
 70
0
 71
3
 72
14
 73
10
 74
8
 42
0.0000001
 43
0.0000001
 44
0.0000000001
 12
-0.0217352997
 22
-0.031080328
 32
0.0
 13
0.0272223267
 23
-0.0264074794
 33
0.0
 40
0.0
 40
0.0
 40
0.0
 40
0.0
 40
0.2479531951
 40
0.3614145811
 40
0.4736625954
 40
0.5895956773
 40
0.7136770131
 40
0.8495676414
 40
1.0
 40
1.0
 40
1.0
 40
1.0
 10
7.3938783828
 20
6.8002084638
 30
0.0
 10
7.3920819371
 20
6.7976396416
 30
0.0
 10
7.3899299054
 20
6.7934629659
 30
0.0
 10
7.3889620048
 20
6.7875126336
 30
0.0
 10
7.3892032049
 20
6.7831655779
 30
0.0
 10
7.3903896133
 20
6.778841809
 30
0.0
 10
7.3925012207
 20
6.7745571442
 30
0.0
 10
7.3955210263
 20
6.7703163294
 30
0.0
 10
7.3979958706
 20
6.7676615064
 30
0.0
 10
7.3993609102
 20
6.7663373266
 30
0.0
 11
7.3938783828
 21
6.8002084638
 31
0.0
 11
7.3897943894
 21
6.7917375973
 31
0.0
 11
7.3891163415
 21
6.7874881735
 31
0.0
 11
7.3893475906
 21
6.7832372984
 31
0.0
 11
7.3904881351
 21
6.7789908789
 31
0.0
 11
7.3925379734
 21
6.7747548217
 31
0.0
 11
7.3954969288
 21
6.7705350302
 31
0.0
 11
7.3993609102
 21
6.7663373266
 31
0.0
  0
SPLINE
  5
635
100
AcDbEntity
  8
0
100
AcDbSpline
 62
7
  6
CONTINUOUS
 70
0
 71
3
 72
23
 73
19
 74
17
 42
0.0000001
 43
0.0000001
 44
0.0000000001
 12
-0.5794564143
 22
-0.0
 32
0.0
 13
-0.3738453006
 23
0.4427295193
 33
0.0
 40
0.0
 40
0.0
 40
0.0
 40
0.0
 40
0.1750581738
 40
0.3448723265
 40
0.5040303514
 40
0.5781429423
 40
0.647863673
 40
0.7126593687
 40
0.7720840433
 40
0.8257353666
 40
0.8732694592
 40
0.9144665775
 40
0.9326473683
 40
0.9492065663
 40
0.9641648402
 40
0.977564296
 40
0.9894732126
 40
1.0
 40
1.0
 40
1.0
 40
1.0
 10
8.0465814113
 20
6.6870301201
 30
0.0
 10
8.0127685507
 20
6.6870301201
 30
0.0
 10
7.9461507122
 20
6.6880507835
 30
0.0
 10
7.8488870563
 20
6.6925982315
 30
0.0
 10
7.7712656989
 20
6.6989105952
 30
0.0
 10
7.7131077347
 20
6.7054775606
 30
0.0
 10
7.6731749365
 20
6.710914328
 30
0.0
 10
7.6361978365
 20
6.7169418664
 30
0.0
 10
7.6024679896
 20
6.7235049253
 30
0.0
 10
7.5722460321
 20
6.7305458827
 30
0.0
 10
7.5457672511
 20
6.7380147172
 30
0.0
 10
7.526237404
 20
6.7447842929
 30
0.0
 10
7.5127061751
 20
6.7504568198
 30
0.0
 10
7.5040434604
 20
6.7546035606
 30
0.0
 10
7.4964498694
 20
6.7588121728
 30
0.0
 10
7.4899346492
 20
6.7630764457
 30
0.0
 10
7.4845075303
 20
6.7673897337
 30
0.0
 10
7.4814435492
 20
6.7704767985
 30
0.0
 10
7.4801317525
 20
6.772030305
 30
0.0
 11
8.0465814113
 21
6.6870301201
 31
0.0
 11
7.9451550561
 21
6.688605029
 31
0.0
 11
7.8468660938
 21
6.69327624
 31
0.0
 11
7.754956226
 21
6.7008954498
 31
0.0
 11
7.7122853634
 21
6.7057402299
 31
0.0
 11
7.6722591521
 21
6.7112240682
 31
0.0
 11
7.6352086456
 21
6.7173054508
 31
0.0
 11
7.6014187977
 21
6.7239347152
 31
0.0
 11
7.5711575509
 21
6.7310591946
 31
0.0
 11
7.5446727282
 21
6.7386237509
 31
0.0
 11
7.5221610773
 21
6.7465669762
 31
0.0
 11
7.5124541765
 21
6.7506610931
 31
0.0
 11
7.5038100647
 21
6.754826397
 31
0.0
 11
7.4962435947
 21
6.7590545167
 31
0.0
 11
7.4897669397
 21
6.7633369059
 31
0.0
 11
7.4843922691
 21
6.7676650176
 31
0.0
 11
7.4801317525
 21
6.772030305
 31
0.0
  0
SPLINE
  5
636
100
AcDbEntity
  8
0
100
AcDbSpline
 62
7
  6
CONTINUOUS
 70
0
 71
3
 72
11
 73
7
 74
5
 42
0.0000001
 43
0.0000001
 44
0.0000000001
 12
-0.0102850806
 22
0.0121801953
 32
0.0
 13
-0.0000000144
 23
0.0159417703
 33
0.0
 40
0.0
 40
0.0
 40
0.0
 40
0.0
 40
0.2795216297
 40
0.5346001435
 40
0.7719813422
 40
1.0
 40
1.0
 40
1.0
 40
1.0
 10
7.4801317525
 20
6.772030305
 30
0.0
 10
7.4791734517
 20
6.773165181
 30
0.0
 10
7.4774657139
 20
6.7754483075
 30
0.0
 10
7.4755260762
 20
6.7790841305
 30
0.0
 10
7.4743513057
 20
6.782751778
 30
0.0
 10
7.4740868265
 20
6.7852319899
 30
0.0
 10
7.4740868254
 20
6.7864436636
 30
0.0
 11
7.4801317525
 21
6.772030305
 31
0.0
 11
7.4774872891
 21
6.7756168591
 31
0.0
 11
7.4755981433
 21
6.7792177981
 31
0.0
 11
7.4744646561
 21
6.7828283321
 31
0.0
 11
7.4740868254
 21
6.7864436636
 31
0.0
  0
SPLINE
  5
637
100
AcDbEntity
  8
0
100
AcDbSpline
 62
7
  6
CONTINUOUS
 70
0
 71
3
 72
19
 73
15
 74
13
 42
0.0000001
 43
0.0000001
 44
0.0000000001
 12
0.0000000158
 22
0.1070893322
 32
0.0
 13
-0.1034258553
 23
0.0277708036
 33
0.0
 40
0.0
 40
0.0
 40
0.0
 40
0.0
 40
0.0321668216
 40
0.0656200134
 40
0.1015080268
 40
0.1407650997
 40
0.1840862393
 40
0.2319597209
 40
0.284726875
 40
0.3426240745
 40
0.4743651099
 40
0.6279305655
 40
0.8032737969
 40
1.0
 40
1.0
 40
1.0
 40
1.0
 10
8.5965763641
 20
6.7933373513
 30
0.0
 10
8.5965763642
 20
6.7944855925
 30
0.0
 10
8.5963293882
 20
6.7968345892
 30
0.0
 10
8.5952319616
 20
6.8003097251
 30
0.0
 10
8.5934188961
 20
6.8037563051
 30
0.0
 10
8.5909011108
 20
6.8071701849
 30
0.0
 10
8.5876880099
 20
6.8105540375
 30
0.0
 10
8.5837863148
 20
6.8139093011
 30
0.0
 10
8.5792011268
 20
6.8172354458
 30
0.0
 10
8.5718605896
 20
6.8218272647
 30
0.0
 10
8.5609221837
 20
6.8273941847
 30
0.0
 10
8.5457016304
 20
6.8336472952
 30
0.0
 10
8.5279340395
 20
6.8397071879
 30
0.0
 10
8.5151682142
 20
6.8433889362
 30
0.0
 10
8.5083860223
 20
6.8452100177
 30
0.0
 11
8.5965763641
 21
6.7933373513
 31
0.0
 11
8.5962231039
 21
6.7967639133
 31
0.0
 11
8.5951633227
 21
6.800186051
 31
0.0
 11
8.5933970207
 21
6.8035993402
 31
0.0
 11
8.5909244546
 21
6.806999362
 31
0.0
 11
8.5877492705
 21
6.8103817692
 31
0.0
 11
8.5838775111
 21
6.8137422652
 31
0.0
 11
8.5793152696
 21
6.8170765546
 31
0.0
 11
8.5740686393
 21
6.8203803417
 31
0.0
 11
8.5615465856
 21
6.8268792273
 31
0.0
 11
8.546366662
 21
6.8332049879
 31
0.0
 11
8.5286148377
 21
6.8393256981
 31
0.0
 11
8.5083860223
 21
6.8452100177
 31
0.0
  0
SPLINE
  5
638
100
AcDbEntity
  8
0
100
AcDbSpline
 62
7
  6
CONTINUOUS
 70
0
 71
3
 72
26
 73
22
 74
20
 42
0.0000001
 43
0.0000001
 44
0.0000000001
 12
0.0161456579
 22
-0.4577632514
 32
0.0
 13
-0.4580478977
 23
-0.0
 33
0.0
 40
0.0
 40
0.0
 40
0.0
 40
0.0
 40
0.0082645118
 40
0.0170718665
 40
0.0269324018
 40
0.0382053799
 40
0.0511250842
 40
0.0658400025
 40
0.0824313707
 40
0.1009334191
 40
0.1213566292
 40
0.1436963712
 40
0.1940462798
 40
0.2516871432
 40
0.3161727361
 40
0.3869929217
 40
0.4634975193
 40
0.5449888838
 40
0.6307392633
 40
0.8119119091
 40
1.0
 40
1.0
 40
1.0
 40
1.0
 10
8.4865730433
 20
6.7938028173
 30
0.0
 10
8.486617522
 20
6.7925417541
 30
0.0
 10
8.4863234006
 20
6.7899098541
 30
0.0
 10
8.4847597407
 20
6.7860628386
 30
0.0
 10
8.4821305746
 20
6.7822875174
 30
0.0
 10
8.4784658438
 20
6.7785732835
 30
0.0
 10
8.4737741726
 20
6.7749091173
 30
0.0
 10
8.4680594691
 20
6.7712961808
 30
0.0
 10
8.4613319128
 20
6.7677375958
 30
0.0
 10
8.4536066604
 20
6.7642387397
 30
0.0
 10
8.4449011552
 20
6.7608075081
 30
0.0
 10
8.4314666306
 20
6.7561468238
 30
0.0
 10
8.4123281477
 20
6.7506466237
 30
0.0
 10
8.3866735682
 20
6.744668905
 30
0.0
 10
8.3577303862
 20
6.7391408376
 30
0.0
 10
8.3257766436
 20
6.7341279642
 30
0.0
 10
8.29112171
 20
6.7296728736
 30
0.0
 10
8.2541021082
 20
6.7258240021
 30
0.0
 10
8.2010797098
 20
6.7214766927
 30
0.0
 10
8.1316831588
 20
6.7178854784
 30
0.0
 10
8.0752991961
 20
6.7169321579
 30
0.0
 10
8.0465814113
 20
6.7169321579
 30
0.0
 11
8.4865730433
 21
6.7938028173
 31
0.0
 11
8.4861693967
 21
6.7900388567
 31
0.0
 11
8.4846972551
 21
6.7862828627
 31
0.0
 11
8.4821634823
 21
6.782543926
 31
0.0
 11
8.4785749463
 21
6.7788311371
 31
0.0
 11
8.4739385154
 21
6.7751535864
 31
0.0
 11
8.4682614548
 21
6.7715203461
 31
0.0
 11
8.4615579578
 21
6.7679401678
 31
0.0
 11
8.4538481045
 21
6.7644215303
 31
0.0
 11
8.4451521618
 21
6.7609729041
 31
0.0
 11
8.4354903971
 21
6.7576027594
 31
0.0
 11
8.413354265
 21
6.7511314077
 31
0.0
 11
8.3876572954
 21
6.7450695641
 31
0.0
 11
8.358654368
 21
6.7394755019
 31
0.0
 11
8.3266140053
 21
6.7344053651
 31
0.0
 11
8.2918612503
 21
6.7299062811
 31
0.0
 11
8.2547368687
 21
6.7260228095
 31
0.0
 11
8.2155920555
 21
6.7227936171
 31
0.0
 11
8.132722053
 21
6.7184121429
 31
0.0
 11
8.0465814113
 21
6.7169321579
 31
0.0
  0
SPLINE
  5
639
100
AcDbEntity
  8
0
100
AcDbSpline
 62
7
  6
CONTINUOUS
 70
0
 71
3
 72
21
 73
17
 74
15
 42
0.0000001
 43
0.0000001
 44
0.0000000001
 12
-0.0000009319
 22
-0.0805886607
 32
0.0
 13
-0.0805886607
 23
-0.0
 33
0.0
 40
0.0
 40
0.0
 40
0.0
 40
0.0
 40
0.0082760268
 40
0.0171649644
 40
0.0271533278
 40
0.0385750877
 40
0.0664588823
 40
0.1017741833
 40
0.1447964298
 40
0.1953468132
 40
0.2530696178
 40
0.3175480782
 40
0.4646926082
 40
0.6317333889
 40
0.8127567889
 40
1.0
 40
1.0
 40
1.0
 40
1.0
 10
8.1240814112
 20
6.8278055782
 30
0.0
 10
8.1240814087
 20
6.8275832603
 30
0.0
 10
8.1240124941
 20
6.827119991
 30
0.0
 10
8.1237143077
 20
6.8264469254
 30
0.0
 10
8.123231025
 20
6.8257860215
 30
0.0
 10
8.1222815886
 20
6.8248567224
 30
0.0
 10
8.120594852
 20
6.8237463262
 30
0.0
 10
8.1180095775
 20
6.8225291881
 30
0.0
 10
8.114746166
 20
6.8213597918
 30
0.0
 10
8.1108356496
 20
6.8202457299
 30
0.0
 10
8.1063130531
 20
6.8191986927
 30
0.0
 10
8.0992031705
 20
6.8178489397
 30
0.0
 10
8.0891205545
 20
6.8164580463
 30
0.0
 10
8.0758689949
 20
6.8152536267
 30
0.0
 10
8.0615047363
 20
6.8145173178
 30
0.0
 10
8.0516113045
 20
6.8143478937
 30
0.0
 10
8.0465814113
 20
6.8143478937
 30
0.0
 11
8.1240814112
 21
6.8278055782
 31
0.0
 11
8.1239871557
 21
6.8271453181
 31
0.0
 11
8.1237055835
 21
6.8264866293
 31
0.0
 11
8.1232384629
 21
6.825831083
 31
0.0
 11
8.1225875625
 21
6.8251802503
 31
0.0
 11
8.1207414962
 21
6.8238990099
 31
0.0
 11
8.1181815323
 21
6.8226554771
 31
0.0
 11
8.1149263497
 21
6.8214619088
 31
0.0
 11
8.1110131784
 21
6.8203292852
 31
0.0
 11
8.1064839952
 21
6.8192682596
 31
0.0
 11
8.101380777
 21
6.8182894853
 31
0.0
 11
8.0896411828
 21
6.8166166509
 31
0.0
 11
8.0762372216
 21
6.8153723416
 31
0.0
 11
8.0616688605
 21
6.8146073308
 31
0.0
 11
8.0465814113
 21
6.8143478937
 31
0.0
  0
SPLINE
  5
63A
100
AcDbEntity
  8
0
100
AcDbSpline
 62
7
  6
CONTINUOUS
 70
0
 71
3
 72
20
 73
16
 74
14
 42
0.0000001
 43
0.0000001
 44
0.0000000001
 12
-0.0621766243
 22
-0.0029789658
 32
0.0
 13
0.0
 23
-0.0622479465
 33
0.0
 40
0.0
 40
0.0
 40
0.0
 40
0.0
 40
0.2245271126
 40
0.4227781863
 40
0.5935773414
 40
0.7357582851
 40
0.8481753743
 40
0.8928797701
 40
0.9297445217
 40
0.9586663935
 40
0.9701438156
 40
0.9796620057
 40
0.9872670566
 40
0.993044479
 40
1.0
 40
1.0
 40
1.0
 40
1.0
 10
3.8541608381
 20
3.9478277152
 30
0.0
 10
3.8495073921
 20
3.9476047623
 30
0.0
 10
3.8407460348
 20
3.9471643878
 30
0.0
 10
3.8284494485
 20
3.9464658194
 30
0.0
 10
3.817864293
 20
3.9457708094
 30
0.0
 10
3.8090644987
 20
3.9450799241
 30
0.0
 10
3.8028826399
 20
3.9444763312
 30
0.0
 10
3.7988887856
 20
3.9439737283
 30
0.0
 10
3.7966219953
 20
3.943627745
 30
0.0
 10
3.7950471344
 20
3.9433255531
 30
0.0
 10
3.7940415355
 20
3.9430725194
 30
0.0
 10
3.79347527
 20
3.9429004492
 30
0.0
 10
3.7930275869
 20
3.9427237128
 30
0.0
 10
3.7926661128
 20
3.9425367492
 30
0.0
 10
3.7924361868
 20
3.9423174354
 30
0.0
 10
3.7924361868
 20
3.9421731131
 30
0.0
 11
3.8541608381
 21
3.9478277152
 31
0.0
 11
3.8402023709
 21
3.9471208899
 31
0.0
 11
3.8278819073
 21
3.9464140646
 31
0.0
 11
3.8172735321
 21
3.9457072394
 31
0.0
 11
3.8084513301
 21
3.9450004141
 31
0.0
 11
3.8014893861
 21
3.9442935888
 31
0.0
 11
3.7987291623
 21
3.9439401762
 31
0.0
 11
3.7964617849
 21
3.9435867636
 31
0.0
 11
3.7946964868
 21
3.943233351
 31
0.0
 11
3.7940042384
 21
3.9430566446
 31
0.0
 11
3.793438715
 21
3.9428799383
 31
0.0
 11
3.7929995325
 21
3.942703232
 31
0.0
 11
3.7926863065
 21
3.9425265257
 31
0.0
 11
3.7924361868
 21
3.9421731131
 31
0.0
  0
LINE
  5
63B
100
AcDbEntity
  8
0
100
AcDbLine
 62
7
  6
CONTINUOUS
 10
4.2304855402
 20
4.0610979505
 11
4.2249578774
 21
4.0608514476
  0
LINE
  5
63C
100
AcDbEntity
  8
0
100
AcDbLine
 62
7
  6
CONTINUOUS
 10
4.1779238029
 20
4.0589828535
 11
4.1698196305
 21
4.0586895054
  0
LINE
  5
63D
100
AcDbEntity
  8
0
100
AcDbLine
 62
7
  6
CONTINUOUS
 10
4.1698196305
 20
4.0586895054
 11
4.1537410789
 21
4.0581242264
  0
LINE
  5
63E
100
AcDbEntity
  8
0
100
AcDbLine
 62
7
  6
CONTINUOUS
 10
4.1537410789
 20
4.0581242264
 11
3.9481775082
 21
4.0514973944
  0
LINE
  5
63F
100
AcDbEntity
  8
0
100
AcDbLine
 62
7
  6
CONTINUOUS
 10
3.9481775082
 20
4.0514973944
 11
3.9405103959
 21
4.0512352979
  0
LINE
  5
640
100
AcDbEntity
  8
0
100
AcDbLine
 62
7
  6
CONTINUOUS
 10
3.915097612
 20
4.0503348414
 11
3.9004906914
 21
4.049788617
  0
LINE
  5
641
100
AcDbEntity
  8
0
100
AcDbLine
 62
7
  6
CONTINUOUS
 10
3.9004906914
 20
4.049788617
 11
3.8938950598
 21
4.0495331712
  0
LINE
  5
642
100
AcDbEntity
  8
0
100
AcDbLine
 62
7
  6
CONTINUOUS
 10
3.8938950598
 20
4.0495331712
 11
3.8832846132
 21
4.0491085746
  0
LINE
  5
643
100
AcDbEntity
  8
0
100
AcDbLine
 62
7
  6
CONTINUOUS
 10
3.8832846132
 20
4.0491085746
 11
3.8330308142
 21
4.0467227241
  0
SPLINE
  5
644
100
AcDbEntity
  8
0
100
AcDbSpline
 62
7
  6
CONTINUOUS
 70
0
 71
3
 72
10
 73
6
 74
4
 42
0.0000001
 43
0.0000001
 44
0.0000000001
 12
-0.0311811089
 22
-0.0017975757
 32
0.0
 13
-0.0310250885
 23
-0.003596765
 33
0.0
 40
0.0
 40
0.0
 40
0.0
 40
0.0
 40
0.5832063409
 40
0.8128377773
 40
1.0
 40
1.0
 40
1.0
 40
1.0
 10
3.8330308142
 20
4.0467227241
 30
0.0
 10
3.8269691407
 20
4.0463732716
 30
0.0
 10
3.818522495
 20
4.0458443797
 30
0.0
 10
3.8081460736
 20
4.0449942904
 30
0.0
 10
3.803827798
 20
4.0445634145
 30
0.0
 10
3.8018922232
 20
4.0443390217
 30
0.0
 11
3.8330308142
 21
4.0467227241
 31
0.0
 11
3.8148546343
 21
4.0455308729
 31
0.0
 11
3.8077073837
 21
4.0449349473
 31
0.0
 11
3.8018922232
 21
4.0443390217
 31
0.0
  0
LINE
  5
645
100
AcDbEntity
  8
0
100
AcDbLine
 62
7
  6
CONTINUOUS
 10
3.8018922232
 20
4.0443390217
 11
3.7984503622
 21
4.0438963472
  0
SPLINE
  5
646
100
AcDbEntity
  8
0
100
AcDbSpline
 62
7
  6
CONTINUOUS
 70
0
 71
3
 72
14
 73
10
 74
8
 42
0.0000001
 43
0.0000001
 44
0.0000000001
 12
-0.0063727989
 22
-0.0009208693
 32
0.0
 13
-0.0000003333
 23
-0.0064389879
 33
0.0
 40
0.0
 40
0.0
 40
0.0
 40
0.0
 40
0.4148213481
 40
0.5799265334
 40
0.7168224474
 40
0.8257084314
 40
0.9072016756
 40
0.9631492022
 40
1.0
 40
1.0
 40
1.0
 40
1.0
 10
3.7984503622
 20
4.0438963472
 30
0.0
 10
3.7975691712
 20
4.0437690152
 30
0.0
 10
3.7963391328
 20
4.0435746163
 30
0.0
 10
3.7948315957
 20
4.0432656986
 30
0.0
 10
3.793975611
 20
4.043052364
 30
0.0
 10
3.7933042716
 20
4.0428430857
 30
0.0
 10
3.7928183688
 20
4.0426308245
 30
0.0
 10
3.7925005616
 20
4.0424301125
 30
0.0
 10
3.7923914172
 20
4.0422400509
 30
0.0
 10
3.7923914131
 20
4.042160957
 30
0.0
 11
3.7984503622
 21
4.0438963472
 31
0.0
 11
3.7958148023
 21
4.0434624997
 31
0.0
 11
3.7947740586
 21
4.0432455759
 31
0.0
 11
3.793919696
 21
4.0430286521
 31
0.0
 11
3.7932529823
 21
4.0428117283
 31
0.0
 11
3.7927751855
 21
4.0425948045
 31
0.0
 11
3.7924875731
 21
4.0423778807
 31
0.0
 11
3.7923914131
 21
4.042160957
 31
0.0
  0
SPLINE
  5
647
100
AcDbEntity
  8
0
100
AcDbSpline
 62
7
  6
CONTINUOUS
 70
0
 71
3
 72
10
 73
6
 74
4
 42
0.0000001
 43
0.0000001
 44
0.0000000001
 12
0.032442733
 22
0.0040086083
 32
0.0
 13
0.0317030237
 23
0.0079698275
 33
0.0
 40
0.0
 40
0.0
 40
0.0
 40
0.0
 40
0.5775680241
 40
0.808879455
 40
1.0
 40
1.0
 40
1.0
 40
1.0
 10
4.2741171277
 20
4.0340379502
 30
0.0
 10
4.2803630895
 20
4.0348096982
 30
0.0
 10
4.2891002661
 20
4.0359995651
 30
0.0
 10
4.2998280708
 20
4.037915793
 30
0.0
 10
4.3043282379
 20
4.03889396
 30
0.0
 10
4.3063479376
 20
4.0394016926
 30
0.0
 11
4.2741171277
 21
4.0340379502
 31
0.0
 11
4.2928099592
 21
4.0366925217
 31
0.0
 11
4.3002497558
 21
4.0380433872
 31
0.0
 11
4.3063479376
 21
4.0394016926
 31
0.0
  0
SPLINE
  5
648
100
AcDbEntity
  8
0
100
AcDbSpline
 62
7
  6
CONTINUOUS
 70
0
 71
3
 72
15
 73
11
 74
9
 42
0.0000001
 43
0.0000001
 44
0.0000000001
 12
0.0118164506
 22
0.0029705392
 32
0.0
 13
-0.00209244
 23
0.0120030956
 33
0.0
 40
0.0
 40
0.0
 40
0.0
 40
0.0
 40
0.2120070921
 40
0.3971682369
 40
0.5556892723
 40
0.6880262386
 40
0.7951271446
 40
0.8790034814
 40
0.9441259929
 40
1.0
 40
1.0
 40
1.0
 40
1.0
 10
4.3063479376
 20
4.0394016926
 30
0.0
 10
4.3071829947
 20
4.0396116177
 30
0.0
 10
4.3087421012
 20
4.0400266434
 30
0.0
 10
4.3108998182
 20
4.0406905301
 30
0.0
 10
4.3127171569
 20
4.0413534874
 30
0.0
 10
4.3141936351
 20
4.0420153087
 30
0.0
 10
4.315332117
 20
4.0426775732
 30
0.0
 10
4.3161373677
 20
4.043345575
 30
0.0
 10
4.3166188044
 20
4.0440491603
 30
0.0
 10
4.3166726724
 20
4.0445643774
 30
0.0
 10
4.3166337014
 20
4.0447879311
 30
0.0
 11
4.3063479376
 21
4.0394016926
 31
0.0
 11
4.3088426654
 21
4.040071643
 31
0.0
 11
4.3109967593
 21
4.0407421094
 31
0.0
 11
4.3128078209
 21
4.0414133095
 31
0.0
 11
4.3142734518
 21
4.0420854607
 31
0.0
 11
4.3153912537
 21
4.0427587809
 31
0.0
 11
4.3161588281
 21
4.0434334876
 31
0.0
 11
4.3165737769
 21
4.0441097984
 31
0.0
 11
4.3166337014
 21
4.0447879311
 31
0.0
  0
LINE
  5
649
100
AcDbEntity
  8
0
100
AcDbLine
 62
7
  6
CONTINUOUS
 10
4.3166337014
 20
4.0447879311
 11
4.3159959655
 21
4.0458687893
  0
LINE
  5
64A
100
AcDbEntity
  8
0
100
AcDbLine
 62
7
  6
CONTINUOUS
 10
4.2304920914
 20
4.0610979505
 11
4.2249378333
 21
4.0609376996
  0
LINE
  5
64B
100
AcDbEntity
  8
0
100
AcDbLine
 62
7
  6
CONTINUOUS
 10
4.2006268584
 20
4.0602897703
 11
4.1777229314
 21
4.0597358623
  0
LINE
  5
64C
100
AcDbEntity
  8
0
100
AcDbLine
 62
7
  6
CONTINUOUS
 10
4.1777229314
 20
4.0597358623
 11
4.1713741944
 21
4.0595893926
  0
LINE
  5
64D
100
AcDbEntity
  8
0
100
AcDbLine
 62
7
  6
CONTINUOUS
 10
4.1713741944
 20
4.0595893926
 11
4.1537210004
 21
4.0591947739
  0
LINE
  5
64E
100
AcDbEntity
  8
0
100
AcDbLine
 62
7
  6
CONTINUOUS
 10
4.1537210004
 20
4.0591947739
 11
3.9490067854
 21
4.0550779284
  0
LINE
  5
64F
100
AcDbEntity
  8
0
100
AcDbLine
 62
7
  6
CONTINUOUS
 10
3.9490067854
 20
4.0550779284
 11
3.9402279347
 21
4.0548944982
  0
LINE
  5
650
100
AcDbEntity
  8
0
100
AcDbLine
 62
7
  6
CONTINUOUS
 10
3.9402279347
 20
4.0548944982
 11
3.9148967769
 21
4.054348382
  0
LINE
  5
651
100
AcDbEntity
  8
0
100
AcDbLine
 62
7
  6
CONTINUOUS
 10
3.9148967769
 20
4.054348382
 11
3.9002455999
 21
4.0540178747
  0
LINE
  5
652
100
AcDbEntity
  8
0
100
AcDbLine
 62
7
  6
CONTINUOUS
 10
3.9002455999
 20
4.0540178747
 11
3.8935939016
 21
4.0538633263
  0
LINE
  5
653
100
AcDbEntity
  8
0
100
AcDbLine
 62
7
  6
CONTINUOUS
 10
3.8935939016
 20
4.0538633263
 11
3.8816981873
 21
4.0535785182
  0
LINE
  5
654
100
AcDbEntity
  8
0
100
AcDbLine
 62
7
  6
CONTINUOUS
 10
3.8816981873
 20
4.0535785182
 11
3.8696434921
 21
4.0532767143
  0
SPLINE
  5
655
100
AcDbEntity
  8
0
100
AcDbSpline
 62
7
  6
CONTINUOUS
 70
0
 71
3
 72
9
 73
5
 74
3
 42
0.0000001
 43
0.0000001
 44
0.0000000001
 12
-0.0348439809
 22
-0.0011620689
 32
0.0
 13
-0.034797212
 23
-0.0021464954
 33
0.0
 40
0.0
 40
0.0
 40
0.0
 40
0.0
 40
0.5740140054
 40
1.0
 40
1.0
 40
1.0
 40
1.0
 10
3.828229793
 20
4.0520812921
 30
0.0
 10
3.8215628154
 20
4.0518589441
 30
0.0
 10
3.8099494299
 20
4.0514366458
 30
0.0
 10
3.7983402778
 20
4.0508908455
 30
0.0
 10
3.7933992361
 20
4.0505860531
 30
0.0
 11
3.828229793
 21
4.0520812921
 31
0.0
 11
3.8082317184
 21
4.0513334409
 31
0.0
 11
3.7933992361
 21
4.0505860531
 31
0.0
  0
SPLINE
  5
656
100
AcDbEntity
  8
0
100
AcDbSpline
 62
7
  6
CONTINUOUS
 70
0
 71
3
 72
15
 73
11
 74
9
 42
0.0000001
 43
0.0000001
 44
0.0000000001
 12
-0.0102714026
 22
-0.0007150099
 32
0.0
 13
-0.0072805546
 23
-0.0072805546
 33
0.0
 40
0.0
 40
0.0
 40
0.0
 40
0.0
 40
0.4084333147
 40
0.5731182966
 40
0.7113070007
 40
0.822927123
 40
0.9079722417
 40
0.9666222868
 40
0.9863079069
 40
1.0
 40
1.0
 40
1.0
 40
1.0
 10
3.7905604503
 20
4.0504003654
 30
0.0
 10
3.789162056
 20
4.0503030208
 30
0.0
 10
3.7872005353
 20
4.0501542468
 30
0.0
 10
3.7847703024
 20
4.0499207781
 30
0.0
 10
3.7833569504
 20
4.0497594564
 30
0.0
 10
3.782218144
 20
4.0496006241
 30
0.0
 10
3.7813566864
 20
4.0494434541
 30
0.0
 10
3.7808102456
 20
4.0493068947
 30
0.0
 10
3.7805181998
 20
4.049187108
 30
0.0
 10
3.7804191325
 20
4.0491256714
 30
0.0
 10
3.7803859038
 20
4.0490924428
 30
0.0
 11
3.7905604503
 21
4.0504003654
 31
0.0
 11
3.7863680335
 21
4.0500709944
 31
0.0
 11
3.7846803801
 21
4.0499066211
 31
0.0
 11
3.7832670381
 21
4.0497426082
 31
0.0
 11
3.7821294635
 21
4.0495790697
 31
0.0
 11
3.7812691123
 21
4.0494161199
 31
0.0
 11
3.7806874404
 21
4.0492538728
 31
0.0
 11
3.7805015642
 21
4.0491730485
 31
0.0
 11
3.7803859038
 21
4.0490924428
 31
0.0
  0
SPLINE
  5
657
100
AcDbEntity
  8
0
100
AcDbSpline
 62
7
  6
CONTINUOUS
 70
0
 71
3
 72
37
 73
33
 74
31
 42
0.0000001
 43
0.0000001
 44
0.0000000001
 12
1.2581478711
 22
0.8862178033
 32
0.0
 13
1.258245013
 23
-0.8860798765
 33
0.0
 40
0.0
 40
0.0
 40
0.0
 40
0.0
 40
0.0064996839
 40
0.013696651
 40
0.0216052155
 40
0.0302327993
 40
0.0496483875
 40
0.0719055101
 40
0.096904461
 40
0.1245226027
 40
0.1545961019
 40
0.1869403851
 40
0.2213574532
 40
0.257620348
 40
0.3347304806
 40
0.4162422475
 40
0.4999903457
 40
0.5837388078
 40
0.6652516574
 40
0.7423635589
 40
0.778627576
 40
0.8130459176
 40
0.8453916135
 40
0.875466647
 40
0.9030864403
 40
0.9280871336
 40
0.9503460711
 40
0.9697635268
 40
0.9783920466
 40
0.9863015408
 40
0.9934994242
 40
1.0
 40
1.0
 40
1.0
 40
1.0
 10
7.2899363221
 20
7.1044359362
 30
0.0
 10
7.2926621766
 20
7.1063559814
 30
0.0
 10
7.2985855074
 20
7.1101499154
 30
0.0
 10
7.308304443
 20
7.1154892958
 30
0.0
 10
7.3192870926
 20
7.1207554761
 30
0.0
 10
7.3362726613
 20
7.1279531797
 30
0.0
 10
7.360615906
 20
7.1365768146
 30
0.0
 10
7.3934645555
 20
7.1461440014
 30
0.0
 10
7.4307946824
 20
7.1552284929
 30
0.0
 10
7.4723553156
 20
7.1637535321
 30
0.0
 10
7.5178653767
 20
7.1716639768
 30
0.0
 10
7.5670141611
 20
7.1789024388
 30
0.0
 10
7.6194650907
 20
7.1854116713
 30
0.0
 10
7.69487866
 20
7.1932254782
 30
0.0
 10
7.7945895886
 20
7.2007368699
 30
0.0
 10
7.9188199681
 20
7.2061529793
 30
0.0
 10
8.0465605881
 20
7.2079761714
 30
0.0
 10
8.1743017802
 20
7.2061541582
 30
0.0
 10
8.2985338601
 20
7.2007391948
 30
0.0
 10
8.3982469018
 20
7.1932287374
 30
0.0
 10
8.473662693
 20
7.1854156509
 30
0.0
 10
8.5261156512
 20
7.1789069047
 30
0.0
 10
8.5752666907
 20
7.1716689
 30
0.0
 10
8.6207792174
 20
7.1637588708
 30
0.0
 10
8.6623425088
 20
7.1552342153
 30
0.0
 10
8.6996754659
 20
7.1461500625
 30
0.0
 10
8.7325270951
 20
7.1365831642
 30
0.0
 10
8.7568729334
 20
7.1279597765
 30
0.0
 10
8.7738606596
 20
7.12076226
 30
0.0
 10
8.7848449383
 20
7.1154961811
 30
0.0
 10
8.7945655237
 20
7.1101568915
 30
0.0
 10
8.8004899998
 20
7.1063630324
 30
0.0
 10
8.8032164389
 20
7.1044430226
 30
0.0
 11
7.2899363221
 21
7.1044359362
 31
0.0
 11
7.2983375523
 21
7.1098646595
 31
0.0
 11
7.308028619
 21
7.1152268814
 31
0.0
 11
7.3189910446
 21
7.1205139039
 31
0.0
 11
7.3312063513
 21
7.1257170294
 31
0.0
 11
7.3593197331
 21
7.1358368582
 31
0.0
 11
7.3921752986
 21
7.1455181832
 31
0.0
 11
7.4295367296
 21
7.1546941314
 31
0.0
 11
7.4711590751
 21
7.1632989433
 31
0.0
 11
7.5167478144
 21
7.1712745349
 31
0.0
 11
7.5659865564
 21
7.1785662099
 31
0.0
 11
7.6185448376
 21
7.1851222527
 31
0.0
 11
7.6740511802
 21
7.1908996535
 31
0.0
 11
7.7923721949
 21
7.1999600983
 31
0.0
 11
7.9176910862
 21
7.2054989491
 31
0.0
 11
8.0465604043
 21
7.2073631818
 31
0.0
 11
8.1754302997
 21
7.2055001549
 31
0.0
 11
8.3007509108
 21
7.1999624781
 31
0.0
 11
8.4190747406
 21
7.1909031415
 31
0.0
 11
8.4745828736
 21
7.1851262596
 31
0.0
 11
8.5271431912
 21
7.1785707086
 31
0.0
 11
8.5763841992
 21
7.1712794953
 31
0.0
 11
8.6219754102
 21
7.1633043298
 31
0.0
 11
8.6636004318
 21
7.1546999085
 31
0.0
 11
8.70096471
 21
7.1455243099
 31
0.0
 11
8.7338232773
 21
7.1358432913
 31
0.0
 11
8.7619398083
 21
7.1257237253
 31
0.0
 11
8.7741567294
 21
7.1205207143
 31
0.0
 11
8.7851207933
 21
7.1152337951
 31
0.0
 11
8.7948135223
 21
7.1098716652
 31
0.0
 11
8.8032164389
 21
7.1044430226
 31
0.0
  0
LINE
  5
658
100
AcDbEntity
  8
0
100
AcDbLine
 62
7
  6
CONTINUOUS
 10
8.7232606167
 20
6.8075356958
 11
8.7258972739
 21
6.8047999414
  0
SPLINE
  5
659
100
AcDbEntity
  8
0
100
AcDbSpline
 62
7
  6
CONTINUOUS
 70
0
 71
3
 72
11
 73
7
 74
5
 42
0.0000001
 43
0.0000001
 44
0.0000000001
 12
0.0136955713
 22
-0.0152969225
 32
0.0
 13
0.0
 23
-0.0205320363
 33
0.0
 40
0.0
 40
0.0
 40
0.0
 40
0.0
 40
0.2825343711
 40
0.538375509
 40
0.7745328156
 40
1.0
 40
1.0
 40
1.0
 40
1.0
 10
8.7258972739
 20
6.8047999414
 30
0.0
 10
8.7271870971
 20
6.803359306
 30
0.0
 10
8.729486952
 20
6.8004631568
 30
0.0
 10
8.7321176788
 20
6.7958319824
 30
0.0
 10
8.7337183638
 20
6.7911562029
 30
0.0
 10
8.7340814113
 20
6.787986802
 30
0.0
 10
8.7340814113
 20
6.7864437018
 30
0.0
 11
8.7258972739
 21
6.8047999414
 31
0.0
 11
8.7294711982
 21
6.8002306159
 31
0.0
 11
8.7320294784
 21
6.7956427433
 31
0.0
 11
8.7335676907
 21
6.7910444098
 31
0.0
 11
8.7340814113
 21
6.7864437018
 31
0.0
  0
ENDSEC
  0
SECTION
  2
OBJECTS
  0
DICTIONARY
  5
C
100
AcDbDictionary
280
0
281
1
  3
ACAD_GROUP
350
D
  3
ACAD_MLINESTYLE
350
17
  3
ACAD_LAYOUT
350
1A
  3
ACAD_PLOTSETTINGS
350
19
  3
ACAD_PLOTSTYLENAME
350
E
  0
DICTIONARY
  5
D
102
{ACAD_REACTORS
330
C
102
}
100
AcDbDictionary
280
0
281
1
  0
ACDBDICTIONARYWDFLT
  5
E
102
{ACAD_REACTORS
330
C
102
}
100
AcDbDictionary
281
1
  3
Normal
350
F
100
AcDbDictionaryWithDefault
340
F
  0
DICTIONARY
  5
17
102
{ACAD_REACTORS
330
C
102
}
100
AcDbDictionary
280
0
281
1
  3
Standard
350
18
  0
DICTIONARY
  5
19
102
{ACAD_REACTORS
330
C
102
}
100
AcDbDictionary
281
1
  0
DICTIONARY
  5
1A
102
{ACAD_REACTORS
330
C
102
}
100
AcDbDictionary
281
1
  3
Model
350
65A
  3
Layout1
350
65B
  0
ACDBPLACEHOLDER
  5
F
102
{ACAD_REACTORS
330
E
102
}
  0
MLINESTYLE
  5
18
102
{ACAD_REACTORS
330
17
102
}
100
AcDbMlineStyle
  2
STANDARD
 70
0
  3

 62
256
 51
90.0
 52
90.0
 71
2
 49
0.5
 62
256
  6
BYLAYER
 49
-0.5
 62
256
  6
BYLAYER
  0
LAYOUT
  5
65A
102
{ACAD_REACTORS
330
1A
102
}
100
AcDbPlotSettings
  1

  2
none_device
  4
ISO_A3_(420.00_x_297.00_MM)
  6

 40
0.0
 41
0.0
 42
0.0
 43
0.0
 44
420.0
 45
297.0
 46
0.0
 47
0.0
 48
0.0
 49
0.0
140
0.0
141
0.0
142
1.0
143
1.0
 70
1024
 72
0
 73
0
 74
0
  7

 75
0
147
1.0
148
0.0
149
0.0
100
AcDbLayout
  1
Model
 70
0
 71
0
 10
0.0
 20
0.0
 11
16.5354330709
 21
11.6929133858
 12
0.0
 22
0.0
 32
0.0
 14
0.0
 24
0.0
 34
0.0
 15
0.0
 25
0.0
 35
0.0
146
0.0
 13
0.0
 23
0.0
 33
0.0
 16
1.0
 26
0.0
 36
0.0
 17
0.0
 27
1.0
 37
0.0
 76
0
330
244
345
0
346
0
  0
LAYOUT
  5
65B
102
{ACAD_REACTORS
330
1A
102
}
100
AcDbPlotSettings
  1

  2
none_device
  4
ISO_A3_(420.00_x_297.00_MM)
  6

 40
0.0
 41
0.0
 42
0.0
 43
0.0
 44
420.0
 45
297.0
 46
0.0
 47
0.0
 48
0.0
 49
0.0
140
0.0
141
0.0
142
1.0
143
1.0
 70
0
 72
0
 73
0
 74
0
  7

 75
0
147
1.0
148
0.0
149
0.0
100
AcDbLayout
  1
Layout1
 70
0
 71
1
 10
0.0
 20
0.0
 11
16.5354330709
 21
11.6929133858
 12
0.0
 22
0.0
 32
0.0
 14
0.0
 24
0.0
 34
0.0
 15
0.0
 25
0.0
 35
0.0
146
0.0
 13
0.0
 23
0.0
 33
0.0
 16
1.0
 26
0.0
 36
0.0
 17
0.0
 27
1.0
 37
0.0
 76
0
330
245
345
0
346
0
  0
ENDSEC
  0
EOF
